999
********************************
999
*   DXF File - Entities Only   *
999
*        3D Data Format        *
999
*     Output from ENVISAGE     *
999
*     02-Jan-2008 11:20:43     *
999
********************************
  0
SECTION 
  2
HEADER
  9
$ACADVER
  1
AC1009
  9
$EXTMIN
 10
-290000.000
 20
-250000.000
 30
-4000.000
  9
$EXTMAX
 10
320000.000
 20
160000.000
 30
6000.000
  0
ENDSEC
  0
SECTION
  2
ENTITIES
  0
POLYLINE
  8
W69XLIFTS
 62
2
 66
     1
 70
     9
  0
VERTEX
  8
W69XLIFTS
 62
2
 10
1858.794
 20
-6532.942
 30
-1621.126
 70
    32
  0
VERTEX
  8
W69XLIFTS
 62
2
 10
1859.406
 20
-6526.730
 30
-1621.126
 70
    32
  0
VERTEX
  8
W69XLIFTS
 62
2
 10
1862.286
 20
-6525.808
 30
-1621.126
 70
    32
  0
VERTEX
  8
W69XLIFTS
 62
2
 10
1874.774
 20
-6538.650
 30
-1621.126
 70
    32
  0
VERTEX
  8
W69XLIFTS
 62
2
 10
1881.535
 20
-6553.519
 30
-1621.126
 70
    32
  0
VERTEX
  8
W69XLIFTS
 62
2
 10
1884.163
 20
-6574.627
 30
-1621.126
 70
    32
  0
VERTEX
  8
W69XLIFTS
 62
2
 10
1894.080
 20
-6580.573
 30
-1621.126
 70
    32
  0
VERTEX
  8
W69XLIFTS
 62
2
 10
1896.850
 20
-6585.896
 30
-1621.126
 70
    32
  0
VERTEX
  8
W69XLIFTS
 62
2
 10
1905.720
 20
-6581.280
 30
-1621.126
 70
    32
  0
VERTEX
  8
W69XLIFTS
 62
2
 10
1905.901
 20
-6572.729
 30
-1621.126
 70
    32
  0
VERTEX
  8
W69XLIFTS
 62
2
 10
1911.719
 20
-6568.836
 30
-1621.126
 70
    32
  0
VERTEX
  8
W69XLIFTS
 62
2
 10
1904.581
 20
-6554.869
 30
-1621.126
 70
    32
  0
VERTEX
  8
W69XLIFTS
 62
2
 10
1902.081
 20
-6541.910
 30
-1621.126
 70
    32
  0
VERTEX
  8
W69XLIFTS
 62
2
 10
1888.559
 20
-6521.789
 30
-1621.126
 70
    32
  0
VERTEX
  8
W69XLIFTS
 62
2
 10
1876.411
 20
-6496.857
 30
-1621.126
 70
    32
  0
VERTEX
  8
W69XLIFTS
 62
2
 10
1868.112
 20
-6473.103
 30
-1621.126
 70
    32
  0
VERTEX
  8
W69XLIFTS
 62
2
 10
1860.872
 20
-6458.612
 30
-1621.126
 70
    32
  0
VERTEX
  8
W69XLIFTS
 62
2
 10
1858.049
 20
-6449.777
 30
-1621.126
 70
    32
  0
VERTEX
  8
W69XLIFTS
 62
2
 10
1850.406
 20
-6411.220
 30
-1621.126
 70
    32
  0
VERTEX
  8
W69XLIFTS
 62
2
 10
1843.383
 20
-6399.020
 30
-1621.126
 70
    32
  0
VERTEX
  8
W69XLIFTS
 62
2
 10
1838.917
 20
-6364.265
 30
-1621.126
 70
    32
  0
VERTEX
  8
W69XLIFTS
 62
2
 10
1826.596
 20
-6366.373
 30
-1621.126
 70
    32
  0
VERTEX
  8
W69XLIFTS
 62
2
 10
1832.487
 20
-6402.349
 30
-1621.126
 70
    32
  0
VERTEX
  8
W69XLIFTS
 62
2
 10
1825.727
 20
-6404.166
 30
-1621.126
 70
    32
  0
VERTEX
  8
W69XLIFTS
 62
2
 10
1822.047
 20
-6402.541
 30
-1621.126
 70
    32
  0
VERTEX
  8
W69XLIFTS
 62
2
 10
1813.374
 20
-6407.906
 30
-1621.126
 70
    32
  0
VERTEX
  8
W69XLIFTS
 62
2
 10
1817.696
 20
-6421.919
 30
-1621.126
 70
    32
  0
VERTEX
  8
W69XLIFTS
 62
2
 10
1809.043
 20
-6431.821
 30
-1621.126
 70
    32
  0
VERTEX
  8
W69XLIFTS
 62
2
 10
1808.919
 20
-6445.623
 30
-1621.126
 70
    32
  0
VERTEX
  8
W69XLIFTS
 62
2
 10
1812.365
 20
-6462.773
 30
-1621.126
 70
    32
  0
VERTEX
  8
W69XLIFTS
 62
2
 10
1818.466
 20
-6478.120
 30
-1621.126
 70
    32
  0
VERTEX
  8
W69XLIFTS
 62
2
 10
1825.850
 20
-6491.749
 30
-1621.126
 70
    32
  0
VERTEX
  8
W69XLIFTS
 62
2
 10
1838.370
 20
-6508.618
 30
-1621.126
 70
    32
  0
VERTEX
  8
W69XLIFTS
 62
2
 10
1846.840
 20
-6529.725
 30
-1621.126
 70
    32
  0
SEQEND
  8
W69XLIFTS
  0
POLYLINE
  8
W69XLIFTS
 62
7
 66
     1
 70
     9
  0
VERTEX
  8
W69XLIFTS
 62
7
 10
1483.384
 20
-6715.889
 30
-1572.806
 70
    32
  0
VERTEX
  8
W69XLIFTS
 62
7
 10
1486.657
 20
-6713.639
 30
-1572.711
 70
    32
  0
VERTEX
  8
W69XLIFTS
 62
7
 10
1493.747
 20
-6708.763
 30
-1572.360
 70
    32
  0
VERTEX
  8
W69XLIFTS
 62
7
 10
1497.376
 20
-6703.629
 30
-1572.237
 70
    32
  0
VERTEX
  8
W69XLIFTS
 62
7
 10
1500.770
 20
-6703.108
 30
-1572.030
 70
    32
  0
VERTEX
  8
W69XLIFTS
 62
7
 10
1503.141
 20
-6702.744
 30
-1572.030
 70
    32
  0
VERTEX
  8
W69XLIFTS
 62
7
 10
1513.406
 20
-6710.586
 30
-1572.030
 70
    32
  0
VERTEX
  8
W69XLIFTS
 62
7
 10
1522.384
 20
-6717.445
 30
-1572.030
 70
    32
  0
VERTEX
  8
W69XLIFTS
 62
7
 10
1531.957
 20
-6724.758
 30
-1572.030
 70
    32
  0
VERTEX
  8
W69XLIFTS
 62
7
 10
1540.826
 20
-6732.131
 30
-1572.030
 70
    32
  0
VERTEX
  8
W69XLIFTS
 62
7
 10
1540.537
 20
-6740.776
 30
-1572.030
 70
    32
  0
VERTEX
  8
W69XLIFTS
 62
7
 10
1539.367
 20
-6741.251
 30
-1572.030
 70
    32
  0
VERTEX
  8
W69XLIFTS
 62
7
 10
1535.851
 20
-6742.674
 30
-1572.030
 70
    32
  0
VERTEX
  8
W69XLIFTS
 62
7
 10
1534.332
 20
-6743.289
 30
-1572.030
 70
    32
  0
VERTEX
  8
W69XLIFTS
 62
7
 10
1532.795
 20
-6747.051
 30
-1572.030
 70
    32
  0
VERTEX
  8
W69XLIFTS
 62
7
 10
1530.292
 20
-6753.177
 30
-1572.030
 70
    32
  0
VERTEX
  8
W69XLIFTS
 62
7
 10
1522.248
 20
-6755.256
 30
-1572.030
 70
    32
  0
VERTEX
  8
W69XLIFTS
 62
7
 10
1519.875
 20
-6757.929
 30
-1572.030
 70
    32
  0
VERTEX
  8
W69XLIFTS
 62
7
 10
1519.307
 20
-6767.742
 30
-1572.030
 70
    32
  0
VERTEX
  8
W69XLIFTS
 62
7
 10
1516.560
 20
-6767.851
 30
-1572.030
 70
    32
  0
VERTEX
  8
W69XLIFTS
 62
7
 10
1515.100
 20
-6767.910
 30
-1572.030
 70
    32
  0
VERTEX
  8
W69XLIFTS
 62
7
 10
1511.279
 20
-6765.854
 30
-1572.030
 70
    32
  0
VERTEX
  8
W69XLIFTS
 62
7
 10
1510.689
 20
-6763.799
 30
-1572.030
 70
    32
  0
VERTEX
  8
W69XLIFTS
 62
7
 10
1509.503
 20
-6759.661
 30
-1572.030
 70
    32
  0
VERTEX
  8
W69XLIFTS
 62
7
 10
1503.425
 20
-6753.855
 30
-1572.030
 70
    32
  0
VERTEX
  8
W69XLIFTS
 62
7
 10
1503.313
 20
-6753.748
 30
-1572.030
 70
    32
  0
VERTEX
  8
W69XLIFTS
 62
7
 10
1496.369
 20
-6745.965
 30
-1572.030
 70
    32
  0
VERTEX
  8
W69XLIFTS
 62
7
 10
1492.285
 20
-6741.388
 30
-1572.030
 70
    32
  0
VERTEX
  8
W69XLIFTS
 62
7
 10
1492.271
 20
-6735.385
 30
-1572.030
 70
    32
  0
VERTEX
  8
W69XLIFTS
 62
7
 10
1489.529
 20
-6732.442
 30
-1572.030
 70
    32
  0
VERTEX
  8
W69XLIFTS
 62
7
 10
1487.502
 20
-6730.266
 30
-1572.192
 70
    32
  0
SEQEND
  8
W69XLIFTS
  0
POLYLINE
  8
W69XLIFTS
 62
6
 66
     1
 70
     9
  0
VERTEX
  8
W69XLIFTS
 62
6
 10
1562.478
 20
-6934.255
 30
-1629.799
 70
    32
  0
VERTEX
  8
W69XLIFTS
 62
6
 10
1588.735
 20
-6919.688
 30
-1636.507
 70
    32
  0
VERTEX
  8
W69XLIFTS
 62
6
 10
1598.610
 20
-6923.225
 30
-1636.933
 70
    32
  0
VERTEX
  8
W69XLIFTS
 62
6
 10
1624.553
 20
-6944.597
 30
-1637.008
 70
    32
  0
VERTEX
  8
W69XLIFTS
 62
6
 10
1628.065
 20
-6950.181
 30
-1636.564
 70
    32
  0
VERTEX
  8
W69XLIFTS
 62
6
 10
1633.337
 20
-6953.216
 30
-1636.800
 70
    32
  0
VERTEX
  8
W69XLIFTS
 62
6
 10
1641.710
 20
-6950.882
 30
-1638.381
 70
    32
  0
VERTEX
  8
W69XLIFTS
 62
6
 10
1648.996
 20
-6941.543
 30
-1640.990
 70
    32
  0
VERTEX
  8
W69XLIFTS
 62
6
 10
1644.577
 20
-6934.626
 30
-1641.530
 70
    32
  0
VERTEX
  8
W69XLIFTS
 62
6
 10
1627.385
 20
-6920.333
 30
-1641.502
 70
    32
  0
VERTEX
  8
W69XLIFTS
 62
6
 10
1615.562
 20
-6913.923
 30
-1640.906
 70
    32
  0
VERTEX
  8
W69XLIFTS
 62
6
 10
1607.948
 20
-6907.545
 30
-1640.902
 70
    32
  0
VERTEX
  8
W69XLIFTS
 62
6
 10
1603.440
 20
-6905.892
 30
-1641.006
 70
    32
  0
VERTEX
  8
W69XLIFTS
 62
6
 10
1604.136
 20
-6894.734
 30
-1642.792
 70
    32
  0
VERTEX
  8
W69XLIFTS
 62
6
 10
1604.791
 20
-6884.220
 30
-1642.657
 70
    32
  0
VERTEX
  8
W69XLIFTS
 62
6
 10
1613.555
 20
-6870.437
 30
-1642.657
 70
    32
  0
VERTEX
  8
W69XLIFTS
 62
6
 10
1611.193
 20
-6862.992
 30
-1642.657
 70
    32
  0
VERTEX
  8
W69XLIFTS
 62
6
 10
1601.537
 20
-6859.088
 30
-1642.657
 70
    32
  0
VERTEX
  8
W69XLIFTS
 62
6
 10
1597.495
 20
-6860.486
 30
-1642.657
 70
    32
  0
VERTEX
  8
W69XLIFTS
 62
6
 10
1589.243
 20
-6871.204
 30
-1642.657
 70
    32
  0
VERTEX
  8
W69XLIFTS
 62
6
 10
1584.050
 20
-6871.847
 30
-1642.657
 70
    32
  0
VERTEX
  8
W69XLIFTS
 62
6
 10
1582.714
 20
-6876.551
 30
-1642.657
 70
    32
  0
VERTEX
  8
W69XLIFTS
 62
6
 10
1579.794
 20
-6886.830
 30
-1640.735
 70
    32
  0
VERTEX
  8
W69XLIFTS
 62
6
 10
1572.028
 20
-6889.689
 30
-1638.984
 70
    32
  0
VERTEX
  8
W69XLIFTS
 62
6
 10
1565.333
 20
-6879.470
 30
-1639.759
 70
    32
  0
VERTEX
  8
W69XLIFTS
 62
6
 10
1559.944
 20
-6883.474
 30
-1638.297
 70
    32
  0
VERTEX
  8
W69XLIFTS
 62
6
 10
1564.591
 20
-6903.562
 30
-1635.152
 70
    32
  0
VERTEX
  8
W69XLIFTS
 62
6
 10
1565.577
 20
-6912.409
 30
-1633.718
 70
    32
  0
VERTEX
  8
W69XLIFTS
 62
6
 10
1562.245
 20
-6922.932
 30
-1631.550
 70
    32
  0
SEQEND
  8
W69XLIFTS
  0
POLYLINE
  8
W69XLIFTS
 62
7
 66
     1
 70
     9
  0
VERTEX
  8
W69XLIFTS
 62
7
 10
1172.075
 20
-5562.960
 30
-1581.941
 70
    32
  0
VERTEX
  8
W69XLIFTS
 62
7
 10
1175.759
 20
-5563.855
 30
-1581.900
 70
    32
  0
VERTEX
  8
W69XLIFTS
 62
7
 10
1177.790
 20
-5564.349
 30
-1581.874
 70
    32
  0
VERTEX
  8
W69XLIFTS
 62
7
 10
1185.151
 20
-5566.139
 30
-1581.422
 70
    32
  0
VERTEX
  8
W69XLIFTS
 62
7
 10
1191.587
 20
-5570.548
 30
-1580.907
 70
    32
  0
VERTEX
  8
W69XLIFTS
 62
7
 10
1198.910
 20
-5568.906
 30
-1580.603
 70
    32
  0
VERTEX
  8
W69XLIFTS
 62
7
 10
1201.301
 20
-5570.876
 30
-1580.397
 70
    32
  0
VERTEX
  8
W69XLIFTS
 62
7
 10
1202.749
 20
-5572.069
 30
-1580.411
 70
    32
  0
VERTEX
  8
W69XLIFTS
 62
7
 10
1205.631
 20
-5574.443
 30
-1580.369
 70
    32
  0
VERTEX
  8
W69XLIFTS
 62
7
 10
1206.199
 20
-5574.911
 30
-1580.132
 70
    32
  0
VERTEX
  8
W69XLIFTS
 62
7
 10
1207.096
 20
-5576.661
 30
-1579.358
 70
    32
  0
VERTEX
  8
W69XLIFTS
 62
7
 10
1218.820
 20
-5599.551
 30
-1567.796
 70
    32
  0
VERTEX
  8
W69XLIFTS
 62
7
 10
1216.818
 20
-5608.328
 30
-1563.920
 70
    32
  0
VERTEX
  8
W69XLIFTS
 62
7
 10
1216.742
 20
-5608.661
 30
-1563.763
 70
    32
  0
VERTEX
  8
W69XLIFTS
 62
7
 10
1217.824
 20
-5611.240
 30
-1562.200
 70
    32
  0
VERTEX
  8
W69XLIFTS
 62
7
 10
1219.108
 20
-5614.300
 30
-1562.200
 70
    32
  0
VERTEX
  8
W69XLIFTS
 62
7
 10
1220.046
 20
-5616.537
 30
-1562.200
 70
    32
  0
VERTEX
  8
W69XLIFTS
 62
7
 10
1217.664
 20
-5629.499
 30
-1562.200
 70
    32
  0
VERTEX
  8
W69XLIFTS
 62
7
 10
1216.679
 20
-5634.857
 30
-1562.200
 70
    32
  0
VERTEX
  8
W69XLIFTS
 62
7
 10
1216.678
 20
-5634.886
 30
-1562.200
 70
    32
  0
VERTEX
  8
W69XLIFTS
 62
7
 10
1216.191
 20
-5643.465
 30
-1562.200
 70
    32
  0
VERTEX
  8
W69XLIFTS
 62
7
 10
1216.619
 20
-5657.701
 30
-1562.200
 70
    32
  0
VERTEX
  8
W69XLIFTS
 62
7
 10
1216.710
 20
-5660.704
 30
-1562.200
 70
    32
  0
VERTEX
  8
W69XLIFTS
 62
7
 10
1219.696
 20
-5672.004
 30
-1562.200
 70
    32
  0
VERTEX
  8
W69XLIFTS
 62
7
 10
1223.671
 20
-5684.934
 30
-1562.200
 70
    32
  0
VERTEX
  8
W69XLIFTS
 62
7
 10
1223.960
 20
-5685.874
 30
-1562.200
 70
    32
  0
VERTEX
  8
W69XLIFTS
 62
7
 10
1228.150
 20
-5687.627
 30
-1562.200
 70
    32
  0
VERTEX
  8
W69XLIFTS
 62
7
 10
1230.073
 20
-5688.432
 30
-1562.200
 70
    32
  0
VERTEX
  8
W69XLIFTS
 62
7
 10
1239.836
 20
-5688.147
 30
-1562.200
 70
    32
  0
VERTEX
  8
W69XLIFTS
 62
7
 10
1241.687
 20
-5682.286
 30
-1562.200
 70
    32
  0
VERTEX
  8
W69XLIFTS
 62
7
 10
1241.658
 20
-5682.209
 30
-1562.200
 70
    32
  0
VERTEX
  8
W69XLIFTS
 62
7
 10
1234.820
 20
-5663.923
 30
-1562.200
 70
    32
  0
VERTEX
  8
W69XLIFTS
 62
7
 10
1234.180
 20
-5662.211
 30
-1562.200
 70
    32
  0
VERTEX
  8
W69XLIFTS
 62
7
 10
1234.062
 20
-5659.542
 30
-1562.200
 70
    32
  0
VERTEX
  8
W69XLIFTS
 62
7
 10
1233.909
 20
-5656.072
 30
-1562.200
 70
    32
  0
VERTEX
  8
W69XLIFTS
 62
7
 10
1233.662
 20
-5650.511
 30
-1562.200
 70
    32
  0
VERTEX
  8
W69XLIFTS
 62
7
 10
1235.687
 20
-5628.125
 30
-1562.200
 70
    32
  0
VERTEX
  8
W69XLIFTS
 62
7
 10
1236.184
 20
-5624.134
 30
-1562.200
 70
    32
  0
VERTEX
  8
W69XLIFTS
 62
7
 10
1236.405
 20
-5622.357
 30
-1562.200
 70
    32
  0
VERTEX
  8
W69XLIFTS
 62
7
 10
1236.593
 20
-5620.843
 30
-1562.200
 70
    32
  0
VERTEX
  8
W69XLIFTS
 62
7
 10
1236.187
 20
-5619.289
 30
-1562.200
 70
    32
  0
VERTEX
  8
W69XLIFTS
 62
7
 10
1232.531
 20
-5605.306
 30
-1562.200
 70
    32
  0
VERTEX
  8
W69XLIFTS
 62
7
 10
1232.421
 20
-5605.092
 30
-1562.200
 70
    32
  0
VERTEX
  8
W69XLIFTS
 62
7
 10
1229.008
 20
-5598.446
 30
-1566.450
 70
    32
  0
VERTEX
  8
W69XLIFTS
 62
7
 10
1224.830
 20
-5590.312
 30
-1571.543
 70
    32
  0
VERTEX
  8
W69XLIFTS
 62
7
 10
1218.455
 20
-5577.900
 30
-1577.814
 70
    32
  0
VERTEX
  8
W69XLIFTS
 62
7
 10
1217.316
 20
-5575.684
 30
-1578.794
 70
    32
  0
VERTEX
  8
W69XLIFTS
 62
7
 10
1216.888
 20
-5570.780
 30
-1580.769
 70
    32
  0
VERTEX
  8
W69XLIFTS
 62
7
 10
1216.854
 20
-5570.398
 30
-1580.785
 70
    32
  0
VERTEX
  8
W69XLIFTS
 62
7
 10
1217.940
 20
-5570.437
 30
-1580.806
 70
    32
  0
VERTEX
  8
W69XLIFTS
 62
7
 10
1219.715
 20
-5570.502
 30
-1580.616
 70
    32
  0
VERTEX
  8
W69XLIFTS
 62
7
 10
1228.769
 20
-5570.442
 30
-1579.798
 70
    32
  0
VERTEX
  8
W69XLIFTS
 62
7
 10
1229.993
 20
-5570.434
 30
-1579.793
 70
    32
  0
VERTEX
  8
W69XLIFTS
 62
7
 10
1232.969
 20
-5572.793
 30
-1578.819
 70
    32
  0
VERTEX
  8
W69XLIFTS
 62
7
 10
1237.834
 20
-5576.650
 30
-1578.240
 70
    32
  0
VERTEX
  8
W69XLIFTS
 62
7
 10
1243.679
 20
-5581.284
 30
-1577.147
 70
    32
  0
VERTEX
  8
W69XLIFTS
 62
7
 10
1245.691
 20
-5582.026
 30
-1577.000
 70
    32
  0
VERTEX
  8
W69XLIFTS
 62
7
 10
1258.836
 20
-5586.872
 30
-1577.248
 70
    32
  0
VERTEX
  8
W69XLIFTS
 62
7
 10
1259.807
 20
-5586.094
 30
-1577.431
 70
    32
  0
VERTEX
  8
W69XLIFTS
 62
7
 10
1262.738
 20
-5583.747
 30
-1577.980
 70
    32
  0
VERTEX
  8
W69XLIFTS
 62
7
 10
1262.060
 20
-5580.593
 30
-1578.386
 70
    32
  0
VERTEX
  8
W69XLIFTS
 62
7
 10
1261.329
 20
-5577.188
 30
-1578.825
 70
    32
  0
VERTEX
  8
W69XLIFTS
 62
7
 10
1260.875
 20
-5576.387
 30
-1578.907
 70
    32
  0
VERTEX
  8
W69XLIFTS
 62
7
 10
1259.714
 20
-5574.335
 30
-1579.428
 70
    32
  0
VERTEX
  8
W69XLIFTS
 62
7
 10
1258.366
 20
-5571.954
 30
-1579.696
 70
    32
  0
VERTEX
  8
W69XLIFTS
 62
7
 10
1252.268
 20
-5553.518
 30
-1581.766
 70
    32
  0
VERTEX
  8
W69XLIFTS
 62
7
 10
1249.817
 20
-5553.907
 30
-1581.724
 70
    32
  0
VERTEX
  8
W69XLIFTS
 62
7
 10
1239.957
 20
-5555.474
 30
-1579.927
 70
    32
  0
VERTEX
  8
W69XLIFTS
 62
7
 10
1232.176
 20
-5556.711
 30
-1581.197
 70
    32
  0
VERTEX
  8
W69XLIFTS
 62
7
 10
1231.286
 20
-5556.852
 30
-1581.344
 70
    32
  0
VERTEX
  8
W69XLIFTS
 62
7
 10
1218.765
 20
-5558.842
 30
-1581.327
 70
    32
  0
VERTEX
  8
W69XLIFTS
 62
7
 10
1217.621
 20
-5559.024
 30
-1581.295
 70
    32
  0
VERTEX
  8
W69XLIFTS
 62
7
 10
1211.409
 20
-5558.583
 30
-1581.181
 70
    32
  0
VERTEX
  8
W69XLIFTS
 62
7
 10
1209.225
 20
-5558.814
 30
-1581.125
 70
    32
  0
VERTEX
  8
W69XLIFTS
 62
7
 10
1209.151
 20
-5558.571
 30
-1581.134
 70
    32
  0
VERTEX
  8
W69XLIFTS
 62
7
 10
1207.176
 20
-5552.070
 30
-1581.287
 70
    32
  0
VERTEX
  8
W69XLIFTS
 62
7
 10
1203.306
 20
-5545.829
 30
-1581.360
 70
    32
  0
VERTEX
  8
W69XLIFTS
 62
7
 10
1201.313
 20
-5542.616
 30
-1581.598
 70
    32
  0
VERTEX
  8
W69XLIFTS
 62
7
 10
1200.404
 20
-5541.149
 30
-1581.611
 70
    32
  0
VERTEX
  8
W69XLIFTS
 62
7
 10
1194.309
 20
-5537.448
 30
-1581.694
 70
    32
  0
VERTEX
  8
W69XLIFTS
 62
7
 10
1190.812
 20
-5538.476
 30
-1581.737
 70
    32
  0
VERTEX
  8
W69XLIFTS
 62
7
 10
1186.359
 20
-5539.784
 30
-1581.786
 70
    32
  0
VERTEX
  8
W69XLIFTS
 62
7
 10
1179.808
 20
-5542.669
 30
-1581.857
 70
    32
  0
VERTEX
  8
W69XLIFTS
 62
7
 10
1175.030
 20
-5549.773
 30
-1581.909
 70
    32
  0
SEQEND
  8
W69XLIFTS
  0
POLYLINE
  8
W69XLIFTS
 62
4
 66
     1
 70
     8
  0
VERTEX
  8
W69XLIFTS
 62
4
 10
1313.197
 20
-5825.521
 30
-1559.828
 70
    32
  0
VERTEX
  8
W69XLIFTS
 62
4
 10
1312.937
 20
-5823.612
 30
-1559.732
 70
    32
  0
VERTEX
  8
W69XLIFTS
 62
4
 10
1312.685
 20
-5821.770
 30
-1559.775
 70
    32
  0
VERTEX
  8
W69XLIFTS
 62
4
 10
1310.472
 20
-5819.305
 30
-1559.532
 70
    32
  0
VERTEX
  8
W69XLIFTS
 62
4
 10
1307.493
 20
-5815.987
 30
-1558.737
 70
    32
  0
VERTEX
  8
W69XLIFTS
 62
4
 10
1306.549
 20
-5814.935
 30
-1558.532
 70
    32
  0
VERTEX
  8
W69XLIFTS
 62
4
 10
1300.072
 20
-5814.845
 30
-1557.368
 70
    32
  0
VERTEX
  8
W69XLIFTS
 62
4
 10
1292.569
 20
-5814.741
 30
-1555.990
 70
    32
  0
VERTEX
  8
W69XLIFTS
 62
4
 10
1287.507
 20
-5814.670
 30
-1555.990
 70
    32
  0
VERTEX
  8
W69XLIFTS
 62
4
 10
1281.061
 20
-5815.399
 30
-1555.990
 70
    32
  0
VERTEX
  8
W69XLIFTS
 62
4
 10
1272.766
 20
-5813.404
 30
-1555.990
 70
    32
  0
VERTEX
  8
W69XLIFTS
 62
4
 10
1269.553
 20
-5812.631
 30
-1555.990
 70
    32
  0
VERTEX
  8
W69XLIFTS
 62
4
 10
1268.905
 20
-5812.475
 30
-1555.990
 70
    32
  0
VERTEX
  8
W69XLIFTS
 62
4
 10
1268.039
 20
-5801.791
 30
-1555.990
 70
    32
  0
VERTEX
  8
W69XLIFTS
 62
4
 10
1257.361
 20
-5777.669
 30
-1555.990
 70
    32
  0
VERTEX
  8
W69XLIFTS
 62
4
 10
1256.485
 20
-5775.689
 30
-1555.990
 70
    32
  0
VERTEX
  8
W69XLIFTS
 62
4
 10
1256.008
 20
-5775.082
 30
-1555.990
 70
    32
  0
VERTEX
  8
W69XLIFTS
 62
4
 10
1235.390
 20
-5748.854
 30
-1555.990
 70
    32
  0
VERTEX
  8
W69XLIFTS
 62
4
 10
1232.035
 20
-5744.587
 30
-1555.990
 70
    32
  0
VERTEX
  8
W69XLIFTS
 62
4
 10
1231.867
 20
-5743.812
 30
-1555.990
 70
    32
  0
VERTEX
  8
W69XLIFTS
 62
4
 10
1228.586
 20
-5728.682
 30
-1555.990
 70
    32
  0
VERTEX
  8
W69XLIFTS
 62
4
 10
1229.596
 20
-5726.720
 30
-1555.990
 70
    32
  0
VERTEX
  8
W69XLIFTS
 62
4
 10
1232.174
 20
-5721.715
 30
-1555.990
 70
    32
  0
VERTEX
  8
W69XLIFTS
 62
4
 10
1225.748
 20
-5706.245
 30
-1555.990
 70
    32
  0
VERTEX
  8
W69XLIFTS
 62
4
 10
1227.273
 20
-5704.471
 30
-1555.990
 70
    32
  0
VERTEX
  8
W69XLIFTS
 62
4
 10
1224.528
 20
-5697.293
 30
-1555.990
 70
    32
  0
VERTEX
  8
W69XLIFTS
 62
4
 10
1226.382
 20
-5696.044
 30
-1555.990
 70
    32
  0
VERTEX
  8
W69XLIFTS
 62
4
 10
1231.003
 20
-5692.931
 30
-1555.990
 70
    32
  0
VERTEX
  8
W69XLIFTS
 62
4
 10
1234.852
 20
-5690.337
 30
-1555.990
 70
    32
  0
VERTEX
  8
W69XLIFTS
 62
4
 10
1245.553
 20
-5689.194
 30
-1555.990
 70
    32
  0
VERTEX
  8
W69XLIFTS
 62
4
 10
1254.383
 20
-5685.823
 30
-1555.990
 70
    32
  0
VERTEX
  8
W69XLIFTS
 62
4
 10
1262.839
 20
-5692.924
 30
-1555.990
 70
    32
  0
VERTEX
  8
W69XLIFTS
 62
4
 10
1262.907
 20
-5693.165
 30
-1555.990
 70
    32
  0
VERTEX
  8
W69XLIFTS
 62
4
 10
1264.745
 20
-5699.701
 30
-1555.990
 70
    32
  0
VERTEX
  8
W69XLIFTS
 62
4
 10
1266.812
 20
-5707.051
 30
-1555.990
 70
    32
  0
VERTEX
  8
W69XLIFTS
 62
4
 10
1262.989
 20
-5711.998
 30
-1555.990
 70
    32
  0
VERTEX
  8
W69XLIFTS
 62
4
 10
1262.288
 20
-5712.905
 30
-1555.990
 70
    32
  0
VERTEX
  8
W69XLIFTS
 62
4
 10
1258.074
 20
-5721.951
 30
-1555.990
 70
    32
  0
VERTEX
  8
W69XLIFTS
 62
4
 10
1257.924
 20
-5725.753
 30
-1555.990
 70
    32
  0
VERTEX
  8
W69XLIFTS
 62
4
 10
1257.829
 20
-5728.181
 30
-1555.990
 70
    32
  0
VERTEX
  8
W69XLIFTS
 62
4
 10
1257.762
 20
-5729.884
 30
-1555.990
 70
    32
  0
VERTEX
  8
W69XLIFTS
 62
4
 10
1257.748
 20
-5730.226
 30
-1555.990
 70
    32
  0
VERTEX
  8
W69XLIFTS
 62
4
 10
1261.485
 20
-5741.778
 30
-1555.990
 70
    32
  0
VERTEX
  8
W69XLIFTS
 62
4
 10
1267.299
 20
-5759.416
 30
-1555.990
 70
    32
  0
VERTEX
  8
W69XLIFTS
 62
4
 10
1267.849
 20
-5761.085
 30
-1555.990
 70
    32
  0
VERTEX
  8
W69XLIFTS
 62
4
 10
1269.048
 20
-5762.531
 30
-1555.990
 70
    32
  0
VERTEX
  8
W69XLIFTS
 62
4
 10
1272.290
 20
-5766.443
 30
-1555.990
 70
    32
  0
VERTEX
  8
W69XLIFTS
 62
4
 10
1288.256
 20
-5783.901
 30
-1555.990
 70
    32
  0
VERTEX
  8
W69XLIFTS
 62
4
 10
1292.131
 20
-5789.607
 30
-1555.990
 70
    32
  0
VERTEX
  8
W69XLIFTS
 62
4
 10
1294.289
 20
-5792.786
 30
-1555.990
 70
    32
  0
VERTEX
  8
W69XLIFTS
 62
4
 10
1295.786
 20
-5794.990
 30
-1555.990
 70
    32
  0
VERTEX
  8
W69XLIFTS
 62
4
 10
1299.387
 20
-5800.292
 30
-1556.776
 70
    32
  0
VERTEX
  8
W69XLIFTS
 62
4
 10
1303.732
 20
-5801.762
 30
-1557.584
 70
    32
  0
VERTEX
  8
W69XLIFTS
 62
4
 10
1309.809
 20
-5803.817
 30
-1558.743
 70
    32
  0
VERTEX
  8
W69XLIFTS
 62
4
 10
1311.885
 20
-5804.520
 30
-1559.230
 70
    32
  0
VERTEX
  8
W69XLIFTS
 62
4
 10
1323.356
 20
-5806.798
 30
-1561.854
 70
    32
  0
VERTEX
  8
W69XLIFTS
 62
4
 10
1327.444
 20
-5807.541
 30
-1562.787
 70
    32
  0
VERTEX
  8
W69XLIFTS
 62
4
 10
1335.069
 20
-5808.926
 30
-1563.947
 70
    32
  0
VERTEX
  8
W69XLIFTS
 62
4
 10
1335.871
 20
-5808.318
 30
-1564.103
 70
    32
  0
VERTEX
  8
W69XLIFTS
 62
4
 10
1341.271
 20
-5804.221
 30
-1566.434
 70
    32
  0
VERTEX
  8
W69XLIFTS
 62
4
 10
1339.636
 20
-5823.479
 30
-1564.019
 70
    32
  0
VERTEX
  8
W69XLIFTS
 62
4
 10
1334.286
 20
-5828.205
 30
-1562.947
 70
    32
  0
VERTEX
  8
W69XLIFTS
 62
4
 10
1333.407
 20
-5828.982
 30
-1562.845
 70
    32
  0
VERTEX
  8
W69XLIFTS
 62
4
 10
1331.245
 20
-5830.891
 30
-1562.593
 70
    32
  0
VERTEX
  8
W69XLIFTS
 62
4
 10
1312.378
 20
-5842.002
 30
-1560.221
 70
    32
  0
VERTEX
  8
W69XLIFTS
 62
4
 10
1299.416
 20
-5847.656
 30
-1558.530
 70
    32
  0
VERTEX
  8
W69XLIFTS
 62
4
 10
1298.870
 20
-5847.894
 30
-1558.459
 70
    32
  0
VERTEX
  8
W69XLIFTS
 62
4
 10
1294.056
 20
-5847.344
 30
-1557.749
 70
    32
  0
VERTEX
  8
W69XLIFTS
 62
4
 10
1288.961
 20
-5846.762
 30
-1556.997
 70
    32
  0
VERTEX
  8
W69XLIFTS
 62
4
 10
1278.537
 20
-5845.854
 30
-1555.469
 70
    32
  0
VERTEX
  8
W69XLIFTS
 62
4
 10
1278.004
 20
-5835.114
 30
-1555.059
 70
    32
  0
VERTEX
  8
W69XLIFTS
 62
4
 10
1279.599
 20
-5834.865
 30
-1555.281
 70
    32
  0
VERTEX
  8
W69XLIFTS
 62
4
 10
1288.961
 20
-5833.407
 30
-1556.584
 70
    32
  0
VERTEX
  8
W69XLIFTS
 62
4
 10
1305.434
 20
-5829.596
 30
-1558.837
 70
    32
  0
VERTEX
  8
W69XLIFTS
 62
4
 10
1308.876
 20
-5828.800
 30
-1559.308
 70
    32
  0
VERTEX
  8
W69XLIFTS
 62
4
 10
1311.284
 20
-5826.972
 30
-1559.598
 70
    32
  0
SEQEND
  8
W69XLIFTS
  0
POLYLINE
  8
W69XLIFTS
 62
3
 66
     1
 70
     8
  0
VERTEX
  8
W69XLIFTS
 62
3
 10
1365.962
 20
-5925.643
 30
-1597.030
 70
    32
  0
VERTEX
  8
W69XLIFTS
 62
3
 10
1373.310
 20
-5914.908
 30
-1597.030
 70
    32
  0
VERTEX
  8
W69XLIFTS
 62
3
 10
1374.426
 20
-5902.355
 30
-1597.030
 70
    32
  0
VERTEX
  8
W69XLIFTS
 62
3
 10
1371.479
 20
-5893.479
 30
-1597.030
 70
    32
  0
VERTEX
  8
W69XLIFTS
 62
3
 10
1356.263
 20
-5894.255
 30
-1597.030
 70
    32
  0
VERTEX
  8
W69XLIFTS
 62
3
 10
1353.659
 20
-5902.055
 30
-1597.030
 70
    32
  0
VERTEX
  8
W69XLIFTS
 62
3
 10
1354.437
 20
-5912.672
 30
-1597.030
 70
    32
  0
VERTEX
  8
W69XLIFTS
 62
3
 10
1333.991
 20
-5908.039
 30
-1597.030
 70
    32
  0
VERTEX
  8
W69XLIFTS
 62
3
 10
1325.418
 20
-5891.899
 30
-1597.030
 70
    32
  0
VERTEX
  8
W69XLIFTS
 62
3
 10
1334.877
 20
-5883.505
 30
-1597.030
 70
    32
  0
VERTEX
  8
W69XLIFTS
 62
3
 10
1346.403
 20
-5860.995
 30
-1597.030
 70
    32
  0
VERTEX
  8
W69XLIFTS
 62
3
 10
1346.428
 20
-5844.563
 30
-1597.030
 70
    32
  0
VERTEX
  8
W69XLIFTS
 62
3
 10
1317.089
 20
-5806.298
 30
-1597.030
 70
    32
  0
VERTEX
  8
W69XLIFTS
 62
3
 10
1327.903
 20
-5796.025
 30
-1597.030
 70
    32
  0
VERTEX
  8
W69XLIFTS
 62
3
 10
1343.845
 20
-5787.891
 30
-1597.030
 70
    32
  0
VERTEX
  8
W69XLIFTS
 62
3
 10
1358.827
 20
-5813.509
 30
-1597.030
 70
    32
  0
VERTEX
  8
W69XLIFTS
 62
3
 10
1363.432
 20
-5833.235
 30
-1597.030
 70
    32
  0
VERTEX
  8
W69XLIFTS
 62
3
 10
1377.354
 20
-5838.456
 30
-1597.030
 70
    32
  0
VERTEX
  8
W69XLIFTS
 62
3
 10
1389.264
 20
-5839.000
 30
-1597.030
 70
    32
  0
VERTEX
  8
W69XLIFTS
 62
3
 10
1391.321
 20
-5851.500
 30
-1597.030
 70
    32
  0
VERTEX
  8
W69XLIFTS
 62
3
 10
1379.383
 20
-5859.811
 30
-1597.030
 70
    32
  0
VERTEX
  8
W69XLIFTS
 62
3
 10
1375.309
 20
-5862.508
 30
-1597.030
 70
    32
  0
VERTEX
  8
W69XLIFTS
 62
3
 10
1375.700
 20
-5880.002
 30
-1597.030
 70
    32
  0
VERTEX
  8
W69XLIFTS
 62
3
 10
1392.782
 20
-5901.122
 30
-1597.030
 70
    32
  0
VERTEX
  8
W69XLIFTS
 62
3
 10
1392.429
 20
-5936.687
 30
-1597.030
 70
    32
  0
VERTEX
  8
W69XLIFTS
 62
3
 10
1399.954
 20
-5954.504
 30
-1597.030
 70
    32
  0
VERTEX
  8
W69XLIFTS
 62
3
 10
1386.461
 20
-5963.658
 30
-1597.030
 70
    32
  0
VERTEX
  8
W69XLIFTS
 62
3
 10
1383.521
 20
-5961.785
 30
-1597.030
 70
    32
  0
VERTEX
  8
W69XLIFTS
 62
3
 10
1374.875
 20
-5946.694
 30
-1597.030
 70
    32
  0
VERTEX
  8
W69XLIFTS
 62
3
 10
1361.176
 20
-5937.472
 30
-1597.030
 70
    32
  0
SEQEND
  8
W69XLIFTS
  0
POLYLINE
  8
W69XLIFTS
 62
4
 66
     1
 70
     9
  0
VERTEX
  8
W69XLIFTS
 62
4
 10
1372.233
 20
-5861.163
 30
-1576.444
 70
    32
  0
VERTEX
  8
W69XLIFTS
 62
4
 10
1371.894
 20
-5862.549
 30
-1576.557
 70
    32
  0
VERTEX
  8
W69XLIFTS
 62
4
 10
1371.625
 20
-5863.344
 30
-1576.624
 70
    32
  0
VERTEX
  8
W69XLIFTS
 62
4
 10
1370.796
 20
-5865.791
 30
-1576.847
 70
    32
  0
VERTEX
  8
W69XLIFTS
 62
4
 10
1366.817
 20
-5877.541
 30
-1576.881
 70
    32
  0
VERTEX
  8
W69XLIFTS
 62
4
 10
1365.579
 20
-5881.198
 30
-1576.895
 70
    32
  0
VERTEX
  8
W69XLIFTS
 62
4
 10
1366.492
 20
-5882.985
 30
-1576.899
 70
    32
  0
VERTEX
  8
W69XLIFTS
 62
4
 10
1367.372
 20
-5884.708
 30
-1576.899
 70
    32
  0
VERTEX
  8
W69XLIFTS
 62
4
 10
1369.181
 20
-5888.249
 30
-1576.904
 70
    32
  0
VERTEX
  8
W69XLIFTS
 62
4
 10
1371.395
 20
-5892.586
 30
-1576.910
 70
    32
  0
VERTEX
  8
W69XLIFTS
 62
4
 10
1374.932
 20
-5901.417
 30
-1576.925
 70
    32
  0
VERTEX
  8
W69XLIFTS
 62
4
 10
1380.788
 20
-5927.851
 30
-1576.976
 70
    32
  0
VERTEX
  8
W69XLIFTS
 62
4
 10
1383.907
 20
-5939.007
 30
-1576.997
 70
    32
  0
VERTEX
  8
W69XLIFTS
 62
4
 10
1389.702
 20
-5951.004
 30
-1577.015
 70
    32
  0
VERTEX
  8
W69XLIFTS
 62
4
 10
1392.223
 20
-5962.443
 30
-1577.037
 70
    32
  0
VERTEX
  8
W69XLIFTS
 62
4
 10
1388.422
 20
-5962.519
 30
-1577.044
 70
    32
  0
VERTEX
  8
W69XLIFTS
 62
4
 10
1380.639
 20
-5962.675
 30
-1577.058
 70
    32
  0
VERTEX
  8
W69XLIFTS
 62
4
 10
1372.996
 20
-5961.456
 30
-1577.069
 70
    32
  0
VERTEX
  8
W69XLIFTS
 62
4
 10
1369.273
 20
-5959.222
 30
-1577.071
 70
    32
  0
VERTEX
  8
W69XLIFTS
 62
4
 10
1364.395
 20
-5956.295
 30
-1577.072
 70
    32
  0
VERTEX
  8
W69XLIFTS
 62
4
 10
1364.660
 20
-5947.034
 30
-1577.050
 70
    32
  0
VERTEX
  8
W69XLIFTS
 62
4
 10
1360.780
 20
-5942.755
 30
-1577.047
 70
    32
  0
VERTEX
  8
W69XLIFTS
 62
4
 10
1359.368
 20
-5941.198
 30
-1577.046
 70
    32
  0
VERTEX
  8
W69XLIFTS
 62
4
 10
1358.432
 20
-5929.122
 30
-1577.019
 70
    32
  0
VERTEX
  8
W69XLIFTS
 62
4
 10
1350.581
 20
-5910.087
 30
-1576.988
 70
    32
  0
VERTEX
  8
W69XLIFTS
 62
4
 10
1346.067
 20
-5906.116
 30
-1576.987
 70
    32
  0
VERTEX
  8
W69XLIFTS
 62
4
 10
1345.115
 20
-5905.969
 30
-1576.988
 70
    32
  0
VERTEX
  8
W69XLIFTS
 62
4
 10
1340.297
 20
-5905.225
 30
-1577.000
 70
    32
  0
VERTEX
  8
W69XLIFTS
 62
4
 10
1331.415
 20
-5903.853
 30
-1577.000
 70
    32
  0
VERTEX
  8
W69XLIFTS
 62
4
 10
1328.072
 20
-5905.162
 30
-1577.000
 70
    32
  0
VERTEX
  8
W69XLIFTS
 62
4
 10
1327.755
 20
-5904.931
 30
-1577.000
 70
    32
  0
VERTEX
  8
W69XLIFTS
 62
4
 10
1319.149
 20
-5898.677
 30
-1577.000
 70
    32
  0
VERTEX
  8
W69XLIFTS
 62
4
 10
1319.082
 20
-5898.628
 30
-1577.000
 70
    32
  0
VERTEX
  8
W69XLIFTS
 62
4
 10
1321.217
 20
-5891.230
 30
-1577.000
 70
    32
  0
VERTEX
  8
W69XLIFTS
 62
4
 10
1319.967
 20
-5881.092
 30
-1577.000
 70
    32
  0
VERTEX
  8
W69XLIFTS
 62
4
 10
1320.422
 20
-5880.702
 30
-1577.000
 70
    32
  0
VERTEX
  8
W69XLIFTS
 62
4
 10
1329.776
 20
-5872.694
 30
-1576.952
 70
    32
  0
VERTEX
  8
W69XLIFTS
 62
4
 10
1343.416
 20
-5866.603
 30
-1576.899
 70
    32
  0
VERTEX
  8
W69XLIFTS
 62
4
 10
1345.419
 20
-5863.723
 30
-1576.885
 70
    32
  0
VERTEX
  8
W69XLIFTS
 62
4
 10
1350.914
 20
-5855.822
 30
-1576.849
 70
    32
  0
VERTEX
  8
W69XLIFTS
 62
4
 10
1351.393
 20
-5855.131
 30
-1576.846
 70
    32
  0
VERTEX
  8
W69XLIFTS
 62
4
 10
1353.073
 20
-5852.717
 30
-1576.590
 70
    32
  0
SEQEND
  8
W69XLIFTS
  0
POLYLINE
  8
W69XLIFTS
 62
7
 66
     1
 70
     9
  0
VERTEX
  8
W69XLIFTS
 62
7
 10
1313.501
 20
-5755.308
 30
-1651.930
 70
    32
  0
VERTEX
  8
W69XLIFTS
 62
7
 10
1316.622
 20
-5756.179
 30
-1651.930
 70
    32
  0
VERTEX
  8
W69XLIFTS
 62
7
 10
1321.264
 20
-5757.474
 30
-1651.930
 70
    32
  0
VERTEX
  8
W69XLIFTS
 62
7
 10
1332.404
 20
-5766.065
 30
-1651.930
 70
    32
  0
VERTEX
  8
W69XLIFTS
 62
7
 10
1336.202
 20
-5763.499
 30
-1651.930
 70
    32
  0
VERTEX
  8
W69XLIFTS
 62
7
 10
1349.644
 20
-5754.420
 30
-1651.930
 70
    32
  0
VERTEX
  8
W69XLIFTS
 62
7
 10
1344.962
 20
-5744.659
 30
-1651.930
 70
    32
  0
VERTEX
  8
W69XLIFTS
 62
7
 10
1344.892
 20
-5743.330
 30
-1651.930
 70
    32
  0
VERTEX
  8
W69XLIFTS
 62
7
 10
1344.604
 20
-5737.918
 30
-1651.930
 70
    32
  0
VERTEX
  8
W69XLIFTS
 62
7
 10
1344.407
 20
-5734.219
 30
-1651.930
 70
    32
  0
VERTEX
  8
W69XLIFTS
 62
7
 10
1336.182
 20
-5718.735
 30
-1651.930
 70
    32
  0
VERTEX
  8
W69XLIFTS
 62
7
 10
1326.413
 20
-5710.080
 30
-1651.930
 70
    32
  0
VERTEX
  8
W69XLIFTS
 62
7
 10
1324.131
 20
-5706.886
 30
-1651.930
 70
    32
  0
VERTEX
  8
W69XLIFTS
 62
7
 10
1323.183
 20
-5705.559
 30
-1651.930
 70
    32
  0
VERTEX
  8
W69XLIFTS
 62
7
 10
1324.518
 20
-5691.878
 30
-1651.930
 70
    32
  0
VERTEX
  8
W69XLIFTS
 62
7
 10
1324.135
 20
-5685.606
 30
-1651.930
 70
    32
  0
VERTEX
  8
W69XLIFTS
 62
7
 10
1324.029
 20
-5683.862
 30
-1651.930
 70
    32
  0
VERTEX
  8
W69XLIFTS
 62
7
 10
1313.482
 20
-5675.359
 30
-1651.930
 70
    32
  0
VERTEX
  8
W69XLIFTS
 62
7
 10
1311.926
 20
-5675.929
 30
-1651.930
 70
    32
  0
VERTEX
  8
W69XLIFTS
 62
7
 10
1295.522
 20
-5681.929
 30
-1651.930
 70
    32
  0
VERTEX
  8
W69XLIFTS
 62
7
 10
1291.896
 20
-5681.150
 30
-1651.930
 70
    32
  0
VERTEX
  8
W69XLIFTS
 62
7
 10
1281.287
 20
-5671.985
 30
-1651.930
 70
    32
  0
VERTEX
  8
W69XLIFTS
 62
7
 10
1279.762
 20
-5670.668
 30
-1651.930
 70
    32
  0
VERTEX
  8
W69XLIFTS
 62
7
 10
1279.339
 20
-5670.640
 30
-1651.930
 70
    32
  0
VERTEX
  8
W69XLIFTS
 62
7
 10
1274.718
 20
-5670.337
 30
-1651.930
 70
    32
  0
VERTEX
  8
W69XLIFTS
 62
7
 10
1261.969
 20
-5680.893
 30
-1651.930
 70
    32
  0
VERTEX
  8
W69XLIFTS
 62
7
 10
1260.462
 20
-5683.513
 30
-1651.930
 70
    32
  0
VERTEX
  8
W69XLIFTS
 62
7
 10
1256.295
 20
-5690.754
 30
-1651.930
 70
    32
  0
VERTEX
  8
W69XLIFTS
 62
7
 10
1256.755
 20
-5692.386
 30
-1651.930
 70
    32
  0
VERTEX
  8
W69XLIFTS
 62
7
 10
1257.940
 20
-5696.595
 30
-1651.930
 70
    32
  0
VERTEX
  8
W69XLIFTS
 62
7
 10
1260.720
 20
-5699.403
 30
-1651.930
 70
    32
  0
VERTEX
  8
W69XLIFTS
 62
7
 10
1269.931
 20
-5708.704
 30
-1651.930
 70
    32
  0
VERTEX
  8
W69XLIFTS
 62
7
 10
1271.707
 20
-5710.498
 30
-1651.930
 70
    32
  0
VERTEX
  8
W69XLIFTS
 62
7
 10
1272.471
 20
-5711.270
 30
-1651.930
 70
    32
  0
VERTEX
  8
W69XLIFTS
 62
7
 10
1274.406
 20
-5713.224
 30
-1651.930
 70
    32
  0
VERTEX
  8
W69XLIFTS
 62
7
 10
1284.362
 20
-5717.373
 30
-1651.930
 70
    32
  0
VERTEX
  8
W69XLIFTS
 62
7
 10
1292.151
 20
-5721.761
 30
-1651.930
 70
    32
  0
VERTEX
  8
W69XLIFTS
 62
7
 10
1297.652
 20
-5727.722
 30
-1651.930
 70
    32
  0
VERTEX
  8
W69XLIFTS
 62
7
 10
1300.533
 20
-5735.567
 30
-1651.930
 70
    32
  0
VERTEX
  8
W69XLIFTS
 62
7
 10
1300.870
 20
-5743.999
 30
-1651.930
 70
    32
  0
VERTEX
  8
W69XLIFTS
 62
7
 10
1300.481
 20
-5746.080
 30
-1651.930
 70
    32
  0
VERTEX
  8
W69XLIFTS
 62
7
 10
1300.113
 20
-5748.047
 30
-1651.930
 70
    32
  0
SEQEND
  8
W69XLIFTS
  0
POLYLINE
  8
W69XLIFTS
 62
2
 66
     1
 70
     9
  0
VERTEX
  8
W69XLIFTS
 62
2
 10
1970.939
 20
-6771.920
 30
-1661.601
 70
    32
  0
VERTEX
  8
W69XLIFTS
 62
2
 10
1978.142
 20
-6770.219
 30
-1661.293
 70
    32
  0
VERTEX
  8
W69XLIFTS
 62
2
 10
1984.055
 20
-6759.454
 30
-1660.781
 70
    32
  0
VERTEX
  8
W69XLIFTS
 62
2
 10
1990.385
 20
-6751.793
 30
-1660.367
 70
    32
  0
VERTEX
  8
W69XLIFTS
 62
2
 10
1988.962
 20
-6744.840
 30
-1660.071
 70
    32
  0
VERTEX
  8
W69XLIFTS
 62
2
 10
1979.832
 20
-6737.787
 30
-1659.590
 70
    32
  0
VERTEX
  8
W69XLIFTS
 62
2
 10
1970.499
 20
-6735.448
 30
-1659.190
 70
    32
  0
VERTEX
  8
W69XLIFTS
 62
2
 10
1962.403
 20
-6743.615
 30
-1658.710
 70
    32
  0
VERTEX
  8
W69XLIFTS
 62
2
 10
1963.181
 20
-6758.738
 30
-1658.079
 70
    32
  0
SEQEND
  8
W69XLIFTS
  0
POLYLINE
  8
W69XLIFTS
 62
6
 66
     1
 70
     9
  0
VERTEX
  8
W69XLIFTS
 62
6
 10
1257.646
 20
-5613.976
 30
-1652.761
 70
    32
  0
VERTEX
  8
W69XLIFTS
 62
6
 10
1242.227
 20
-5621.179
 30
-1652.761
 70
    32
  0
VERTEX
  8
W69XLIFTS
 62
6
 10
1231.957
 20
-5628.733
 30
-1652.761
 70
    32
  0
VERTEX
  8
W69XLIFTS
 62
6
 10
1209.760
 20
-5638.205
 30
-1652.761
 70
    32
  0
VERTEX
  8
W69XLIFTS
 62
6
 10
1215.981
 20
-5656.004
 30
-1652.761
 70
    32
  0
VERTEX
  8
W69XLIFTS
 62
6
 10
1223.271
 20
-5665.383
 30
-1652.761
 70
    32
  0
VERTEX
  8
W69XLIFTS
 62
6
 10
1232.336
 20
-5671.587
 30
-1652.761
 70
    32
  0
VERTEX
  8
W69XLIFTS
 62
6
 10
1233.594
 20
-5674.795
 30
-1652.761
 70
    32
  0
VERTEX
  8
W69XLIFTS
 62
6
 10
1241.869
 20
-5677.228
 30
-1652.761
 70
    32
  0
VERTEX
  8
W69XLIFTS
 62
6
 10
1250.378
 20
-5674.139
 30
-1652.761
 70
    32
  0
VERTEX
  8
W69XLIFTS
 62
6
 10
1250.319
 20
-5672.470
 30
-1652.761
 70
    32
  0
VERTEX
  8
W69XLIFTS
 62
6
 10
1249.611
 20
-5662.676
 30
-1652.761
 70
    32
  0
VERTEX
  8
W69XLIFTS
 62
6
 10
1249.807
 20
-5660.678
 30
-1652.761
 70
    32
  0
VERTEX
  8
W69XLIFTS
 62
6
 10
1250.610
 20
-5651.800
 30
-1652.761
 70
    32
  0
VERTEX
  8
W69XLIFTS
 62
6
 10
1260.577
 20
-5632.559
 30
-1652.761
 70
    32
  0
SEQEND
  8
W69XLIFTS
  0
ENDSEC
  0
EOF
