999
********************************
999
*   DXF File - Entities Only   *
999
*        3D Data Format        *
999
*     Output from ENVISAGE     *
999
*     02-Jan-2008 11:24:55     *
999
********************************
  0
SECTION 
  2
HEADER
  9
$ACADVER
  1
AC1009
  9
$EXTMIN
 10
-290000.000
 20
-250000.000
 30
-4000.000
  9
$EXTMAX
 10
320000.000
 20
160000.000
 30
6000.000
  0
ENDSEC
  0
SECTION
  2
ENTITIES
  0
LINE
  8
W71LALIFT
 62
6
 10
2193.701
 20
-8521.286
 30
-1702.366
 11
2188.281
 21
-8493.650
 31
-1701.336
  0
LINE
  8
W71LALIFT
 62
6
 10
1796.561
 20
-7224.677
 30
-1788.891
 11
1805.521
 21
-7244.776
 31
-1787.110
  0
LINE
  8
W71LALIFT
 62
2
 10
1703.770
 20
-6496.218
 30
-1807.312
 11
1714.954
 21
-6490.067
 31
-1807.354
  0
POLYLINE
  8
W71LALIFT
 62
2
 66
     1
 70
     9
  0
VERTEX
  8
W71LALIFT
 62
2
 10
1703.770
 20
-6496.218
 30
-1807.312
 70
    32
  0
VERTEX
  8
W71LALIFT
 62
2
 10
1701.743
 20
-6490.446
 30
-1807.994
 70
    32
  0
VERTEX
  8
W71LALIFT
 62
2
 10
1699.438
 20
-6486.396
 30
-1807.408
 70
    32
  0
VERTEX
  8
W71LALIFT
 62
2
 10
1694.488
 20
-6480.765
 30
-1806.475
 70
    32
  0
VERTEX
  8
W71LALIFT
 62
2
 10
1687.767
 20
-6474.164
 30
-1805.320
 70
    32
  0
VERTEX
  8
W71LALIFT
 62
2
 10
1682.802
 20
-6469.288
 30
-1805.387
 70
    32
  0
VERTEX
  8
W71LALIFT
 62
2
 10
1679.352
 20
-6457.863
 30
-1805.500
 70
    32
  0
VERTEX
  8
W71LALIFT
 62
2
 10
1670.231
 20
-6445.451
 30
-1805.649
 70
    32
  0
VERTEX
  8
W71LALIFT
 62
2
 10
1665.119
 20
-6438.494
 30
-1805.856
 70
    32
  0
VERTEX
  8
W71LALIFT
 62
2
 10
1660.553
 20
-6425.790
 30
-1806.175
 70
    32
  0
VERTEX
  8
W71LALIFT
 62
2
 10
1656.734
 20
-6417.288
 30
-1806.401
 70
    32
  0
VERTEX
  8
W71LALIFT
 62
2
 10
1654.274
 20
-6411.810
 30
-1806.401
 70
    32
  0
VERTEX
  8
W71LALIFT
 62
2
 10
1659.332
 20
-6406.470
 30
-1806.401
 70
    32
  0
VERTEX
  8
W71LALIFT
 62
2
 10
1664.679
 20
-6405.827
 30
-1806.401
 70
    32
  0
VERTEX
  8
W71LALIFT
 62
2
 10
1669.481
 20
-6412.126
 30
-1806.358
 70
    32
  0
VERTEX
  8
W71LALIFT
 62
2
 10
1673.287
 20
-6422.145
 30
-1806.099
 70
    32
  0
VERTEX
  8
W71LALIFT
 62
2
 10
1678.390
 20
-6431.790
 30
-1805.833
 70
    32
  0
VERTEX
  8
W71LALIFT
 62
2
 10
1684.164
 20
-6436.965
 30
-1805.655
 70
    32
  0
VERTEX
  8
W71LALIFT
 62
2
 10
1687.057
 20
-6445.041
 30
-1805.572
 70
    32
  0
VERTEX
  8
W71LALIFT
 62
2
 10
1690.514
 20
-6454.692
 30
-1805.471
 70
    32
  0
VERTEX
  8
W71LALIFT
 62
2
 10
1698.891
 20
-6467.016
 30
-1805.320
 70
    32
  0
VERTEX
  8
W71LALIFT
 62
2
 10
1703.593
 20
-6473.934
 30
-1806.372
 70
    32
  0
VERTEX
  8
W71LALIFT
 62
2
 10
1703.593
 20
-6473.934
 30
-1806.372
 70
    32
  0
VERTEX
  8
W71LALIFT
 62
2
 10
1711.007
 20
-6484.468
 30
-1807.994
 70
    32
  0
VERTEX
  8
W71LALIFT
 62
2
 10
1714.954
 20
-6490.067
 30
-1807.354
 70
    32
  0
VERTEX
  8
W71LALIFT
 62
2
 10
1703.770
 20
-6496.218
 30
-1807.312
 70
    32
  0
SEQEND
  8
W71LALIFT
  0
POLYLINE
  8
W71LALIFT
 62
1
 66
     1
 70
     8
  0
VERTEX
  8
W71LALIFT
 62
1
 10
2344.974
 20
-9266.490
 30
-1659.840
 70
    32
  0
VERTEX
  8
W71LALIFT
 62
1
 10
2352.379
 20
-9276.037
 30
-1659.840
 70
    32
  0
VERTEX
  8
W71LALIFT
 62
1
 10
2360.230
 20
-9290.961
 30
-1659.840
 70
    32
  0
VERTEX
  8
W71LALIFT
 62
1
 10
2370.464
 20
-9311.631
 30
-1659.840
 70
    32
  0
VERTEX
  8
W71LALIFT
 62
1
 10
2387.069
 20
-9324.272
 30
-1659.840
 70
    32
  0
VERTEX
  8
W71LALIFT
 62
1
 10
2394.723
 20
-9334.121
 30
-1659.840
 70
    32
  0
VERTEX
  8
W71LALIFT
 62
1
 10
2404.181
 20
-9351.265
 30
-1659.840
 70
    32
  0
VERTEX
  8
W71LALIFT
 62
1
 10
2405.521
 20
-9359.303
 30
-1659.840
 70
    32
  0
VERTEX
  8
W71LALIFT
 62
1
 10
2411.790
 20
-9375.034
 30
-1659.840
 70
    32
  0
VERTEX
  8
W71LALIFT
 62
1
 10
2402.581
 20
-9379.969
 30
-1659.840
 70
    32
  0
VERTEX
  8
W71LALIFT
 62
1
 10
2386.815
 20
-9384.811
 30
-1659.840
 70
    32
  0
VERTEX
  8
W71LALIFT
 62
1
 10
2378.888
 20
-9364.761
 30
-1659.840
 70
    32
  0
VERTEX
  8
W71LALIFT
 62
1
 10
2369.062
 20
-9341.645
 30
-1659.840
 70
    32
  0
VERTEX
  8
W71LALIFT
 62
1
 10
2360.313
 20
-9325.076
 30
-1659.840
 70
    32
  0
VERTEX
  8
W71LALIFT
 62
1
 10
2357.974
 20
-9319.007
 30
-1659.840
 70
    32
  0
VERTEX
  8
W71LALIFT
 62
1
 10
2354.845
 20
-9310.886
 30
-1659.840
 70
    32
  0
VERTEX
  8
W71LALIFT
 62
1
 10
2346.769
 20
-9290.082
 30
-1659.840
 70
    32
  0
VERTEX
  8
W71LALIFT
 62
1
 10
2335.834
 20
-9272.805
 30
-1659.840
 70
    32
  0
SEQEND
  8
W71LALIFT
  0
POLYLINE
  8
W71LALIFT
 62
2
 66
     1
 70
     9
  0
VERTEX
  8
W71LALIFT
 62
2
 10
1879.874
 20
-6941.240
 30
-1723.283
 70
    32
  0
VERTEX
  8
W71LALIFT
 62
2
 10
1880.458
 20
-6941.167
 30
-1723.239
 70
    32
  0
VERTEX
  8
W71LALIFT
 62
2
 10
1876.604
 20
-6924.365
 30
-1722.132
 70
    32
  0
VERTEX
  8
W71LALIFT
 62
2
 10
1866.128
 20
-6909.038
 30
-1722.183
 70
    32
  0
VERTEX
  8
W71LALIFT
 62
2
 10
1867.338
 20
-6905.989
 30
-1721.871
 70
    32
  0
VERTEX
  8
W71LALIFT
 62
2
 10
1875.403
 20
-6901.262
 30
-1721.790
 70
    32
  0
VERTEX
  8
W71LALIFT
 62
2
 10
1879.132
 20
-6908.510
 30
-1721.561
 70
    32
  0
VERTEX
  8
W71LALIFT
 62
2
 10
1886.335
 20
-6910.823
 30
-1721.697
 70
    32
  0
VERTEX
  8
W71LALIFT
 62
2
 10
1889.529
 20
-6916.658
 30
-1722.537
 70
    32
  0
VERTEX
  8
W71LALIFT
 62
2
 10
1898.079
 20
-6922.010
 30
-1722.140
 70
    32
  0
VERTEX
  8
W71LALIFT
 62
2
 10
1903.880
 20
-6924.505
 30
-1722.726
 70
    32
  0
VERTEX
  8
W71LALIFT
 62
2
 10
1920.513
 20
-6910.716
 30
-1722.473
 70
    32
  0
VERTEX
  8
W71LALIFT
 62
2
 10
1928.045
 20
-6919.584
 30
-1721.951
 70
    32
  0
VERTEX
  8
W71LALIFT
 62
2
 10
1912.563
 20
-6932.602
 30
-1722.012
 70
    32
  0
VERTEX
  8
W71LALIFT
 62
2
 10
1908.153
 20
-6935.460
 30
-1722.279
 70
    32
  0
VERTEX
  8
W71LALIFT
 62
2
 10
1906.001
 20
-6939.283
 30
-1723.360
 70
    32
  0
VERTEX
  8
W71LALIFT
 62
2
 10
1905.717
 20
-6942.199
 30
-1725.683
 70
    32
  0
VERTEX
  8
W71LALIFT
 62
2
 10
1909.988
 20
-6945.352
 30
-1727.028
 70
    32
  0
VERTEX
  8
W71LALIFT
 62
2
 10
1919.996
 20
-6947.017
 30
-1728.640
 70
    32
  0
VERTEX
  8
W71LALIFT
 62
2
 10
1926.436
 20
-6949.807
 30
-1728.701
 70
    32
  0
VERTEX
  8
W71LALIFT
 62
2
 10
1937.901
 20
-6955.699
 30
-1729.065
 70
    32
  0
VERTEX
  8
W71LALIFT
 62
2
 10
1951.172
 20
-6957.438
 30
-1727.708
 70
    32
  0
VERTEX
  8
W71LALIFT
 62
2
 10
1962.629
 20
-6951.371
 30
-1726.479
 70
    32
  0
VERTEX
  8
W71LALIFT
 62
2
 10
1980.257
 20
-6974.912
 30
-1729.997
 70
    32
  0
VERTEX
  8
W71LALIFT
 62
2
 10
1988.514
 20
-6975.893
 30
-1729.510
 70
    32
  0
VERTEX
  8
W71LALIFT
 62
2
 10
1988.136
 20
-6986.740
 30
-1730.185
 70
    32
  0
VERTEX
  8
W71LALIFT
 62
2
 10
1983.431
 20
-6995.332
 30
-1730.176
 70
    32
  0
VERTEX
  8
W71LALIFT
 62
2
 10
1984.600
 20
-7013.057
 30
-1729.722
 70
    32
  0
VERTEX
  8
W71LALIFT
 62
2
 10
1985.806
 20
-7015.676
 30
-1730.694
 70
    32
  0
VERTEX
  8
W71LALIFT
 62
2
 10
1987.517
 20
-7032.898
 30
-1730.359
 70
    32
  0
VERTEX
  8
W71LALIFT
 62
2
 10
1984.343
 20
-7039.840
 30
-1730.439
 70
    32
  0
VERTEX
  8
W71LALIFT
 62
2
 10
1980.610
 20
-7055.180
 30
-1730.899
 70
    32
  0
VERTEX
  8
W71LALIFT
 62
2
 10
1974.474
 20
-7056.955
 30
-1731.136
 70
    32
  0
VERTEX
  8
W71LALIFT
 62
2
 10
1967.825
 20
-7063.157
 30
-1730.651
 70
    32
  0
VERTEX
  8
W71LALIFT
 62
2
 10
1965.591
 20
-7060.147
 30
-1730.822
 70
    32
  0
VERTEX
  8
W71LALIFT
 62
2
 10
1962.490
 20
-7054.464
 30
-1730.736
 70
    32
  0
VERTEX
  8
W71LALIFT
 62
2
 10
1966.981
 20
-7038.069
 30
-1731.012
 70
    32
  0
VERTEX
  8
W71LALIFT
 62
2
 10
1974.059
 20
-7025.533
 30
-1732.678
 70
    32
  0
VERTEX
  8
W71LALIFT
 62
2
 10
1973.938
 20
-7014.228
 30
-1731.114
 70
    32
  0
VERTEX
  8
W71LALIFT
 62
2
 10
1973.927
 20
-7013.541
 30
-1730.227
 70
    32
  0
VERTEX
  8
W71LALIFT
 62
2
 10
1972.239
 20
-7004.681
 30
-1730.247
 70
    32
  0
VERTEX
  8
W71LALIFT
 62
2
 10
1970.508
 20
-6994.038
 30
-1731.076
 70
    32
  0
VERTEX
  8
W71LALIFT
 62
2
 10
1965.429
 20
-6985.786
 30
-1730.349
 70
    32
  0
VERTEX
  8
W71LALIFT
 62
2
 10
1960.694
 20
-6985.139
 30
-1730.746
 70
    32
  0
VERTEX
  8
W71LALIFT
 62
2
 10
1956.496
 20
-6986.730
 30
-1730.962
 70
    32
  0
VERTEX
  8
W71LALIFT
 62
2
 10
1955.087
 20
-6998.175
 30
-1730.623
 70
    32
  0
VERTEX
  8
W71LALIFT
 62
2
 10
1952.608
 20
-7010.893
 30
-1730.674
 70
    32
  0
VERTEX
  8
W71LALIFT
 62
2
 10
1958.519
 20
-7020.509
 30
-1730.416
 70
    32
  0
VERTEX
  8
W71LALIFT
 62
2
 10
1962.985
 20
-7027.615
 30
-1730.787
 70
    32
  0
VERTEX
  8
W71LALIFT
 62
2
 10
1968.871
 20
-7036.244
 30
-1729.889
 70
    32
  0
VERTEX
  8
W71LALIFT
 62
2
 10
1974.336
 20
-7056.942
 30
-1731.067
 70
    32
  0
VERTEX
  8
W71LALIFT
 62
2
 10
1967.848
 20
-7063.132
 30
-1731.540
 70
    32
  0
VERTEX
  8
W71LALIFT
 62
2
 10
1960.780
 20
-7052.350
 30
-1731.350
 70
    32
  0
VERTEX
  8
W71LALIFT
 62
2
 10
1954.695
 20
-7037.669
 30
-1730.824
 70
    32
  0
VERTEX
  8
W71LALIFT
 62
2
 10
1947.404
 20
-7026.263
 30
-1730.664
 70
    32
  0
VERTEX
  8
W71LALIFT
 62
2
 10
1943.522
 20
-7021.481
 30
-1730.669
 70
    32
  0
VERTEX
  8
W71LALIFT
 62
2
 10
1941.338
 20
-7009.024
 30
-1730.498
 70
    32
  0
VERTEX
  8
W71LALIFT
 62
2
 10
1938.884
 20
-7003.064
 30
-1730.228
 70
    32
  0
VERTEX
  8
W71LALIFT
 62
2
 10
1939.832
 20
-6987.923
 30
-1731.097
 70
    32
  0
VERTEX
  8
W71LALIFT
 62
2
 10
1938.012
 20
-6977.490
 30
-1730.516
 70
    32
  0
VERTEX
  8
W71LALIFT
 62
2
 10
1934.804
 20
-6973.373
 30
-1730.314
 70
    32
  0
VERTEX
  8
W71LALIFT
 62
2
 10
1922.035
 20
-6967.835
 30
-1729.243
 70
    32
  0
VERTEX
  8
W71LALIFT
 62
2
 10
1915.748
 20
-6965.807
 30
-1729.774
 70
    32
  0
VERTEX
  8
W71LALIFT
 62
2
 10
1914.494
 20
-6967.608
 30
-1729.625
 70
    32
  0
VERTEX
  8
W71LALIFT
 62
2
 10
1915.769
 20
-6969.603
 30
-1729.476
 70
    32
  0
VERTEX
  8
W71LALIFT
 62
2
 10
1908.762
 20
-6975.975
 30
-1729.326
 70
    32
  0
VERTEX
  8
W71LALIFT
 62
2
 10
1900.555
 20
-6972.099
 30
-1726.323
 70
    32
  0
VERTEX
  8
W71LALIFT
 62
2
 10
1894.436
 20
-6973.901
 30
-1726.315
 70
    32
  0
VERTEX
  8
W71LALIFT
 62
2
 10
1889.159
 20
-6969.037
 30
-1725.498
 70
    32
  0
VERTEX
  8
W71LALIFT
 62
2
 10
1885.297
 20
-6957.122
 30
-1725.029
 70
    32
  0
VERTEX
  8
W71LALIFT
 62
2
 10
1881.265
 20
-6954.748
 30
-1723.909
 70
    32
  0
SEQEND
  8
W71LALIFT
  0
LINE
  8
W71LALIFT
 62
1
 10
1952.678
 20
-7010.533
 30
-1730.673
 11
1940.648
 21
-7010.071
 31
-1730.396
  0
LINE
  8
W71LALIFT
 62
1
 10
1984.743
 20
-7013.368
 30
-1729.838
 11
1973.934
 21
-7013.953
 31
-1730.759
  0
POLYLINE
  8
W71LALIFT
 62
8
 66
     1
 70
     8
  0
VERTEX
  8
W71LALIFT
 62
8
 10
1937.766
 20
-6974.997
 30
-1743.948
 70
    32
  0
VERTEX
  8
W71LALIFT
 62
8
 10
1953.471
 20
-6980.239
 30
-1747.037
 70
    32
  0
VERTEX
  8
W71LALIFT
 62
8
 10
1969.493
 20
-6986.337
 30
-1750.066
 70
    32
  0
VERTEX
  8
W71LALIFT
 62
8
 10
1972.940
 20
-6990.005
 30
-1751.453
 70
    32
  0
VERTEX
  8
W71LALIFT
 62
8
 10
1975.841
 20
-7001.203
 30
-1753.132
 70
    32
  0
VERTEX
  8
W71LALIFT
 62
8
 10
1976.488
 20
-7019.076
 30
-1755.471
 70
    32
  0
VERTEX
  8
W71LALIFT
 62
8
 10
1976.885
 20
-7024.724
 30
-1755.963
 70
    32
  0
VERTEX
  8
W71LALIFT
 62
8
 10
1972.339
 20
-7035.586
 30
-1756.225
 70
    32
  0
VERTEX
  8
W71LALIFT
 62
8
 10
1965.272
 20
-7043.604
 30
-1755.495
 70
    32
  0
VERTEX
  8
W71LALIFT
 62
8
 10
1973.833
 20
-7048.459
 30
-1753.392
 70
    32
  0
VERTEX
  8
W71LALIFT
 62
8
 10
1984.877
 20
-7042.507
 30
-1753.634
 70
    32
  0
VERTEX
  8
W71LALIFT
 62
8
 10
1987.414
 20
-7030.506
 30
-1755.446
 70
    32
  0
VERTEX
  8
W71LALIFT
 62
8
 10
1989.846
 20
-7020.982
 30
-1754.678
 70
    32
  0
VERTEX
  8
W71LALIFT
 62
8
 10
1987.201
 20
-7003.512
 30
-1753.687
 70
    32
  0
VERTEX
  8
W71LALIFT
 62
8
 10
1986.831
 20
-6998.356
 30
-1753.247
 70
    32
  0
VERTEX
  8
W71LALIFT
 62
8
 10
1988.585
 20
-6997.211
 30
-1751.835
 70
    32
  0
VERTEX
  8
W71LALIFT
 62
8
 10
1988.272
 20
-6984.040
 30
-1751.665
 70
    32
  0
VERTEX
  8
W71LALIFT
 62
8
 10
1983.660
 20
-6976.883
 30
-1750.006
 70
    32
  0
VERTEX
  8
W71LALIFT
 62
8
 10
1975.752
 20
-6968.890
 30
-1750.638
 70
    32
  0
VERTEX
  8
W71LALIFT
 62
8
 10
1972.660
 20
-6961.153
 30
-1745.800
 70
    32
  0
VERTEX
  8
W71LALIFT
 62
8
 10
1965.303
 20
-6958.200
 30
-1746.149
 70
    32
  0
VERTEX
  8
W71LALIFT
 62
8
 10
1951.726
 20
-6954.807
 30
-1741.938
 70
    32
  0
VERTEX
  8
W71LALIFT
 62
8
 10
1941.988
 20
-6956.568
 30
-1743.051
 70
    32
  0
SEQEND
  8
W71LALIFT
  0
POLYLINE
  8
W71LALIFT
 62
6
 66
     1
 70
     8
  0
VERTEX
  8
W71LALIFT
 62
6
 10
2163.424
 20
-8032.139
 30
-1789.954
 70
    32
  0
VERTEX
  8
W71LALIFT
 62
6
 10
2180.920
 20
-8019.016
 30
-1793.793
 70
    32
  0
VERTEX
  8
W71LALIFT
 62
6
 10
2185.750
 20
-8014.398
 30
-1793.777
 70
    32
  0
VERTEX
  8
W71LALIFT
 62
6
 10
2189.294
 20
-8009.746
 30
-1792.659
 70
    32
  0
VERTEX
  8
W71LALIFT
 62
6
 10
2194.724
 20
-8003.035
 30
-1790.859
 70
    32
  0
VERTEX
  8
W71LALIFT
 62
6
 10
2201.212
 20
-7984.262
 30
-1787.117
 70
    32
  0
VERTEX
  8
W71LALIFT
 62
6
 10
2203.382
 20
-7982.252
 30
-1787.649
 70
    32
  0
VERTEX
  8
W71LALIFT
 62
6
 10
2202.567
 20
-7976.905
 30
-1785.704
 70
    32
  0
VERTEX
  8
W71LALIFT
 62
6
 10
2200.921
 20
-7970.140
 30
-1785.507
 70
    32
  0
VERTEX
  8
W71LALIFT
 62
6
 10
2197.073
 20
-7965.676
 30
-1787.019
 70
    32
  0
VERTEX
  8
W71LALIFT
 62
6
 10
2190.043
 20
-7965.754
 30
-1786.624
 70
    32
  0
VERTEX
  8
W71LALIFT
 62
6
 10
2180.708
 20
-7970.557
 30
-1786.672
 70
    32
  0
VERTEX
  8
W71LALIFT
 62
6
 10
2173.497
 20
-7981.201
 30
-1786.176
 70
    32
  0
VERTEX
  8
W71LALIFT
 62
6
 10
2170.409
 20
-7988.015
 30
-1786.034
 70
    32
  0
VERTEX
  8
W71LALIFT
 62
6
 10
2167.788
 20
-7989.146
 30
-1785.916
 70
    32
  0
VERTEX
  8
W71LALIFT
 62
6
 10
2168.869
 20
-8001.175
 30
-1784.383
 70
    32
  0
VERTEX
  8
W71LALIFT
 62
6
 10
2173.555
 20
-8012.642
 30
-1786.138
 70
    32
  0
VERTEX
  8
W71LALIFT
 62
6
 10
2172.488
 20
-8013.664
 30
-1786.883
 70
    32
  0
VERTEX
  8
W71LALIFT
 62
6
 10
2180.744
 20
-8021.445
 30
-1787.618
 70
    32
  0
VERTEX
  8
W71LALIFT
 62
6
 10
2172.839
 20
-8024.937
 30
-1785.106
 70
    32
  0
VERTEX
  8
W71LALIFT
 62
6
 10
2164.081
 20
-8032.886
 30
-1787.914
 70
    32
  0
VERTEX
  8
W71LALIFT
 62
6
 10
2160.238
 20
-8032.366
 30
-1789.959
 70
    32
  0
VERTEX
  8
W71LALIFT
 62
6
 10
2150.978
 20
-8023.632
 30
-1786.445
 70
    32
  0
VERTEX
  8
W71LALIFT
 62
6
 10
2149.174
 20
-8010.083
 30
-1786.931
 70
    32
  0
VERTEX
  8
W71LALIFT
 62
6
 10
2146.670
 20
-8001.271
 30
-1783.562
 70
    32
  0
VERTEX
  8
W71LALIFT
 62
6
 10
2144.501
 20
-7995.859
 30
-1786.329
 70
    32
  0
VERTEX
  8
W71LALIFT
 62
6
 10
2146.219
 20
-7976.888
 30
-1785.272
 70
    32
  0
VERTEX
  8
W71LALIFT
 62
6
 10
2145.562
 20
-7961.690
 30
-1785.089
 70
    32
  0
VERTEX
  8
W71LALIFT
 62
6
 10
2156.250
 20
-7956.550
 30
-1783.256
 70
    32
  0
VERTEX
  8
W71LALIFT
 62
6
 10
2168.367
 20
-7948.641
 30
-1785.572
 70
    32
  0
VERTEX
  8
W71LALIFT
 62
6
 10
2171.295
 20
-7943.445
 30
-1786.387
 70
    32
  0
VERTEX
  8
W71LALIFT
 62
6
 10
2172.859
 20
-7939.052
 30
-1786.128
 70
    32
  0
VERTEX
  8
W71LALIFT
 62
6
 10
2183.767
 20
-7937.038
 30
-1786.792
 70
    32
  0
VERTEX
  8
W71LALIFT
 62
6
 10
2192.841
 20
-7933.198
 30
-1785.843
 70
    32
  0
VERTEX
  8
W71LALIFT
 62
6
 10
2197.989
 20
-7932.035
 30
-1786.954
 70
    32
  0
VERTEX
  8
W71LALIFT
 62
6
 10
2218.532
 20
-7927.308
 30
-1785.890
 70
    32
  0
VERTEX
  8
W71LALIFT
 62
6
 10
2219.904
 20
-7939.521
 30
-1786.688
 70
    32
  0
VERTEX
  8
W71LALIFT
 62
6
 10
2228.481
 20
-7940.896
 30
-1785.859
 70
    32
  0
VERTEX
  8
W71LALIFT
 62
6
 10
2230.357
 20
-7949.106
 30
-1787.872
 70
    32
  0
VERTEX
  8
W71LALIFT
 62
6
 10
2231.513
 20
-7962.076
 30
-1787.031
 70
    32
  0
VERTEX
  8
W71LALIFT
 62
6
 10
2231.031
 20
-7967.454
 30
-1787.560
 70
    32
  0
VERTEX
  8
W71LALIFT
 62
6
 10
2231.054
 20
-7975.169
 30
-1786.231
 70
    32
  0
VERTEX
  8
W71LALIFT
 62
6
 10
2233.544
 20
-7983.117
 30
-1785.701
 70
    32
  0
VERTEX
  8
W71LALIFT
 62
6
 10
2233.606
 20
-7993.220
 30
-1788.232
 70
    32
  0
VERTEX
  8
W71LALIFT
 62
6
 10
2233.887
 20
-8001.704
 30
-1787.322
 70
    32
  0
VERTEX
  8
W71LALIFT
 62
6
 10
2235.006
 20
-8016.097
 30
-1787.057
 70
    32
  0
VERTEX
  8
W71LALIFT
 62
6
 10
2231.552
 20
-8033.186
 30
-1786.680
 70
    32
  0
VERTEX
  8
W71LALIFT
 62
6
 10
2230.914
 20
-8034.997
 30
-1787.016
 70
    32
  0
VERTEX
  8
W71LALIFT
 62
6
 10
2229.911
 20
-8046.414
 30
-1786.959
 70
    32
  0
VERTEX
  8
W71LALIFT
 62
6
 10
2230.600
 20
-8056.892
 30
-1786.785
 70
    32
  0
VERTEX
  8
W71LALIFT
 62
6
 10
2231.939
 20
-8066.752
 30
-1787.417
 70
    32
  0
VERTEX
  8
W71LALIFT
 62
6
 10
2229.428
 20
-8079.353
 30
-1786.644
 70
    32
  0
VERTEX
  8
W71LALIFT
 62
6
 10
2224.356
 20
-8079.700
 30
-1784.606
 70
    32
  0
VERTEX
  8
W71LALIFT
 62
6
 10
2220.119
 20
-8076.721
 30
-1786.729
 70
    32
  0
VERTEX
  8
W71LALIFT
 62
6
 10
2217.800
 20
-8072.500
 30
-1787.535
 70
    32
  0
VERTEX
  8
W71LALIFT
 62
6
 10
2216.625
 20
-8063.784
 30
-1788.202
 70
    32
  0
VERTEX
  8
W71LALIFT
 62
6
 10
2213.440
 20
-8059.322
 30
-1787.514
 70
    32
  0
VERTEX
  8
W71LALIFT
 62
6
 10
2214.532
 20
-8049.048
 30
-1786.698
 70
    32
  0
VERTEX
  8
W71LALIFT
 62
6
 10
2216.456
 20
-8039.745
 30
-1787.115
 70
    32
  0
VERTEX
  8
W71LALIFT
 62
6
 10
2214.941
 20
-8033.983
 30
-1786.850
 70
    32
  0
VERTEX
  8
W71LALIFT
 62
6
 10
2206.955
 20
-8032.327
 30
-1787.190
 70
    32
  0
VERTEX
  8
W71LALIFT
 62
6
 10
2205.032
 20
-8024.080
 30
-1789.737
 70
    32
  0
VERTEX
  8
W71LALIFT
 62
6
 10
2198.576
 20
-8017.414
 30
-1791.169
 70
    32
  0
VERTEX
  8
W71LALIFT
 62
6
 10
2197.126
 20
-8017.807
 30
-1791.980
 70
    32
  0
VERTEX
  8
W71LALIFT
 62
6
 10
2190.439
 20
-8023.227
 30
-1793.518
 70
    32
  0
VERTEX
  8
W71LALIFT
 62
6
 10
2184.460
 20
-8029.151
 30
-1792.950
 70
    32
  0
VERTEX
  8
W71LALIFT
 62
6
 10
2179.900
 20
-8034.467
 30
-1792.253
 70
    32
  0
VERTEX
  8
W71LALIFT
 62
6
 10
2172.165
 20
-8041.399
 30
-1790.408
 70
    32
  0
SEQEND
  8
W71LALIFT
  0
POLYLINE
  8
W71LALIFT
 62
6
 66
     1
 70
     8
  0
VERTEX
  8
W71LALIFT
 62
6
 10
2165.318
 20
-8083.989
 30
-1772.955
 70
    32
  0
VERTEX
  8
W71LALIFT
 62
6
 10
2174.639
 20
-8086.140
 30
-1769.188
 70
    32
  0
VERTEX
  8
W71LALIFT
 62
6
 10
2188.800
 20
-8091.067
 30
-1767.390
 70
    32
  0
VERTEX
  8
W71LALIFT
 62
6
 10
2197.177
 20
-8098.531
 30
-1762.073
 70
    32
  0
VERTEX
  8
W71LALIFT
 62
6
 10
2199.013
 20
-8104.054
 30
-1760.553
 70
    32
  0
VERTEX
  8
W71LALIFT
 62
6
 10
2197.783
 20
-8115.330
 30
-1759.691
 70
    32
  0
VERTEX
  8
W71LALIFT
 62
6
 10
2192.943
 20
-8130.527
 30
-1758.957
 70
    32
  0
VERTEX
  8
W71LALIFT
 62
6
 10
2192.165
 20
-8133.697
 30
-1759.125
 70
    32
  0
VERTEX
  8
W71LALIFT
 62
6
 10
2190.126
 20
-8134.632
 30
-1759.508
 70
    32
  0
VERTEX
  8
W71LALIFT
 62
6
 10
2189.632
 20
-8143.826
 30
-1759.595
 70
    32
  0
VERTEX
  8
W71LALIFT
 62
6
 10
2189.235
 20
-8151.756
 30
-1760.157
 70
    32
  0
VERTEX
  8
W71LALIFT
 62
6
 10
2190.830
 20
-8161.145
 30
-1760.457
 70
    32
  0
VERTEX
  8
W71LALIFT
 62
6
 10
2189.991
 20
-8174.958
 30
-1758.284
 70
    32
  0
VERTEX
  8
W71LALIFT
 62
6
 10
2191.191
 20
-8186.294
 30
-1756.715
 70
    32
  0
VERTEX
  8
W71LALIFT
 62
6
 10
2193.336
 20
-8196.931
 30
-1756.234
 70
    32
  0
VERTEX
  8
W71LALIFT
 62
6
 10
2196.553
 20
-8217.352
 30
-1756.279
 70
    32
  0
VERTEX
  8
W71LALIFT
 62
6
 10
2195.885
 20
-8222.381
 30
-1758.102
 70
    32
  0
VERTEX
  8
W71LALIFT
 62
6
 10
2197.785
 20
-8242.697
 30
-1756.263
 70
    32
  0
VERTEX
  8
W71LALIFT
 62
6
 10
2203.560
 20
-8262.312
 30
-1755.027
 70
    32
  0
VERTEX
  8
W71LALIFT
 62
6
 10
2191.916
 20
-8263.779
 30
-1755.026
 70
    32
  0
VERTEX
  8
W71LALIFT
 62
6
 10
2186.346
 20
-8264.288
 30
-1756.677
 70
    32
  0
VERTEX
  8
W71LALIFT
 62
6
 10
2183.380
 20
-8264.149
 30
-1756.676
 70
    32
  0
VERTEX
  8
W71LALIFT
 62
6
 10
2182.463
 20
-8239.332
 30
-1756.624
 70
    32
  0
VERTEX
  8
W71LALIFT
 62
6
 10
2183.320
 20
-8233.061
 30
-1756.629
 70
    32
  0
VERTEX
  8
W71LALIFT
 62
6
 10
2182.735
 20
-8228.252
 30
-1755.540
 70
    32
  0
VERTEX
  8
W71LALIFT
 62
6
 10
2182.480
 20
-8210.797
 30
-1757.225
 70
    32
  0
VERTEX
  8
W71LALIFT
 62
6
 10
2181.026
 20
-8197.766
 30
-1755.973
 70
    32
  0
VERTEX
  8
W71LALIFT
 62
6
 10
2177.741
 20
-8189.757
 30
-1756.601
 70
    32
  0
VERTEX
  8
W71LALIFT
 62
6
 10
2177.346
 20
-8180.922
 30
-1757.818
 70
    32
  0
VERTEX
  8
W71LALIFT
 62
6
 10
2177.644
 20
-8167.269
 30
-1760.015
 70
    32
  0
VERTEX
  8
W71LALIFT
 62
6
 10
2174.701
 20
-8161.589
 30
-1759.510
 70
    32
  0
VERTEX
  8
W71LALIFT
 62
6
 10
2176.394
 20
-8149.368
 30
-1760.745
 70
    32
  0
VERTEX
  8
W71LALIFT
 62
6
 10
2179.881
 20
-8139.948
 30
-1758.820
 70
    32
  0
VERTEX
  8
W71LALIFT
 62
6
 10
2183.853
 20
-8124.792
 30
-1760.448
 70
    32
  0
VERTEX
  8
W71LALIFT
 62
6
 10
2186.468
 20
-8106.942
 30
-1762.871
 70
    32
  0
VERTEX
  8
W71LALIFT
 62
6
 10
2183.002
 20
-8099.406
 30
-1768.413
 70
    32
  0
VERTEX
  8
W71LALIFT
 62
6
 10
2178.913
 20
-8097.379
 30
-1769.505
 70
    32
  0
VERTEX
  8
W71LALIFT
 62
6
 10
2170.821
 20
-8096.608
 30
-1769.647
 70
    32
  0
VERTEX
  8
W71LALIFT
 62
6
 10
2166.679
 20
-8094.745
 30
-1771.807
 70
    32
  0
SEQEND
  8
W71LALIFT
  0
POLYLINE
  8
W71LALIFT
 62
2
 66
     1
 70
     8
  0
VERTEX
  8
W71LALIFT
 62
2
 10
1874.040
 20
-7186.106
 30
-1792.374
 70
    32
  0
VERTEX
  8
W71LALIFT
 62
2
 10
1871.716
 20
-7190.668
 30
-1789.480
 70
    32
  0
VERTEX
  8
W71LALIFT
 62
2
 10
1868.999
 20
-7194.101
 30
-1787.385
 70
    32
  0
VERTEX
  8
W71LALIFT
 62
2
 10
1862.513
 20
-7202.092
 30
-1785.415
 70
    32
  0
VERTEX
  8
W71LALIFT
 62
2
 10
1853.906
 20
-7208.574
 30
-1781.658
 70
    32
  0
VERTEX
  8
W71LALIFT
 62
2
 10
1844.843
 20
-7214.296
 30
-1780.521
 70
    32
  0
VERTEX
  8
W71LALIFT
 62
2
 10
1824.988
 20
-7223.247
 30
-1780.203
 70
    32
  0
VERTEX
  8
W71LALIFT
 62
2
 10
1807.928
 20
-7233.240
 30
-1776.008
 70
    32
  0
VERTEX
  8
W71LALIFT
 62
2
 10
1801.508
 20
-7240.023
 30
-1774.902
 70
    32
  0
VERTEX
  8
W71LALIFT
 62
2
 10
1788.760
 20
-7247.997
 30
-1773.926
 70
    32
  0
VERTEX
  8
W71LALIFT
 62
2
 10
1782.494
 20
-7248.309
 30
-1772.290
 70
    32
  0
VERTEX
  8
W71LALIFT
 62
2
 10
1777.816
 20
-7242.047
 30
-1774.956
 70
    32
  0
VERTEX
  8
W71LALIFT
 62
2
 10
1779.086
 20
-7237.712
 30
-1776.671
 70
    32
  0
VERTEX
  8
W71LALIFT
 62
2
 10
1775.994
 20
-7234.967
 30
-1777.820
 70
    32
  0
VERTEX
  8
W71LALIFT
 62
2
 10
1769.869
 20
-7233.185
 30
-1777.427
 70
    32
  0
VERTEX
  8
W71LALIFT
 62
2
 10
1767.494
 20
-7226.160
 30
-1779.629
 70
    32
  0
VERTEX
  8
W71LALIFT
 62
2
 10
1767.251
 20
-7219.865
 30
-1778.208
 70
    32
  0
VERTEX
  8
W71LALIFT
 62
2
 10
1761.935
 20
-7208.541
 30
-1777.554
 70
    32
  0
VERTEX
  8
W71LALIFT
 62
2
 10
1761.461
 20
-7201.483
 30
-1777.120
 70
    32
  0
VERTEX
  8
W71LALIFT
 62
2
 10
1767.596
 20
-7192.207
 30
-1774.366
 70
    32
  0
VERTEX
  8
W71LALIFT
 62
2
 10
1766.593
 20
-7186.886
 30
-1774.557
 70
    32
  0
VERTEX
  8
W71LALIFT
 62
2
 10
1764.922
 20
-7174.135
 30
-1775.520
 70
    32
  0
VERTEX
  8
W71LALIFT
 62
2
 10
1757.962
 20
-7163.278
 30
-1774.546
 70
    32
  0
VERTEX
  8
W71LALIFT
 62
2
 10
1751.699
 20
-7151.543
 30
-1774.611
 70
    32
  0
VERTEX
  8
W71LALIFT
 62
2
 10
1752.204
 20
-7149.622
 30
-1773.100
 70
    32
  0
VERTEX
  8
W71LALIFT
 62
2
 10
1743.321
 20
-7133.346
 30
-1772.551
 70
    32
  0
VERTEX
  8
W71LALIFT
 62
2
 10
1742.806
 20
-7130.605
 30
-1772.124
 70
    32
  0
VERTEX
  8
W71LALIFT
 62
2
 10
1740.812
 20
-7126.842
 30
-1770.080
 70
    32
  0
VERTEX
  8
W71LALIFT
 62
2
 10
1738.064
 20
-7121.409
 30
-1771.017
 70
    32
  0
VERTEX
  8
W71LALIFT
 62
2
 10
1734.641
 20
-7111.793
 30
-1772.724
 70
    32
  0
VERTEX
  8
W71LALIFT
 62
2
 10
1728.705
 20
-7099.574
 30
-1771.469
 70
    32
  0
VERTEX
  8
W71LALIFT
 62
2
 10
1717.426
 20
-7080.792
 30
-1769.022
 70
    32
  0
VERTEX
  8
W71LALIFT
 62
2
 10
1711.399
 20
-7067.973
 30
-1769.641
 70
    32
  0
VERTEX
  8
W71LALIFT
 62
2
 10
1704.197
 20
-7057.115
 30
-1769.533
 70
    32
  0
VERTEX
  8
W71LALIFT
 62
2
 10
1696.283
 20
-7045.170
 30
-1769.355
 70
    32
  0
VERTEX
  8
W71LALIFT
 62
2
 10
1691.407
 20
-7034.888
 30
-1769.854
 70
    32
  0
VERTEX
  8
W71LALIFT
 62
2
 10
1695.093
 20
-7030.913
 30
-1769.323
 70
    32
  0
VERTEX
  8
W71LALIFT
 62
2
 10
1699.044
 20
-7026.582
 30
-1768.852
 70
    32
  0
VERTEX
  8
W71LALIFT
 62
2
 10
1705.564
 20
-7028.809
 30
-1769.199
 70
    32
  0
VERTEX
  8
W71LALIFT
 62
2
 10
1713.337
 20
-7046.279
 30
-1769.239
 70
    32
  0
VERTEX
  8
W71LALIFT
 62
2
 10
1718.917
 20
-7058.381
 30
-1769.505
 70
    32
  0
VERTEX
  8
W71LALIFT
 62
2
 10
1723.499
 20
-7066.022
 30
-1769.342
 70
    32
  0
VERTEX
  8
W71LALIFT
 62
2
 10
1726.385
 20
-7071.569
 30
-1769.518
 70
    32
  0
VERTEX
  8
W71LALIFT
 62
2
 10
1732.679
 20
-7085.014
 30
-1769.739
 70
    32
  0
VERTEX
  8
W71LALIFT
 62
2
 10
1738.553
 20
-7094.750
 30
-1771.023
 70
    32
  0
VERTEX
  8
W71LALIFT
 62
2
 10
1746.497
 20
-7108.791
 30
-1771.266
 70
    32
  0
VERTEX
  8
W71LALIFT
 62
2
 10
1750.797
 20
-7111.788
 30
-1769.974
 70
    32
  0
VERTEX
  8
W71LALIFT
 62
2
 10
1758.436
 20
-7118.677
 30
-1769.485
 70
    32
  0
VERTEX
  8
W71LALIFT
 62
2
 10
1759.219
 20
-7120.192
 30
-1771.719
 70
    32
  0
VERTEX
  8
W71LALIFT
 62
2
 10
1766.233
 20
-7129.301
 30
-1771.421
 70
    32
  0
VERTEX
  8
W71LALIFT
 62
2
 10
1771.455
 20
-7137.706
 30
-1771.861
 70
    32
  0
VERTEX
  8
W71LALIFT
 62
2
 10
1776.637
 20
-7138.175
 30
-1770.662
 70
    32
  0
VERTEX
  8
W71LALIFT
 62
2
 10
1782.823
 20
-7154.533
 30
-1770.769
 70
    32
  0
VERTEX
  8
W71LALIFT
 62
2
 10
1783.199
 20
-7162.530
 30
-1773.092
 70
    32
  0
VERTEX
  8
W71LALIFT
 62
2
 10
1783.316
 20
-7172.771
 30
-1772.506
 70
    32
  0
VERTEX
  8
W71LALIFT
 62
2
 10
1784.726
 20
-7182.414
 30
-1775.090
 70
    32
  0
VERTEX
  8
W71LALIFT
 62
2
 10
1783.213
 20
-7195.456
 30
-1776.649
 70
    32
  0
VERTEX
  8
W71LALIFT
 62
2
 10
1785.494
 20
-7204.105
 30
-1776.728
 70
    32
  0
VERTEX
  8
W71LALIFT
 62
2
 10
1783.506
 20
-7212.438
 30
-1773.565
 70
    32
  0
VERTEX
  8
W71LALIFT
 62
2
 10
1789.129
 20
-7216.774
 30
-1778.544
 70
    32
  0
VERTEX
  8
W71LALIFT
 62
2
 10
1795.373
 20
-7224.463
 30
-1773.749
 70
    32
  0
VERTEX
  8
W71LALIFT
 62
2
 10
1800.537
 20
-7219.423
 30
-1775.734
 70
    32
  0
VERTEX
  8
W71LALIFT
 62
2
 10
1809.413
 20
-7216.664
 30
-1777.924
 70
    32
  0
VERTEX
  8
W71LALIFT
 62
2
 10
1827.986
 20
-7208.334
 30
-1778.865
 70
    32
  0
VERTEX
  8
W71LALIFT
 62
2
 10
1837.581
 20
-7204.452
 30
-1777.562
 70
    32
  0
VERTEX
  8
W71LALIFT
 62
2
 10
1846.199
 20
-7199.886
 30
-1781.217
 70
    32
  0
VERTEX
  8
W71LALIFT
 62
2
 10
1855.306
 20
-7194.276
 30
-1784.332
 70
    32
  0
VERTEX
  8
W71LALIFT
 62
2
 10
1861.566
 20
-7187.496
 30
-1787.322
 70
    32
  0
VERTEX
  8
W71LALIFT
 62
2
 10
1863.139
 20
-7183.891
 30
-1788.771
 70
    32
  0
VERTEX
  8
W71LALIFT
 62
2
 10
1866.024
 20
-7180.848
 30
-1792.004
 70
    32
  0
SEQEND
  8
W71LALIFT
  0
POLYLINE
  8
W71LALIFT
 62
8
 66
     1
 70
     8
  0
VERTEX
  8
W71LALIFT
 62
8
 10
1684.577
 20
-7022.653
 30
-1727.471
 70
    32
  0
VERTEX
  8
W71LALIFT
 62
8
 10
1689.167
 20
-7029.479
 30
-1726.220
 70
    32
  0
VERTEX
  8
W71LALIFT
 62
8
 10
1695.396
 20
-7046.916
 30
-1725.464
 70
    32
  0
VERTEX
  8
W71LALIFT
 62
8
 10
1703.386
 20
-7057.936
 30
-1726.152
 70
    32
  0
VERTEX
  8
W71LALIFT
 62
8
 10
1711.102
 20
-7065.768
 30
-1724.952
 70
    32
  0
VERTEX
  8
W71LALIFT
 62
8
 10
1718.529
 20
-7075.676
 30
-1726.467
 70
    32
  0
VERTEX
  8
W71LALIFT
 62
8
 10
1716.959
 20
-7080.619
 30
-1726.669
 70
    32
  0
VERTEX
  8
W71LALIFT
 62
8
 10
1721.349
 20
-7090.060
 30
-1726.614
 70
    32
  0
VERTEX
  8
W71LALIFT
 62
8
 10
1731.736
 20
-7092.065
 30
-1724.888
 70
    32
  0
VERTEX
  8
W71LALIFT
 62
8
 10
1735.053
 20
-7096.804
 30
-1724.726
 70
    32
  0
VERTEX
  8
W71LALIFT
 62
8
 10
1741.803
 20
-7100.268
 30
-1723.935
 70
    32
  0
VERTEX
  8
W71LALIFT
 62
8
 10
1744.491
 20
-7111.145
 30
-1724.274
 70
    32
  0
VERTEX
  8
W71LALIFT
 62
8
 10
1747.728
 20
-7120.272
 30
-1725.441
 70
    32
  0
VERTEX
  8
W71LALIFT
 62
8
 10
1753.037
 20
-7130.913
 30
-1724.191
 70
    32
  0
VERTEX
  8
W71LALIFT
 62
8
 10
1757.685
 20
-7143.655
 30
-1724.059
 70
    32
  0
VERTEX
  8
W71LALIFT
 62
8
 10
1761.714
 20
-7152.429
 30
-1724.732
 70
    32
  0
VERTEX
  8
W71LALIFT
 62
8
 10
1763.953
 20
-7163.318
 30
-1724.560
 70
    32
  0
VERTEX
  8
W71LALIFT
 62
8
 10
1769.316
 20
-7174.375
 30
-1723.638
 70
    32
  0
VERTEX
  8
W71LALIFT
 62
8
 10
1757.463
 20
-7180.116
 30
-1724.451
 70
    32
  0
VERTEX
  8
W71LALIFT
 62
8
 10
1753.761
 20
-7173.305
 30
-1724.020
 70
    32
  0
VERTEX
  8
W71LALIFT
 62
8
 10
1746.738
 20
-7172.229
 30
-1723.836
 70
    32
  0
VERTEX
  8
W71LALIFT
 62
8
 10
1748.220
 20
-7181.284
 30
-1723.093
 70
    32
  0
VERTEX
  8
W71LALIFT
 62
8
 10
1743.239
 20
-7185.008
 30
-1723.306
 70
    32
  0
VERTEX
  8
W71LALIFT
 62
8
 10
1739.821
 20
-7185.486
 30
-1723.306
 70
    32
  0
VERTEX
  8
W71LALIFT
 62
8
 10
1736.122
 20
-7180.518
 30
-1724.440
 70
    32
  0
VERTEX
  8
W71LALIFT
 62
8
 10
1733.387
 20
-7173.158
 30
-1725.292
 70
    32
  0
VERTEX
  8
W71LALIFT
 62
8
 10
1731.538
 20
-7157.252
 30
-1725.992
 70
    32
  0
VERTEX
  8
W71LALIFT
 62
8
 10
1728.172
 20
-7146.101
 30
-1726.590
 70
    32
  0
VERTEX
  8
W71LALIFT
 62
8
 10
1725.237
 20
-7134.238
 30
-1726.003
 70
    32
  0
VERTEX
  8
W71LALIFT
 62
8
 10
1722.627
 20
-7125.282
 30
-1726.420
 70
    32
  0
VERTEX
  8
W71LALIFT
 62
8
 10
1716.941
 20
-7114.925
 30
-1727.053
 70
    32
  0
VERTEX
  8
W71LALIFT
 62
8
 10
1715.229
 20
-7106.770
 30
-1727.030
 70
    32
  0
VERTEX
  8
W71LALIFT
 62
8
 10
1711.158
 20
-7099.364
 30
-1726.487
 70
    32
  0
VERTEX
  8
W71LALIFT
 62
8
 10
1707.774
 20
-7092.423
 30
-1726.616
 70
    32
  0
VERTEX
  8
W71LALIFT
 62
8
 10
1703.930
 20
-7084.074
 30
-1726.807
 70
    32
  0
VERTEX
  8
W71LALIFT
 62
8
 10
1699.236
 20
-7073.620
 30
-1725.394
 70
    32
  0
VERTEX
  8
W71LALIFT
 62
8
 10
1693.879
 20
-7065.324
 30
-1727.610
 70
    32
  0
VERTEX
  8
W71LALIFT
 62
8
 10
1693.354
 20
-7064.129
 30
-1727.423
 70
    32
  0
VERTEX
  8
W71LALIFT
 62
8
 10
1690.329
 20
-7057.417
 30
-1726.131
 70
    32
  0
VERTEX
  8
W71LALIFT
 62
8
 10
1684.544
 20
-7051.320
 30
-1724.515
 70
    32
  0
VERTEX
  8
W71LALIFT
 62
8
 10
1679.832
 20
-7049.241
 30
-1725.521
 70
    32
  0
VERTEX
  8
W71LALIFT
 62
8
 10
1675.207
 20
-7038.382
 30
-1725.834
 70
    32
  0
VERTEX
  8
W71LALIFT
 62
8
 10
1674.401
 20
-7031.858
 30
-1726.901
 70
    32
  0
SEQEND
  8
W71LALIFT
  0
POLYLINE
  8
W71LALIFT
 62
6
 66
     1
 70
     8
  0
VERTEX
  8
W71LALIFT
 62
6
 10
1845.250
 20
-6928.738
 30
-1703.946
 70
    32
  0
VERTEX
  8
W71LALIFT
 62
6
 10
1853.670
 20
-6931.064
 30
-1705.529
 70
    32
  0
VERTEX
  8
W71LALIFT
 62
6
 10
1854.796
 20
-6937.213
 30
-1704.811
 70
    32
  0
VERTEX
  8
W71LALIFT
 62
6
 10
1862.743
 20
-6940.310
 30
-1705.123
 70
    32
  0
VERTEX
  8
W71LALIFT
 62
6
 10
1869.946
 20
-6945.321
 30
-1706.242
 70
    32
  0
VERTEX
  8
W71LALIFT
 62
6
 10
1880.161
 20
-6944.360
 30
-1708.437
 70
    32
  0
VERTEX
  8
W71LALIFT
 62
6
 10
1882.153
 20
-6940.512
 30
-1709.394
 70
    32
  0
VERTEX
  8
W71LALIFT
 62
6
 10
1879.364
 20
-6935.292
 30
-1708.791
 70
    32
  0
VERTEX
  8
W71LALIFT
 62
6
 10
1869.591
 20
-6926.470
 30
-1707.173
 70
    32
  0
VERTEX
  8
W71LALIFT
 62
6
 10
1871.181
 20
-6921.704
 30
-1706.554
 70
    32
  0
VERTEX
  8
W71LALIFT
 62
6
 10
1872.982
 20
-6916.451
 30
-1707.712
 70
    32
  0
VERTEX
  8
W71LALIFT
 62
6
 10
1877.670
 20
-6916.948
 30
-1709.130
 70
    32
  0
VERTEX
  8
W71LALIFT
 62
6
 10
1881.354
 20
-6919.797
 30
-1709.227
 70
    32
  0
VERTEX
  8
W71LALIFT
 62
6
 10
1887.286
 20
-6920.350
 30
-1709.017
 70
    32
  0
VERTEX
  8
W71LALIFT
 62
6
 10
1890.273
 20
-6923.077
 30
-1709.130
 70
    32
  0
VERTEX
  8
W71LALIFT
 62
6
 10
1894.888
 20
-6924.169
 30
-1709.194
 70
    32
  0
VERTEX
  8
W71LALIFT
 62
6
 10
1900.734
 20
-6924.019
 30
-1708.680
 70
    32
  0
VERTEX
  8
W71LALIFT
 62
6
 10
1909.259
 20
-6927.980
 30
-1707.197
 70
    32
  0
VERTEX
  8
W71LALIFT
 62
6
 10
1916.504
 20
-6935.167
 30
-1706.961
 70
    32
  0
VERTEX
  8
W71LALIFT
 62
6
 10
1929.080
 20
-6936.399
 30
-1705.871
 70
    32
  0
VERTEX
  8
W71LALIFT
 62
6
 10
1930.842
 20
-6938.571
 30
-1705.748
 70
    32
  0
VERTEX
  8
W71LALIFT
 62
6
 10
1935.816
 20
-6942.807
 30
-1705.793
 70
    32
  0
VERTEX
  8
W71LALIFT
 62
6
 10
1939.842
 20
-6944.381
 30
-1704.073
 70
    32
  0
VERTEX
  8
W71LALIFT
 62
6
 10
1942.503
 20
-6949.402
 30
-1703.385
 70
    32
  0
VERTEX
  8
W71LALIFT
 62
6
 10
1945.171
 20
-6959.757
 30
-1706.377
 70
    32
  0
VERTEX
  8
W71LALIFT
 62
6
 10
1943.285
 20
-6964.961
 30
-1702.788
 70
    32
  0
VERTEX
  8
W71LALIFT
 62
6
 10
1942.311
 20
-6966.866
 30
-1703.252
 70
    32
  0
VERTEX
  8
W71LALIFT
 62
6
 10
1938.762
 20
-6972.292
 30
-1702.284
 70
    32
  0
VERTEX
  8
W71LALIFT
 62
6
 10
1935.126
 20
-6978.575
 30
-1708.372
 70
    32
  0
VERTEX
  8
W71LALIFT
 62
6
 10
1937.000
 20
-6984.761
 30
-1707.574
 70
    32
  0
VERTEX
  8
W71LALIFT
 62
6
 10
1940.065
 20
-6988.142
 30
-1707.942
 70
    32
  0
VERTEX
  8
W71LALIFT
 62
6
 10
1948.011
 20
-6989.617
 30
-1707.291
 70
    32
  0
VERTEX
  8
W71LALIFT
 62
6
 10
1954.900
 20
-6989.039
 30
-1707.178
 70
    32
  0
VERTEX
  8
W71LALIFT
 62
6
 10
1962.443
 20
-6986.653
 30
-1707.309
 70
    32
  0
VERTEX
  8
W71LALIFT
 62
6
 10
1971.837
 20
-6985.118
 30
-1706.242
 70
    32
  0
VERTEX
  8
W71LALIFT
 62
6
 10
1984.139
 20
-6983.392
 30
-1705.432
 70
    32
  0
VERTEX
  8
W71LALIFT
 62
6
 10
1985.765
 20
-6997.654
 30
-1705.215
 70
    32
  0
VERTEX
  8
W71LALIFT
 62
6
 10
1977.918
 20
-6997.680
 30
-1705.650
 70
    32
  0
VERTEX
  8
W71LALIFT
 62
6
 10
1960.495
 20
-7000.793
 30
-1707.232
 70
    32
  0
VERTEX
  8
W71LALIFT
 62
6
 10
1954.971
 20
-7007.332
 30
-1705.076
 70
    32
  0
VERTEX
  8
W71LALIFT
 62
6
 10
1948.482
 20
-7014.694
 30
-1705.455
 70
    32
  0
VERTEX
  8
W71LALIFT
 62
6
 10
1952.026
 20
-7021.571
 30
-1705.834
 70
    32
  0
VERTEX
  8
W71LALIFT
 62
6
 10
1957.479
 20
-7030.197
 30
-1705.958
 70
    32
  0
VERTEX
  8
W71LALIFT
 62
6
 10
1955.197
 20
-7033.125
 30
-1706.076
 70
    32
  0
VERTEX
  8
W71LALIFT
 62
6
 10
1959.345
 20
-7042.275
 30
-1706.212
 70
    32
  0
VERTEX
  8
W71LALIFT
 62
6
 10
1964.219
 20
-7060.453
 30
-1705.241
 70
    32
  0
VERTEX
  8
W71LALIFT
 62
6
 10
1975.556
 20
-7066.781
 30
-1704.538
 70
    32
  0
VERTEX
  8
W71LALIFT
 62
6
 10
1982.872
 20
-7070.650
 30
-1704.191
 70
    32
  0
VERTEX
  8
W71LALIFT
 62
6
 10
1985.319
 20
-7077.887
 30
-1703.443
 70
    32
  0
VERTEX
  8
W71LALIFT
 62
6
 10
1988.011
 20
-7082.948
 30
-1705.276
 70
    32
  0
VERTEX
  8
W71LALIFT
 62
6
 10
1988.403
 20
-7091.383
 30
-1703.383
 70
    32
  0
VERTEX
  8
W71LALIFT
 62
6
 10
1987.930
 20
-7093.752
 30
-1705.122
 70
    32
  0
VERTEX
  8
W71LALIFT
 62
6
 10
1991.353
 20
-7100.779
 30
-1704.326
 70
    32
  0
VERTEX
  8
W71LALIFT
 62
6
 10
1986.351
 20
-7104.701
 30
-1704.751
 70
    32
  0
VERTEX
  8
W71LALIFT
 62
6
 10
1981.827
 20
-7106.425
 30
-1705.862
 70
    32
  0
VERTEX
  8
W71LALIFT
 62
6
 10
1978.982
 20
-7101.983
 30
-1704.409
 70
    32
  0
VERTEX
  8
W71LALIFT
 62
6
 10
1972.296
 20
-7101.250
 30
-1705.930
 70
    32
  0
VERTEX
  8
W71LALIFT
 62
6
 10
1966.407
 20
-7101.602
 30
-1706.968
 70
    32
  0
VERTEX
  8
W71LALIFT
 62
6
 10
1964.795
 20
-7102.153
 30
-1707.890
 70
    32
  0
VERTEX
  8
W71LALIFT
 62
6
 10
1961.647
 20
-7090.502
 30
-1707.500
 70
    32
  0
VERTEX
  8
W71LALIFT
 62
6
 10
1958.518
 20
-7077.509
 30
-1707.811
 70
    32
  0
VERTEX
  8
W71LALIFT
 62
6
 10
1955.440
 20
-7062.938
 30
-1706.743
 70
    32
  0
VERTEX
  8
W71LALIFT
 62
6
 10
1951.553
 20
-7054.708
 30
-1707.188
 70
    32
  0
VERTEX
  8
W71LALIFT
 62
6
 10
1947.184
 20
-7042.929
 30
-1707.169
 70
    32
  0
VERTEX
  8
W71LALIFT
 62
6
 10
1945.390
 20
-7035.054
 30
-1707.134
 70
    32
  0
VERTEX
  8
W71LALIFT
 62
6
 10
1941.437
 20
-7035.454
 30
-1707.268
 70
    32
  0
VERTEX
  8
W71LALIFT
 62
6
 10
1938.389
 20
-7036.110
 30
-1707.638
 70
    32
  0
VERTEX
  8
W71LALIFT
 62
6
 10
1932.595
 20
-7043.548
 30
-1707.961
 70
    32
  0
VERTEX
  8
W71LALIFT
 62
6
 10
1927.656
 20
-7041.420
 30
-1709.118
 70
    32
  0
VERTEX
  8
W71LALIFT
 62
6
 10
1927.182
 20
-7034.469
 30
-1709.791
 70
    32
  0
VERTEX
  8
W71LALIFT
 62
6
 10
1923.737
 20
-7030.735
 30
-1707.513
 70
    32
  0
VERTEX
  8
W71LALIFT
 62
6
 10
1924.197
 20
-7028.153
 30
-1708.174
 70
    32
  0
VERTEX
  8
W71LALIFT
 62
6
 10
1929.746
 20
-7024.393
 30
-1707.759
 70
    32
  0
VERTEX
  8
W71LALIFT
 62
6
 10
1935.122
 20
-7017.456
 30
-1707.422
 70
    32
  0
VERTEX
  8
W71LALIFT
 62
6
 10
1932.129
 20
-7009.122
 30
-1708.532
 70
    32
  0
VERTEX
  8
W71LALIFT
 62
6
 10
1925.093
 20
-7008.053
 30
-1706.538
 70
    32
  0
VERTEX
  8
W71LALIFT
 62
6
 10
1919.364
 20
-7004.846
 30
-1706.703
 70
    32
  0
VERTEX
  8
W71LALIFT
 62
6
 10
1910.913
 20
-7006.851
 30
-1708.415
 70
    32
  0
VERTEX
  8
W71LALIFT
 62
6
 10
1907.434
 20
-7007.310
 30
-1708.649
 70
    32
  0
VERTEX
  8
W71LALIFT
 62
6
 10
1899.797
 20
-7010.202
 30
-1708.796
 70
    32
  0
VERTEX
  8
W71LALIFT
 62
6
 10
1890.304
 20
-7012.264
 30
-1708.196
 70
    32
  0
VERTEX
  8
W71LALIFT
 62
6
 10
1888.689
 20
-7001.500
 30
-1709.080
 70
    32
  0
VERTEX
  8
W71LALIFT
 62
6
 10
1904.727
 20
-6996.276
 30
-1708.634
 70
    32
  0
VERTEX
  8
W71LALIFT
 62
6
 10
1916.393
 20
-6992.550
 30
-1709.342
 70
    32
  0
VERTEX
  8
W71LALIFT
 62
6
 10
1917.644
 20
-6990.051
 30
-1709.541
 70
    32
  0
VERTEX
  8
W71LALIFT
 62
6
 10
1915.231
 20
-6980.223
 30
-1709.002
 70
    32
  0
VERTEX
  8
W71LALIFT
 62
6
 10
1911.634
 20
-6976.367
 30
-1708.024
 70
    32
  0
VERTEX
  8
W71LALIFT
 62
6
 10
1907.746
 20
-6977.061
 30
-1709.483
 70
    32
  0
VERTEX
  8
W71LALIFT
 62
6
 10
1900.616
 20
-6968.337
 30
-1709.342
 70
    32
  0
VERTEX
  8
W71LALIFT
 62
6
 10
1895.550
 20
-6962.270
 30
-1709.165
 70
    32
  0
VERTEX
  8
W71LALIFT
 62
6
 10
1882.660
 20
-6957.633
 30
-1707.317
 70
    32
  0
VERTEX
  8
W71LALIFT
 62
6
 10
1876.375
 20
-6957.533
 30
-1706.971
 70
    32
  0
VERTEX
  8
W71LALIFT
 62
6
 10
1869.107
 20
-6956.263
 30
-1706.982
 70
    32
  0
VERTEX
  8
W71LALIFT
 62
6
 10
1864.555
 20
-6956.458
 30
-1704.984
 70
    32
  0
VERTEX
  8
W71LALIFT
 62
6
 10
1860.415
 20
-6953.987
 30
-1705.050
 70
    32
  0
VERTEX
  8
W71LALIFT
 62
6
 10
1858.824
 20
-6955.330
 30
-1704.767
 70
    32
  0
VERTEX
  8
W71LALIFT
 62
6
 10
1857.139
 20
-6959.923
 30
-1706.184
 70
    32
  0
VERTEX
  8
W71LALIFT
 62
6
 10
1857.189
 20
-6966.947
 30
-1708.792
 70
    32
  0
VERTEX
  8
W71LALIFT
 62
6
 10
1857.288
 20
-6979.045
 30
-1707.067
 70
    32
  0
VERTEX
  8
W71LALIFT
 62
6
 10
1859.505
 20
-6983.025
 30
-1716.668
 70
    32
  0
VERTEX
  8
W71LALIFT
 62
6
 10
1865.137
 20
-6989.857
 30
-1716.936
 70
    32
  0
VERTEX
  8
W71LALIFT
 62
6
 10
1874.833
 20
-6994.614
 30
-1718.918
 70
    32
  0
VERTEX
  8
W71LALIFT
 62
6
 10
1888.547
 20
-6999.938
 30
-1718.677
 70
    32
  0
VERTEX
  8
W71LALIFT
 62
6
 10
1890.399
 20
-7011.917
 30
-1718.889
 70
    32
  0
VERTEX
  8
W71LALIFT
 62
6
 10
1891.942
 20
-7012.174
 30
-1719.100
 70
    32
  0
VERTEX
  8
W71LALIFT
 62
6
 10
1888.019
 20
-7013.740
 30
-1719.312
 70
    32
  0
VERTEX
  8
W71LALIFT
 62
6
 10
1868.957
 20
-7002.225
 30
-1718.820
 70
    32
  0
VERTEX
  8
W71LALIFT
 62
6
 10
1867.237
 20
-7002.487
 30
-1716.740
 70
    32
  0
VERTEX
  8
W71LALIFT
 62
6
 10
1861.661
 20
-7006.293
 30
-1709.616
 70
    32
  0
VERTEX
  8
W71LALIFT
 62
6
 10
1862.180
 20
-7008.282
 30
-1712.296
 70
    32
  0
VERTEX
  8
W71LALIFT
 62
6
 10
1862.182
 20
-7017.857
 30
-1711.800
 70
    32
  0
VERTEX
  8
W71LALIFT
 62
6
 10
1864.764
 20
-7020.285
 30
-1712.008
 70
    32
  0
VERTEX
  8
W71LALIFT
 62
6
 10
1867.513
 20
-7018.705
 30
-1712.010
 70
    32
  0
VERTEX
  8
W71LALIFT
 62
6
 10
1870.488
 20
-7024.634
 30
-1713.114
 70
    32
  0
VERTEX
  8
W71LALIFT
 62
6
 10
1866.672
 20
-7025.989
 30
-1713.219
 70
    32
  0
VERTEX
  8
W71LALIFT
 62
6
 10
1863.473
 20
-7028.643
 30
-1714.324
 70
    32
  0
VERTEX
  8
W71LALIFT
 62
6
 10
1860.218
 20
-7032.087
 30
-1714.429
 70
    32
  0
VERTEX
  8
W71LALIFT
 62
6
 10
1859.579
 20
-7036.889
 30
-1715.361
 70
    32
  0
VERTEX
  8
W71LALIFT
 62
6
 10
1856.377
 20
-7051.706
 30
-1717.263
 70
    32
  0
VERTEX
  8
W71LALIFT
 62
6
 10
1854.636
 20
-7059.654
 30
-1717.465
 70
    32
  0
VERTEX
  8
W71LALIFT
 62
6
 10
1854.654
 20
-7068.292
 30
-1716.618
 70
    32
  0
VERTEX
  8
W71LALIFT
 62
6
 10
1856.485
 20
-7073.617
 30
-1715.518
 70
    32
  0
VERTEX
  8
W71LALIFT
 62
6
 10
1863.454
 20
-7084.747
 30
-1712.121
 70
    32
  0
VERTEX
  8
W71LALIFT
 62
6
 10
1870.751
 20
-7092.713
 30
-1710.141
 70
    32
  0
VERTEX
  8
W71LALIFT
 62
6
 10
1875.724
 20
-7105.823
 30
-1709.049
 70
    32
  0
VERTEX
  8
W71LALIFT
 62
6
 10
1877.629
 20
-7112.519
 30
-1707.511
 70
    32
  0
VERTEX
  8
W71LALIFT
 62
6
 10
1877.819
 20
-7122.032
 30
-1706.476
 70
    32
  0
VERTEX
  8
W71LALIFT
 62
6
 10
1878.935
 20
-7130.052
 30
-1707.053
 70
    32
  0
VERTEX
  8
W71LALIFT
 62
6
 10
1881.190
 20
-7137.809
 30
-1707.503
 70
    32
  0
VERTEX
  8
W71LALIFT
 62
6
 10
1884.337
 20
-7146.216
 30
-1705.788
 70
    32
  0
VERTEX
  8
W71LALIFT
 62
6
 10
1889.894
 20
-7153.606
 30
-1704.032
 70
    32
  0
VERTEX
  8
W71LALIFT
 62
6
 10
1888.841
 20
-7157.903
 30
-1703.355
 70
    32
  0
VERTEX
  8
W71LALIFT
 62
6
 10
1891.020
 20
-7165.221
 30
-1700.379
 70
    32
  0
VERTEX
  8
W71LALIFT
 62
6
 10
1885.436
 20
-7167.130
 30
-1701.898
 70
    32
  0
VERTEX
  8
W71LALIFT
 62
6
 10
1880.942
 20
-7168.098
 30
-1702.886
 70
    32
  0
VERTEX
  8
W71LALIFT
 62
6
 10
1875.893
 20
-7164.574
 30
-1703.466
 70
    32
  0
VERTEX
  8
W71LALIFT
 62
6
 10
1869.856
 20
-7159.004
 30
-1705.941
 70
    32
  0
VERTEX
  8
W71LALIFT
 62
6
 10
1869.171
 20
-7149.755
 30
-1707.540
 70
    32
  0
VERTEX
  8
W71LALIFT
 62
6
 10
1867.753
 20
-7141.684
 30
-1708.725
 70
    32
  0
VERTEX
  8
W71LALIFT
 62
6
 10
1867.519
 20
-7130.720
 30
-1709.428
 70
    32
  0
VERTEX
  8
W71LALIFT
 62
6
 10
1866.409
 20
-7124.999
 30
-1706.883
 70
    32
  0
VERTEX
  8
W71LALIFT
 62
6
 10
1866.405
 20
-7116.266
 30
-1708.140
 70
    32
  0
VERTEX
  8
W71LALIFT
 62
6
 10
1859.619
 20
-7106.700
 30
-1710.585
 70
    32
  0
VERTEX
  8
W71LALIFT
 62
6
 10
1853.357
 20
-7084.965
 30
-1714.729
 70
    32
  0
VERTEX
  8
W71LALIFT
 62
6
 10
1849.112
 20
-7079.383
 30
-1713.941
 70
    32
  0
VERTEX
  8
W71LALIFT
 62
6
 10
1843.354
 20
-7074.295
 30
-1713.782
 70
    32
  0
VERTEX
  8
W71LALIFT
 62
6
 10
1841.114
 20
-7064.588
 30
-1716.652
 70
    32
  0
VERTEX
  8
W71LALIFT
 62
6
 10
1843.094
 20
-7057.856
 30
-1715.744
 70
    32
  0
VERTEX
  8
W71LALIFT
 62
6
 10
1847.355
 20
-7047.763
 30
-1715.672
 70
    32
  0
VERTEX
  8
W71LALIFT
 62
6
 10
1847.985
 20
-7037.131
 30
-1714.255
 70
    32
  0
VERTEX
  8
W71LALIFT
 62
6
 10
1849.591
 20
-7028.042
 30
-1714.580
 70
    32
  0
VERTEX
  8
W71LALIFT
 62
6
 10
1849.756
 20
-7017.289
 30
-1713.279
 70
    32
  0
VERTEX
  8
W71LALIFT
 62
6
 10
1851.005
 20
-7008.025
 30
-1712.255
 70
    32
  0
VERTEX
  8
W71LALIFT
 62
6
 10
1849.388
 20
-7000.191
 30
-1709.521
 70
    32
  0
VERTEX
  8
W71LALIFT
 62
6
 10
1846.936
 20
-6997.259
 30
-1710.811
 70
    32
  0
VERTEX
  8
W71LALIFT
 62
6
 10
1844.436
 20
-6992.113
 30
-1710.423
 70
    32
  0
VERTEX
  8
W71LALIFT
 62
6
 10
1842.924
 20
-6984.941
 30
-1710.083
 70
    32
  0
VERTEX
  8
W71LALIFT
 62
6
 10
1843.403
 20
-6978.872
 30
-1708.310
 70
    32
  0
VERTEX
  8
W71LALIFT
 62
6
 10
1844.079
 20
-6966.709
 30
-1707.450
 70
    32
  0
VERTEX
  8
W71LALIFT
 62
6
 10
1843.967
 20
-6954.798
 30
-1705.713
 70
    32
  0
VERTEX
  8
W71LALIFT
 62
6
 10
1841.256
 20
-6953.086
 30
-1703.069
 70
    32
  0
VERTEX
  8
W71LALIFT
 62
6
 10
1839.650
 20
-6949.769
 30
-1703.972
 70
    32
  0
VERTEX
  8
W71LALIFT
 62
6
 10
1837.841
 20
-6948.288
 30
-1703.979
 70
    32
  0
VERTEX
  8
W71LALIFT
 62
6
 10
1829.065
 20
-6946.680
 30
-1704.371
 70
    32
  0
VERTEX
  8
W71LALIFT
 62
6
 10
1825.459
 20
-6932.300
 30
-1702.000
 70
    32
  0
SEQEND
  8
W71LALIFT
  0
POLYLINE
  8
W71LALIFT
 62
6
 66
     1
 70
     8
  0
VERTEX
  8
W71LALIFT
 62
6
 10
1399.550
 20
-6408.898
 30
-1769.034
 70
    32
  0
VERTEX
  8
W71LALIFT
 62
6
 10
1411.349
 20
-6407.285
 30
-1766.774
 70
    32
  0
VERTEX
  8
W71LALIFT
 62
6
 10
1418.553
 20
-6402.547
 30
-1764.841
 70
    32
  0
VERTEX
  8
W71LALIFT
 62
6
 10
1431.175
 20
-6397.130
 30
-1763.480
 70
    32
  0
VERTEX
  8
W71LALIFT
 62
6
 10
1440.194
 20
-6392.855
 30
-1763.183
 70
    32
  0
VERTEX
  8
W71LALIFT
 62
6
 10
1449.262
 20
-6390.501
 30
-1762.094
 70
    32
  0
VERTEX
  8
W71LALIFT
 62
6
 10
1458.132
 20
-6395.321
 30
-1761.882
 70
    32
  0
VERTEX
  8
W71LALIFT
 62
6
 10
1455.993
 20
-6399.930
 30
-1762.080
 70
    32
  0
VERTEX
  8
W71LALIFT
 62
6
 10
1460.121
 20
-6408.702
 30
-1761.611
 70
    32
  0
VERTEX
  8
W71LALIFT
 62
6
 10
1463.476
 20
-6420.356
 30
-1761.452
 70
    32
  0
VERTEX
  8
W71LALIFT
 62
6
 10
1461.585
 20
-6430.076
 30
-1760.422
 70
    32
  0
VERTEX
  8
W71LALIFT
 62
6
 10
1454.206
 20
-6430.796
 30
-1760.001
 70
    32
  0
VERTEX
  8
W71LALIFT
 62
6
 10
1447.809
 20
-6430.511
 30
-1760.910
 70
    32
  0
VERTEX
  8
W71LALIFT
 62
6
 10
1441.238
 20
-6436.162
 30
-1760.820
 70
    32
  0
VERTEX
  8
W71LALIFT
 62
6
 10
1436.037
 20
-6446.822
 30
-1762.140
 70
    32
  0
VERTEX
  8
W71LALIFT
 62
6
 10
1431.891
 20
-6447.812
 30
-1763.221
 70
    32
  0
VERTEX
  8
W71LALIFT
 62
6
 10
1429.645
 20
-6446.187
 30
-1763.192
 70
    32
  0
VERTEX
  8
W71LALIFT
 62
6
 10
1426.336
 20
-6444.254
 30
-1764.302
 70
    32
  0
VERTEX
  8
W71LALIFT
 62
6
 10
1420.663
 20
-6439.817
 30
-1765.117
 70
    32
  0
VERTEX
  8
W71LALIFT
 62
6
 10
1415.950
 20
-6435.129
 30
-1764.795
 70
    32
  0
VERTEX
  8
W71LALIFT
 62
6
 10
1420.502
 20
-6429.452
 30
-1764.899
 70
    32
  0
VERTEX
  8
W71LALIFT
 62
6
 10
1416.661
 20
-6425.646
 30
-1765.352
 70
    32
  0
VERTEX
  8
W71LALIFT
 62
6
 10
1411.492
 20
-6425.528
 30
-1765.836
 70
    32
  0
VERTEX
  8
W71LALIFT
 62
6
 10
1410.595
 20
-6424.720
 30
-1766.496
 70
    32
  0
VERTEX
  8
W71LALIFT
 62
6
 10
1408.112
 20
-6423.679
 30
-1767.166
 70
    32
  0
VERTEX
  8
W71LALIFT
 62
6
 10
1403.202
 20
-6419.917
 30
-1768.428
 70
    32
  0
VERTEX
  8
W71LALIFT
 62
6
 10
1396.444
 20
-6419.419
 30
-1769.368
 70
    32
  0
SEQEND
  8
W71LALIFT
  0
POLYLINE
  8
W71LALIFT
 62
8
 66
     1
 70
     9
  0
VERTEX
  8
W71LALIFT
 62
8
 10
1865.018
 20
-6944.148
 30
-1650.000
 70
    32
  0
VERTEX
  8
W71LALIFT
 62
8
 10
1875.689
 20
-6934.363
 30
-1650.000
 70
    32
  0
VERTEX
  8
W71LALIFT
 62
8
 10
1885.103
 20
-6933.289
 30
-1650.000
 70
    32
  0
VERTEX
  8
W71LALIFT
 62
8
 10
1891.828
 20
-6931.005
 30
-1650.000
 70
    32
  0
VERTEX
  8
W71LALIFT
 62
8
 10
1894.248
 20
-6934.766
 30
-1650.000
 70
    32
  0
VERTEX
  8
W71LALIFT
 62
8
 10
1895.459
 20
-6937.319
 30
-1650.000
 70
    32
  0
VERTEX
  8
W71LALIFT
 62
8
 10
1898.149
 20
-6941.080
 30
-1650.000
 70
    32
  0
VERTEX
  8
W71LALIFT
 62
8
 10
1891.559
 20
-6943.767
 30
-1650.000
 70
    32
  0
VERTEX
  8
W71LALIFT
 62
8
 10
1888.041
 20
-6946.271
 30
-1650.000
 70
    32
  0
VERTEX
  8
W71LALIFT
 62
8
 10
1895.833
 20
-6966.081
 30
-1650.000
 70
    32
  0
VERTEX
  8
W71LALIFT
 62
8
 10
1903.979
 20
-7006.408
 30
-1650.000
 70
    32
  0
VERTEX
  8
W71LALIFT
 62
8
 10
1903.979
 20
-7016.667
 30
-1650.000
 70
    32
  0
VERTEX
  8
W71LALIFT
 62
8
 10
1898.312
 20
-7016.313
 30
-1650.000
 70
    32
  0
VERTEX
  8
W71LALIFT
 62
8
 10
1894.416
 20
-7007.823
 30
-1650.000
 70
    32
  0
VERTEX
  8
W71LALIFT
 62
8
 10
1879.186
 20
-6965.727
 30
-1650.000
 70
    32
  0
VERTEX
  8
W71LALIFT
 62
8
 10
1873.519
 20
-6954.407
 30
-1650.000
 70
    32
  0
SEQEND
  8
W71LALIFT
  0
POLYLINE
  8
W71LALIFT
 62
6
 66
     1
 70
     9
  0
VERTEX
  8
W71LALIFT
 62
6
 10
1861.122
 20
-6940.257
 30
-1655.400
 70
    32
  0
VERTEX
  8
W71LALIFT
 62
6
 10
1883.082
 20
-6933.536
 30
-1655.400
 70
    32
  0
VERTEX
  8
W71LALIFT
 62
6
 10
1900.060
 20
-6933.946
 30
-1655.400
 70
    32
  0
VERTEX
  8
W71LALIFT
 62
6
 10
1920.002
 20
-6938.798
 30
-1655.400
 70
    32
  0
VERTEX
  8
W71LALIFT
 62
6
 10
1931.507
 20
-6942.628
 30
-1655.400
 70
    32
  0
VERTEX
  8
W71LALIFT
 62
6
 10
1933.553
 20
-6951.566
 30
-1655.400
 70
    32
  0
VERTEX
  8
W71LALIFT
 62
6
 10
1917.701
 20
-6946.714
 30
-1655.400
 70
    32
  0
VERTEX
  8
W71LALIFT
 62
6
 10
1904.407
 20
-6953.354
 30
-1655.400
 70
    32
  0
VERTEX
  8
W71LALIFT
 62
6
 10
1901.751
 20
-6954.157
 30
-1655.400
 70
    32
  0
VERTEX
  8
W71LALIFT
 62
6
 10
1906.104
 20
-6960.774
 30
-1655.400
 70
    32
  0
VERTEX
  8
W71LALIFT
 62
6
 10
1921.688
 20
-6982.353
 30
-1655.400
 70
    32
  0
VERTEX
  8
W71LALIFT
 62
6
 10
1913.542
 20
-7023.388
 30
-1655.400
 70
    32
  0
VERTEX
  8
W71LALIFT
 62
6
 10
1905.396
 20
-7025.157
 30
-1655.400
 70
    32
  0
VERTEX
  8
W71LALIFT
 62
6
 10
1896.187
 20
-7003.932
 30
-1655.400
 70
    32
  0
VERTEX
  8
W71LALIFT
 62
6
 10
1888.395
 20
-6990.136
 30
-1655.400
 70
    32
  0
VERTEX
  8
W71LALIFT
 62
6
 10
1883.082
 20
-6968.911
 30
-1655.400
 70
    32
  0
VERTEX
  8
W71LALIFT
 62
6
 10
1871.040
 20
-6954.407
 30
-1655.400
 70
    32
  0
SEQEND
  8
W71LALIFT
  0
POLYLINE
  8
W71LALIFT
 62
3
 66
     1
 70
     9
  0
VERTEX
  8
W71LALIFT
 62
3
 10
1863.247
 20
-6936.719
 30
-1660.500
 70
    32
  0
VERTEX
  8
W71LALIFT
 62
3
 10
1884.499
 20
-6931.059
 30
-1660.500
 70
    32
  0
VERTEX
  8
W71LALIFT
 62
3
 10
1893.924
 20
-6935.222
 30
-1660.500
 70
    32
  0
VERTEX
  8
W71LALIFT
 62
3
 10
1909.264
 20
-6936.499
 30
-1660.500
 70
    32
  0
VERTEX
  8
W71LALIFT
 62
3
 10
1939.177
 20
-6949.268
 30
-1660.500
 70
    32
  0
VERTEX
  8
W71LALIFT
 62
3
 10
1938.922
 20
-6955.652
 30
-1660.500
 70
    32
  0
VERTEX
  8
W71LALIFT
 62
3
 10
1932.530
 20
-6966.123
 30
-1660.500
 70
    32
  0
VERTEX
  8
W71LALIFT
 62
3
 10
1921.536
 20
-6961.781
 30
-1660.500
 70
    32
  0
VERTEX
  8
W71LALIFT
 62
3
 10
1920.272
 20
-6966.081
 30
-1660.500
 70
    32
  0
VERTEX
  8
W71LALIFT
 62
3
 10
1933.377
 20
-6979.877
 30
-1660.500
 70
    32
  0
VERTEX
  8
W71LALIFT
 62
3
 10
1927.001
 20
-6989.782
 30
-1660.500
 70
    32
  0
VERTEX
  8
W71LALIFT
 62
3
 10
1918.501
 20
-6987.660
 30
-1660.500
 70
    32
  0
VERTEX
  8
W71LALIFT
 62
3
 10
1912.479
 20
-6976.693
 30
-1660.500
 70
    32
  0
VERTEX
  8
W71LALIFT
 62
3
 10
1906.458
 20
-6975.986
 30
-1660.500
 70
    32
  0
VERTEX
  8
W71LALIFT
 62
3
 10
1902.562
 20
-6983.768
 30
-1660.500
 70
    32
  0
VERTEX
  8
W71LALIFT
 62
3
 10
1907.521
 20
-6996.857
 30
-1660.500
 70
    32
  0
VERTEX
  8
W71LALIFT
 62
3
 10
1913.542
 20
-7006.408
 30
-1660.500
 70
    32
  0
VERTEX
  8
W71LALIFT
 62
3
 10
1920.272
 20
-7020.205
 30
-1660.500
 70
    32
  0
VERTEX
  8
W71LALIFT
 62
3
 10
1906.104
 20
-7023.388
 30
-1660.500
 70
    32
  0
VERTEX
  8
W71LALIFT
 62
3
 10
1896.187
 20
-7000.395
 30
-1660.500
 70
    32
  0
VERTEX
  8
W71LALIFT
 62
3
 10
1889.457
 20
-6984.830
 30
-1660.500
 70
    32
  0
VERTEX
  8
W71LALIFT
 62
3
 10
1883.082
 20
-6967.142
 30
-1660.500
 70
    32
  0
VERTEX
  8
W71LALIFT
 62
3
 10
1866.789
 20
-6949.101
 30
-1660.500
 70
    32
  0
VERTEX
  8
W71LALIFT
 62
3
 10
1864.310
 20
-6948.039
 30
-1660.500
 70
    32
  0
SEQEND
  8
W71LALIFT
  0
POLYLINE
  8
W71LALIFT
 62
2
 66
     1
 70
     9
  0
VERTEX
  8
W71LALIFT
 62
2
 10
1861.122
 20
-6932.828
 30
-1665.600
 70
    32
  0
VERTEX
  8
W71LALIFT
 62
2
 10
1869.269
 20
-6927.522
 30
-1665.600
 70
    32
  0
VERTEX
  8
W71LALIFT
 62
2
 10
1890.874
 20
-6934.597
 30
-1665.600
 70
    32
  0
VERTEX
  8
W71LALIFT
 62
2
 10
1900.814
 20
-6936.736
 30
-1665.600
 70
    32
  0
VERTEX
  8
W71LALIFT
 62
2
 10
1910.662
 20
-6938.703
 30
-1665.600
 70
    32
  0
VERTEX
  8
W71LALIFT
 62
2
 10
1939.222
 20
-6951.983
 30
-1665.600
 70
    32
  0
VERTEX
  8
W71LALIFT
 62
2
 10
1940.699
 20
-6965.755
 30
-1665.600
 70
    32
  0
VERTEX
  8
W71LALIFT
 62
2
 10
1944.002
 20
-6974.217
 30
-1665.600
 70
    32
  0
VERTEX
  8
W71LALIFT
 62
2
 10
1935.147
 20
-6990.136
 30
-1665.600
 70
    32
  0
VERTEX
  8
W71LALIFT
 62
2
 10
1920.980
 20
-6992.612
 30
-1665.600
 70
    32
  0
VERTEX
  8
W71LALIFT
 62
2
 10
1914.959
 20
-7000.748
 30
-1665.600
 70
    32
  0
VERTEX
  8
W71LALIFT
 62
2
 10
1917.084
 20
-7006.762
 30
-1665.600
 70
    32
  0
VERTEX
  8
W71LALIFT
 62
2
 10
1923.105
 20
-7008.885
 30
-1665.600
 70
    32
  0
VERTEX
  8
W71LALIFT
 62
2
 10
1927.710
 20
-7023.742
 30
-1665.600
 70
    32
  0
VERTEX
  8
W71LALIFT
 62
2
 10
1918.855
 20
-7025.865
 30
-1665.600
 70
    32
  0
VERTEX
  8
W71LALIFT
 62
2
 10
1909.646
 20
-7014.191
 30
-1665.600
 70
    32
  0
VERTEX
  8
W71LALIFT
 62
2
 10
1903.271
 20
-7008.177
 30
-1665.600
 70
    32
  0
VERTEX
  8
W71LALIFT
 62
2
 10
1895.833
 20
-6996.857
 30
-1665.600
 70
    32
  0
VERTEX
  8
W71LALIFT
 62
2
 10
1890.520
 20
-6983.061
 30
-1665.600
 70
    32
  0
VERTEX
  8
W71LALIFT
 62
2
 10
1884.144
 20
-6965.373
 30
-1665.600
 70
    32
  0
VERTEX
  8
W71LALIFT
 62
2
 10
1868.914
 20
-6949.454
 30
-1665.600
 70
    32
  0
VERTEX
  8
W71LALIFT
 62
2
 10
1863.956
 20
-6938.134
 30
-1665.600
 70
    32
  0
SEQEND
  8
W71LALIFT
  0
POLYLINE
  8
W71LALIFT
 62
7
 66
     1
 70
     9
  0
VERTEX
  8
W71LALIFT
 62
7
 10
1860.414
 20
-6929.644
 30
-1670.700
 70
    32
  0
VERTEX
  8
W71LALIFT
 62
7
 10
1868.914
 20
-6926.460
 30
-1670.700
 70
    32
  0
VERTEX
  8
W71LALIFT
 62
7
 10
1879.540
 20
-6933.889
 30
-1670.700
 70
    32
  0
VERTEX
  8
W71LALIFT
 62
7
 10
1898.312
 20
-6930.352
 30
-1670.700
 70
    32
  0
VERTEX
  8
W71LALIFT
 62
7
 10
1902.208
 20
-6933.536
 30
-1670.700
 70
    32
  0
VERTEX
  8
W71LALIFT
 62
7
 10
1909.141
 20
-6941.064
 30
-1670.700
 70
    32
  0
VERTEX
  8
W71LALIFT
 62
7
 10
1933.260
 20
-6951.389
 30
-1670.700
 70
    32
  0
VERTEX
  8
W71LALIFT
 62
7
 10
1942.832
 20
-6960.184
 30
-1670.700
 70
    32
  0
VERTEX
  8
W71LALIFT
 62
7
 10
1945.129
 20
-6967.068
 30
-1670.700
 70
    32
  0
VERTEX
  8
W71LALIFT
 62
7
 10
1944.746
 20
-6971.657
 30
-1670.700
 70
    32
  0
VERTEX
  8
W71LALIFT
 62
7
 10
1941.300
 20
-6991.159
 30
-1670.700
 70
    32
  0
VERTEX
  8
W71LALIFT
 62
7
 10
1935.175
 20
-6996.131
 30
-1670.700
 70
    32
  0
VERTEX
  8
W71LALIFT
 62
7
 10
1930.897
 20
-7003.225
 30
-1670.700
 70
    32
  0
VERTEX
  8
W71LALIFT
 62
7
 10
1928.772
 20
-7008.177
 30
-1670.700
 70
    32
  0
VERTEX
  8
W71LALIFT
 62
7
 10
1928.064
 20
-7012.068
 30
-1670.700
 70
    32
  0
VERTEX
  8
W71LALIFT
 62
7
 10
1929.126
 20
-7018.436
 30
-1670.700
 70
    32
  0
VERTEX
  8
W71LALIFT
 62
7
 10
1919.917
 20
-7024.803
 30
-1670.700
 70
    32
  0
VERTEX
  8
W71LALIFT
 62
7
 10
1918.501
 20
-7023.742
 30
-1670.700
 70
    32
  0
VERTEX
  8
W71LALIFT
 62
7
 10
1916.021
 20
-7013.130
 30
-1670.700
 70
    32
  0
VERTEX
  8
W71LALIFT
 62
7
 10
1907.521
 20
-7009.946
 30
-1670.700
 70
    32
  0
VERTEX
  8
W71LALIFT
 62
7
 10
1901.145
 20
-7003.578
 30
-1670.700
 70
    32
  0
VERTEX
  8
W71LALIFT
 62
7
 10
1896.541
 20
-6992.966
 30
-1670.700
 70
    32
  0
VERTEX
  8
W71LALIFT
 62
7
 10
1889.811
 20
-6980.584
 30
-1670.700
 70
    32
  0
VERTEX
  8
W71LALIFT
 62
7
 10
1884.499
 20
-6963.251
 30
-1670.700
 70
    32
  0
VERTEX
  8
W71LALIFT
 62
7
 10
1874.936
 20
-6954.053
 30
-1670.700
 70
    32
  0
VERTEX
  8
W71LALIFT
 62
7
 10
1870.685
 20
-6950.162
 30
-1670.700
 70
    32
  0
VERTEX
  8
W71LALIFT
 62
7
 10
1864.664
 20
-6938.842
 30
-1670.700
 70
    32
  0
SEQEND
  8
W71LALIFT
  0
POLYLINE
  8
W71LALIFT
 62
1
 66
     1
 70
     9
  0
VERTEX
  8
W71LALIFT
 62
1
 10
1862.539
 20
-6931.767
 30
-1675.800
 70
    32
  0
VERTEX
  8
W71LALIFT
 62
1
 10
1874.581
 20
-6928.583
 30
-1675.800
 70
    32
  0
VERTEX
  8
W71LALIFT
 62
1
 10
1881.311
 20
-6932.828
 30
-1675.800
 70
    32
  0
VERTEX
  8
W71LALIFT
 62
1
 10
1897.604
 20
-6930.706
 30
-1675.800
 70
    32
  0
VERTEX
  8
W71LALIFT
 62
1
 10
1904.333
 20
-6934.243
 30
-1675.800
 70
    32
  0
VERTEX
  8
W71LALIFT
 62
1
 10
1911.417
 20
-6944.502
 30
-1675.800
 70
    32
  0
VERTEX
  8
W71LALIFT
 62
1
 10
1916.032
 20
-6948.330
 30
-1675.800
 70
    32
  0
VERTEX
  8
W71LALIFT
 62
1
 10
1925.603
 20
-6951.389
 30
-1675.800
 70
    32
  0
VERTEX
  8
W71LALIFT
 62
1
 10
1940.152
 20
-6957.125
 30
-1675.800
 70
    32
  0
VERTEX
  8
W71LALIFT
 62
1
 10
1946.277
 20
-6962.479
 30
-1675.800
 70
    32
  0
VERTEX
  8
W71LALIFT
 62
1
 10
1945.511
 20
-6980.834
 30
-1675.800
 70
    32
  0
VERTEX
  8
W71LALIFT
 62
1
 10
1962.357
 20
-6991.924
 30
-1675.800
 70
    32
  0
VERTEX
  8
W71LALIFT
 62
1
 10
1944.363
 20
-6999.955
 30
-1675.800
 70
    32
  0
VERTEX
  8
W71LALIFT
 62
1
 10
1940.534
 20
-7006.456
 30
-1675.800
 70
    32
  0
VERTEX
  8
W71LALIFT
 62
1
 10
1924.522
 20
-7021.266
 30
-1675.800
 70
    32
  0
VERTEX
  8
W71LALIFT
 62
1
 10
1914.959
 20
-7015.606
 30
-1675.800
 70
    32
  0
VERTEX
  8
W71LALIFT
 62
1
 10
1912.125
 20
-7004.640
 30
-1675.800
 70
    32
  0
VERTEX
  8
W71LALIFT
 62
1
 10
1906.458
 20
-7004.640
 30
-1675.800
 70
    32
  0
VERTEX
  8
W71LALIFT
 62
1
 10
1899.729
 20
-6996.503
 30
-1675.800
 70
    32
  0
VERTEX
  8
W71LALIFT
 62
1
 10
1895.124
 20
-6988.013
 30
-1675.800
 70
    32
  0
VERTEX
  8
W71LALIFT
 62
1
 10
1889.811
 20
-6977.047
 30
-1675.800
 70
    32
  0
VERTEX
  8
W71LALIFT
 62
1
 10
1884.853
 20
-6961.482
 30
-1675.800
 70
    32
  0
VERTEX
  8
W71LALIFT
 62
1
 10
1872.456
 20
-6949.454
 30
-1675.800
 70
    32
  0
VERTEX
  8
W71LALIFT
 62
1
 10
1867.143
 20
-6939.903
 30
-1675.800
 70
    32
  0
SEQEND
  8
W71LALIFT
  0
POLYLINE
  8
W71LALIFT
 62
8
 66
     1
 70
     9
  0
VERTEX
  8
W71LALIFT
 62
8
 10
1866.081
 20
-6932.828
 30
-1681.000
 70
    32
  0
VERTEX
  8
W71LALIFT
 62
8
 10
1878.477
 20
-6930.352
 30
-1681.000
 70
    32
  0
VERTEX
  8
W71LALIFT
 62
8
 10
1885.561
 20
-6933.889
 30
-1681.000
 70
    32
  0
VERTEX
  8
W71LALIFT
 62
8
 10
1902.562
 20
-6932.121
 30
-1681.000
 70
    32
  0
VERTEX
  8
W71LALIFT
 62
8
 10
1910.709
 20
-6939.196
 30
-1681.000
 70
    32
  0
VERTEX
  8
W71LALIFT
 62
8
 10
1921.334
 20
-6948.393
 30
-1681.000
 70
    32
  0
VERTEX
  8
W71LALIFT
 62
8
 10
1928.418
 20
-6952.992
 30
-1681.000
 70
    32
  0
VERTEX
  8
W71LALIFT
 62
8
 10
1939.752
 20
-6951.931
 30
-1681.000
 70
    32
  0
VERTEX
  8
W71LALIFT
 62
8
 10
1949.315
 20
-6961.482
 30
-1681.000
 70
    32
  0
VERTEX
  8
W71LALIFT
 62
8
 10
1951.086
 20
-6969.264
 30
-1681.000
 70
    32
  0
VERTEX
  8
W71LALIFT
 62
8
 10
1947.426
 20
-6984.276
 30
-1681.000
 70
    32
  0
VERTEX
  8
W71LALIFT
 62
8
 10
1944.746
 20
-6994.601
 30
-1681.000
 70
    32
  0
VERTEX
  8
W71LALIFT
 62
8
 10
1950.871
 20
-6997.278
 30
-1681.000
 70
    32
  0
VERTEX
  8
W71LALIFT
 62
8
 10
1986.476
 20
-6988.100
 30
-1681.000
 70
    32
  0
VERTEX
  8
W71LALIFT
 62
8
 10
1989.156
 20
-6997.660
 30
-1681.000
 70
    32
  0
VERTEX
  8
W71LALIFT
 62
8
 10
1959.677
 20
-7004.544
 30
-1681.000
 70
    32
  0
VERTEX
  8
W71LALIFT
 62
8
 10
1949.340
 20
-7007.985
 30
-1681.000
 70
    32
  0
VERTEX
  8
W71LALIFT
 62
8
 10
1951.637
 20
-7013.339
 30
-1681.000
 70
    32
  0
VERTEX
  8
W71LALIFT
 62
8
 10
1940.917
 20
-7016.016
 30
-1681.000
 70
    32
  0
VERTEX
  8
W71LALIFT
 62
8
 10
1935.940
 20
-7016.398
 30
-1681.000
 70
    32
  0
VERTEX
  8
W71LALIFT
 62
8
 10
1912.834
 20
-7008.177
 30
-1681.000
 70
    32
  0
VERTEX
  8
W71LALIFT
 62
8
 10
1900.437
 20
-6992.612
 30
-1681.000
 70
    32
  0
VERTEX
  8
W71LALIFT
 62
8
 10
1894.770
 20
-6984.122
 30
-1681.000
 70
    32
  0
VERTEX
  8
W71LALIFT
 62
8
 10
1887.332
 20
-6967.496
 30
-1681.000
 70
    32
  0
VERTEX
  8
W71LALIFT
 62
8
 10
1885.561
 20
-6960.421
 30
-1681.000
 70
    32
  0
VERTEX
  8
W71LALIFT
 62
8
 10
1874.936
 20
-6949.454
 30
-1681.000
 70
    32
  0
VERTEX
  8
W71LALIFT
 62
8
 10
1869.269
 20
-6941.318
 30
-1681.000
 70
    32
  0
SEQEND
  8
W71LALIFT
  0
POLYLINE
  8
W71LALIFT
 62
7
 66
     1
 70
     9
  0
VERTEX
  8
W71LALIFT
 62
7
 10
1872.456
 20
-6931.059
 30
-1701.220
 70
    32
  0
VERTEX
  8
W71LALIFT
 62
7
 10
1891.228
 20
-6928.937
 30
-1701.220
 70
    32
  0
VERTEX
  8
W71LALIFT
 62
7
 10
1911.417
 20
-6932.121
 30
-1701.220
 70
    32
  0
VERTEX
  8
W71LALIFT
 62
7
 10
1926.647
 20
-6941.672
 30
-1701.220
 70
    32
  0
VERTEX
  8
W71LALIFT
 62
7
 10
1940.460
 20
-6952.992
 30
-1701.220
 70
    32
  0
VERTEX
  8
W71LALIFT
 62
7
 10
1946.127
 20
-6963.604
 30
-1701.220
 70
    32
  0
VERTEX
  8
W71LALIFT
 62
7
 10
1945.065
 20
-6969.264
 30
-1701.220
 70
    32
  0
VERTEX
  8
W71LALIFT
 62
7
 10
1947.190
 20
-6977.754
 30
-1701.220
 70
    32
  0
VERTEX
  8
W71LALIFT
 62
7
 10
1945.419
 20
-6993.673
 30
-1701.220
 70
    32
  0
VERTEX
  8
W71LALIFT
 62
7
 10
1936.918
 20
-7008.885
 30
-1701.220
 70
    32
  0
VERTEX
  8
W71LALIFT
 62
7
 10
1934.793
 20
-7011.007
 30
-1701.220
 70
    32
  0
VERTEX
  8
W71LALIFT
 62
7
 10
1931.078
 20
-7016.934
 30
-1701.220
 70
    32
  0
VERTEX
  8
W71LALIFT
 62
7
 10
1920.665
 20
-7022.654
 30
-1701.220
 70
    32
  0
VERTEX
  8
W71LALIFT
 62
7
 10
1898.796
 20
-7020.054
 30
-1701.220
 70
    32
  0
VERTEX
  8
W71LALIFT
 62
7
 10
1889.424
 20
-7009.132
 30
-1701.220
 70
    32
  0
VERTEX
  8
W71LALIFT
 62
7
 10
1885.259
 20
-6995.090
 30
-1701.220
 70
    32
  0
VERTEX
  8
W71LALIFT
 62
7
 10
1882.135
 20
-6978.968
 30
-1701.220
 70
    32
  0
VERTEX
  8
W71LALIFT
 62
7
 10
1884.144
 20
-6951.223
 30
-1701.220
 70
    32
  0
VERTEX
  8
W71LALIFT
 62
7
 10
1876.707
 20
-6939.196
 30
-1701.220
 70
    32
  0
SEQEND
  8
W71LALIFT
  0
POLYLINE
  8
W71LALIFT
 62
1
 66
     1
 70
     9
  0
VERTEX
  8
W71LALIFT
 62
1
 10
1873.519
 20
-6930.706
 30
-1706.310
 70
    32
  0
VERTEX
  8
W71LALIFT
 62
1
 10
1884.144
 20
-6930.352
 30
-1706.310
 70
    32
  0
VERTEX
  8
W71LALIFT
 62
1
 10
1889.103
 20
-6926.460
 30
-1706.310
 70
    32
  0
VERTEX
  8
W71LALIFT
 62
1
 10
1890.874
 20
-6926.460
 30
-1706.310
 70
    32
  0
VERTEX
  8
W71LALIFT
 62
1
 10
1901.500
 20
-6929.644
 30
-1706.310
 70
    32
  0
VERTEX
  8
W71LALIFT
 62
1
 10
1916.730
 20
-6933.182
 30
-1706.310
 70
    32
  0
VERTEX
  8
W71LALIFT
 62
1
 10
1933.731
 20
-6945.209
 30
-1706.310
 70
    32
  0
VERTEX
  8
W71LALIFT
 62
1
 10
1940.460
 20
-6950.162
 30
-1706.310
 70
    32
  0
VERTEX
  8
W71LALIFT
 62
1
 10
1942.940
 20
-6957.237
 30
-1706.310
 70
    32
  0
VERTEX
  8
W71LALIFT
 62
1
 10
1947.190
 20
-6982.000
 30
-1706.310
 70
    32
  0
VERTEX
  8
W71LALIFT
 62
1
 10
1944.711
 20
-6995.442
 30
-1706.310
 70
    32
  0
VERTEX
  8
W71LALIFT
 62
1
 10
1936.918
 20
-7010.300
 30
-1706.310
 70
    32
  0
VERTEX
  8
W71LALIFT
 62
1
 10
1930.037
 20
-7018.494
 30
-1706.300
 70
    32
  0
VERTEX
  8
W71LALIFT
 62
1
 10
1918.061
 20
-7025.255
 30
-1706.300
 70
    32
  0
VERTEX
  8
W71LALIFT
 62
1
 10
1892.028
 20
-7021.094
 30
-1706.300
 70
    32
  0
VERTEX
  8
W71LALIFT
 62
1
 10
1888.904
 20
-7011.213
 30
-1706.300
 70
    32
  0
VERTEX
  8
W71LALIFT
 62
1
 10
1884.218
 20
-7004.452
 30
-1706.300
 70
    32
  0
VERTEX
  8
W71LALIFT
 62
1
 10
1884.218
 20
-6989.890
 30
-1706.300
 70
    32
  0
VERTEX
  8
W71LALIFT
 62
1
 10
1895.478
 20
-6965.019
 30
-1706.310
 70
    32
  0
VERTEX
  8
W71LALIFT
 62
1
 10
1879.540
 20
-6945.917
 30
-1706.310
 70
    32
  0
VERTEX
  8
W71LALIFT
 62
1
 10
1875.998
 20
-6936.012
 30
-1706.310
 70
    32
  0
SEQEND
  8
W71LALIFT
  0
POLYLINE
  8
W71LALIFT
 62
8
 66
     1
 70
     9
  0
VERTEX
  8
W71LALIFT
 62
8
 10
1877.769
 20
-6940.611
 30
-1711.410
 70
    32
  0
VERTEX
  8
W71LALIFT
 62
8
 10
1877.061
 20
-6929.291
 30
-1711.410
 70
    32
  0
VERTEX
  8
W71LALIFT
 62
8
 10
1884.144
 20
-6928.583
 30
-1711.410
 70
    32
  0
VERTEX
  8
W71LALIFT
 62
8
 10
1890.874
 20
-6925.045
 30
-1711.410
 70
    32
  0
VERTEX
  8
W71LALIFT
 62
8
 10
1900.791
 20
-6929.291
 30
-1711.410
 70
    32
  0
VERTEX
  8
W71LALIFT
 62
8
 10
1910.000
 20
-6929.998
 30
-1711.410
 70
    32
  0
VERTEX
  8
W71LALIFT
 62
8
 10
1930.897
 20
-6939.196
 30
-1711.410
 70
    32
  0
VERTEX
  8
W71LALIFT
 62
8
 10
1941.877
 20
-6946.978
 30
-1711.410
 70
    32
  0
VERTEX
  8
W71LALIFT
 62
8
 10
1944.002
 20
-6951.223
 30
-1711.410
 70
    32
  0
VERTEX
  8
W71LALIFT
 62
8
 10
1942.940
 20
-6961.836
 30
-1711.410
 70
    32
  0
VERTEX
  8
W71LALIFT
 62
8
 10
1944.711
 20
-6988.367
 30
-1711.410
 70
    32
  0
VERTEX
  8
W71LALIFT
 62
8
 10
1941.523
 20
-6993.320
 30
-1711.410
 70
    32
  0
VERTEX
  8
W71LALIFT
 62
8
 10
1941.877
 20
-7006.408
 30
-1711.410
 70
    32
  0
VERTEX
  8
W71LALIFT
 62
8
 10
1936.918
 20
-7014.545
 30
-1711.410
 70
    32
  0
VERTEX
  8
W71LALIFT
 62
8
 10
1928.995
 20
-7021.614
 30
-1711.400
 70
    32
  0
VERTEX
  8
W71LALIFT
 62
8
 10
1915.979
 20
-7028.895
 30
-1711.400
 70
    32
  0
VERTEX
  8
W71LALIFT
 62
8
 10
1895.152
 20
-7025.255
 30
-1711.400
 70
    32
  0
VERTEX
  8
W71LALIFT
 62
8
 10
1890.986
 20
-7024.215
 30
-1711.400
 70
    32
  0
VERTEX
  8
W71LALIFT
 62
8
 10
1884.738
 20
-7003.412
 30
-1711.400
 70
    32
  0
VERTEX
  8
W71LALIFT
 62
8
 10
1891.033
 20
-7001.547
 30
-1711.400
 70
    32
  0
VERTEX
  8
W71LALIFT
 62
8
 10
1895.748
 20
-6997.058
 30
-1711.400
 70
    32
  0
VERTEX
  8
W71LALIFT
 62
8
 10
1914.079
 20
-6985.767
 30
-1711.410
 70
    32
  0
VERTEX
  8
W71LALIFT
 62
8
 10
1893.353
 20
-6961.482
 30
-1711.410
 70
    32
  0
VERTEX
  8
W71LALIFT
 62
8
 10
1882.019
 20
-6955.468
 30
-1711.410
 70
    32
  0
SEQEND
  8
W71LALIFT
  0
POLYLINE
  8
W71LALIFT
 62
8
 66
     1
 70
     8
  0
VERTEX
  8
W71LALIFT
 62
8
 10
2385.903
 20
-9168.029
 30
-1731.286
 70
    32
  0
VERTEX
  8
W71LALIFT
 62
8
 10
2380.702
 20
-9174.377
 30
-1729.768
 70
    32
  0
VERTEX
  8
W71LALIFT
 62
8
 10
2374.810
 20
-9188.563
 30
-1732.398
 70
    32
  0
VERTEX
  8
W71LALIFT
 62
8
 10
2375.070
 20
-9207.983
 30
-1728.876
 70
    32
  0
VERTEX
  8
W71LALIFT
 62
8
 10
2380.888
 20
-9224.775
 30
-1727.690
 70
    32
  0
VERTEX
  8
W71LALIFT
 62
8
 10
2384.025
 20
-9235.494
 30
-1726.105
 70
    32
  0
VERTEX
  8
W71LALIFT
 62
8
 10
2387.667
 20
-9246.962
 30
-1723.349
 70
    32
  0
VERTEX
  8
W71LALIFT
 62
8
 10
2390.410
 20
-9255.673
 30
-1721.036
 70
    32
  0
VERTEX
  8
W71LALIFT
 62
8
 10
2391.279
 20
-9271.417
 30
-1722.514
 70
    32
  0
VERTEX
  8
W71LALIFT
 62
8
 10
2388.280
 20
-9286.995
 30
-1720.501
 70
    32
  0
VERTEX
  8
W71LALIFT
 62
8
 10
2387.859
 20
-9297.327
 30
-1721.129
 70
    32
  0
VERTEX
  8
W71LALIFT
 62
8
 10
2371.334
 20
-9310.180
 30
-1719.333
 70
    32
  0
VERTEX
  8
W71LALIFT
 62
8
 10
2361.518
 20
-9312.089
 30
-1719.333
 70
    32
  0
VERTEX
  8
W71LALIFT
 62
8
 10
2360.477
 20
-9322.452
 30
-1718.603
 70
    32
  0
VERTEX
  8
W71LALIFT
 62
8
 10
2370.293
 20
-9320.542
 30
-1718.603
 70
    32
  0
VERTEX
  8
W71LALIFT
 62
8
 10
2379.860
 20
-9327.826
 30
-1717.946
 70
    32
  0
VERTEX
  8
W71LALIFT
 62
8
 10
2381.775
 20
-9328.564
 30
-1722.123
 70
    32
  0
VERTEX
  8
W71LALIFT
 62
8
 10
2384.630
 20
-9336.024
 30
-1722.587
 70
    32
  0
VERTEX
  8
W71LALIFT
 62
8
 10
2391.750
 20
-9348.659
 30
-1722.106
 70
    32
  0
VERTEX
  8
W71LALIFT
 62
8
 10
2399.215
 20
-9357.321
 30
-1722.496
 70
    32
  0
VERTEX
  8
W71LALIFT
 62
8
 10
2407.296
 20
-9370.512
 30
-1721.015
 70
    32
  0
VERTEX
  8
W71LALIFT
 62
8
 10
2409.733
 20
-9374.151
 30
-1721.205
 70
    32
  0
VERTEX
  8
W71LALIFT
 62
8
 10
2413.833
 20
-9377.626
 30
-1721.149
 70
    32
  0
VERTEX
  8
W71LALIFT
 62
8
 10
2411.961
 20
-9390.832
 30
-1721.545
 70
    32
  0
VERTEX
  8
W71LALIFT
 62
8
 10
2430.571
 20
-9396.743
 30
-1721.545
 70
    32
  0
VERTEX
  8
W71LALIFT
 62
8
 10
2434.154
 20
-9401.861
 30
-1721.079
 70
    32
  0
VERTEX
  8
W71LALIFT
 62
8
 10
2446.641
 20
-9409.121
 30
-1719.682
 70
    32
  0
VERTEX
  8
W71LALIFT
 62
8
 10
2454.026
 20
-9424.315
 30
-1719.804
 70
    32
  0
VERTEX
  8
W71LALIFT
 62
8
 10
2458.314
 20
-9423.945
 30
-1719.804
 70
    32
  0
VERTEX
  8
W71LALIFT
 62
8
 10
2468.031
 20
-9441.426
 30
-1719.804
 70
    32
  0
VERTEX
  8
W71LALIFT
 62
8
 10
2476.932
 20
-9436.869
 30
-1719.804
 70
    32
  0
VERTEX
  8
W71LALIFT
 62
8
 10
2471.521
 20
-9427.243
 30
-1719.804
 70
    32
  0
VERTEX
  8
W71LALIFT
 62
8
 10
2466.519
 20
-9417.196
 30
-1719.804
 70
    32
  0
VERTEX
  8
W71LALIFT
 62
8
 10
2460.044
 20
-9405.338
 30
-1719.804
 70
    32
  0
VERTEX
  8
W71LALIFT
 62
8
 10
2460.044
 20
-9405.338
 30
-1719.804
 70
    32
  0
VERTEX
  8
W71LALIFT
 62
8
 10
2445.903
 20
-9385.931
 30
-1719.262
 70
    32
  0
VERTEX
  8
W71LALIFT
 62
8
 10
2432.246
 20
-9365.265
 30
-1719.679
 70
    32
  0
VERTEX
  8
W71LALIFT
 62
8
 10
2429.230
 20
-9357.069
 30
-1719.394
 70
    32
  0
VERTEX
  8
W71LALIFT
 62
8
 10
2414.748
 20
-9335.279
 30
-1720.046
 70
    32
  0
VERTEX
  8
W71LALIFT
 62
8
 10
2407.229
 20
-9310.149
 30
-1720.203
 70
    32
  0
VERTEX
  8
W71LALIFT
 62
8
 10
2408.047
 20
-9305.640
 30
-1721.182
 70
    32
  0
VERTEX
  8
W71LALIFT
 62
8
 10
2404.365
 20
-9291.284
 30
-1720.696
 70
    32
  0
VERTEX
  8
W71LALIFT
 62
8
 10
2401.954
 20
-9278.663
 30
-1720.991
 70
    32
  0
VERTEX
  8
W71LALIFT
 62
8
 10
2402.440
 20
-9266.282
 30
-1720.734
 70
    32
  0
VERTEX
  8
W71LALIFT
 62
8
 10
2404.042
 20
-9260.587
 30
-1718.572
 70
    32
  0
VERTEX
  8
W71LALIFT
 62
8
 10
2401.615
 20
-9254.015
 30
-1716.579
 70
    32
  0
VERTEX
  8
W71LALIFT
 62
8
 10
2398.796
 20
-9246.594
 30
-1717.369
 70
    32
  0
VERTEX
  8
W71LALIFT
 62
8
 10
2400.375
 20
-9238.318
 30
-1721.804
 70
    32
  0
VERTEX
  8
W71LALIFT
 62
8
 10
2400.438
 20
-9234.077
 30
-1723.691
 70
    32
  0
VERTEX
  8
W71LALIFT
 62
8
 10
2395.221
 20
-9220.452
 30
-1727.600
 70
    32
  0
VERTEX
  8
W71LALIFT
 62
8
 10
2395.826
 20
-9208.510
 30
-1727.599
 70
    32
  0
VERTEX
  8
W71LALIFT
 62
8
 10
2393.199
 20
-9193.033
 30
-1729.383
 70
    32
  0
VERTEX
  8
W71LALIFT
 62
8
 10
2395.737
 20
-9190.165
 30
-1729.324
 70
    32
  0
VERTEX
  8
W71LALIFT
 62
8
 10
2393.920
 20
-9182.039
 30
-1729.757
 70
    32
  0
VERTEX
  8
W71LALIFT
 62
8
 10
2396.122
 20
-9180.510
 30
-1729.362
 70
    32
  0
VERTEX
  8
W71LALIFT
 62
8
 10
2396.398
 20
-9172.360
 30
-1730.708
 70
    32
  0
SEQEND
  8
W71LALIFT
  0
POLYLINE
  8
W71LALIFT
 62
27
 66
     1
 70
     9
  0
VERTEX
  8
W71LALIFT
 62
27
 10
2395.166
 20
-9211.632
 30
-1727.986
 70
    32
  0
VERTEX
  8
W71LALIFT
 62
27
 10
2393.862
 20
-9222.476
 30
-1721.989
 70
    32
  0
VERTEX
  8
W71LALIFT
 62
27
 10
2394.011
 20
-9234.108
 30
-1716.783
 70
    32
  0
VERTEX
  8
W71LALIFT
 62
27
 10
2394.225
 20
-9245.117
 30
-1712.268
 70
    32
  0
VERTEX
  8
W71LALIFT
 62
27
 10
2394.434
 20
-9255.286
 30
-1710.578
 70
    32
  0
VERTEX
  8
W71LALIFT
 62
27
 10
2395.151
 20
-9285.204
 30
-1706.325
 70
    32
  0
VERTEX
  8
W71LALIFT
 62
27
 10
2394.199
 20
-9290.902
 30
-1708.146
 70
    32
  0
VERTEX
  8
W71LALIFT
 62
27
 10
2397.890
 20
-9297.629
 30
-1707.233
 70
    32
  0
VERTEX
  8
W71LALIFT
 62
27
 10
2398.001
 20
-9306.130
 30
-1709.856
 70
    32
  0
VERTEX
  8
W71LALIFT
 62
27
 10
2397.912
 20
-9306.963
 30
-1709.933
 70
    32
  0
VERTEX
  8
W71LALIFT
 62
27
 10
2398.943
 20
-9309.812
 30
-1709.933
 70
    32
  0
VERTEX
  8
W71LALIFT
 62
27
 10
2401.038
 20
-9320.655
 30
-1709.933
 70
    32
  0
VERTEX
  8
W71LALIFT
 62
27
 10
2408.874
 20
-9343.334
 30
-1709.933
 70
    32
  0
VERTEX
  8
W71LALIFT
 62
27
 10
2414.860
 20
-9353.638
 30
-1709.933
 70
    32
  0
VERTEX
  8
W71LALIFT
 62
27
 10
2433.557
 20
-9379.455
 30
-1709.933
 70
    32
  0
VERTEX
  8
W71LALIFT
 62
27
 10
2444.599
 20
-9390.311
 30
-1709.933
 70
    32
  0
VERTEX
  8
W71LALIFT
 62
27
 10
2437.503
 20
-9402.797
 30
-1709.933
 70
    32
  0
VERTEX
  8
W71LALIFT
 62
27
 10
2424.800
 20
-9399.038
 30
-1709.933
 70
    32
  0
VERTEX
  8
W71LALIFT
 62
27
 10
2412.133
 20
-9389.419
 30
-1709.933
 70
    32
  0
VERTEX
  8
W71LALIFT
 62
27
 10
2405.701
 20
-9380.066
 30
-1709.933
 70
    32
  0
VERTEX
  8
W71LALIFT
 62
27
 10
2399.902
 20
-9371.718
 30
-1709.933
 70
    32
  0
VERTEX
  8
W71LALIFT
 62
27
 10
2394.578
 20
-9367.714
 30
-1709.933
 70
    32
  0
VERTEX
  8
W71LALIFT
 62
27
 10
2390.181
 20
-9362.707
 30
-1709.933
 70
    32
  0
VERTEX
  8
W71LALIFT
 62
27
 10
2386.449
 20
-9354.423
 30
-1709.933
 70
    32
  0
VERTEX
  8
W71LALIFT
 62
27
 10
2378.695
 20
-9333.512
 30
-1709.933
 70
    32
  0
VERTEX
  8
W71LALIFT
 62
27
 10
2376.149
 20
-9313.989
 30
-1709.933
 70
    32
  0
VERTEX
  8
W71LALIFT
 62
27
 10
2379.783
 20
-9306.707
 30
-1709.933
 70
    32
  0
VERTEX
  8
W71LALIFT
 62
27
 10
2380.371
 20
-9305.626
 30
-1709.331
 70
    32
  0
VERTEX
  8
W71LALIFT
 62
27
 10
2382.883
 20
-9297.115
 30
-1709.315
 70
    32
  0
VERTEX
  8
W71LALIFT
 62
27
 10
2384.473
 20
-9289.203
 30
-1708.034
 70
    32
  0
VERTEX
  8
W71LALIFT
 62
27
 10
2385.870
 20
-9277.169
 30
-1707.905
 70
    32
  0
VERTEX
  8
W71LALIFT
 62
27
 10
2384.374
 20
-9261.192
 30
-1708.899
 70
    32
  0
VERTEX
  8
W71LALIFT
 62
27
 10
2385.102
 20
-9254.427
 30
-1711.106
 70
    32
  0
VERTEX
  8
W71LALIFT
 62
27
 10
2385.891
 20
-9245.916
 30
-1713.748
 70
    32
  0
VERTEX
  8
W71LALIFT
 62
27
 10
2384.690
 20
-9238.261
 30
-1715.349
 70
    32
  0
VERTEX
  8
W71LALIFT
 62
27
 10
2382.912
 20
-9229.640
 30
-1719.770
 70
    32
  0
VERTEX
  8
W71LALIFT
 62
27
 10
2379.416
 20
-9215.069
 30
-1727.693
 70
    32
  0
SEQEND
  8
W71LALIFT
  0
POLYLINE
  8
W71LALIFT
 62
2
 66
     1
 70
     9
  0
VERTEX
  8
W71LALIFT
 62
2
 10
2375.007
 20
-9207.198
 30
-1720.000
 70
    32
  0
VERTEX
  8
W71LALIFT
 62
2
 10
2361.697
 20
-9185.976
 30
-1720.000
 70
    32
  0
VERTEX
  8
W71LALIFT
 62
2
 10
2353.376
 20
-9177.039
 30
-1720.000
 70
    32
  0
VERTEX
  8
W71LALIFT
 62
2
 10
2350.601
 20
-9161.033
 30
-1720.000
 70
    32
  0
VERTEX
  8
W71LALIFT
 62
2
 10
2347.642
 20
-9152.651
 30
-1720.000
 70
    32
  0
VERTEX
  8
W71LALIFT
 62
2
 10
2361.697
 20
-9145.392
 30
-1720.000
 70
    32
  0
VERTEX
  8
W71LALIFT
 62
2
 10
2364.466
 20
-9147.814
 30
-1720.000
 70
    32
  0
VERTEX
  8
W71LALIFT
 62
2
 10
2366.314
 20
-9158.050
 30
-1720.000
 70
    32
  0
VERTEX
  8
W71LALIFT
 62
2
 10
2368.169
 20
-9165.681
 30
-1720.000
 70
    32
  0
VERTEX
  8
W71LALIFT
 62
2
 10
2374.824
 20
-9176.856
 30
-1720.000
 70
    32
  0
VERTEX
  8
W71LALIFT
 62
2
 10
2379.442
 20
-9178.156
 30
-1720.000
 70
    32
  0
SEQEND
  8
W71LALIFT
  0
ENDSEC
  0
EOF
