999
********************************
999
*   DXF File - Entities Only   *
999
*        3D Data Format        *
999
*     Output from ENVISAGE     *
999
*     02-Jan-2008 11:25:54     *
999
********************************
  0
SECTION 
  2
HEADER
  9
$ACADVER
  1
AC1009
  9
$EXTMIN
 10
-290000.000
 20
-250000.000
 30
-4000.000
  9
$EXTMAX
 10
320000.000
 20
160000.000
 30
6000.000
  0
ENDSEC
  0
SECTION
  2
ENTITIES
  0
POLYLINE
  8
W71LASC
 62
1
 66
     1
 70
     9
  0
VERTEX
  8
W71LASC
 62
1
 10
2163.563
 20
-8032.034
 30
-1789.985
 70
    32
  0
VERTEX
  8
W71LASC
 62
1
 10
2180.920
 20
-8019.016
 30
-1793.793
 70
    32
  0
VERTEX
  8
W71LASC
 62
1
 10
2185.750
 20
-8014.398
 30
-1793.777
 70
    32
  0
VERTEX
  8
W71LASC
 62
1
 10
2189.294
 20
-8009.746
 30
-1792.659
 70
    32
  0
VERTEX
  8
W71LASC
 62
1
 10
2194.594
 20
-8003.302
 30
-1790.877
 70
    32
  0
VERTEX
  8
W71LASC
 62
1
 10
2197.812
 20
-7994.675
 30
-1788.089
 70
    32
  0
VERTEX
  8
W71LASC
 62
1
 10
2207.829
 20
-7995.758
 30
-1787.882
 70
    32
  0
VERTEX
  8
W71LASC
 62
1
 10
2212.588
 20
-8003.608
 30
-1787.843
 70
    32
  0
VERTEX
  8
W71LASC
 62
1
 10
2214.368
 20
-8010.732
 30
-1787.959
 70
    32
  0
VERTEX
  8
W71LASC
 62
1
 10
2203.182
 20
-8013.650
 30
-1790.326
 70
    32
  0
VERTEX
  8
W71LASC
 62
1
 10
2199.677
 20
-8016.146
 30
-1791.158
 70
    32
  0
VERTEX
  8
W71LASC
 62
1
 10
2197.126
 20
-8017.807
 30
-1791.980
 70
    32
  0
VERTEX
  8
W71LASC
 62
1
 10
2190.439
 20
-8023.227
 30
-1793.518
 70
    32
  0
VERTEX
  8
W71LASC
 62
1
 10
2184.460
 20
-8029.151
 30
-1792.950
 70
    32
  0
VERTEX
  8
W71LASC
 62
1
 10
2179.900
 20
-8034.467
 30
-1792.253
 70
    32
  0
VERTEX
  8
W71LASC
 62
1
 10
2172.336
 20
-8041.246
 30
-1790.448
 70
    32
  0
SEQEND
  8
W71LASC
  0
POLYLINE
  8
W71LASC
 62
1
 66
     1
 70
     9
  0
VERTEX
  8
W71LASC
 62
1
 10
2197.946
 20
-7993.713
 30
-1789.001
 70
    32
  0
VERTEX
  8
W71LASC
 62
1
 10
2201.212
 20
-7984.262
 30
-1787.117
 70
    32
  0
VERTEX
  8
W71LASC
 62
1
 10
2203.947
 20
-7975.931
 30
-1787.983
 70
    32
  0
VERTEX
  8
W71LASC
 62
1
 10
2199.847
 20
-7968.299
 30
-1787.172
 70
    32
  0
VERTEX
  8
W71LASC
 62
1
 10
2189.204
 20
-7962.852
 30
-1786.912
 70
    32
  0
VERTEX
  8
W71LASC
 62
1
 10
2188.619
 20
-7954.479
 30
-1786.396
 70
    32
  0
VERTEX
  8
W71LASC
 62
1
 10
2183.889
 20
-7949.868
 30
-1786.254
 70
    32
  0
VERTEX
  8
W71LASC
 62
1
 10
2186.287
 20
-7948.109
 30
-1786.249
 70
    32
  0
VERTEX
  8
W71LASC
 62
1
 10
2189.439
 20
-7946.755
 30
-1787.390
 70
    32
  0
VERTEX
  8
W71LASC
 62
1
 10
2193.795
 20
-7945.015
 30
-1787.597
 70
    32
  0
VERTEX
  8
W71LASC
 62
1
 10
2197.544
 20
-7943.716
 30
-1787.669
 70
    32
  0
VERTEX
  8
W71LASC
 62
1
 10
2201.329
 20
-7941.644
 30
-1787.612
 70
    32
  0
VERTEX
  8
W71LASC
 62
1
 10
2207.382
 20
-7942.530
 30
-1787.494
 70
    32
  0
VERTEX
  8
W71LASC
 62
1
 10
2214.303
 20
-7940.533
 30
-1787.830
 70
    32
  0
VERTEX
  8
W71LASC
 62
1
 10
2221.499
 20
-7939.154
 30
-1787.353
 70
    32
  0
VERTEX
  8
W71LASC
 62
1
 10
2226.135
 20
-7941.685
 30
-1787.082
 70
    32
  0
VERTEX
  8
W71LASC
 62
1
 10
2228.809
 20
-7944.114
 30
-1787.651
 70
    32
  0
VERTEX
  8
W71LASC
 62
1
 10
2231.357
 20
-7950.563
 30
-1788.411
 70
    32
  0
VERTEX
  8
W71LASC
 62
1
 10
2231.770
 20
-7955.712
 30
-1787.391
 70
    32
  0
VERTEX
  8
W71LASC
 62
1
 10
2231.031
 20
-7967.454
 30
-1787.560
 70
    32
  0
VERTEX
  8
W71LASC
 62
1
 10
2231.054
 20
-7975.169
 30
-1786.231
 70
    32
  0
VERTEX
  8
W71LASC
 62
1
 10
2233.544
 20
-7983.117
 30
-1785.701
 70
    32
  0
VERTEX
  8
W71LASC
 62
1
 10
2233.606
 20
-7993.220
 30
-1788.232
 70
    32
  0
VERTEX
  8
W71LASC
 62
1
 10
2233.887
 20
-8001.704
 30
-1787.322
 70
    32
  0
VERTEX
  8
W71LASC
 62
1
 10
2235.006
 20
-8016.097
 30
-1787.057
 70
    32
  0
VERTEX
  8
W71LASC
 62
1
 10
2231.552
 20
-8033.186
 30
-1786.680
 70
    32
  0
VERTEX
  8
W71LASC
 62
1
 10
2228.841
 20
-8041.146
 30
-1786.423
 70
    32
  0
VERTEX
  8
W71LASC
 62
1
 10
2228.640
 20
-8053.487
 30
-1785.081
 70
    32
  0
VERTEX
  8
W71LASC
 62
1
 10
2215.148
 20
-8049.738
 30
-1786.440
 70
    32
  0
VERTEX
  8
W71LASC
 62
1
 10
2216.111
 20
-8041.189
 30
-1787.708
 70
    32
  0
VERTEX
  8
W71LASC
 62
1
 10
2216.336
 20
-8032.778
 30
-1787.980
 70
    32
  0
VERTEX
  8
W71LASC
 62
1
 10
2208.592
 20
-8030.179
 30
-1788.228
 70
    32
  0
VERTEX
  8
W71LASC
 62
1
 10
2205.032
 20
-8024.080
 30
-1789.737
 70
    32
  0
VERTEX
  8
W71LASC
 62
1
 10
2198.678
 20
-8017.519
 30
-1791.146
 70
    32
  0
SEQEND
  8
W71LASC
  0
POLYLINE
  8
W71LASC
 62
1
 66
     1
 70
     9
  0
VERTEX
  8
W71LASC
 62
1
 10
2219.886
 20
-7939.435
 30
-1786.628
 70
    32
  0
VERTEX
  8
W71LASC
 62
1
 10
2218.532
 20
-7927.308
 30
-1785.890
 70
    32
  0
VERTEX
  8
W71LASC
 62
1
 10
2197.989
 20
-7932.035
 30
-1786.954
 70
    32
  0
VERTEX
  8
W71LASC
 62
1
 10
2192.841
 20
-7933.198
 30
-1785.843
 70
    32
  0
VERTEX
  8
W71LASC
 62
1
 10
2183.767
 20
-7937.038
 30
-1786.792
 70
    32
  0
VERTEX
  8
W71LASC
 62
1
 10
2172.859
 20
-7939.052
 30
-1786.128
 70
    32
  0
VERTEX
  8
W71LASC
 62
1
 10
2171.295
 20
-7943.445
 30
-1786.387
 70
    32
  0
VERTEX
  8
W71LASC
 62
1
 10
2168.367
 20
-7948.641
 30
-1785.572
 70
    32
  0
VERTEX
  8
W71LASC
 62
1
 10
2156.250
 20
-7956.550
 30
-1783.256
 70
    32
  0
VERTEX
  8
W71LASC
 62
1
 10
2145.562
 20
-7961.690
 30
-1785.089
 70
    32
  0
VERTEX
  8
W71LASC
 62
1
 10
2146.219
 20
-7976.888
 30
-1785.272
 70
    32
  0
VERTEX
  8
W71LASC
 62
1
 10
2144.501
 20
-7995.859
 30
-1786.329
 70
    32
  0
VERTEX
  8
W71LASC
 62
1
 10
2146.670
 20
-8001.271
 30
-1783.562
 70
    32
  0
VERTEX
  8
W71LASC
 62
1
 10
2149.174
 20
-8010.083
 30
-1786.931
 70
    32
  0
VERTEX
  8
W71LASC
 62
1
 10
2150.978
 20
-8023.632
 30
-1786.445
 70
    32
  0
VERTEX
  8
W71LASC
 62
1
 10
2160.238
 20
-8032.366
 30
-1789.959
 70
    32
  0
VERTEX
  8
W71LASC
 62
1
 10
2164.081
 20
-8032.886
 30
-1787.914
 70
    32
  0
VERTEX
  8
W71LASC
 62
1
 10
2172.839
 20
-8024.937
 30
-1785.106
 70
    32
  0
VERTEX
  8
W71LASC
 62
1
 10
2180.744
 20
-8021.445
 30
-1787.618
 70
    32
  0
VERTEX
  8
W71LASC
 62
1
 10
2172.488
 20
-8013.664
 30
-1786.883
 70
    32
  0
VERTEX
  8
W71LASC
 62
1
 10
2173.555
 20
-8012.642
 30
-1786.138
 70
    32
  0
VERTEX
  8
W71LASC
 62
1
 10
2168.869
 20
-8001.175
 30
-1784.383
 70
    32
  0
VERTEX
  8
W71LASC
 62
1
 10
2167.788
 20
-7989.146
 30
-1785.916
 70
    32
  0
VERTEX
  8
W71LASC
 62
1
 10
2170.409
 20
-7988.015
 30
-1786.034
 70
    32
  0
VERTEX
  8
W71LASC
 62
1
 10
2173.497
 20
-7981.201
 30
-1786.176
 70
    32
  0
VERTEX
  8
W71LASC
 62
1
 10
2180.708
 20
-7970.557
 30
-1786.672
 70
    32
  0
VERTEX
  8
W71LASC
 62
1
 10
2190.043
 20
-7965.754
 30
-1786.624
 70
    32
  0
VERTEX
  8
W71LASC
 62
1
 10
2194.749
 20
-7965.707
 30
-1786.803
 70
    32
  0
VERTEX
  8
W71LASC
 62
1
 10
2189.243
 20
-7962.882
 30
-1786.783
 70
    32
  0
VERTEX
  8
W71LASC
 62
1
 10
2188.525
 20
-7954.585
 30
-1786.764
 70
    32
  0
VERTEX
  8
W71LASC
 62
1
 10
2184.036
 20
-7949.835
 30
-1786.745
 70
    32
  0
VERTEX
  8
W71LASC
 62
1
 10
2186.191
 20
-7948.212
 30
-1786.725
 70
    32
  0
VERTEX
  8
W71LASC
 62
1
 10
2193.433
 20
-7945.086
 30
-1786.706
 70
    32
  0
VERTEX
  8
W71LASC
 62
1
 10
2197.263
 20
-7943.763
 30
-1786.686
 70
    32
  0
VERTEX
  8
W71LASC
 62
1
 10
2201.273
 20
-7941.719
 30
-1786.667
 70
    32
  0
VERTEX
  8
W71LASC
 62
1
 10
2207.198
 20
-7942.561
 30
-1786.648
 70
    32
  0
SEQEND
  8
W71LASC
  0
POLYLINE
  8
W71LASC
 62
1
 66
     1
 70
     9
  0
VERTEX
  8
W71LASC
 62
1
 10
2457.685
 20
-9394.999
 30
-1761.689
 70
    32
  0
VERTEX
  8
W71LASC
 62
1
 10
2460.757
 20
-9395.369
 30
-1761.621
 70
    32
  0
VERTEX
  8
W71LASC
 62
1
 10
2468.578
 20
-9411.648
 30
-1759.737
 70
    32
  0
VERTEX
  8
W71LASC
 62
1
 10
2476.003
 20
-9410.474
 30
-1759.606
 70
    32
  0
VERTEX
  8
W71LASC
 62
1
 10
2481.048
 20
-9415.985
 30
-1759.109
 70
    32
  0
VERTEX
  8
W71LASC
 62
1
 10
2482.787
 20
-9420.368
 30
-1760.140
 70
    32
  0
VERTEX
  8
W71LASC
 62
1
 10
2486.008
 20
-9427.894
 30
-1759.998
 70
    32
  0
VERTEX
  8
W71LASC
 62
1
 10
2489.030
 20
-9438.687
 30
-1761.062
 70
    32
  0
VERTEX
  8
W71LASC
 62
1
 10
2493.341
 20
-9437.038
 30
-1759.947
 70
    32
  0
VERTEX
  8
W71LASC
 62
1
 10
2499.896
 20
-9435.569
 30
-1760.080
 70
    32
  0
VERTEX
  8
W71LASC
 62
1
 10
2496.756
 20
-9423.588
 30
-1758.976
 70
    32
  0
VERTEX
  8
W71LASC
 62
1
 10
2487.344
 20
-9404.690
 30
-1759.346
 70
    32
  0
VERTEX
  8
W71LASC
 62
1
 10
2480.540
 20
-9394.729
 30
-1759.000
 70
    32
  0
VERTEX
  8
W71LASC
 62
1
 10
2475.797
 20
-9387.401
 30
-1759.571
 70
    32
  0
SEQEND
  8
W71LASC
  0
POLYLINE
  8
W71LASC
 62
1
 66
     1
 70
     9
  0
VERTEX
  8
W71LASC
 62
1
 10
2166.560
 20
-8084.276
 30
-1772.453
 70
    32
  0
VERTEX
  8
W71LASC
 62
1
 10
2174.639
 20
-8086.140
 30
-1769.188
 70
    32
  0
VERTEX
  8
W71LASC
 62
1
 10
2188.800
 20
-8091.067
 30
-1767.390
 70
    32
  0
VERTEX
  8
W71LASC
 62
1
 10
2197.177
 20
-8098.531
 30
-1762.073
 70
    32
  0
VERTEX
  8
W71LASC
 62
1
 10
2199.013
 20
-8104.054
 30
-1760.553
 70
    32
  0
VERTEX
  8
W71LASC
 62
1
 10
2197.783
 20
-8115.330
 30
-1759.691
 70
    32
  0
VERTEX
  8
W71LASC
 62
1
 10
2192.943
 20
-8130.527
 30
-1758.957
 70
    32
  0
VERTEX
  8
W71LASC
 62
1
 10
2192.165
 20
-8133.697
 30
-1759.125
 70
    32
  0
VERTEX
  8
W71LASC
 62
1
 10
2190.126
 20
-8134.632
 30
-1759.508
 70
    32
  0
VERTEX
  8
W71LASC
 62
1
 10
2189.632
 20
-8143.826
 30
-1759.595
 70
    32
  0
VERTEX
  8
W71LASC
 62
1
 10
2189.235
 20
-8151.756
 30
-1760.157
 70
    32
  0
VERTEX
  8
W71LASC
 62
1
 10
2190.830
 20
-8161.145
 30
-1760.457
 70
    32
  0
VERTEX
  8
W71LASC
 62
1
 10
2189.991
 20
-8174.958
 30
-1758.284
 70
    32
  0
VERTEX
  8
W71LASC
 62
1
 10
2191.191
 20
-8186.294
 30
-1756.715
 70
    32
  0
VERTEX
  8
W71LASC
 62
1
 10
2193.336
 20
-8196.931
 30
-1756.234
 70
    32
  0
VERTEX
  8
W71LASC
 62
1
 10
2196.553
 20
-8217.352
 30
-1756.279
 70
    32
  0
VERTEX
  8
W71LASC
 62
1
 10
2195.885
 20
-8222.381
 30
-1758.102
 70
    32
  0
VERTEX
  8
W71LASC
 62
1
 10
2197.785
 20
-8242.697
 30
-1756.263
 70
    32
  0
VERTEX
  8
W71LASC
 62
1
 10
2203.560
 20
-8262.312
 30
-1755.027
 70
    32
  0
VERTEX
  8
W71LASC
 62
1
 10
2191.916
 20
-8263.779
 30
-1755.026
 70
    32
  0
VERTEX
  8
W71LASC
 62
1
 10
2186.346
 20
-8264.288
 30
-1756.677
 70
    32
  0
VERTEX
  8
W71LASC
 62
1
 10
2183.380
 20
-8264.149
 30
-1756.676
 70
    32
  0
VERTEX
  8
W71LASC
 62
1
 10
2182.463
 20
-8239.332
 30
-1756.624
 70
    32
  0
VERTEX
  8
W71LASC
 62
1
 10
2183.320
 20
-8233.061
 30
-1756.629
 70
    32
  0
VERTEX
  8
W71LASC
 62
1
 10
2182.735
 20
-8228.252
 30
-1755.540
 70
    32
  0
VERTEX
  8
W71LASC
 62
1
 10
2182.480
 20
-8210.797
 30
-1757.225
 70
    32
  0
VERTEX
  8
W71LASC
 62
1
 10
2181.026
 20
-8197.766
 30
-1755.973
 70
    32
  0
VERTEX
  8
W71LASC
 62
1
 10
2177.741
 20
-8189.757
 30
-1756.601
 70
    32
  0
VERTEX
  8
W71LASC
 62
1
 10
2177.346
 20
-8180.922
 30
-1757.818
 70
    32
  0
VERTEX
  8
W71LASC
 62
1
 10
2177.644
 20
-8167.269
 30
-1760.015
 70
    32
  0
VERTEX
  8
W71LASC
 62
1
 10
2174.701
 20
-8161.589
 30
-1759.510
 70
    32
  0
VERTEX
  8
W71LASC
 62
1
 10
2176.394
 20
-8149.368
 30
-1760.745
 70
    32
  0
VERTEX
  8
W71LASC
 62
1
 10
2179.881
 20
-8139.948
 30
-1758.820
 70
    32
  0
VERTEX
  8
W71LASC
 62
1
 10
2183.853
 20
-8124.792
 30
-1760.448
 70
    32
  0
VERTEX
  8
W71LASC
 62
1
 10
2186.468
 20
-8106.942
 30
-1762.871
 70
    32
  0
VERTEX
  8
W71LASC
 62
1
 10
2183.002
 20
-8099.406
 30
-1768.413
 70
    32
  0
VERTEX
  8
W71LASC
 62
1
 10
2178.913
 20
-8097.379
 30
-1769.505
 70
    32
  0
VERTEX
  8
W71LASC
 62
1
 10
2170.821
 20
-8096.608
 30
-1769.647
 70
    32
  0
VERTEX
  8
W71LASC
 62
1
 10
2167.482
 20
-8095.106
 30
-1771.388
 70
    32
  0
SEQEND
  8
W71LASC
  0
POLYLINE
  8
W71LASC
 62
1
 66
     1
 70
     9
  0
VERTEX
  8
W71LASC
 62
1
 10
1907.787
 20
-6977.060
 30
-1708.094
 70
    32
  0
VERTEX
  8
W71LASC
 62
1
 10
1911.650
 20
-6976.365
 30
-1708.024
 70
    32
  0
VERTEX
  8
W71LASC
 62
1
 10
1915.231
 20
-6980.223
 30
-1709.002
 70
    32
  0
VERTEX
  8
W71LASC
 62
1
 10
1917.336
 20
-6989.773
 30
-1708.554
 70
    32
  0
VERTEX
  8
W71LASC
 62
1
 10
1915.006
 20
-7000.374
 30
-1707.880
 70
    32
  0
VERTEX
  8
W71LASC
 62
1
 10
1920.966
 20
-7006.421
 30
-1708.910
 70
    32
  0
VERTEX
  8
W71LASC
 62
1
 10
1932.129
 20
-7009.122
 30
-1708.532
 70
    32
  0
VERTEX
  8
W71LASC
 62
1
 10
1935.122
 20
-7017.456
 30
-1707.422
 70
    32
  0
VERTEX
  8
W71LASC
 62
1
 10
1929.746
 20
-7024.393
 30
-1707.759
 70
    32
  0
VERTEX
  8
W71LASC
 62
1
 10
1924.197
 20
-7028.153
 30
-1708.174
 70
    32
  0
VERTEX
  8
W71LASC
 62
1
 10
1923.737
 20
-7030.735
 30
-1707.513
 70
    32
  0
VERTEX
  8
W71LASC
 62
1
 10
1927.182
 20
-7034.469
 30
-1709.791
 70
    32
  0
VERTEX
  8
W71LASC
 62
1
 10
1927.656
 20
-7041.420
 30
-1709.118
 70
    32
  0
VERTEX
  8
W71LASC
 62
1
 10
1932.595
 20
-7043.548
 30
-1707.961
 70
    32
  0
VERTEX
  8
W71LASC
 62
1
 10
1938.389
 20
-7036.110
 30
-1707.638
 70
    32
  0
VERTEX
  8
W71LASC
 62
1
 10
1941.437
 20
-7035.454
 30
-1707.268
 70
    32
  0
VERTEX
  8
W71LASC
 62
1
 10
1945.390
 20
-7035.054
 30
-1707.134
 70
    32
  0
VERTEX
  8
W71LASC
 62
1
 10
1947.184
 20
-7042.929
 30
-1707.169
 70
    32
  0
VERTEX
  8
W71LASC
 62
1
 10
1951.553
 20
-7054.708
 30
-1707.188
 70
    32
  0
VERTEX
  8
W71LASC
 62
1
 10
1958.680
 20
-7073.405
 30
-1707.407
 70
    32
  0
VERTEX
  8
W71LASC
 62
1
 10
1964.476
 20
-7102.015
 30
-1707.117
 70
    32
  0
VERTEX
  8
W71LASC
 62
1
 10
1984.938
 20
-7096.563
 30
-1704.969
 70
    32
  0
VERTEX
  8
W71LASC
 62
1
 10
1976.381
 20
-7075.312
 30
-1706.907
 70
    32
  0
VERTEX
  8
W71LASC
 62
1
 10
1968.227
 20
-7068.594
 30
-1706.525
 70
    32
  0
VERTEX
  8
W71LASC
 62
1
 10
1959.345
 20
-7042.275
 30
-1706.212
 70
    32
  0
VERTEX
  8
W71LASC
 62
1
 10
1955.197
 20
-7033.125
 30
-1706.076
 70
    32
  0
VERTEX
  8
W71LASC
 62
1
 10
1957.479
 20
-7030.197
 30
-1705.958
 70
    32
  0
VERTEX
  8
W71LASC
 62
1
 10
1952.026
 20
-7021.571
 30
-1705.834
 70
    32
  0
VERTEX
  8
W71LASC
 62
1
 10
1948.482
 20
-7014.694
 30
-1705.455
 70
    32
  0
VERTEX
  8
W71LASC
 62
1
 10
1954.971
 20
-7007.332
 30
-1705.076
 70
    32
  0
VERTEX
  8
W71LASC
 62
1
 10
1960.495
 20
-7000.793
 30
-1707.232
 70
    32
  0
VERTEX
  8
W71LASC
 62
1
 10
1977.918
 20
-6997.680
 30
-1705.650
 70
    32
  0
VERTEX
  8
W71LASC
 62
1
 10
1985.765
 20
-6997.654
 30
-1705.215
 70
    32
  0
VERTEX
  8
W71LASC
 62
1
 10
1984.139
 20
-6983.392
 30
-1705.432
 70
    32
  0
VERTEX
  8
W71LASC
 62
1
 10
1971.837
 20
-6985.118
 30
-1706.242
 70
    32
  0
VERTEX
  8
W71LASC
 62
1
 10
1962.443
 20
-6986.653
 30
-1707.309
 70
    32
  0
VERTEX
  8
W71LASC
 62
1
 10
1954.900
 20
-6989.039
 30
-1707.178
 70
    32
  0
VERTEX
  8
W71LASC
 62
1
 10
1948.011
 20
-6989.617
 30
-1707.291
 70
    32
  0
VERTEX
  8
W71LASC
 62
1
 10
1940.065
 20
-6988.142
 30
-1707.942
 70
    32
  0
VERTEX
  8
W71LASC
 62
1
 10
1936.903
 20
-6984.715
 30
-1707.621
 70
    32
  0
VERTEX
  8
W71LASC
 62
1
 10
1936.663
 20
-6983.779
 30
-1707.681
 70
    32
  0
VERTEX
  8
W71LASC
 62
1
 10
1933.999
 20
-6986.428
 30
-1707.740
 70
    32
  0
VERTEX
  8
W71LASC
 62
1
 10
1927.899
 20
-6989.586
 30
-1707.799
 70
    32
  0
VERTEX
  8
W71LASC
 62
1
 10
1922.492
 20
-6983.564
 30
-1707.858
 70
    32
  0
VERTEX
  8
W71LASC
 62
1
 10
1918.576
 20
-6980.781
 30
-1707.917
 70
    32
  0
VERTEX
  8
W71LASC
 62
1
 10
1913.488
 20
-6974.840
 30
-1707.976
 70
    32
  0
VERTEX
  8
W71LASC
 62
1
 10
1907.521
 20
-6976.793
 30
-1708.035
 70
    32
  0
SEQEND
  8
W71LASC
  0
POLYLINE
  8
W71LASC
 62
1
 66
     1
 70
     9
  0
VERTEX
  8
W71LASC
 62
1
 10
1873.684
 20
-7186.803
 30
-1791.932
 70
    32
  0
VERTEX
  8
W71LASC
 62
1
 10
1871.716
 20
-7190.668
 30
-1789.480
 70
    32
  0
VERTEX
  8
W71LASC
 62
1
 10
1868.999
 20
-7194.101
 30
-1787.385
 70
    32
  0
VERTEX
  8
W71LASC
 62
1
 10
1862.513
 20
-7202.092
 30
-1785.415
 70
    32
  0
VERTEX
  8
W71LASC
 62
1
 10
1853.906
 20
-7208.574
 30
-1781.658
 70
    32
  0
VERTEX
  8
W71LASC
 62
1
 10
1844.843
 20
-7214.296
 30
-1780.521
 70
    32
  0
VERTEX
  8
W71LASC
 62
1
 10
1824.988
 20
-7223.247
 30
-1780.203
 70
    32
  0
VERTEX
  8
W71LASC
 62
1
 10
1807.142
 20
-7234.164
 30
-1777.175
 70
    32
  0
VERTEX
  8
W71LASC
 62
1
 10
1803.174
 20
-7236.418
 30
-1780.204
 70
    32
  0
VERTEX
  8
W71LASC
 62
1
 10
1791.263
 20
-7240.460
 30
-1779.046
 70
    32
  0
VERTEX
  8
W71LASC
 62
1
 10
1786.275
 20
-7229.906
 30
-1779.834
 70
    32
  0
VERTEX
  8
W71LASC
 62
1
 10
1798.307
 20
-7221.545
 30
-1780.530
 70
    32
  0
VERTEX
  8
W71LASC
 62
1
 10
1799.929
 20
-7220.022
 30
-1777.969
 70
    32
  0
VERTEX
  8
W71LASC
 62
1
 10
1809.413
 20
-7216.664
 30
-1777.924
 70
    32
  0
VERTEX
  8
W71LASC
 62
1
 10
1827.986
 20
-7208.334
 30
-1778.865
 70
    32
  0
VERTEX
  8
W71LASC
 62
1
 10
1837.581
 20
-7204.452
 30
-1777.562
 70
    32
  0
VERTEX
  8
W71LASC
 62
1
 10
1846.199
 20
-7199.886
 30
-1781.217
 70
    32
  0
VERTEX
  8
W71LASC
 62
1
 10
1855.306
 20
-7194.276
 30
-1784.332
 70
    32
  0
VERTEX
  8
W71LASC
 62
1
 10
1861.566
 20
-7187.496
 30
-1787.322
 70
    32
  0
VERTEX
  8
W71LASC
 62
1
 10
1865.934
 20
-7180.840
 30
-1787.931
 70
    32
  0
SEQEND
  8
W71LASC
  0
POLYLINE
  8
W71LASC
 62
1
 66
     1
 70
     9
  0
VERTEX
  8
W71LASC
 62
1
 10
1851.055
 20
-7007.841
 30
-1712.358
 70
    32
  0
VERTEX
  8
W71LASC
 62
1
 10
1849.756
 20
-7017.289
 30
-1713.279
 70
    32
  0
VERTEX
  8
W71LASC
 62
1
 10
1849.591
 20
-7028.042
 30
-1714.580
 70
    32
  0
VERTEX
  8
W71LASC
 62
1
 10
1847.985
 20
-7037.131
 30
-1714.255
 70
    32
  0
VERTEX
  8
W71LASC
 62
1
 10
1847.355
 20
-7047.763
 30
-1715.672
 70
    32
  0
VERTEX
  8
W71LASC
 62
1
 10
1843.094
 20
-7057.856
 30
-1715.744
 70
    32
  0
VERTEX
  8
W71LASC
 62
1
 10
1841.114
 20
-7064.588
 30
-1716.652
 70
    32
  0
VERTEX
  8
W71LASC
 62
1
 10
1843.354
 20
-7074.295
 30
-1713.782
 70
    32
  0
VERTEX
  8
W71LASC
 62
1
 10
1849.112
 20
-7079.383
 30
-1713.941
 70
    32
  0
VERTEX
  8
W71LASC
 62
1
 10
1853.357
 20
-7084.965
 30
-1714.729
 70
    32
  0
VERTEX
  8
W71LASC
 62
1
 10
1859.619
 20
-7106.700
 30
-1710.585
 70
    32
  0
VERTEX
  8
W71LASC
 62
1
 10
1866.405
 20
-7116.266
 30
-1708.140
 70
    32
  0
VERTEX
  8
W71LASC
 62
1
 10
1866.409
 20
-7124.999
 30
-1706.883
 70
    32
  0
VERTEX
  8
W71LASC
 62
1
 10
1867.519
 20
-7130.720
 30
-1709.428
 70
    32
  0
VERTEX
  8
W71LASC
 62
1
 10
1867.753
 20
-7141.684
 30
-1708.725
 70
    32
  0
VERTEX
  8
W71LASC
 62
1
 10
1869.171
 20
-7149.755
 30
-1707.540
 70
    32
  0
VERTEX
  8
W71LASC
 62
1
 10
1869.856
 20
-7159.004
 30
-1705.941
 70
    32
  0
VERTEX
  8
W71LASC
 62
1
 10
1875.893
 20
-7164.574
 30
-1703.466
 70
    32
  0
VERTEX
  8
W71LASC
 62
1
 10
1880.942
 20
-7168.098
 30
-1702.886
 70
    32
  0
VERTEX
  8
W71LASC
 62
1
 10
1885.436
 20
-7167.130
 30
-1701.898
 70
    32
  0
VERTEX
  8
W71LASC
 62
1
 10
1891.020
 20
-7165.221
 30
-1700.379
 70
    32
  0
VERTEX
  8
W71LASC
 62
1
 10
1888.841
 20
-7157.903
 30
-1703.355
 70
    32
  0
VERTEX
  8
W71LASC
 62
1
 10
1889.894
 20
-7153.606
 30
-1704.032
 70
    32
  0
VERTEX
  8
W71LASC
 62
1
 10
1884.337
 20
-7146.216
 30
-1705.788
 70
    32
  0
VERTEX
  8
W71LASC
 62
1
 10
1881.190
 20
-7137.809
 30
-1707.503
 70
    32
  0
VERTEX
  8
W71LASC
 62
1
 10
1878.935
 20
-7130.052
 30
-1707.053
 70
    32
  0
VERTEX
  8
W71LASC
 62
1
 10
1877.819
 20
-7122.032
 30
-1706.476
 70
    32
  0
VERTEX
  8
W71LASC
 62
1
 10
1877.629
 20
-7112.519
 30
-1707.511
 70
    32
  0
VERTEX
  8
W71LASC
 62
1
 10
1875.724
 20
-7105.823
 30
-1709.049
 70
    32
  0
VERTEX
  8
W71LASC
 62
1
 10
1870.751
 20
-7092.713
 30
-1710.141
 70
    32
  0
VERTEX
  8
W71LASC
 62
1
 10
1863.454
 20
-7084.747
 30
-1712.121
 70
    32
  0
VERTEX
  8
W71LASC
 62
1
 10
1856.485
 20
-7073.617
 30
-1715.518
 70
    32
  0
VERTEX
  8
W71LASC
 62
1
 10
1854.654
 20
-7068.292
 30
-1716.618
 70
    32
  0
VERTEX
  8
W71LASC
 62
1
 10
1854.636
 20
-7059.654
 30
-1717.465
 70
    32
  0
VERTEX
  8
W71LASC
 62
1
 10
1856.377
 20
-7051.706
 30
-1717.263
 70
    32
  0
VERTEX
  8
W71LASC
 62
1
 10
1859.579
 20
-7036.889
 30
-1715.361
 70
    32
  0
VERTEX
  8
W71LASC
 62
1
 10
1861.163
 20
-7024.256
 30
-1712.429
 70
    32
  0
VERTEX
  8
W71LASC
 62
1
 10
1862.193
 20
-7017.070
 30
-1711.800
 70
    32
  0
VERTEX
  8
W71LASC
 62
1
 10
1862.867
 20
-7005.562
 30
-1712.216
 70
    32
  0
VERTEX
  8
W71LASC
 62
1
 10
1860.899
 20
-6996.916
 30
-1712.240
 70
    32
  0
VERTEX
  8
W71LASC
 62
1
 10
1862.334
 20
-7005.730
 30
-1712.264
 70
    32
  0
VERTEX
  8
W71LASC
 62
1
 10
1855.560
 20
-7006.869
 30
-1712.287
 70
    32
  0
VERTEX
  8
W71LASC
 62
1
 10
1851.956
 20
-7006.701
 30
-1712.311
 70
    32
  0
VERTEX
  8
W71LASC
 62
1
 10
1850.087
 20
-7003.316
 30
-1712.334
 70
    32
  0
SEQEND
  8
W71LASC
  0
POLYLINE
  8
W71LASC
 62
1
 66
     1
 70
     9
  0
VERTEX
  8
W71LASC
 62
1
 10
1726.333
 20
-7071.604
 30
-1769.490
 70
    32
  0
VERTEX
  8
W71LASC
 62
1
 10
1723.499
 20
-7066.022
 30
-1769.342
 70
    32
  0
VERTEX
  8
W71LASC
 62
1
 10
1718.917
 20
-7058.381
 30
-1769.505
 70
    32
  0
VERTEX
  8
W71LASC
 62
1
 10
1713.337
 20
-7046.279
 30
-1769.239
 70
    32
  0
VERTEX
  8
W71LASC
 62
1
 10
1705.564
 20
-7028.809
 30
-1769.199
 70
    32
  0
VERTEX
  8
W71LASC
 62
1
 10
1699.044
 20
-7026.582
 30
-1768.852
 70
    32
  0
VERTEX
  8
W71LASC
 62
1
 10
1695.093
 20
-7030.913
 30
-1769.323
 70
    32
  0
VERTEX
  8
W71LASC
 62
1
 10
1691.407
 20
-7034.888
 30
-1769.854
 70
    32
  0
VERTEX
  8
W71LASC
 62
1
 10
1696.283
 20
-7045.170
 30
-1769.355
 70
    32
  0
VERTEX
  8
W71LASC
 62
1
 10
1704.197
 20
-7057.115
 30
-1769.533
 70
    32
  0
VERTEX
  8
W71LASC
 62
1
 10
1711.399
 20
-7067.973
 30
-1769.641
 70
    32
  0
VERTEX
  8
W71LASC
 62
1
 10
1717.474
 20
-7080.709
 30
-1769.089
 70
    32
  0
VERTEX
  8
W71LASC
 62
1
 10
1718.842
 20
-7077.628
 30
-1769.289
 70
    32
  0
SEQEND
  8
W71LASC
  0
POLYLINE
  8
W71LASC
 62
1
 66
     1
 70
     9
  0
VERTEX
  8
W71LASC
 62
1
 10
1722.549
 20
-7090.348
 30
-1726.133
 70
    32
  0
VERTEX
  8
W71LASC
 62
1
 10
1731.736
 20
-7092.065
 30
-1724.888
 70
    32
  0
VERTEX
  8
W71LASC
 62
1
 10
1735.053
 20
-7096.804
 30
-1724.726
 70
    32
  0
VERTEX
  8
W71LASC
 62
1
 10
1741.803
 20
-7100.268
 30
-1723.935
 70
    32
  0
VERTEX
  8
W71LASC
 62
1
 10
1744.491
 20
-7111.145
 30
-1724.274
 70
    32
  0
VERTEX
  8
W71LASC
 62
1
 10
1747.728
 20
-7120.272
 30
-1725.441
 70
    32
  0
VERTEX
  8
W71LASC
 62
1
 10
1753.037
 20
-7130.913
 30
-1724.191
 70
    32
  0
VERTEX
  8
W71LASC
 62
1
 10
1757.685
 20
-7143.655
 30
-1724.059
 70
    32
  0
VERTEX
  8
W71LASC
 62
1
 10
1761.714
 20
-7152.429
 30
-1724.732
 70
    32
  0
VERTEX
  8
W71LASC
 62
1
 10
1763.953
 20
-7163.318
 30
-1724.560
 70
    32
  0
VERTEX
  8
W71LASC
 62
1
 10
1769.316
 20
-7174.375
 30
-1723.638
 70
    32
  0
VERTEX
  8
W71LASC
 62
1
 10
1757.463
 20
-7180.116
 30
-1724.451
 70
    32
  0
VERTEX
  8
W71LASC
 62
1
 10
1753.761
 20
-7173.305
 30
-1724.020
 70
    32
  0
VERTEX
  8
W71LASC
 62
1
 10
1746.738
 20
-7172.229
 30
-1723.836
 70
    32
  0
VERTEX
  8
W71LASC
 62
1
 10
1748.220
 20
-7181.284
 30
-1723.093
 70
    32
  0
VERTEX
  8
W71LASC
 62
1
 10
1743.239
 20
-7185.008
 30
-1723.306
 70
    32
  0
VERTEX
  8
W71LASC
 62
1
 10
1739.821
 20
-7185.486
 30
-1723.306
 70
    32
  0
VERTEX
  8
W71LASC
 62
1
 10
1736.122
 20
-7180.518
 30
-1724.440
 70
    32
  0
VERTEX
  8
W71LASC
 62
1
 10
1733.387
 20
-7173.158
 30
-1725.292
 70
    32
  0
VERTEX
  8
W71LASC
 62
1
 10
1731.538
 20
-7157.252
 30
-1725.992
 70
    32
  0
VERTEX
  8
W71LASC
 62
1
 10
1728.172
 20
-7146.101
 30
-1726.590
 70
    32
  0
VERTEX
  8
W71LASC
 62
1
 10
1725.237
 20
-7134.238
 30
-1726.003
 70
    32
  0
VERTEX
  8
W71LASC
 62
1
 10
1722.627
 20
-7125.282
 30
-1726.420
 70
    32
  0
VERTEX
  8
W71LASC
 62
1
 10
1716.941
 20
-7114.925
 30
-1727.053
 70
    32
  0
VERTEX
  8
W71LASC
 62
1
 10
1715.613
 20
-7108.470
 30
-1727.043
 70
    32
  0
VERTEX
  8
W71LASC
 62
1
 10
1720.052
 20
-7116.973
 30
-1726.861
 70
    32
  0
VERTEX
  8
W71LASC
 62
1
 10
1725.325
 20
-7118.925
 30
-1726.679
 70
    32
  0
VERTEX
  8
W71LASC
 62
1
 10
1735.452
 20
-7114.046
 30
-1726.497
 70
    32
  0
VERTEX
  8
W71LASC
 62
1
 10
1724.908
 20
-7097.178
 30
-1726.315
 70
    32
  0
SEQEND
  8
W71LASC
  0
POLYLINE
  8
W71LASC
 62
1
 66
     1
 70
     9
  0
VERTEX
  8
W71LASC
 62
1
 10
1857.288
 20
-6979.825
 30
-1716.994
 70
    32
  0
VERTEX
  8
W71LASC
 62
1
 10
1859.505
 20
-6983.025
 30
-1716.668
 70
    32
  0
VERTEX
  8
W71LASC
 62
1
 10
1865.137
 20
-6989.857
 30
-1716.936
 70
    32
  0
VERTEX
  8
W71LASC
 62
1
 10
1874.833
 20
-6994.614
 30
-1718.918
 70
    32
  0
VERTEX
  8
W71LASC
 62
1
 10
1888.547
 20
-6999.938
 30
-1718.677
 70
    32
  0
VERTEX
  8
W71LASC
 62
1
 10
1889.453
 20
-7001.364
 30
-1718.806
 70
    32
  0
VERTEX
  8
W71LASC
 62
1
 10
1888.514
 20
-7001.450
 30
-1718.934
 70
    32
  0
VERTEX
  8
W71LASC
 62
1
 10
1890.399
 20
-7012.088
 30
-1719.192
 70
    32
  0
VERTEX
  8
W71LASC
 62
1
 10
1892.113
 20
-7012.088
 30
-1719.449
 70
    32
  0
VERTEX
  8
W71LASC
 62
1
 10
1888.019
 20
-7013.740
 30
-1719.312
 70
    32
  0
VERTEX
  8
W71LASC
 62
1
 10
1868.650
 20
-7000.544
 30
-1718.820
 70
    32
  0
VERTEX
  8
W71LASC
 62
1
 10
1867.429
 20
-7001.752
 30
-1716.740
 70
    32
  0
VERTEX
  8
W71LASC
 62
1
 10
1861.747
 20
-7005.946
 30
-1720.111
 70
    32
  0
SEQEND
  8
W71LASC
  0
LINE
  8
W71LASC
 62
8
 10
2399.216
 20
-9270.212
 30
-1721.815
 11
2422.074
 21
-9387.734
 31
-1713.051
  0
LINE
  8
W71LASC
 62
1
 10
2380.686
 20
-9174.782
 30
1000.000
 11
2394.326
 21
-9186.525
 31
1000.000
  0
POINT
  8
W71LASC
 62
1
 10
2380.119
 20
-9222.545
 30
1000.000
  0
POINT
  8
W71LASC
 62
1
 10
2395.210
 20
-9220.032
 30
1000.000
  0
LINE
  8
W71LASC
 62
1
 10
2380.015
 20
-9222.442
 30
1000.000
 11
2395.106
 21
-9220.032
 31
1000.000
  0
POLYLINE
  8
W71LASC
 62
1
 66
     1
 70
     9
  0
VERTEX
  8
W71LASC
 62
1
 10
2380.686
 20
-9174.630
 30
-1729.768
 70
    32
  0
VERTEX
  8
W71LASC
 62
1
 10
2374.810
 20
-9188.563
 30
-1732.398
 70
    32
  0
VERTEX
  8
W71LASC
 62
1
 10
2375.070
 20
-9207.983
 30
-1728.876
 70
    32
  0
VERTEX
  8
W71LASC
 62
1
 10
2380.888
 20
-9224.775
 30
-1727.690
 70
    32
  0
VERTEX
  8
W71LASC
 62
1
 10
2384.025
 20
-9235.494
 30
-1726.105
 70
    32
  0
VERTEX
  8
W71LASC
 62
1
 10
2387.667
 20
-9246.962
 30
-1723.349
 70
    32
  0
VERTEX
  8
W71LASC
 62
1
 10
2390.410
 20
-9255.673
 30
-1721.036
 70
    32
  0
VERTEX
  8
W71LASC
 62
1
 10
2391.279
 20
-9271.417
 30
-1722.514
 70
    32
  0
VERTEX
  8
W71LASC
 62
1
 10
2388.280
 20
-9286.995
 30
-1720.501
 70
    32
  0
VERTEX
  8
W71LASC
 62
1
 10
2387.859
 20
-9297.327
 30
-1721.129
 70
    32
  0
VERTEX
  8
W71LASC
 62
1
 10
2388.073
 20
-9308.990
 30
-1722.144
 70
    32
  0
VERTEX
  8
W71LASC
 62
1
 10
2390.756
 20
-9314.332
 30
-1721.074
 70
    32
  0
VERTEX
  8
W71LASC
 62
1
 10
2397.321
 20
-9316.088
 30
-1720.926
 70
    32
  0
VERTEX
  8
W71LASC
 62
1
 10
2401.345
 20
-9316.472
 30
-1722.938
 70
    32
  0
VERTEX
  8
W71LASC
 62
1
 10
2408.300
 20
-9316.363
 30
-1721.396
 70
    32
  0
VERTEX
  8
W71LASC
 62
1
 10
2408.047
 20
-9305.640
 30
-1721.182
 70
    32
  0
VERTEX
  8
W71LASC
 62
1
 10
2404.365
 20
-9291.284
 30
-1720.696
 70
    32
  0
VERTEX
  8
W71LASC
 62
1
 10
2401.954
 20
-9278.663
 30
-1720.991
 70
    32
  0
VERTEX
  8
W71LASC
 62
1
 10
2402.440
 20
-9266.282
 30
-1720.734
 70
    32
  0
VERTEX
  8
W71LASC
 62
1
 10
2404.042
 20
-9260.587
 30
-1718.572
 70
    32
  0
VERTEX
  8
W71LASC
 62
1
 10
2401.615
 20
-9254.015
 30
-1716.579
 70
    32
  0
VERTEX
  8
W71LASC
 62
1
 10
2398.796
 20
-9246.594
 30
-1717.369
 70
    32
  0
VERTEX
  8
W71LASC
 62
1
 10
2400.375
 20
-9238.318
 30
-1721.804
 70
    32
  0
VERTEX
  8
W71LASC
 62
1
 10
2400.438
 20
-9234.077
 30
-1723.691
 70
    32
  0
VERTEX
  8
W71LASC
 62
1
 10
2395.221
 20
-9220.452
 30
-1727.600
 70
    32
  0
VERTEX
  8
W71LASC
 62
1
 10
2395.826
 20
-9208.510
 30
-1727.599
 70
    32
  0
VERTEX
  8
W71LASC
 62
1
 10
2393.199
 20
-9193.033
 30
-1729.383
 70
    32
  0
VERTEX
  8
W71LASC
 62
1
 10
2395.737
 20
-9190.165
 30
-1729.324
 70
    32
  0
VERTEX
  8
W71LASC
 62
1
 10
2394.777
 20
-9186.677
 30
-1729.757
 70
    32
  0
SEQEND
  8
W71LASC
  0
POLYLINE
  8
W71LASC
 62
1
 66
     1
 70
     9
  0
VERTEX
  8
W71LASC
 62
1
 10
1392.090
 20
-6410.884
 30
-1769.356
 70
    32
  0
VERTEX
  8
W71LASC
 62
1
 10
1399.550
 20
-6408.898
 30
-1769.034
 70
    32
  0
VERTEX
  8
W71LASC
 62
1
 10
1411.349
 20
-6407.285
 30
-1766.774
 70
    32
  0
VERTEX
  8
W71LASC
 62
1
 10
1418.553
 20
-6402.547
 30
-1764.841
 70
    32
  0
VERTEX
  8
W71LASC
 62
1
 10
1419.271
 20
-6402.601
 30
-1764.823
 70
    32
  0
VERTEX
  8
W71LASC
 62
1
 10
1419.988
 20
-6402.655
 30
-1764.805
 70
    32
  0
VERTEX
  8
W71LASC
 62
1
 10
1420.706
 20
-6402.709
 30
-1764.786
 70
    32
  0
VERTEX
  8
W71LASC
 62
1
 10
1421.424
 20
-6402.762
 30
-1764.768
 70
    32
  0
VERTEX
  8
W71LASC
 62
1
 10
1422.141
 20
-6402.816
 30
-1764.750
 70
    32
  0
VERTEX
  8
W71LASC
 62
1
 10
1422.859
 20
-6402.870
 30
-1764.732
 70
    32
  0
VERTEX
  8
W71LASC
 62
1
 10
1423.577
 20
-6402.924
 30
-1764.713
 70
    32
  0
VERTEX
  8
W71LASC
 62
1
 10
1424.294
 20
-6402.978
 30
-1764.695
 70
    32
  0
VERTEX
  8
W71LASC
 62
1
 10
1425.012
 20
-6403.032
 30
-1764.677
 70
    32
  0
VERTEX
  8
W71LASC
 62
1
 10
1425.729
 20
-6403.086
 30
-1764.659
 70
    32
  0
VERTEX
  8
W71LASC
 62
1
 10
1426.447
 20
-6403.139
 30
-1764.641
 70
    32
  0
VERTEX
  8
W71LASC
 62
1
 10
1427.165
 20
-6403.193
 30
-1764.622
 70
    32
  0
VERTEX
  8
W71LASC
 62
1
 10
1427.882
 20
-6403.247
 30
-1764.604
 70
    32
  0
VERTEX
  8
W71LASC
 62
1
 10
1428.600
 20
-6403.301
 30
-1764.586
 70
    32
  0
VERTEX
  8
W71LASC
 62
1
 10
1436.429
 20
-6400.944
 30
-1763.936
 70
    32
  0
VERTEX
  8
W71LASC
 62
1
 10
1444.644
 20
-6397.969
 30
-1762.980
 70
    32
  0
VERTEX
  8
W71LASC
 62
1
 10
1454.227
 20
-6393.534
 30
-1762.605
 70
    32
  0
VERTEX
  8
W71LASC
 62
1
 10
1456.868
 20
-6397.250
 30
-1762.153
 70
    32
  0
VERTEX
  8
W71LASC
 62
1
 10
1456.409
 20
-6402.523
 30
-1762.584
 70
    32
  0
VERTEX
  8
W71LASC
 62
1
 10
1461.076
 20
-6410.341
 30
-1761.202
 70
    32
  0
VERTEX
  8
W71LASC
 62
1
 10
1460.706
 20
-6425.581
 30
-1761.253
 70
    32
  0
VERTEX
  8
W71LASC
 62
1
 10
1453.593
 20
-6423.594
 30
-1761.989
 70
    32
  0
VERTEX
  8
W71LASC
 62
1
 10
1444.576
 20
-6421.859
 30
-1763.304
 70
    32
  0
VERTEX
  8
W71LASC
 62
1
 10
1442.895
 20
-6424.286
 30
-1762.909
 70
    32
  0
VERTEX
  8
W71LASC
 62
1
 10
1437.737
 20
-6428.398
 30
-1762.330
 70
    32
  0
VERTEX
  8
W71LASC
 62
1
 10
1433.405
 20
-6430.759
 30
-1763.556
 70
    32
  0
VERTEX
  8
W71LASC
 62
1
 10
1428.773
 20
-6432.361
 30
-1764.298
 70
    32
  0
VERTEX
  8
W71LASC
 62
1
 10
1417.901
 20
-6425.610
 30
-1765.664
 70
    32
  0
VERTEX
  8
W71LASC
 62
1
 10
1411.232
 20
-6425.374
 30
-1766.949
 70
    32
  0
VERTEX
  8
W71LASC
 62
1
 10
1410.595
 20
-6424.720
 30
-1766.496
 70
    32
  0
VERTEX
  8
W71LASC
 62
1
 10
1408.112
 20
-6423.679
 30
-1767.166
 70
    32
  0
VERTEX
  8
W71LASC
 62
1
 10
1403.202
 20
-6419.917
 30
-1768.428
 70
    32
  0
VERTEX
  8
W71LASC
 62
1
 10
1396.444
 20
-6419.419
 30
-1769.368
 70
    32
  0
VERTEX
  8
W71LASC
 62
1
 10
1394.615
 20
-6420.077
 30
-1769.431
 70
    32
  0
SEQEND
  8
W71LASC
  0
POLYLINE
  8
W71LASC
 62
1
 66
     1
 70
     9
  0
VERTEX
  8
W71LASC
 62
1
 10
1418.747
 20
-6402.473
 30
-1764.749
 70
    32
  0
VERTEX
  8
W71LASC
 62
1
 10
1428.592
 20
-6403.357
 30
-1764.658
 70
    32
  0
VERTEX
  8
W71LASC
 62
1
 10
1438.779
 20
-6400.173
 30
-1764.568
 70
    32
  0
VERTEX
  8
W71LASC
 62
1
 10
1444.824
 20
-6397.867
 30
-1764.477
 70
    32
  0
VERTEX
  8
W71LASC
 62
1
 10
1454.194
 20
-6393.530
 30
-1764.386
 70
    32
  0
VERTEX
  8
W71LASC
 62
1
 10
1456.780
 20
-6396.983
 30
-1764.296
 70
    32
  0
VERTEX
  8
W71LASC
 62
1
 10
1455.895
 20
-6399.898
 30
-1764.205
 70
    32
  0
VERTEX
  8
W71LASC
 62
1
 10
1456.371
 20
-6402.271
 30
-1764.114
 70
    32
  0
VERTEX
  8
W71LASC
 62
1
 10
1461.190
 20
-6410.403
 30
-1764.024
 70
    32
  0
VERTEX
  8
W71LASC
 62
1
 10
1460.580
 20
-6425.646
 30
-1763.933
 70
    32
  0
VERTEX
  8
W71LASC
 62
1
 10
1453.108
 20
-6423.615
 30
-1763.842
 70
    32
  0
VERTEX
  8
W71LASC
 62
1
 10
1444.690
 20
-6421.986
 30
-1763.752
 70
    32
  0
VERTEX
  8
W71LASC
 62
1
 10
1442.787
 20
-6424.494
 30
-1763.661
 70
    32
  0
VERTEX
  8
W71LASC
 62
1
 10
1437.827
 20
-6428.428
 30
-1763.570
 70
    32
  0
VERTEX
  8
W71LASC
 62
1
 10
1433.142
 20
-6431.002
 30
-1763.552
 70
    32
  0
VERTEX
  8
W71LASC
 62
1
 10
1428.866
 20
-6432.424
 30
-1763.534
 70
    32
  0
VERTEX
  8
W71LASC
 62
1
 10
1418.338
 20
-6425.714
 30
-1763.516
 70
    32
  0
VERTEX
  8
W71LASC
 62
1
 10
1417.594
 20
-6425.579
 30
-1763.498
 70
    32
  0
VERTEX
  8
W71LASC
 62
1
 10
1418.814
 20
-6402.338
 30
-1763.480
 70
    32
  0
VERTEX
  8
W71LASC
 62
1
 10
1440.139
 20
-6392.786
 30
-1763.183
 70
    32
  0
VERTEX
  8
W71LASC
 62
1
 10
1449.262
 20
-6390.501
 30
-1762.094
 70
    32
  0
VERTEX
  8
W71LASC
 62
1
 10
1458.132
 20
-6395.321
 30
-1761.882
 70
    32
  0
VERTEX
  8
W71LASC
 62
1
 10
1455.993
 20
-6399.930
 30
-1762.080
 70
    32
  0
VERTEX
  8
W71LASC
 62
1
 10
1460.121
 20
-6408.702
 30
-1761.611
 70
    32
  0
VERTEX
  8
W71LASC
 62
1
 10
1463.476
 20
-6420.356
 30
-1761.452
 70
    32
  0
VERTEX
  8
W71LASC
 62
1
 10
1461.585
 20
-6430.076
 30
-1760.422
 70
    32
  0
VERTEX
  8
W71LASC
 62
1
 10
1454.206
 20
-6430.796
 30
-1760.001
 70
    32
  0
VERTEX
  8
W71LASC
 62
1
 10
1447.809
 20
-6430.511
 30
-1760.910
 70
    32
  0
VERTEX
  8
W71LASC
 62
1
 10
1441.238
 20
-6436.162
 30
-1760.820
 70
    32
  0
VERTEX
  8
W71LASC
 62
1
 10
1436.037
 20
-6446.822
 30
-1762.140
 70
    32
  0
VERTEX
  8
W71LASC
 62
1
 10
1431.891
 20
-6447.812
 30
-1763.221
 70
    32
  0
VERTEX
  8
W71LASC
 62
1
 10
1429.645
 20
-6446.187
 30
-1763.192
 70
    32
  0
VERTEX
  8
W71LASC
 62
1
 10
1426.336
 20
-6444.254
 30
-1764.302
 70
    32
  0
VERTEX
  8
W71LASC
 62
1
 10
1420.663
 20
-6439.817
 30
-1765.117
 70
    32
  0
VERTEX
  8
W71LASC
 62
1
 10
1415.950
 20
-6435.129
 30
-1764.795
 70
    32
  0
VERTEX
  8
W71LASC
 62
1
 10
1420.502
 20
-6429.452
 30
-1764.899
 70
    32
  0
VERTEX
  8
W71LASC
 62
1
 10
1417.420
 20
-6426.399
 30
-1765.263
 70
    32
  0
SEQEND
  8
W71LASC
  0
POLYLINE
  8
W71LASC
 62
1
 66
     1
 70
     9
  0
VERTEX
  8
W71LASC
 62
1
 10
2408.234
 20
-9313.588
 30
-1721.340
 70
    32
  0
VERTEX
  8
W71LASC
 62
1
 10
2410.156
 20
-9319.931
 30
-1720.142
 70
    32
  0
VERTEX
  8
W71LASC
 62
1
 10
2414.748
 20
-9335.279
 30
-1720.046
 70
    32
  0
VERTEX
  8
W71LASC
 62
1
 10
2429.230
 20
-9357.069
 30
-1719.394
 70
    32
  0
VERTEX
  8
W71LASC
 62
1
 10
2432.246
 20
-9365.265
 30
-1719.679
 70
    32
  0
VERTEX
  8
W71LASC
 62
1
 10
2445.903
 20
-9385.931
 30
-1719.262
 70
    32
  0
VERTEX
  8
W71LASC
 62
1
 10
2460.044
 20
-9405.338
 30
-1719.804
 70
    32
  0
VERTEX
  8
W71LASC
 62
1
 10
2446.641
 20
-9409.121
 30
-1719.682
 70
    32
  0
VERTEX
  8
W71LASC
 62
1
 10
2434.154
 20
-9401.861
 30
-1721.079
 70
    32
  0
VERTEX
  8
W71LASC
 62
1
 10
2427.075
 20
-9391.750
 30
-1722.001
 70
    32
  0
VERTEX
  8
W71LASC
 62
1
 10
2418.131
 20
-9381.269
 30
-1721.091
 70
    32
  0
VERTEX
  8
W71LASC
 62
1
 10
2409.733
 20
-9374.151
 30
-1721.205
 70
    32
  0
VERTEX
  8
W71LASC
 62
1
 10
2407.296
 20
-9370.512
 30
-1721.015
 70
    32
  0
VERTEX
  8
W71LASC
 62
1
 10
2399.215
 20
-9357.321
 30
-1722.496
 70
    32
  0
VERTEX
  8
W71LASC
 62
1
 10
2391.750
 20
-9348.659
 30
-1722.106
 70
    32
  0
VERTEX
  8
W71LASC
 62
1
 10
2384.630
 20
-9336.024
 30
-1722.587
 70
    32
  0
VERTEX
  8
W71LASC
 62
1
 10
2380.263
 20
-9324.613
 30
-1721.878
 70
    32
  0
VERTEX
  8
W71LASC
 62
1
 10
2375.990
 20
-9316.334
 30
-1722.841
 70
    32
  0
VERTEX
  8
W71LASC
 62
1
 10
2380.406
 20
-9307.449
 30
-1722.721
 70
    32
  0
VERTEX
  8
W71LASC
 62
1
 10
2385.196
 20
-9300.943
 30
-1721.698
 70
    32
  0
VERTEX
  8
W71LASC
 62
1
 10
2387.861
 20
-9297.435
 30
-1721.138
 70
    32
  0
VERTEX
  8
W71LASC
 62
1
 10
2388.073
 20
-9308.990
 30
-1722.144
 70
    32
  0
VERTEX
  8
W71LASC
 62
1
 10
2390.756
 20
-9314.332
 30
-1721.074
 70
    32
  0
VERTEX
  8
W71LASC
 62
1
 10
2397.321
 20
-9316.088
 30
-1720.926
 70
    32
  0
VERTEX
  8
W71LASC
 62
1
 10
2401.345
 20
-9316.472
 30
-1722.938
 70
    32
  0
VERTEX
  8
W71LASC
 62
1
 10
2408.300
 20
-9316.363
 30
-1721.396
 70
    32
  0
SEQEND
  8
W71LASC
  0
POLYLINE
  8
W71LASC
 62
1
 66
     1
 70
     9
  0
VERTEX
  8
W71LASC
 62
1
 10
2446.641
 20
-9409.121
 30
-1719.682
 70
    32
  0
VERTEX
  8
W71LASC
 62
1
 10
2460.044
 20
-9405.338
 30
-1719.804
 70
    32
  0
VERTEX
  8
W71LASC
 62
1
 10
2466.519
 20
-9417.196
 30
-1719.804
 70
    32
  0
VERTEX
  8
W71LASC
 62
1
 10
2471.521
 20
-9427.243
 30
-1719.804
 70
    32
  0
VERTEX
  8
W71LASC
 62
1
 10
2476.932
 20
-9436.869
 30
-1719.804
 70
    32
  0
VERTEX
  8
W71LASC
 62
1
 10
2468.031
 20
-9441.426
 30
-1719.804
 70
    32
  0
VERTEX
  8
W71LASC
 62
1
 10
2458.314
 20
-9423.945
 30
-1719.804
 70
    32
  0
VERTEX
  8
W71LASC
 62
1
 10
2454.026
 20
-9424.315
 30
-1719.804
 70
    32
  0
SEQEND
  8
W71LASC
  0
POLYLINE
  8
W71LASC
 62
1
 66
     1
 70
     9
  0
VERTEX
  8
W71LASC
 62
1
 10
2413.833
 20
-9377.626
 30
-1721.149
 70
    32
  0
VERTEX
  8
W71LASC
 62
1
 10
2418.131
 20
-9381.269
 30
-1721.091
 70
    32
  0
VERTEX
  8
W71LASC
 62
1
 10
2427.075
 20
-9391.750
 30
-1722.001
 70
    32
  0
VERTEX
  8
W71LASC
 62
1
 10
2427.075
 20
-9391.750
 30
-1722.001
 70
    32
  0
VERTEX
  8
W71LASC
 62
1
 10
2430.571
 20
-9396.743
 30
-1721.545
 70
    32
  0
VERTEX
  8
W71LASC
 62
1
 10
2411.961
 20
-9390.832
 30
-1721.545
 70
    32
  0
SEQEND
  8
W71LASC
  0
POLYLINE
  8
W71LASC
 62
1
 66
     1
 70
     9
  0
VERTEX
  8
W71LASC
 62
1
 10
2387.861
 20
-9297.435
 30
-1721.138
 70
    32
  0
VERTEX
  8
W71LASC
 62
1
 10
2385.196
 20
-9300.943
 30
-1721.698
 70
    32
  0
VERTEX
  8
W71LASC
 62
1
 10
2380.406
 20
-9307.449
 30
-1722.721
 70
    32
  0
VERTEX
  8
W71LASC
 62
1
 10
2375.990
 20
-9316.334
 30
-1722.841
 70
    32
  0
VERTEX
  8
W71LASC
 62
1
 10
2380.263
 20
-9324.613
 30
-1721.878
 70
    32
  0
VERTEX
  8
W71LASC
 62
1
 10
2381.775
 20
-9328.564
 30
-1722.123
 70
    32
  0
VERTEX
  8
W71LASC
 62
1
 10
2379.860
 20
-9327.826
 30
-1717.946
 70
    32
  0
VERTEX
  8
W71LASC
 62
1
 10
2370.293
 20
-9320.542
 30
-1718.603
 70
    32
  0
VERTEX
  8
W71LASC
 62
1
 10
2360.477
 20
-9322.452
 30
-1718.603
 70
    32
  0
VERTEX
  8
W71LASC
 62
1
 10
2361.518
 20
-9312.089
 30
-1719.333
 70
    32
  0
VERTEX
  8
W71LASC
 62
1
 10
2371.334
 20
-9310.180
 30
-1719.333
 70
    32
  0
SEQEND
  8
W71LASC
  0
POLYLINE
  8
W71LASC
 62
1
 66
     1
 70
     9
  0
VERTEX
  8
W71LASC
 62
1
 10
2413.833
 20
-9377.626
 30
-1721.149
 70
    32
  0
VERTEX
  8
W71LASC
 62
1
 10
2418.131
 20
-9381.269
 30
-1721.091
 70
    32
  0
VERTEX
  8
W71LASC
 62
1
 10
2427.075
 20
-9391.750
 30
-1722.001
 70
    32
  0
VERTEX
  8
W71LASC
 62
1
 10
2430.571
 20
-9396.743
 30
-1721.545
 70
    32
  0
VERTEX
  8
W71LASC
 62
1
 10
2411.961
 20
-9390.832
 30
-1721.545
 70
    32
  0
SEQEND
  8
W71LASC
  0
POLYLINE
  8
W71LASC
 62
1
 66
     1
 70
     9
  0
VERTEX
  8
W71LASC
 62
1
 10
2379.416
 20
-9215.069
 30
-1727.693
 70
    32
  0
VERTEX
  8
W71LASC
 62
1
 10
2380.584
 20
-9219.937
 30
-1725.046
 70
    32
  0
VERTEX
  8
W71LASC
 62
1
 10
2382.912
 20
-9229.640
 30
-1719.770
 70
    32
  0
VERTEX
  8
W71LASC
 62
1
 10
2384.690
 20
-9238.261
 30
-1715.349
 70
    32
  0
VERTEX
  8
W71LASC
 62
1
 10
2385.891
 20
-9245.916
 30
-1713.748
 70
    32
  0
VERTEX
  8
W71LASC
 62
1
 10
2385.102
 20
-9254.427
 30
-1711.106
 70
    32
  0
VERTEX
  8
W71LASC
 62
1
 10
2384.374
 20
-9261.192
 30
-1708.899
 70
    32
  0
VERTEX
  8
W71LASC
 62
1
 10
2385.870
 20
-9277.169
 30
-1707.905
 70
    32
  0
VERTEX
  8
W71LASC
 62
1
 10
2384.473
 20
-9289.203
 30
-1708.034
 70
    32
  0
VERTEX
  8
W71LASC
 62
1
 10
2382.883
 20
-9297.115
 30
-1709.315
 70
    32
  0
VERTEX
  8
W71LASC
 62
1
 10
2380.371
 20
-9305.626
 30
-1711.331
 70
    32
  0
VERTEX
  8
W71LASC
 62
1
 10
2389.083
 20
-9307.913
 30
-1710.578
 70
    32
  0
VERTEX
  8
W71LASC
 62
1
 10
2398.001
 20
-9306.130
 30
-1709.856
 70
    32
  0
VERTEX
  8
W71LASC
 62
1
 10
2397.890
 20
-9297.629
 30
-1707.233
 70
    32
  0
VERTEX
  8
W71LASC
 62
1
 10
2394.199
 20
-9290.902
 30
-1708.146
 70
    32
  0
VERTEX
  8
W71LASC
 62
1
 10
2395.151
 20
-9285.204
 30
-1706.325
 70
    32
  0
VERTEX
  8
W71LASC
 62
1
 10
2394.434
 20
-9255.286
 30
-1710.578
 70
    32
  0
VERTEX
  8
W71LASC
 62
1
 10
2394.225
 20
-9245.117
 30
-1712.268
 70
    32
  0
VERTEX
  8
W71LASC
 62
1
 10
2394.011
 20
-9234.108
 30
-1716.783
 70
    32
  0
VERTEX
  8
W71LASC
 62
1
 10
2393.862
 20
-9222.476
 30
-1721.989
 70
    32
  0
VERTEX
  8
W71LASC
 62
1
 10
2395.166
 20
-9211.632
 30
-1727.986
 70
    32
  0
VERTEX
  8
W71LASC
 62
1
 10
2385.923
 20
-9213.649
 30
-1727.814
 70
    32
  0
SEQEND
  8
W71LASC
  0
ENDSEC
  0
EOF
