999
********************************
999
*   DXF File - Entities Only   *
999
*        3D Data Format        *
999
*     Output from ENVISAGE     *
999
*     02-Jan-2008 11:26:33     *
999
********************************
  0
SECTION 
  2
HEADER
  9
$ACADVER
  1
AC1009
  9
$EXTMIN
 10
-290000.000
 20
-250000.000
 30
-4000.000
  9
$EXTMAX
 10
320000.000
 20
160000.000
 30
6000.000
  0
ENDSEC
  0
SECTION
  2
ENTITIES
  0
POLYLINE
  8
W71LXLIFT
 62
3
 66
     1
 70
     9
  0
VERTEX
  8
W71LXLIFT
 62
3
 10
2108.904
 20
-7938.724
 30
-1810.000
 70
    32
  0
VERTEX
  8
W71LXLIFT
 62
3
 10
2099.888
 20
-7936.009
 30
-1810.000
 70
    32
  0
VERTEX
  8
W71LXLIFT
 62
3
 10
2088.723
 20
-7937.233
 30
-1810.000
 70
    32
  0
VERTEX
  8
W71LXLIFT
 62
3
 10
2077.030
 20
-7909.315
 30
-1810.000
 70
    32
  0
VERTEX
  8
W71LXLIFT
 62
3
 10
2068.561
 20
-7891.877
 30
-1810.000
 70
    32
  0
VERTEX
  8
W71LXLIFT
 62
3
 10
2058.587
 20
-7872.052
 30
-1810.000
 70
    32
  0
VERTEX
  8
W71LXLIFT
 62
3
 10
2063.185
 20
-7865.042
 30
-1810.000
 70
    32
  0
VERTEX
  8
W71LXLIFT
 62
3
 10
2075.692
 20
-7878.153
 30
-1810.000
 70
    32
  0
VERTEX
  8
W71LXLIFT
 62
3
 10
2085.354
 20
-7885.069
 30
-1810.000
 70
    32
  0
VERTEX
  8
W71LXLIFT
 62
3
 10
2091.488
 20
-7890.408
 30
-1810.000
 70
    32
  0
VERTEX
  8
W71LXLIFT
 62
3
 10
2098.099
 20
-7898.660
 30
-1810.000
 70
    32
  0
VERTEX
  8
W71LXLIFT
 62
3
 10
2102.133
 20
-7905.298
 30
-1810.000
 70
    32
  0
VERTEX
  8
W71LXLIFT
 62
3
 10
2109.722
 20
-7910.998
 30
-1810.000
 70
    32
  0
VERTEX
  8
W71LXLIFT
 62
3
 10
2112.543
 20
-7920.466
 30
-1810.000
 70
    32
  0
VERTEX
  8
W71LXLIFT
 62
3
 10
2117.160
 20
-7928.963
 30
-1810.000
 70
    32
  0
SEQEND
  8
W71LXLIFT
  0
POLYLINE
  8
W71LXLIFT
 62
1
 66
     1
 70
     9
  0
VERTEX
  8
W71LXLIFT
 62
1
 10
2109.904
 20
-7937.724
 30
-1799.000
 70
    32
  0
VERTEX
  8
W71LXLIFT
 62
1
 10
2100.888
 20
-7935.009
 30
-1799.000
 70
    32
  0
VERTEX
  8
W71LXLIFT
 62
1
 10
2089.723
 20
-7936.233
 30
-1799.000
 70
    32
  0
VERTEX
  8
W71LXLIFT
 62
1
 10
2078.030
 20
-7908.315
 30
-1799.000
 70
    32
  0
VERTEX
  8
W71LXLIFT
 62
1
 10
2069.561
 20
-7890.877
 30
-1799.000
 70
    32
  0
VERTEX
  8
W71LXLIFT
 62
1
 10
2059.587
 20
-7871.052
 30
-1799.000
 70
    32
  0
VERTEX
  8
W71LXLIFT
 62
1
 10
2064.185
 20
-7864.042
 30
-1799.000
 70
    32
  0
VERTEX
  8
W71LXLIFT
 62
1
 10
2076.692
 20
-7877.153
 30
-1799.000
 70
    32
  0
VERTEX
  8
W71LXLIFT
 62
1
 10
2086.354
 20
-7884.069
 30
-1799.000
 70
    32
  0
VERTEX
  8
W71LXLIFT
 62
1
 10
2092.488
 20
-7889.408
 30
-1799.000
 70
    32
  0
VERTEX
  8
W71LXLIFT
 62
1
 10
2099.099
 20
-7897.660
 30
-1799.000
 70
    32
  0
VERTEX
  8
W71LXLIFT
 62
1
 10
2103.133
 20
-7904.298
 30
-1799.000
 70
    32
  0
VERTEX
  8
W71LXLIFT
 62
1
 10
2110.722
 20
-7909.998
 30
-1799.000
 70
    32
  0
VERTEX
  8
W71LXLIFT
 62
1
 10
2113.543
 20
-7919.466
 30
-1799.000
 70
    32
  0
VERTEX
  8
W71LXLIFT
 62
1
 10
2118.160
 20
-7927.963
 30
-1799.000
 70
    32
  0
SEQEND
  8
W71LXLIFT
  0
POLYLINE
  8
W71LXLIFT
 62
2
 66
     1
 70
     9
  0
VERTEX
  8
W71LXLIFT
 62
2
 10
2210.232
 20
-8502.912
 30
-1781.000
 70
    32
  0
VERTEX
  8
W71LXLIFT
 62
2
 10
2220.035
 20
-8475.753
 30
-1781.000
 70
    32
  0
VERTEX
  8
W71LXLIFT
 62
2
 10
2215.740
 20
-8458.231
 30
-1781.000
 70
    32
  0
VERTEX
  8
W71LXLIFT
 62
2
 10
2197.777
 20
-8420.730
 30
-1781.000
 70
    32
  0
VERTEX
  8
W71LXLIFT
 62
2
 10
2202.184
 20
-8416.462
 30
-1781.000
 70
    32
  0
VERTEX
  8
W71LXLIFT
 62
2
 10
2200.617
 20
-8376.565
 30
-1781.000
 70
    32
  0
VERTEX
  8
W71LXLIFT
 62
2
 10
2212.792
 20
-8374.937
 30
-1781.000
 70
    32
  0
VERTEX
  8
W71LXLIFT
 62
2
 10
2221.630
 20
-8436.176
 30
-1781.000
 70
    32
  0
VERTEX
  8
W71LXLIFT
 62
2
 10
2232.589
 20
-8432.713
 30
-1781.000
 70
    32
  0
VERTEX
  8
W71LXLIFT
 62
2
 10
2229.372
 20
-8415.933
 30
-1781.000
 70
    32
  0
VERTEX
  8
W71LXLIFT
 62
2
 10
2234.992
 20
-8410.789
 30
-1781.000
 70
    32
  0
VERTEX
  8
W71LXLIFT
 62
2
 10
2233.593
 20
-8405.395
 30
-1781.000
 70
    32
  0
VERTEX
  8
W71LXLIFT
 62
2
 10
2227.051
 20
-8392.427
 30
-1781.000
 70
    32
  0
VERTEX
  8
W71LXLIFT
 62
2
 10
2232.786
 20
-8387.743
 30
-1781.000
 70
    32
  0
VERTEX
  8
W71LXLIFT
 62
2
 10
2230.607
 20
-8377.811
 30
-1781.000
 70
    32
  0
VERTEX
  8
W71LXLIFT
 62
2
 10
2224.167
 20
-8368.894
 30
-1781.000
 70
    32
  0
VERTEX
  8
W71LXLIFT
 62
2
 10
2222.016
 20
-8356.445
 30
-1781.000
 70
    32
  0
VERTEX
  8
W71LXLIFT
 62
2
 10
2223.292
 20
-8348.142
 30
-1781.000
 70
    32
  0
VERTEX
  8
W71LXLIFT
 62
2
 10
2219.207
 20
-8333.617
 30
-1781.000
 70
    32
  0
VERTEX
  8
W71LXLIFT
 62
2
 10
2237.616
 20
-8328.898
 30
-1781.000
 70
    32
  0
VERTEX
  8
W71LXLIFT
 62
2
 10
2239.780
 20
-8337.756
 30
-1781.000
 70
    32
  0
VERTEX
  8
W71LXLIFT
 62
2
 10
2244.884
 20
-8345.576
 30
-1781.000
 70
    32
  0
VERTEX
  8
W71LXLIFT
 62
2
 10
2252.372
 20
-8381.197
 30
-1781.000
 70
    32
  0
VERTEX
  8
W71LXLIFT
 62
2
 10
2246.490
 20
-8400.858
 30
-1781.000
 70
    32
  0
VERTEX
  8
W71LXLIFT
 62
2
 10
2252.708
 20
-8404.508
 30
-1781.000
 70
    32
  0
VERTEX
  8
W71LXLIFT
 62
2
 10
2260.971
 20
-8406.031
 30
-1781.000
 70
    32
  0
VERTEX
  8
W71LXLIFT
 62
2
 10
2255.848
 20
-8447.937
 30
-1781.000
 70
    32
  0
VERTEX
  8
W71LXLIFT
 62
2
 10
2252.630
 20
-8450.695
 30
-1781.000
 70
    32
  0
VERTEX
  8
W71LXLIFT
 62
2
 10
2255.609
 20
-8465.042
 30
-1781.000
 70
    32
  0
VERTEX
  8
W71LXLIFT
 62
2
 10
2279.042
 20
-8488.173
 30
-1781.000
 70
    32
  0
VERTEX
  8
W71LXLIFT
 62
2
 10
2279.085
 20
-8496.499
 30
-1781.000
 70
    32
  0
VERTEX
  8
W71LXLIFT
 62
2
 10
2269.105
 20
-8505.226
 30
-1781.000
 70
    32
  0
VERTEX
  8
W71LXLIFT
 62
2
 10
2268.927
 20
-8510.239
 30
-1781.000
 70
    32
  0
VERTEX
  8
W71LXLIFT
 62
2
 10
2258.495
 20
-8510.825
 30
-1781.000
 70
    32
  0
VERTEX
  8
W71LXLIFT
 62
2
 10
2255.857
 20
-8499.054
 30
-1781.000
 70
    32
  0
VERTEX
  8
W71LXLIFT
 62
2
 10
2245.007
 20
-8479.971
 30
-1781.000
 70
    32
  0
VERTEX
  8
W71LXLIFT
 62
2
 10
2239.169
 20
-8480.605
 30
-1781.000
 70
    32
  0
VERTEX
  8
W71LXLIFT
 62
2
 10
2227.825
 20
-8500.519
 30
-1781.000
 70
    32
  0
VERTEX
  8
W71LXLIFT
 62
2
 10
2218.872
 20
-8507.961
 30
-1781.000
 70
    32
  0
SEQEND
  8
W71LXLIFT
  0
POLYLINE
  8
W71LXLIFT
 62
1
 66
     1
 70
     9
  0
VERTEX
  8
W71LXLIFT
 62
1
 10
2211.232
 20
-8501.912
 30
-1771.000
 70
    32
  0
VERTEX
  8
W71LXLIFT
 62
1
 10
2221.035
 20
-8474.753
 30
-1771.000
 70
    32
  0
VERTEX
  8
W71LXLIFT
 62
1
 10
2216.740
 20
-8457.231
 30
-1771.000
 70
    32
  0
VERTEX
  8
W71LXLIFT
 62
1
 10
2198.777
 20
-8419.730
 30
-1771.000
 70
    32
  0
VERTEX
  8
W71LXLIFT
 62
1
 10
2203.184
 20
-8415.462
 30
-1771.000
 70
    32
  0
VERTEX
  8
W71LXLIFT
 62
1
 10
2201.617
 20
-8375.565
 30
-1771.000
 70
    32
  0
VERTEX
  8
W71LXLIFT
 62
1
 10
2213.792
 20
-8373.937
 30
-1771.000
 70
    32
  0
VERTEX
  8
W71LXLIFT
 62
1
 10
2222.630
 20
-8435.176
 30
-1771.000
 70
    32
  0
VERTEX
  8
W71LXLIFT
 62
1
 10
2233.589
 20
-8431.713
 30
-1771.000
 70
    32
  0
VERTEX
  8
W71LXLIFT
 62
1
 10
2230.372
 20
-8414.933
 30
-1771.000
 70
    32
  0
VERTEX
  8
W71LXLIFT
 62
1
 10
2235.992
 20
-8409.789
 30
-1771.000
 70
    32
  0
VERTEX
  8
W71LXLIFT
 62
1
 10
2234.593
 20
-8404.395
 30
-1771.000
 70
    32
  0
VERTEX
  8
W71LXLIFT
 62
1
 10
2228.051
 20
-8391.427
 30
-1771.000
 70
    32
  0
VERTEX
  8
W71LXLIFT
 62
1
 10
2233.786
 20
-8386.743
 30
-1771.000
 70
    32
  0
VERTEX
  8
W71LXLIFT
 62
1
 10
2231.607
 20
-8376.811
 30
-1771.000
 70
    32
  0
VERTEX
  8
W71LXLIFT
 62
1
 10
2225.167
 20
-8367.894
 30
-1771.000
 70
    32
  0
VERTEX
  8
W71LXLIFT
 62
1
 10
2223.016
 20
-8355.445
 30
-1771.000
 70
    32
  0
VERTEX
  8
W71LXLIFT
 62
1
 10
2224.292
 20
-8347.142
 30
-1771.000
 70
    32
  0
VERTEX
  8
W71LXLIFT
 62
1
 10
2220.207
 20
-8332.617
 30
-1771.000
 70
    32
  0
VERTEX
  8
W71LXLIFT
 62
1
 10
2238.616
 20
-8327.898
 30
-1771.000
 70
    32
  0
VERTEX
  8
W71LXLIFT
 62
1
 10
2240.780
 20
-8336.756
 30
-1771.000
 70
    32
  0
VERTEX
  8
W71LXLIFT
 62
1
 10
2245.884
 20
-8344.576
 30
-1771.000
 70
    32
  0
VERTEX
  8
W71LXLIFT
 62
1
 10
2253.372
 20
-8380.197
 30
-1771.000
 70
    32
  0
VERTEX
  8
W71LXLIFT
 62
1
 10
2247.490
 20
-8399.858
 30
-1771.000
 70
    32
  0
VERTEX
  8
W71LXLIFT
 62
1
 10
2253.708
 20
-8403.508
 30
-1771.000
 70
    32
  0
VERTEX
  8
W71LXLIFT
 62
1
 10
2261.971
 20
-8405.031
 30
-1771.000
 70
    32
  0
VERTEX
  8
W71LXLIFT
 62
1
 10
2256.848
 20
-8446.937
 30
-1771.000
 70
    32
  0
VERTEX
  8
W71LXLIFT
 62
1
 10
2253.630
 20
-8449.695
 30
-1771.000
 70
    32
  0
VERTEX
  8
W71LXLIFT
 62
1
 10
2256.609
 20
-8464.042
 30
-1771.000
 70
    32
  0
VERTEX
  8
W71LXLIFT
 62
1
 10
2280.042
 20
-8487.173
 30
-1771.000
 70
    32
  0
VERTEX
  8
W71LXLIFT
 62
1
 10
2280.085
 20
-8495.499
 30
-1771.000
 70
    32
  0
VERTEX
  8
W71LXLIFT
 62
1
 10
2270.105
 20
-8504.226
 30
-1771.000
 70
    32
  0
VERTEX
  8
W71LXLIFT
 62
1
 10
2269.927
 20
-8509.239
 30
-1771.000
 70
    32
  0
VERTEX
  8
W71LXLIFT
 62
1
 10
2259.495
 20
-8509.825
 30
-1771.000
 70
    32
  0
VERTEX
  8
W71LXLIFT
 62
1
 10
2256.857
 20
-8498.054
 30
-1771.000
 70
    32
  0
VERTEX
  8
W71LXLIFT
 62
1
 10
2246.007
 20
-8478.971
 30
-1771.000
 70
    32
  0
VERTEX
  8
W71LXLIFT
 62
1
 10
2240.169
 20
-8479.605
 30
-1771.000
 70
    32
  0
VERTEX
  8
W71LXLIFT
 62
1
 10
2228.825
 20
-8499.519
 30
-1771.000
 70
    32
  0
VERTEX
  8
W71LXLIFT
 62
1
 10
2219.872
 20
-8506.961
 30
-1771.000
 70
    32
  0
SEQEND
  8
W71LXLIFT
  0
POLYLINE
  8
W71LXLIFT
 62
13
 66
     1
 70
     9
  0
VERTEX
  8
W71LXLIFT
 62
13
 10
2069.958
 20
-7995.720
 30
-1719.000
 70
    32
  0
VERTEX
  8
W71LXLIFT
 62
13
 10
2065.642
 20
-7999.814
 30
-1719.000
 70
    32
  0
VERTEX
  8
W71LXLIFT
 62
13
 10
2060.232
 20
-8000.138
 30
-1719.000
 70
    32
  0
VERTEX
  8
W71LXLIFT
 62
13
 10
2055.751
 20
-7988.070
 30
-1719.000
 70
    32
  0
VERTEX
  8
W71LXLIFT
 62
13
 10
2049.628
 20
-7977.187
 30
-1719.000
 70
    32
  0
VERTEX
  8
W71LXLIFT
 62
13
 10
2050.996
 20
-7964.802
 30
-1719.000
 70
    32
  0
VERTEX
  8
W71LXLIFT
 62
13
 10
2049.867
 20
-7958.128
 30
-1719.000
 70
    32
  0
VERTEX
  8
W71LXLIFT
 62
13
 10
2063.010
 20
-7945.815
 30
-1719.000
 70
    32
  0
VERTEX
  8
W71LXLIFT
 62
13
 10
2072.006
 20
-7948.653
 30
-1719.000
 70
    32
  0
VERTEX
  8
W71LXLIFT
 62
13
 10
2080.625
 20
-7961.641
 30
-1719.000
 70
    32
  0
VERTEX
  8
W71LXLIFT
 62
13
 10
2078.588
 20
-7969.191
 30
-1719.000
 70
    32
  0
VERTEX
  8
W71LXLIFT
 62
13
 10
2080.976
 20
-7987.981
 30
-1719.000
 70
    32
  0
SEQEND
  8
W71LXLIFT
  0
POLYLINE
  8
W71LXLIFT
 62
5
 66
     1
 70
     9
  0
VERTEX
  8
W71LXLIFT
 62
5
 10
2070.958
 20
-7994.720
 30
-1709.000
 70
    32
  0
VERTEX
  8
W71LXLIFT
 62
5
 10
2066.642
 20
-7998.814
 30
-1709.000
 70
    32
  0
VERTEX
  8
W71LXLIFT
 62
5
 10
2061.232
 20
-7999.138
 30
-1709.000
 70
    32
  0
VERTEX
  8
W71LXLIFT
 62
5
 10
2056.751
 20
-7987.070
 30
-1709.000
 70
    32
  0
VERTEX
  8
W71LXLIFT
 62
5
 10
2050.628
 20
-7976.187
 30
-1709.000
 70
    32
  0
VERTEX
  8
W71LXLIFT
 62
5
 10
2051.996
 20
-7963.802
 30
-1709.000
 70
    32
  0
VERTEX
  8
W71LXLIFT
 62
5
 10
2050.867
 20
-7957.128
 30
-1709.000
 70
    32
  0
VERTEX
  8
W71LXLIFT
 62
5
 10
2064.010
 20
-7944.815
 30
-1709.000
 70
    32
  0
VERTEX
  8
W71LXLIFT
 62
5
 10
2073.006
 20
-7947.653
 30
-1709.000
 70
    32
  0
VERTEX
  8
W71LXLIFT
 62
5
 10
2081.625
 20
-7960.641
 30
-1709.000
 70
    32
  0
VERTEX
  8
W71LXLIFT
 62
5
 10
2079.588
 20
-7968.191
 30
-1709.000
 70
    32
  0
VERTEX
  8
W71LXLIFT
 62
5
 10
2081.976
 20
-7986.981
 30
-1709.000
 70
    32
  0
SEQEND
  8
W71LXLIFT
  0
POLYLINE
  8
W71LXLIFT
 62
3
 66
     1
 70
     9
  0
VERTEX
  8
W71LXLIFT
 62
3
 10
2115.389
 20
-7920.799
 30
-1723.000
 70
    32
  0
VERTEX
  8
W71LXLIFT
 62
3
 10
2094.698
 20
-7897.859
 30
-1723.000
 70
    32
  0
VERTEX
  8
W71LXLIFT
 62
3
 10
2096.621
 20
-7885.942
 30
-1723.000
 70
    32
  0
VERTEX
  8
W71LXLIFT
 62
3
 10
2092.440
 20
-7882.557
 30
-1723.000
 70
    32
  0
VERTEX
  8
W71LXLIFT
 62
3
 10
2087.601
 20
-7882.469
 30
-1723.000
 70
    32
  0
VERTEX
  8
W71LXLIFT
 62
3
 10
2082.006
 20
-7874.570
 30
-1723.000
 70
    32
  0
VERTEX
  8
W71LXLIFT
 62
3
 10
2068.535
 20
-7874.855
 30
-1723.000
 70
    32
  0
VERTEX
  8
W71LXLIFT
 62
3
 10
2052.504
 20
-7874.600
 30
-1723.000
 70
    32
  0
VERTEX
  8
W71LXLIFT
 62
3
 10
2041.244
 20
-7873.288
 30
-1723.000
 70
    32
  0
VERTEX
  8
W71LXLIFT
 62
3
 10
2038.470
 20
-7868.996
 30
-1723.000
 70
    32
  0
VERTEX
  8
W71LXLIFT
 62
3
 10
2030.243
 20
-7866.471
 30
-1723.000
 70
    32
  0
VERTEX
  8
W71LXLIFT
 62
3
 10
2022.730
 20
-7849.753
 30
-1723.000
 70
    32
  0
VERTEX
  8
W71LXLIFT
 62
3
 10
2022.267
 20
-7843.250
 30
-1723.000
 70
    32
  0
VERTEX
  8
W71LXLIFT
 62
3
 10
2021.423
 20
-7838.324
 30
-1723.000
 70
    32
  0
VERTEX
  8
W71LXLIFT
 62
3
 10
2015.003
 20
-7827.329
 30
-1723.000
 70
    32
  0
VERTEX
  8
W71LXLIFT
 62
3
 10
2009.126
 20
-7828.209
 30
-1723.000
 70
    32
  0
VERTEX
  8
W71LXLIFT
 62
3
 10
2005.127
 20
-7826.429
 30
-1723.000
 70
    32
  0
VERTEX
  8
W71LXLIFT
 62
3
 10
1998.064
 20
-7829.575
 30
-1723.000
 70
    32
  0
VERTEX
  8
W71LXLIFT
 62
3
 10
1995.583
 20
-7840.268
 30
-1723.000
 70
    32
  0
VERTEX
  8
W71LXLIFT
 62
3
 10
1993.855
 20
-7842.384
 30
-1723.000
 70
    32
  0
VERTEX
  8
W71LXLIFT
 62
3
 10
1994.306
 20
-7852.478
 30
-1723.000
 70
    32
  0
VERTEX
  8
W71LXLIFT
 62
3
 10
2004.899
 20
-7857.528
 30
-1723.000
 70
    32
  0
VERTEX
  8
W71LXLIFT
 62
3
 10
2005.656
 20
-7861.432
 30
-1723.000
 70
    32
  0
VERTEX
  8
W71LXLIFT
 62
3
 10
2014.085
 20
-7867.393
 30
-1723.000
 70
    32
  0
VERTEX
  8
W71LXLIFT
 62
3
 10
2015.405
 20
-7871.325
 30
-1723.000
 70
    32
  0
VERTEX
  8
W71LXLIFT
 62
3
 10
2025.288
 20
-7877.646
 30
-1723.000
 70
    32
  0
VERTEX
  8
W71LXLIFT
 62
3
 10
2025.371
 20
-7881.820
 30
-1723.000
 70
    32
  0
VERTEX
  8
W71LXLIFT
 62
3
 10
2031.094
 20
-7886.588
 30
-1723.000
 70
    32
  0
VERTEX
  8
W71LXLIFT
 62
3
 10
2032.310
 20
-7896.238
 30
-1723.000
 70
    32
  0
VERTEX
  8
W71LXLIFT
 62
3
 10
2057.278
 20
-7897.746
 30
-1723.000
 70
    32
  0
VERTEX
  8
W71LXLIFT
 62
3
 10
2062.965
 20
-7897.655
 30
-1723.000
 70
    32
  0
VERTEX
  8
W71LXLIFT
 62
3
 10
2074.236
 20
-7899.284
 30
-1723.000
 70
    32
  0
VERTEX
  8
W71LXLIFT
 62
3
 10
2081.045
 20
-7904.354
 30
-1723.000
 70
    32
  0
VERTEX
  8
W71LXLIFT
 62
3
 10
2101.287
 20
-7929.679
 30
-1723.000
 70
    32
  0
VERTEX
  8
W71LXLIFT
 62
3
 10
2110.510
 20
-7924.865
 30
-1723.000
 70
    32
  0
SEQEND
  8
W71LXLIFT
  0
POLYLINE
  8
W71LXLIFT
 62
1
 66
     1
 70
     9
  0
VERTEX
  8
W71LXLIFT
 62
1
 10
2116.389
 20
-7919.799
 30
-1709.000
 70
    32
  0
VERTEX
  8
W71LXLIFT
 62
1
 10
2095.698
 20
-7896.859
 30
-1709.000
 70
    32
  0
VERTEX
  8
W71LXLIFT
 62
1
 10
2097.621
 20
-7884.942
 30
-1709.000
 70
    32
  0
VERTEX
  8
W71LXLIFT
 62
1
 10
2093.440
 20
-7881.557
 30
-1709.000
 70
    32
  0
VERTEX
  8
W71LXLIFT
 62
1
 10
2088.601
 20
-7881.469
 30
-1709.000
 70
    32
  0
VERTEX
  8
W71LXLIFT
 62
1
 10
2083.006
 20
-7873.570
 30
-1709.000
 70
    32
  0
VERTEX
  8
W71LXLIFT
 62
1
 10
2069.535
 20
-7873.855
 30
-1709.000
 70
    32
  0
VERTEX
  8
W71LXLIFT
 62
1
 10
2053.504
 20
-7873.600
 30
-1709.000
 70
    32
  0
VERTEX
  8
W71LXLIFT
 62
1
 10
2042.244
 20
-7872.288
 30
-1709.000
 70
    32
  0
VERTEX
  8
W71LXLIFT
 62
1
 10
2039.470
 20
-7867.996
 30
-1709.000
 70
    32
  0
VERTEX
  8
W71LXLIFT
 62
1
 10
2031.243
 20
-7865.471
 30
-1709.000
 70
    32
  0
VERTEX
  8
W71LXLIFT
 62
1
 10
2023.730
 20
-7848.753
 30
-1709.000
 70
    32
  0
VERTEX
  8
W71LXLIFT
 62
1
 10
2023.267
 20
-7842.250
 30
-1709.000
 70
    32
  0
VERTEX
  8
W71LXLIFT
 62
1
 10
2022.423
 20
-7837.324
 30
-1709.000
 70
    32
  0
VERTEX
  8
W71LXLIFT
 62
1
 10
2016.003
 20
-7826.329
 30
-1709.000
 70
    32
  0
VERTEX
  8
W71LXLIFT
 62
1
 10
2010.126
 20
-7827.209
 30
-1709.000
 70
    32
  0
VERTEX
  8
W71LXLIFT
 62
1
 10
2006.127
 20
-7825.429
 30
-1709.000
 70
    32
  0
VERTEX
  8
W71LXLIFT
 62
1
 10
1999.064
 20
-7828.575
 30
-1709.000
 70
    32
  0
VERTEX
  8
W71LXLIFT
 62
1
 10
1996.583
 20
-7839.268
 30
-1709.000
 70
    32
  0
VERTEX
  8
W71LXLIFT
 62
1
 10
1994.855
 20
-7841.384
 30
-1709.000
 70
    32
  0
VERTEX
  8
W71LXLIFT
 62
1
 10
1995.306
 20
-7851.478
 30
-1709.000
 70
    32
  0
VERTEX
  8
W71LXLIFT
 62
1
 10
2005.899
 20
-7856.528
 30
-1709.000
 70
    32
  0
VERTEX
  8
W71LXLIFT
 62
1
 10
2006.656
 20
-7860.432
 30
-1709.000
 70
    32
  0
VERTEX
  8
W71LXLIFT
 62
1
 10
2015.085
 20
-7866.393
 30
-1709.000
 70
    32
  0
VERTEX
  8
W71LXLIFT
 62
1
 10
2016.405
 20
-7870.325
 30
-1709.000
 70
    32
  0
VERTEX
  8
W71LXLIFT
 62
1
 10
2026.288
 20
-7876.646
 30
-1709.000
 70
    32
  0
VERTEX
  8
W71LXLIFT
 62
1
 10
2026.371
 20
-7880.820
 30
-1709.000
 70
    32
  0
VERTEX
  8
W71LXLIFT
 62
1
 10
2032.094
 20
-7885.588
 30
-1709.000
 70
    32
  0
VERTEX
  8
W71LXLIFT
 62
1
 10
2033.310
 20
-7895.238
 30
-1709.000
 70
    32
  0
VERTEX
  8
W71LXLIFT
 62
1
 10
2058.278
 20
-7896.746
 30
-1709.000
 70
    32
  0
VERTEX
  8
W71LXLIFT
 62
1
 10
2063.965
 20
-7896.655
 30
-1709.000
 70
    32
  0
VERTEX
  8
W71LXLIFT
 62
1
 10
2075.236
 20
-7898.284
 30
-1709.000
 70
    32
  0
VERTEX
  8
W71LXLIFT
 62
1
 10
2082.045
 20
-7903.354
 30
-1709.000
 70
    32
  0
VERTEX
  8
W71LXLIFT
 62
1
 10
2102.287
 20
-7928.679
 30
-1709.000
 70
    32
  0
VERTEX
  8
W71LXLIFT
 62
1
 10
2111.510
 20
-7923.865
 30
-1709.000
 70
    32
  0
SEQEND
  8
W71LXLIFT
  0
POLYLINE
  8
W71LXLIFT
 62
6
 66
     1
 70
     9
  0
VERTEX
  8
W71LXLIFT
 62
6
 10
2161.362
 20
-8243.293
 30
-1725.000
 70
    32
  0
VERTEX
  8
W71LXLIFT
 62
6
 10
2170.481
 20
-8246.151
 30
-1725.000
 70
    32
  0
VERTEX
  8
W71LXLIFT
 62
6
 10
2175.740
 20
-8254.185
 30
-1725.000
 70
    32
  0
VERTEX
  8
W71LXLIFT
 62
6
 10
2179.931
 20
-8289.148
 30
-1725.000
 70
    32
  0
VERTEX
  8
W71LXLIFT
 62
6
 10
2191.567
 20
-8286.172
 30
-1725.000
 70
    32
  0
VERTEX
  8
W71LXLIFT
 62
6
 10
2198.992
 20
-8323.359
 30
-1725.000
 70
    32
  0
VERTEX
  8
W71LXLIFT
 62
6
 10
2202.368
 20
-8327.434
 30
-1725.000
 70
    32
  0
VERTEX
  8
W71LXLIFT
 62
6
 10
2201.151
 20
-8335.368
 30
-1725.000
 70
    32
  0
VERTEX
  8
W71LXLIFT
 62
6
 10
2204.122
 20
-8354.062
 30
-1725.000
 70
    32
  0
VERTEX
  8
W71LXLIFT
 62
6
 10
2208.013
 20
-8360.804
 30
-1725.000
 70
    32
  0
VERTEX
  8
W71LXLIFT
 62
6
 10
2206.586
 20
-8373.557
 30
-1725.000
 70
    32
  0
VERTEX
  8
W71LXLIFT
 62
6
 10
2210.421
 20
-8391.194
 30
-1725.000
 70
    32
  0
VERTEX
  8
W71LXLIFT
 62
6
 10
2214.467
 20
-8409.872
 30
-1725.000
 70
    32
  0
VERTEX
  8
W71LXLIFT
 62
6
 10
2214.799
 20
-8414.842
 30
-1725.000
 70
    32
  0
VERTEX
  8
W71LXLIFT
 62
6
 10
2205.652
 20
-8416.455
 30
-1725.000
 70
    32
  0
VERTEX
  8
W71LXLIFT
 62
6
 10
2199.142
 20
-8397.819
 30
-1725.000
 70
    32
  0
VERTEX
  8
W71LXLIFT
 62
6
 10
2195.599
 20
-8393.214
 30
-1725.000
 70
    32
  0
VERTEX
  8
W71LXLIFT
 62
6
 10
2194.403
 20
-8375.625
 30
-1725.000
 70
    32
  0
VERTEX
  8
W71LXLIFT
 62
6
 10
2189.518
 20
-8356.685
 30
-1725.000
 70
    32
  0
VERTEX
  8
W71LXLIFT
 62
6
 10
2172.900
 20
-8351.861
 30
-1725.000
 70
    32
  0
VERTEX
  8
W71LXLIFT
 62
6
 10
2176.849
 20
-8330.123
 30
-1725.000
 70
    32
  0
VERTEX
  8
W71LXLIFT
 62
6
 10
2167.021
 20
-8310.953
 30
-1725.000
 70
    32
  0
VERTEX
  8
W71LXLIFT
 62
6
 10
2165.583
 20
-8299.943
 30
-1725.000
 70
    32
  0
VERTEX
  8
W71LXLIFT
 62
6
 10
2166.915
 20
-8294.422
 30
-1725.000
 70
    32
  0
VERTEX
  8
W71LXLIFT
 62
6
 10
2163.163
 20
-8286.821
 30
-1725.000
 70
    32
  0
VERTEX
  8
W71LXLIFT
 62
6
 10
2154.214
 20
-8281.343
 30
-1725.000
 70
    32
  0
VERTEX
  8
W71LXLIFT
 62
6
 10
2157.782
 20
-8261.183
 30
-1725.000
 70
    32
  0
VERTEX
  8
W71LXLIFT
 62
6
 10
2154.707
 20
-8254.068
 30
-1725.000
 70
    32
  0
SEQEND
  8
W71LXLIFT
  0
POLYLINE
  8
W71LXLIFT
 62
6
 66
     1
 70
     9
  0
VERTEX
  8
W71LXLIFT
 62
6
 10
2205.040
 20
-8405.644
 30
-1711.000
 70
    32
  0
VERTEX
  8
W71LXLIFT
 62
6
 10
2203.329
 20
-8401.780
 30
-1711.000
 70
    32
  0
VERTEX
  8
W71LXLIFT
 62
6
 10
2203.337
 20
-8386.794
 30
-1711.000
 70
    32
  0
VERTEX
  8
W71LXLIFT
 62
6
 10
2200.104
 20
-8366.881
 30
-1711.000
 70
    32
  0
VERTEX
  8
W71LXLIFT
 62
6
 10
2198.475
 20
-8358.181
 30
-1711.000
 70
    32
  0
VERTEX
  8
W71LXLIFT
 62
6
 10
2199.691
 20
-8332.117
 30
-1711.000
 70
    32
  0
VERTEX
  8
W71LXLIFT
 62
6
 10
2195.645
 20
-8314.529
 30
-1711.000
 70
    32
  0
VERTEX
  8
W71LXLIFT
 62
6
 10
2184.937
 20
-8300.786
 30
-1711.000
 70
    32
  0
VERTEX
  8
W71LXLIFT
 62
6
 10
2175.718
 20
-8286.400
 30
-1711.000
 70
    32
  0
VERTEX
  8
W71LXLIFT
 62
6
 10
2174.410
 20
-8281.593
 30
-1711.000
 70
    32
  0
VERTEX
  8
W71LXLIFT
 62
6
 10
2174.099
 20
-8264.667
 30
-1711.000
 70
    32
  0
VERTEX
  8
W71LXLIFT
 62
6
 10
2172.231
 20
-8258.637
 30
-1711.000
 70
    32
  0
VERTEX
  8
W71LXLIFT
 62
6
 10
2163.662
 20
-8245.300
 30
-1711.000
 70
    32
  0
VERTEX
  8
W71LXLIFT
 62
6
 10
2159.364
 20
-8236.362
 30
-1711.000
 70
    32
  0
VERTEX
  8
W71LXLIFT
 62
6
 10
2151.584
 20
-8220.065
 30
-1711.000
 70
    32
  0
VERTEX
  8
W71LXLIFT
 62
6
 10
2140.033
 20
-8224.952
 30
-1711.000
 70
    32
  0
VERTEX
  8
W71LXLIFT
 62
6
 10
2147.026
 20
-8243.012
 30
-1711.000
 70
    32
  0
VERTEX
  8
W71LXLIFT
 62
6
 10
2157.421
 20
-8260.673
 30
-1711.000
 70
    32
  0
VERTEX
  8
W71LXLIFT
 62
6
 10
2158.611
 20
-8269.364
 30
-1711.000
 70
    32
  0
VERTEX
  8
W71LXLIFT
 62
6
 10
2159.038
 20
-8283.601
 30
-1711.000
 70
    32
  0
VERTEX
  8
W71LXLIFT
 62
6
 10
2160.015
 20
-8297.549
 30
-1711.000
 70
    32
  0
VERTEX
  8
W71LXLIFT
 62
6
 10
2163.960
 20
-8305.549
 30
-1711.000
 70
    32
  0
VERTEX
  8
W71LXLIFT
 62
6
 10
2165.958
 20
-8311.159
 30
-1711.000
 70
    32
  0
VERTEX
  8
W71LXLIFT
 62
6
 10
2164.384
 20
-8324.130
 30
-1711.000
 70
    32
  0
VERTEX
  8
W71LXLIFT
 62
6
 10
2165.458
 20
-8329.214
 30
-1711.000
 70
    32
  0
VERTEX
  8
W71LXLIFT
 62
6
 10
2171.400
 20
-8337.723
 30
-1711.000
 70
    32
  0
VERTEX
  8
W71LXLIFT
 62
6
 10
2174.981
 20
-8349.569
 30
-1711.000
 70
    32
  0
VERTEX
  8
W71LXLIFT
 62
6
 10
2184.277
 20
-8358.363
 30
-1711.000
 70
    32
  0
VERTEX
  8
W71LXLIFT
 62
6
 10
2186.204
 20
-8364.024
 30
-1711.000
 70
    32
  0
VERTEX
  8
W71LXLIFT
 62
6
 10
2189.064
 20
-8383.122
 30
-1711.000
 70
    32
  0
VERTEX
  8
W71LXLIFT
 62
6
 10
2194.343
 20
-8401.663
 30
-1711.000
 70
    32
  0
VERTEX
  8
W71LXLIFT
 62
6
 10
2196.302
 20
-8407.518
 30
-1711.000
 70
    32
  0
SEQEND
  8
W71LXLIFT
  0
POLYLINE
  8
W71LXLIFT
 62
6
 66
     1
 70
     9
  0
VERTEX
  8
W71LXLIFT
 62
6
 10
2161.539
 20
-8278.209
 30
-1696.000
 70
    32
  0
VERTEX
  8
W71LXLIFT
 62
6
 10
2165.065
 20
-8357.615
 30
-1696.000
 70
    32
  0
VERTEX
  8
W71LXLIFT
 62
6
 10
2168.655
 20
-8359.575
 30
-1696.000
 70
    32
  0
VERTEX
  8
W71LXLIFT
 62
6
 10
2168.840
 20
-8392.225
 30
-1696.000
 70
    32
  0
VERTEX
  8
W71LXLIFT
 62
6
 10
2184.321
 20
-8399.365
 30
-1696.000
 70
    32
  0
VERTEX
  8
W71LXLIFT
 62
6
 10
2188.271
 20
-8393.574
 30
-1696.000
 70
    32
  0
VERTEX
  8
W71LXLIFT
 62
6
 10
2188.690
 20
-8388.604
 30
-1696.000
 70
    32
  0
VERTEX
  8
W71LXLIFT
 62
6
 10
2188.084
 20
-8373.519
 30
-1696.000
 70
    32
  0
VERTEX
  8
W71LXLIFT
 62
6
 10
2183.484
 20
-8331.473
 30
-1696.000
 70
    32
  0
VERTEX
  8
W71LXLIFT
 62
6
 10
2175.324
 20
-8288.855
 30
-1696.000
 70
    32
  0
VERTEX
  8
W71LXLIFT
 62
6
 10
2173.103
 20
-8281.888
 30
-1696.000
 70
    32
  0
VERTEX
  8
W71LXLIFT
 62
6
 10
2172.877
 20
-8270.327
 30
-1696.000
 70
    32
  0
SEQEND
  8
W71LXLIFT
  0
POLYLINE
  8
W71LXLIFT
 62
1
 66
     1
 70
     9
  0
VERTEX
  8
W71LXLIFT
 62
1
 10
2173.877
 20
-8269.327
 30
-1687.000
 70
    32
  0
VERTEX
  8
W71LXLIFT
 62
1
 10
2174.103
 20
-8280.888
 30
-1687.000
 70
    32
  0
VERTEX
  8
W71LXLIFT
 62
1
 10
2176.324
 20
-8287.855
 30
-1687.000
 70
    32
  0
VERTEX
  8
W71LXLIFT
 62
1
 10
2184.484
 20
-8330.473
 30
-1687.000
 70
    32
  0
VERTEX
  8
W71LXLIFT
 62
1
 10
2189.084
 20
-8372.519
 30
-1687.000
 70
    32
  0
VERTEX
  8
W71LXLIFT
 62
1
 10
2189.690
 20
-8387.604
 30
-1687.000
 70
    32
  0
VERTEX
  8
W71LXLIFT
 62
1
 10
2189.271
 20
-8392.574
 30
-1687.000
 70
    32
  0
VERTEX
  8
W71LXLIFT
 62
1
 10
2185.321
 20
-8398.365
 30
-1687.000
 70
    32
  0
VERTEX
  8
W71LXLIFT
 62
1
 10
2169.840
 20
-8391.225
 30
-1687.000
 70
    32
  0
VERTEX
  8
W71LXLIFT
 62
1
 10
2169.655
 20
-8358.575
 30
-1687.000
 70
    32
  0
VERTEX
  8
W71LXLIFT
 62
1
 10
2166.065
 20
-8356.615
 30
-1687.000
 70
    32
  0
VERTEX
  8
W71LXLIFT
 62
1
 10
2162.539
 20
-8277.209
 30
-1687.000
 70
    32
  0
SEQEND
  8
W71LXLIFT
  0
POLYLINE
  8
W71LXLIFT
 62
11
 66
     1
 70
     9
  0
VERTEX
  8
W71LXLIFT
 62
11
 10
1759.239
 20
-6636.665
 30
-1813.000
 70
    32
  0
VERTEX
  8
W71LXLIFT
 62
11
 10
1744.364
 20
-6627.947
 30
-1813.000
 70
    32
  0
VERTEX
  8
W71LXLIFT
 62
11
 10
1734.797
 20
-6618.632
 30
-1813.000
 70
    32
  0
VERTEX
  8
W71LXLIFT
 62
11
 10
1720.359
 20
-6591.832
 30
-1813.000
 70
    32
  0
VERTEX
  8
W71LXLIFT
 62
11
 10
1716.854
 20
-6571.300
 30
-1813.000
 70
    32
  0
VERTEX
  8
W71LXLIFT
 62
11
 10
1709.980
 20
-6556.134
 30
-1813.000
 70
    32
  0
VERTEX
  8
W71LXLIFT
 62
11
 10
1702.149
 20
-6542.637
 30
-1813.000
 70
    32
  0
VERTEX
  8
W71LXLIFT
 62
11
 10
1693.464
 20
-6526.616
 30
-1813.000
 70
    32
  0
VERTEX
  8
W71LXLIFT
 62
11
 10
1687.185
 20
-6510.478
 30
-1813.000
 70
    32
  0
VERTEX
  8
W71LXLIFT
 62
11
 10
1692.203
 20
-6491.244
 30
-1813.000
 70
    32
  0
VERTEX
  8
W71LXLIFT
 62
11
 10
1690.961
 20
-6482.504
 30
-1813.000
 70
    32
  0
VERTEX
  8
W71LXLIFT
 62
11
 10
1687.566
 20
-6476.623
 30
-1813.000
 70
    32
  0
VERTEX
  8
W71LXLIFT
 62
11
 10
1681.203
 20
-6472.027
 30
-1813.000
 70
    32
  0
VERTEX
  8
W71LXLIFT
 62
11
 10
1673.131
 20
-6471.052
 30
-1813.000
 70
    32
  0
VERTEX
  8
W71LXLIFT
 62
11
 10
1663.633
 20
-6477.827
 30
-1813.000
 70
    32
  0
VERTEX
  8
W71LXLIFT
 62
11
 10
1653.753
 20
-6482.279
 30
-1813.000
 70
    32
  0
VERTEX
  8
W71LXLIFT
 62
11
 10
1648.625
 20
-6494.335
 30
-1813.000
 70
    32
  0
VERTEX
  8
W71LXLIFT
 62
11
 10
1637.404
 20
-6505.607
 30
-1813.000
 70
    32
  0
VERTEX
  8
W71LXLIFT
 62
11
 10
1634.328
 20
-6516.610
 30
-1813.000
 70
    32
  0
VERTEX
  8
W71LXLIFT
 62
11
 10
1636.439
 20
-6519.522
 30
-1813.000
 70
    32
  0
VERTEX
  8
W71LXLIFT
 62
11
 10
1648.865
 20
-6523.516
 30
-1813.000
 70
    32
  0
VERTEX
  8
W71LXLIFT
 62
11
 10
1660.017
 20
-6533.524
 30
-1813.000
 70
    32
  0
VERTEX
  8
W71LXLIFT
 62
11
 10
1663.005
 20
-6539.590
 30
-1813.000
 70
    32
  0
VERTEX
  8
W71LXLIFT
 62
11
 10
1659.666
 20
-6546.343
 30
-1813.000
 70
    32
  0
VERTEX
  8
W71LXLIFT
 62
11
 10
1652.217
 20
-6550.115
 30
-1813.000
 70
    32
  0
VERTEX
  8
W71LXLIFT
 62
11
 10
1640.127
 20
-6545.987
 30
-1813.000
 70
    32
  0
VERTEX
  8
W71LXLIFT
 62
11
 10
1636.777
 20
-6555.564
 30
-1813.000
 70
    32
  0
VERTEX
  8
W71LXLIFT
 62
11
 10
1637.414
 20
-6563.767
 30
-1813.000
 70
    32
  0
VERTEX
  8
W71LXLIFT
 62
11
 10
1650.428
 20
-6574.701
 30
-1813.000
 70
    32
  0
VERTEX
  8
W71LXLIFT
 62
11
 10
1655.163
 20
-6588.709
 30
-1813.000
 70
    32
  0
VERTEX
  8
W71LXLIFT
 62
11
 10
1659.822
 20
-6602.014
 30
-1813.000
 70
    32
  0
VERTEX
  8
W71LXLIFT
 62
11
 10
1659.295
 20
-6615.936
 30
-1813.000
 70
    32
  0
VERTEX
  8
W71LXLIFT
 62
11
 10
1663.258
 20
-6621.404
 30
-1813.000
 70
    32
  0
VERTEX
  8
W71LXLIFT
 62
11
 10
1676.368
 20
-6628.585
 30
-1813.000
 70
    32
  0
VERTEX
  8
W71LXLIFT
 62
11
 10
1683.666
 20
-6644.635
 30
-1813.000
 70
    32
  0
VERTEX
  8
W71LXLIFT
 62
11
 10
1692.258
 20
-6654.548
 30
-1813.000
 70
    32
  0
VERTEX
  8
W71LXLIFT
 62
11
 10
1701.546
 20
-6634.928
 30
-1813.000
 70
    32
  0
VERTEX
  8
W71LXLIFT
 62
11
 10
1706.065
 20
-6620.388
 30
-1813.000
 70
    32
  0
VERTEX
  8
W71LXLIFT
 62
11
 10
1727.464
 20
-6630.336
 30
-1813.000
 70
    32
  0
VERTEX
  8
W71LXLIFT
 62
11
 10
1735.000
 20
-6661.812
 30
-1813.000
 70
    32
  0
SEQEND
  8
W71LXLIFT
  0
POLYLINE
  8
W71LXLIFT
 62
11
 66
     1
 70
     9
  0
VERTEX
  8
W71LXLIFT
 62
11
 10
1694.092
 20
-6615.525
 30
-1813.000
 70
    32
  0
VERTEX
  8
W71LXLIFT
 62
11
 10
1698.603
 20
-6602.616
 30
-1813.000
 70
    32
  0
VERTEX
  8
W71LXLIFT
 62
11
 10
1696.648
 20
-6595.583
 30
-1813.000
 70
    32
  0
VERTEX
  8
W71LXLIFT
 62
11
 10
1694.019
 20
-6586.873
 30
-1813.000
 70
    32
  0
VERTEX
  8
W71LXLIFT
 62
11
 10
1692.078
 20
-6578.964
 30
-1813.000
 70
    32
  0
VERTEX
  8
W71LXLIFT
 62
11
 10
1685.054
 20
-6568.673
 30
-1813.000
 70
    32
  0
VERTEX
  8
W71LXLIFT
 62
11
 10
1677.635
 20
-6563.217
 30
-1813.000
 70
    32
  0
VERTEX
  8
W71LXLIFT
 62
11
 10
1669.350
 20
-6562.397
 30
-1813.000
 70
    32
  0
VERTEX
  8
W71LXLIFT
 62
11
 10
1666.134
 20
-6572.310
 30
-1813.000
 70
    32
  0
VERTEX
  8
W71LXLIFT
 62
11
 10
1670.585
 20
-6579.050
 30
-1813.000
 70
    32
  0
VERTEX
  8
W71LXLIFT
 62
11
 10
1671.308
 20
-6586.325
 30
-1813.000
 70
    32
  0
VERTEX
  8
W71LXLIFT
 62
11
 10
1676.170
 20
-6593.633
 30
-1813.000
 70
    32
  0
VERTEX
  8
W71LXLIFT
 62
11
 10
1678.810
 20
-6603.852
 30
-1813.000
 70
    32
  0
VERTEX
  8
W71LXLIFT
 62
11
 10
1682.163
 20
-6611.171
 30
-1813.000
 70
    32
  0
SEQEND
  8
W71LXLIFT
  0
POLYLINE
  8
W71LXLIFT
 62
27
 66
     1
 70
     9
  0
VERTEX
  8
W71LXLIFT
 62
27
 10
1799.776
 20
-7086.926
 30
-1794.000
 70
    32
  0
VERTEX
  8
W71LXLIFT
 62
27
 10
1798.304
 20
-7080.410
 30
-1794.000
 70
    32
  0
VERTEX
  8
W71LXLIFT
 62
27
 10
1799.938
 20
-7071.752
 30
-1794.000
 70
    32
  0
VERTEX
  8
W71LXLIFT
 62
27
 10
1788.258
 20
-7057.578
 30
-1794.000
 70
    32
  0
VERTEX
  8
W71LXLIFT
 62
27
 10
1794.177
 20
-7046.464
 30
-1794.000
 70
    32
  0
VERTEX
  8
W71LXLIFT
 62
27
 10
1808.224
 20
-7041.484
 30
-1794.000
 70
    32
  0
VERTEX
  8
W71LXLIFT
 62
27
 10
1813.143
 20
-7046.477
 30
-1794.000
 70
    32
  0
VERTEX
  8
W71LXLIFT
 62
27
 10
1830.931
 20
-7051.892
 30
-1794.000
 70
    32
  0
VERTEX
  8
W71LXLIFT
 62
27
 10
1841.897
 20
-7061.494
 30
-1794.000
 70
    32
  0
VERTEX
  8
W71LXLIFT
 62
27
 10
1843.589
 20
-7067.416
 30
-1794.000
 70
    32
  0
VERTEX
  8
W71LXLIFT
 62
27
 10
1858.778
 20
-7092.263
 30
-1794.000
 70
    32
  0
VERTEX
  8
W71LXLIFT
 62
27
 10
1869.306
 20
-7119.946
 30
-1794.000
 70
    32
  0
VERTEX
  8
W71LXLIFT
 62
27
 10
1857.344
 20
-7131.539
 30
-1794.000
 70
    32
  0
VERTEX
  8
W71LXLIFT
 62
27
 10
1839.714
 20
-7138.899
 30
-1794.000
 70
    32
  0
VERTEX
  8
W71LXLIFT
 62
27
 10
1820.924
 20
-7107.888
 30
-1794.000
 70
    32
  0
VERTEX
  8
W71LXLIFT
 62
27
 10
1812.806
 20
-7095.789
 30
-1794.000
 70
    32
  0
SEQEND
  8
W71LXLIFT
  0
POLYLINE
  8
W71LXLIFT
 62
1
 66
     1
 70
     9
  0
VERTEX
  8
W71LXLIFT
 62
1
 10
1800.776
 20
-7085.926
 30
-1778.000
 70
    32
  0
VERTEX
  8
W71LXLIFT
 62
1
 10
1799.304
 20
-7079.410
 30
-1778.000
 70
    32
  0
VERTEX
  8
W71LXLIFT
 62
1
 10
1800.938
 20
-7070.752
 30
-1778.000
 70
    32
  0
VERTEX
  8
W71LXLIFT
 62
1
 10
1789.258
 20
-7056.578
 30
-1778.000
 70
    32
  0
VERTEX
  8
W71LXLIFT
 62
1
 10
1795.177
 20
-7045.464
 30
-1778.000
 70
    32
  0
VERTEX
  8
W71LXLIFT
 62
1
 10
1809.224
 20
-7040.484
 30
-1778.000
 70
    32
  0
VERTEX
  8
W71LXLIFT
 62
1
 10
1814.143
 20
-7045.477
 30
-1778.000
 70
    32
  0
VERTEX
  8
W71LXLIFT
 62
1
 10
1831.931
 20
-7050.892
 30
-1778.000
 70
    32
  0
VERTEX
  8
W71LXLIFT
 62
1
 10
1842.897
 20
-7060.494
 30
-1778.000
 70
    32
  0
VERTEX
  8
W71LXLIFT
 62
1
 10
1844.589
 20
-7066.416
 30
-1778.000
 70
    32
  0
VERTEX
  8
W71LXLIFT
 62
1
 10
1859.778
 20
-7091.263
 30
-1778.000
 70
    32
  0
VERTEX
  8
W71LXLIFT
 62
1
 10
1870.306
 20
-7118.946
 30
-1778.000
 70
    32
  0
VERTEX
  8
W71LXLIFT
 62
1
 10
1858.344
 20
-7130.539
 30
-1778.000
 70
    32
  0
VERTEX
  8
W71LXLIFT
 62
1
 10
1840.714
 20
-7137.899
 30
-1778.000
 70
    32
  0
VERTEX
  8
W71LXLIFT
 62
1
 10
1821.924
 20
-7106.888
 30
-1778.000
 70
    32
  0
VERTEX
  8
W71LXLIFT
 62
1
 10
1813.806
 20
-7094.789
 30
-1778.000
 70
    32
  0
SEQEND
  8
W71LXLIFT
  0
POLYLINE
  8
W71LXLIFT
 62
11
 66
     1
 70
     9
  0
VERTEX
  8
W71LXLIFT
 62
11
 10
1695.707
 20
-6644.359
 30
-1790.000
 70
    32
  0
VERTEX
  8
W71LXLIFT
 62
11
 10
1703.422
 20
-6627.503
 30
-1790.000
 70
    32
  0
VERTEX
  8
W71LXLIFT
 62
11
 10
1708.985
 20
-6617.839
 30
-1790.000
 70
    32
  0
VERTEX
  8
W71LXLIFT
 62
11
 10
1723.512
 20
-6599.621
 30
-1790.000
 70
    32
  0
VERTEX
  8
W71LXLIFT
 62
11
 10
1724.077
 20
-6597.262
 30
-1790.000
 70
    32
  0
VERTEX
  8
W71LXLIFT
 62
11
 10
1718.297
 20
-6591.377
 30
-1790.000
 70
    32
  0
VERTEX
  8
W71LXLIFT
 62
11
 10
1712.822
 20
-6572.164
 30
-1790.000
 70
    32
  0
VERTEX
  8
W71LXLIFT
 62
11
 10
1700.590
 20
-6575.612
 30
-1790.000
 70
    32
  0
VERTEX
  8
W71LXLIFT
 62
11
 10
1704.195
 20
-6586.865
 30
-1790.000
 70
    32
  0
VERTEX
  8
W71LXLIFT
 62
11
 10
1696.386
 20
-6597.614
 30
-1790.000
 70
    32
  0
VERTEX
  8
W71LXLIFT
 62
11
 10
1689.950
 20
-6594.263
 30
-1790.000
 70
    32
  0
VERTEX
  8
W71LXLIFT
 62
11
 10
1681.473
 20
-6584.808
 30
-1790.000
 70
    32
  0
VERTEX
  8
W71LXLIFT
 62
11
 10
1681.449
 20
-6542.472
 30
-1790.000
 70
    32
  0
VERTEX
  8
W71LXLIFT
 62
11
 10
1684.539
 20
-6538.067
 30
-1790.000
 70
    32
  0
VERTEX
  8
W71LXLIFT
 62
11
 10
1692.872
 20
-6541.344
 30
-1790.000
 70
    32
  0
VERTEX
  8
W71LXLIFT
 62
11
 10
1700.955
 20
-6546.968
 30
-1790.000
 70
    32
  0
VERTEX
  8
W71LXLIFT
 62
11
 10
1710.621
 20
-6539.530
 30
-1790.000
 70
    32
  0
VERTEX
  8
W71LXLIFT
 62
11
 10
1709.190
 20
-6535.910
 30
-1790.000
 70
    32
  0
VERTEX
  8
W71LXLIFT
 62
11
 10
1684.044
 20
-6507.338
 30
-1790.000
 70
    32
  0
VERTEX
  8
W71LXLIFT
 62
11
 10
1683.110
 20
-6499.024
 30
-1790.000
 70
    32
  0
VERTEX
  8
W71LXLIFT
 62
11
 10
1674.876
 20
-6490.801
 30
-1790.000
 70
    32
  0
VERTEX
  8
W71LXLIFT
 62
11
 10
1679.384
 20
-6475.945
 30
-1790.000
 70
    32
  0
VERTEX
  8
W71LXLIFT
 62
11
 10
1678.045
 20
-6470.958
 30
-1790.000
 70
    32
  0
VERTEX
  8
W71LXLIFT
 62
11
 10
1688.503
 20
-6460.129
 30
-1790.000
 70
    32
  0
VERTEX
  8
W71LXLIFT
 62
11
 10
1687.571
 20
-6454.956
 30
-1790.000
 70
    32
  0
VERTEX
  8
W71LXLIFT
 62
11
 10
1690.954
 20
-6448.713
 30
-1790.000
 70
    32
  0
VERTEX
  8
W71LXLIFT
 62
11
 10
1683.469
 20
-6436.589
 30
-1790.000
 70
    32
  0
VERTEX
  8
W71LXLIFT
 62
11
 10
1663.138
 20
-6447.098
 30
-1790.000
 70
    32
  0
VERTEX
  8
W71LXLIFT
 62
11
 10
1656.106
 20
-6452.193
 30
-1790.000
 70
    32
  0
VERTEX
  8
W71LXLIFT
 62
11
 10
1641.352
 20
-6459.636
 30
-1790.000
 70
    32
  0
VERTEX
  8
W71LXLIFT
 62
11
 10
1633.558
 20
-6462.034
 30
-1790.000
 70
    32
  0
VERTEX
  8
W71LXLIFT
 62
11
 10
1615.941
 20
-6480.324
 30
-1790.000
 70
    32
  0
VERTEX
  8
W71LXLIFT
 62
11
 10
1622.296
 20
-6497.166
 30
-1790.000
 70
    32
  0
VERTEX
  8
W71LXLIFT
 62
11
 10
1622.737
 20
-6503.454
 30
-1790.000
 70
    32
  0
VERTEX
  8
W71LXLIFT
 62
11
 10
1605.638
 20
-6509.454
 30
-1790.000
 70
    32
  0
VERTEX
  8
W71LXLIFT
 62
11
 10
1608.506
 20
-6521.783
 30
-1790.000
 70
    32
  0
VERTEX
  8
W71LXLIFT
 62
11
 10
1613.485
 20
-6525.215
 30
-1790.000
 70
    32
  0
VERTEX
  8
W71LXLIFT
 62
11
 10
1617.845
 20
-6524.655
 30
-1790.000
 70
    32
  0
VERTEX
  8
W71LXLIFT
 62
11
 10
1620.844
 20
-6527.898
 30
-1790.000
 70
    32
  0
VERTEX
  8
W71LXLIFT
 62
11
 10
1621.322
 20
-6542.608
 30
-1790.000
 70
    32
  0
VERTEX
  8
W71LXLIFT
 62
11
 10
1636.176
 20
-6560.115
 30
-1790.000
 70
    32
  0
VERTEX
  8
W71LXLIFT
 62
11
 10
1651.567
 20
-6553.403
 30
-1790.000
 70
    32
  0
VERTEX
  8
W71LXLIFT
 62
11
 10
1654.503
 20
-6563.732
 30
-1790.000
 70
    32
  0
VERTEX
  8
W71LXLIFT
 62
11
 10
1654.109
 20
-6571.709
 30
-1790.000
 70
    32
  0
VERTEX
  8
W71LXLIFT
 62
11
 10
1646.262
 20
-6585.843
 30
-1790.000
 70
    32
  0
VERTEX
  8
W71LXLIFT
 62
11
 10
1657.884
 20
-6603.526
 30
-1790.000
 70
    32
  0
VERTEX
  8
W71LXLIFT
 62
11
 10
1667.263
 20
-6613.628
 30
-1790.000
 70
    32
  0
VERTEX
  8
W71LXLIFT
 62
11
 10
1679.652
 20
-6631.621
 30
-1790.000
 70
    32
  0
VERTEX
  8
W71LXLIFT
 62
11
 10
1682.449
 20
-6636.527
 30
-1790.000
 70
    32
  0
VERTEX
  8
W71LXLIFT
 62
11
 10
1683.397
 20
-6643.964
 30
-1790.000
 70
    32
  0
SEQEND
  8
W71LXLIFT
  0
POLYLINE
  8
W71LXLIFT
 62
6
 66
     1
 70
     9
  0
VERTEX
  8
W71LXLIFT
 62
6
 10
1423.207
 20
-6238.274
 30
-1777.000
 70
    32
  0
VERTEX
  8
W71LXLIFT
 62
6
 10
1424.023
 20
-6236.708
 30
-1777.000
 70
    32
  0
VERTEX
  8
W71LXLIFT
 62
6
 10
1426.853
 20
-6218.192
 30
-1777.000
 70
    32
  0
VERTEX
  8
W71LXLIFT
 62
6
 10
1425.414
 20
-6207.537
 30
-1777.000
 70
    32
  0
VERTEX
  8
W71LXLIFT
 62
6
 10
1419.212
 20
-6195.242
 30
-1777.000
 70
    32
  0
VERTEX
  8
W71LXLIFT
 62
6
 10
1412.515
 20
-6182.114
 30
-1777.000
 70
    32
  0
VERTEX
  8
W71LXLIFT
 62
6
 10
1416.229
 20
-6174.981
 30
-1777.000
 70
    32
  0
VERTEX
  8
W71LXLIFT
 62
6
 10
1421.841
 20
-6174.056
 30
-1777.000
 70
    32
  0
VERTEX
  8
W71LXLIFT
 62
6
 10
1427.467
 20
-6172.254
 30
-1777.000
 70
    32
  0
VERTEX
  8
W71LXLIFT
 62
6
 10
1451.881
 20
-6210.129
 30
-1777.000
 70
    32
  0
VERTEX
  8
W71LXLIFT
 62
6
 10
1452.365
 20
-6213.787
 30
-1777.000
 70
    32
  0
VERTEX
  8
W71LXLIFT
 62
6
 10
1451.164
 20
-6226.031
 30
-1777.000
 70
    32
  0
VERTEX
  8
W71LXLIFT
 62
6
 10
1451.023
 20
-6229.274
 30
-1777.000
 70
    32
  0
VERTEX
  8
W71LXLIFT
 62
6
 10
1465.481
 20
-6266.565
 30
-1777.000
 70
    32
  0
VERTEX
  8
W71LXLIFT
 62
6
 10
1467.104
 20
-6271.347
 30
-1777.000
 70
    32
  0
VERTEX
  8
W71LXLIFT
 62
6
 10
1466.711
 20
-6274.989
 30
-1777.000
 70
    32
  0
VERTEX
  8
W71LXLIFT
 62
6
 10
1459.957
 20
-6287.791
 30
-1777.000
 70
    32
  0
VERTEX
  8
W71LXLIFT
 62
6
 10
1442.474
 20
-6288.329
 30
-1777.000
 70
    32
  0
VERTEX
  8
W71LXLIFT
 62
6
 10
1440.597
 20
-6280.806
 30
-1777.000
 70
    32
  0
VERTEX
  8
W71LXLIFT
 62
6
 10
1442.285
 20
-6266.693
 30
-1777.000
 70
    32
  0
VERTEX
  8
W71LXLIFT
 62
6
 10
1438.306
 20
-6248.347
 30
-1777.000
 70
    32
  0
VERTEX
  8
W71LXLIFT
 62
6
 10
1434.562
 20
-6246.618
 30
-1777.000
 70
    32
  0
SEQEND
  8
W71LXLIFT
  0
POLYLINE
  8
W71LXLIFT
 62
1
 66
     1
 70
     9
  0
VERTEX
  8
W71LXLIFT
 62
1
 10
1424.207
 20
-6237.274
 30
-1763.000
 70
    32
  0
VERTEX
  8
W71LXLIFT
 62
1
 10
1425.023
 20
-6235.708
 30
-1763.000
 70
    32
  0
VERTEX
  8
W71LXLIFT
 62
1
 10
1427.853
 20
-6217.192
 30
-1763.000
 70
    32
  0
VERTEX
  8
W71LXLIFT
 62
1
 10
1426.414
 20
-6206.537
 30
-1763.000
 70
    32
  0
VERTEX
  8
W71LXLIFT
 62
1
 10
1420.212
 20
-6194.242
 30
-1763.000
 70
    32
  0
VERTEX
  8
W71LXLIFT
 62
1
 10
1413.515
 20
-6181.114
 30
-1763.000
 70
    32
  0
VERTEX
  8
W71LXLIFT
 62
1
 10
1417.229
 20
-6173.981
 30
-1763.000
 70
    32
  0
VERTEX
  8
W71LXLIFT
 62
1
 10
1422.841
 20
-6173.056
 30
-1763.000
 70
    32
  0
VERTEX
  8
W71LXLIFT
 62
1
 10
1428.467
 20
-6171.254
 30
-1763.000
 70
    32
  0
VERTEX
  8
W71LXLIFT
 62
1
 10
1452.881
 20
-6209.129
 30
-1763.000
 70
    32
  0
VERTEX
  8
W71LXLIFT
 62
1
 10
1453.365
 20
-6212.787
 30
-1763.000
 70
    32
  0
VERTEX
  8
W71LXLIFT
 62
1
 10
1452.164
 20
-6225.031
 30
-1763.000
 70
    32
  0
VERTEX
  8
W71LXLIFT
 62
1
 10
1452.023
 20
-6228.274
 30
-1763.000
 70
    32
  0
VERTEX
  8
W71LXLIFT
 62
1
 10
1466.481
 20
-6265.565
 30
-1763.000
 70
    32
  0
VERTEX
  8
W71LXLIFT
 62
1
 10
1468.104
 20
-6270.347
 30
-1763.000
 70
    32
  0
VERTEX
  8
W71LXLIFT
 62
1
 10
1467.711
 20
-6273.989
 30
-1763.000
 70
    32
  0
VERTEX
  8
W71LXLIFT
 62
1
 10
1460.957
 20
-6286.791
 30
-1763.000
 70
    32
  0
VERTEX
  8
W71LXLIFT
 62
1
 10
1443.474
 20
-6287.329
 30
-1763.000
 70
    32
  0
VERTEX
  8
W71LXLIFT
 62
1
 10
1441.597
 20
-6279.806
 30
-1763.000
 70
    32
  0
VERTEX
  8
W71LXLIFT
 62
1
 10
1443.285
 20
-6265.693
 30
-1763.000
 70
    32
  0
VERTEX
  8
W71LXLIFT
 62
1
 10
1439.306
 20
-6247.347
 30
-1763.000
 70
    32
  0
VERTEX
  8
W71LXLIFT
 62
1
 10
1435.562
 20
-6245.618
 30
-1763.000
 70
    32
  0
SEQEND
  8
W71LXLIFT
  0
POLYLINE
  8
W71LXLIFT
 62
8
 66
     1
 70
     9
  0
VERTEX
  8
W71LXLIFT
 62
8
 10
1725.508
 20
-6409.700
 30
-1765.000
 70
    32
  0
VERTEX
  8
W71LXLIFT
 62
8
 10
1736.365
 20
-6415.264
 30
-1765.000
 70
    32
  0
VERTEX
  8
W71LXLIFT
 62
8
 10
1746.764
 20
-6416.611
 30
-1765.000
 70
    32
  0
VERTEX
  8
W71LXLIFT
 62
8
 10
1746.436
 20
-6408.833
 30
-1765.000
 70
    32
  0
VERTEX
  8
W71LXLIFT
 62
8
 10
1742.866
 20
-6399.721
 30
-1765.000
 70
    32
  0
VERTEX
  8
W71LXLIFT
 62
8
 10
1737.726
 20
-6392.181
 30
-1765.000
 70
    32
  0
VERTEX
  8
W71LXLIFT
 62
8
 10
1724.632
 20
-6382.930
 30
-1765.000
 70
    32
  0
VERTEX
  8
W71LXLIFT
 62
8
 10
1742.700
 20
-6372.437
 30
-1765.000
 70
    32
  0
VERTEX
  8
W71LXLIFT
 62
8
 10
1754.127
 20
-6387.011
 30
-1765.000
 70
    32
  0
VERTEX
  8
W71LXLIFT
 62
8
 10
1763.334
 20
-6388.355
 30
-1765.000
 70
    32
  0
VERTEX
  8
W71LXLIFT
 62
8
 10
1770.337
 20
-6403.102
 30
-1765.000
 70
    32
  0
VERTEX
  8
W71LXLIFT
 62
8
 10
1771.230
 20
-6420.328
 30
-1765.000
 70
    32
  0
VERTEX
  8
W71LXLIFT
 62
8
 10
1764.919
 20
-6433.892
 30
-1765.000
 70
    32
  0
VERTEX
  8
W71LXLIFT
 62
8
 10
1760.954
 20
-6456.371
 30
-1765.000
 70
    32
  0
VERTEX
  8
W71LXLIFT
 62
8
 10
1751.189
 20
-6456.948
 30
-1765.000
 70
    32
  0
VERTEX
  8
W71LXLIFT
 62
8
 10
1738.298
 20
-6431.086
 30
-1765.000
 70
    32
  0
VERTEX
  8
W71LXLIFT
 62
8
 10
1727.279
 20
-6422.607
 30
-1765.000
 70
    32
  0
SEQEND
  8
W71LXLIFT
  0
POLYLINE
  8
W71LXLIFT
 62
11
 66
     1
 70
     9
  0
VERTEX
  8
W71LXLIFT
 62
11
 10
1686.025
 20
-6592.883
 30
-1782.000
 70
    32
  0
VERTEX
  8
W71LXLIFT
 62
11
 10
1691.799
 20
-6599.206
 30
-1782.000
 70
    32
  0
VERTEX
  8
W71LXLIFT
 62
11
 10
1697.668
 20
-6598.635
 30
-1782.000
 70
    32
  0
VERTEX
  8
W71LXLIFT
 62
11
 10
1702.744
 20
-6586.508
 30
-1782.000
 70
    32
  0
VERTEX
  8
W71LXLIFT
 62
11
 10
1704.309
 20
-6576.709
 30
-1782.000
 70
    32
  0
VERTEX
  8
W71LXLIFT
 62
11
 10
1705.872
 20
-6571.243
 30
-1782.000
 70
    32
  0
VERTEX
  8
W71LXLIFT
 62
11
 10
1703.608
 20
-6560.644
 30
-1782.000
 70
    32
  0
VERTEX
  8
W71LXLIFT
 62
11
 10
1694.137
 20
-6544.435
 30
-1782.000
 70
    32
  0
VERTEX
  8
W71LXLIFT
 62
11
 10
1688.673
 20
-6541.679
 30
-1782.000
 70
    32
  0
VERTEX
  8
W71LXLIFT
 62
11
 10
1678.709
 20
-6545.866
 30
-1782.000
 70
    32
  0
VERTEX
  8
W71LXLIFT
 62
11
 10
1679.733
 20
-6565.813
 30
-1782.000
 70
    32
  0
VERTEX
  8
W71LXLIFT
 62
11
 10
1680.128
 20
-6583.399
 30
-1782.000
 70
    32
  0
SEQEND
  8
W71LXLIFT
  0
POLYLINE
  8
W71LXLIFT
 62
11
 66
     1
 70
     9
  0
VERTEX
  8
W71LXLIFT
 62
11
 10
1680.756
 20
-6642.412
 30
-1782.000
 70
    32
  0
VERTEX
  8
W71LXLIFT
 62
11
 10
1688.618
 20
-6645.488
 30
-1782.000
 70
    32
  0
VERTEX
  8
W71LXLIFT
 62
11
 10
1692.051
 20
-6643.650
 30
-1782.000
 70
    32
  0
VERTEX
  8
W71LXLIFT
 62
11
 10
1707.677
 20
-6620.520
 30
-1782.000
 70
    32
  0
VERTEX
  8
W71LXLIFT
 62
11
 10
1715.000
 20
-6607.306
 30
-1782.000
 70
    32
  0
VERTEX
  8
W71LXLIFT
 62
11
 10
1719.262
 20
-6599.885
 30
-1782.000
 70
    32
  0
VERTEX
  8
W71LXLIFT
 62
11
 10
1718.290
 20
-6594.956
 30
-1782.000
 70
    32
  0
VERTEX
  8
W71LXLIFT
 62
11
 10
1715.815
 20
-6590.793
 30
-1782.000
 70
    32
  0
VERTEX
  8
W71LXLIFT
 62
11
 10
1719.198
 20
-6584.550
 30
-1782.000
 70
    32
  0
VERTEX
  8
W71LXLIFT
 62
11
 10
1726.076
 20
-6574.908
 30
-1782.000
 70
    32
  0
VERTEX
  8
W71LXLIFT
 62
11
 10
1725.940
 20
-6571.432
 30
-1782.000
 70
    32
  0
VERTEX
  8
W71LXLIFT
 62
11
 10
1718.407
 20
-6556.852
 30
-1782.000
 70
    32
  0
VERTEX
  8
W71LXLIFT
 62
11
 10
1699.051
 20
-6529.392
 30
-1782.000
 70
    32
  0
VERTEX
  8
W71LXLIFT
 62
11
 10
1691.640
 20
-6522.306
 30
-1782.000
 70
    32
  0
VERTEX
  8
W71LXLIFT
 62
11
 10
1685.518
 20
-6512.661
 30
-1782.000
 70
    32
  0
VERTEX
  8
W71LXLIFT
 62
11
 10
1680.597
 20
-6498.246
 30
-1782.000
 70
    32
  0
VERTEX
  8
W71LXLIFT
 62
11
 10
1675.683
 20
-6486.534
 30
-1782.000
 70
    32
  0
VERTEX
  8
W71LXLIFT
 62
11
 10
1677.051
 20
-6474.819
 30
-1782.000
 70
    32
  0
VERTEX
  8
W71LXLIFT
 62
11
 10
1686.483
 20
-6461.377
 30
-1782.000
 70
    32
  0
VERTEX
  8
W71LXLIFT
 62
11
 10
1686.031
 20
-6457.913
 30
-1782.000
 70
    32
  0
VERTEX
  8
W71LXLIFT
 62
11
 10
1690.149
 20
-6451.787
 30
-1782.000
 70
    32
  0
VERTEX
  8
W71LXLIFT
 62
11
 10
1682.127
 20
-6437.129
 30
-1782.000
 70
    32
  0
VERTEX
  8
W71LXLIFT
 62
11
 10
1658.047
 20
-6452.629
 30
-1782.000
 70
    32
  0
VERTEX
  8
W71LXLIFT
 62
11
 10
1637.336
 20
-6455.289
 30
-1782.000
 70
    32
  0
VERTEX
  8
W71LXLIFT
 62
11
 10
1633.875
 20
-6457.688
 30
-1782.000
 70
    32
  0
VERTEX
  8
W71LXLIFT
 62
11
 10
1632.682
 20
-6465.160
 30
-1782.000
 70
    32
  0
VERTEX
  8
W71LXLIFT
 62
11
 10
1615.904
 20
-6479.376
 30
-1782.000
 70
    32
  0
VERTEX
  8
W71LXLIFT
 62
11
 10
1622.143
 20
-6500.093
 30
-1782.000
 70
    32
  0
VERTEX
  8
W71LXLIFT
 62
11
 10
1617.613
 20
-6505.651
 30
-1782.000
 70
    32
  0
VERTEX
  8
W71LXLIFT
 62
11
 10
1605.844
 20
-6509.738
 30
-1782.000
 70
    32
  0
VERTEX
  8
W71LXLIFT
 62
11
 10
1609.307
 20
-6521.094
 30
-1782.000
 70
    32
  0
VERTEX
  8
W71LXLIFT
 62
11
 10
1618.159
 20
-6525.836
 30
-1782.000
 70
    32
  0
VERTEX
  8
W71LXLIFT
 62
11
 10
1621.853
 20
-6533.774
 30
-1782.000
 70
    32
  0
VERTEX
  8
W71LXLIFT
 62
11
 10
1621.408
 20
-6541.679
 30
-1782.000
 70
    32
  0
VERTEX
  8
W71LXLIFT
 62
11
 10
1640.862
 20
-6561.052
 30
-1782.000
 70
    32
  0
VERTEX
  8
W71LXLIFT
 62
11
 10
1651.773
 20
-6553.687
 30
-1782.000
 70
    32
  0
VERTEX
  8
W71LXLIFT
 62
11
 10
1654.336
 20
-6555.729
 30
-1782.000
 70
    32
  0
VERTEX
  8
W71LXLIFT
 62
11
 10
1654.592
 20
-6560.418
 30
-1782.000
 70
    32
  0
VERTEX
  8
W71LXLIFT
 62
11
 10
1646.032
 20
-6584.927
 30
-1782.000
 70
    32
  0
VERTEX
  8
W71LXLIFT
 62
11
 10
1655.804
 20
-6602.001
 30
-1782.000
 70
    32
  0
VERTEX
  8
W71LXLIFT
 62
11
 10
1665.714
 20
-6610.743
 30
-1782.000
 70
    32
  0
VERTEX
  8
W71LXLIFT
 62
11
 10
1668.415
 20
-6622.542
 30
-1782.000
 70
    32
  0
VERTEX
  8
W71LXLIFT
 62
11
 10
1674.867
 20
-6628.157
 30
-1782.000
 70
    32
  0
VERTEX
  8
W71LXLIFT
 62
11
 10
1678.666
 20
-6635.044
 30
-1782.000
 70
    32
  0
SEQEND
  8
W71LXLIFT
  0
POLYLINE
  8
W71LXLIFT
 62
11
 66
     1
 70
     9
  0
VERTEX
  8
W71LXLIFT
 62
11
 10
1680.756
 20
-6642.412
 30
-1770.000
 70
    32
  0
VERTEX
  8
W71LXLIFT
 62
11
 10
1688.618
 20
-6645.488
 30
-1770.000
 70
    32
  0
VERTEX
  8
W71LXLIFT
 62
11
 10
1692.051
 20
-6643.650
 30
-1770.000
 70
    32
  0
VERTEX
  8
W71LXLIFT
 62
11
 10
1707.677
 20
-6620.520
 30
-1770.000
 70
    32
  0
VERTEX
  8
W71LXLIFT
 62
11
 10
1715.000
 20
-6607.306
 30
-1770.000
 70
    32
  0
VERTEX
  8
W71LXLIFT
 62
11
 10
1719.262
 20
-6599.885
 30
-1770.000
 70
    32
  0
VERTEX
  8
W71LXLIFT
 62
11
 10
1718.290
 20
-6594.956
 30
-1770.000
 70
    32
  0
VERTEX
  8
W71LXLIFT
 62
11
 10
1715.815
 20
-6590.793
 30
-1770.000
 70
    32
  0
VERTEX
  8
W71LXLIFT
 62
11
 10
1719.198
 20
-6584.550
 30
-1770.000
 70
    32
  0
VERTEX
  8
W71LXLIFT
 62
11
 10
1726.076
 20
-6574.908
 30
-1770.000
 70
    32
  0
VERTEX
  8
W71LXLIFT
 62
11
 10
1725.940
 20
-6571.432
 30
-1770.000
 70
    32
  0
VERTEX
  8
W71LXLIFT
 62
11
 10
1718.407
 20
-6556.852
 30
-1770.000
 70
    32
  0
VERTEX
  8
W71LXLIFT
 62
11
 10
1699.051
 20
-6529.392
 30
-1770.000
 70
    32
  0
VERTEX
  8
W71LXLIFT
 62
11
 10
1691.640
 20
-6522.306
 30
-1770.000
 70
    32
  0
VERTEX
  8
W71LXLIFT
 62
11
 10
1685.518
 20
-6512.661
 30
-1770.000
 70
    32
  0
VERTEX
  8
W71LXLIFT
 62
11
 10
1680.597
 20
-6498.246
 30
-1770.000
 70
    32
  0
VERTEX
  8
W71LXLIFT
 62
11
 10
1675.683
 20
-6486.534
 30
-1770.000
 70
    32
  0
VERTEX
  8
W71LXLIFT
 62
11
 10
1677.051
 20
-6474.819
 30
-1770.000
 70
    32
  0
VERTEX
  8
W71LXLIFT
 62
11
 10
1686.483
 20
-6461.377
 30
-1770.000
 70
    32
  0
VERTEX
  8
W71LXLIFT
 62
11
 10
1686.031
 20
-6457.913
 30
-1770.000
 70
    32
  0
VERTEX
  8
W71LXLIFT
 62
11
 10
1690.149
 20
-6451.787
 30
-1770.000
 70
    32
  0
VERTEX
  8
W71LXLIFT
 62
11
 10
1682.127
 20
-6437.129
 30
-1770.000
 70
    32
  0
VERTEX
  8
W71LXLIFT
 62
11
 10
1658.047
 20
-6452.629
 30
-1770.000
 70
    32
  0
VERTEX
  8
W71LXLIFT
 62
11
 10
1637.336
 20
-6455.289
 30
-1770.000
 70
    32
  0
VERTEX
  8
W71LXLIFT
 62
11
 10
1633.875
 20
-6457.688
 30
-1770.000
 70
    32
  0
VERTEX
  8
W71LXLIFT
 62
11
 10
1632.682
 20
-6465.160
 30
-1770.000
 70
    32
  0
VERTEX
  8
W71LXLIFT
 62
11
 10
1615.904
 20
-6479.376
 30
-1770.000
 70
    32
  0
VERTEX
  8
W71LXLIFT
 62
11
 10
1622.143
 20
-6500.093
 30
-1770.000
 70
    32
  0
VERTEX
  8
W71LXLIFT
 62
11
 10
1617.613
 20
-6505.651
 30
-1770.000
 70
    32
  0
VERTEX
  8
W71LXLIFT
 62
11
 10
1605.844
 20
-6509.738
 30
-1770.000
 70
    32
  0
VERTEX
  8
W71LXLIFT
 62
11
 10
1609.307
 20
-6521.094
 30
-1770.000
 70
    32
  0
VERTEX
  8
W71LXLIFT
 62
11
 10
1618.159
 20
-6525.836
 30
-1770.000
 70
    32
  0
VERTEX
  8
W71LXLIFT
 62
11
 10
1621.853
 20
-6533.774
 30
-1770.000
 70
    32
  0
VERTEX
  8
W71LXLIFT
 62
11
 10
1621.408
 20
-6541.679
 30
-1770.000
 70
    32
  0
VERTEX
  8
W71LXLIFT
 62
11
 10
1640.862
 20
-6561.052
 30
-1770.000
 70
    32
  0
VERTEX
  8
W71LXLIFT
 62
11
 10
1651.773
 20
-6553.687
 30
-1770.000
 70
    32
  0
VERTEX
  8
W71LXLIFT
 62
11
 10
1654.336
 20
-6555.729
 30
-1770.000
 70
    32
  0
VERTEX
  8
W71LXLIFT
 62
11
 10
1654.592
 20
-6560.418
 30
-1770.000
 70
    32
  0
VERTEX
  8
W71LXLIFT
 62
11
 10
1646.032
 20
-6584.927
 30
-1770.000
 70
    32
  0
VERTEX
  8
W71LXLIFT
 62
11
 10
1655.804
 20
-6602.001
 30
-1770.000
 70
    32
  0
VERTEX
  8
W71LXLIFT
 62
11
 10
1665.714
 20
-6610.743
 30
-1770.000
 70
    32
  0
VERTEX
  8
W71LXLIFT
 62
11
 10
1668.415
 20
-6622.542
 30
-1770.000
 70
    32
  0
VERTEX
  8
W71LXLIFT
 62
11
 10
1674.867
 20
-6628.157
 30
-1770.000
 70
    32
  0
VERTEX
  8
W71LXLIFT
 62
11
 10
1678.666
 20
-6635.044
 30
-1770.000
 70
    32
  0
SEQEND
  8
W71LXLIFT
  0
POLYLINE
  8
W71LXLIFT
 62
11
 66
     1
 70
     9
  0
VERTEX
  8
W71LXLIFT
 62
11
 10
1686.025
 20
-6592.883
 30
-1770.000
 70
    32
  0
VERTEX
  8
W71LXLIFT
 62
11
 10
1691.799
 20
-6599.206
 30
-1770.000
 70
    32
  0
VERTEX
  8
W71LXLIFT
 62
11
 10
1697.668
 20
-6598.635
 30
-1770.000
 70
    32
  0
VERTEX
  8
W71LXLIFT
 62
11
 10
1702.744
 20
-6586.508
 30
-1770.000
 70
    32
  0
VERTEX
  8
W71LXLIFT
 62
11
 10
1704.309
 20
-6576.709
 30
-1770.000
 70
    32
  0
VERTEX
  8
W71LXLIFT
 62
11
 10
1705.872
 20
-6571.243
 30
-1770.000
 70
    32
  0
VERTEX
  8
W71LXLIFT
 62
11
 10
1703.608
 20
-6560.644
 30
-1770.000
 70
    32
  0
VERTEX
  8
W71LXLIFT
 62
11
 10
1694.137
 20
-6544.435
 30
-1770.000
 70
    32
  0
VERTEX
  8
W71LXLIFT
 62
11
 10
1688.673
 20
-6541.679
 30
-1770.000
 70
    32
  0
VERTEX
  8
W71LXLIFT
 62
11
 10
1678.709
 20
-6545.866
 30
-1770.000
 70
    32
  0
VERTEX
  8
W71LXLIFT
 62
11
 10
1679.733
 20
-6565.813
 30
-1770.000
 70
    32
  0
VERTEX
  8
W71LXLIFT
 62
11
 10
1680.128
 20
-6583.399
 30
-1770.000
 70
    32
  0
SEQEND
  8
W71LXLIFT
  0
POLYLINE
  8
W71LXLIFT
 62
8
 66
     1
 70
     9
  0
VERTEX
  8
W71LXLIFT
 62
8
 10
1736.622
 20
-6430.567
 30
-1755.000
 70
    32
  0
VERTEX
  8
W71LXLIFT
 62
8
 10
1745.544
 20
-6458.873
 30
-1755.000
 70
    32
  0
VERTEX
  8
W71LXLIFT
 62
8
 10
1744.526
 20
-6462.102
 30
-1755.000
 70
    32
  0
VERTEX
  8
W71LXLIFT
 62
8
 10
1753.508
 20
-6466.425
 30
-1755.000
 70
    32
  0
VERTEX
  8
W71LXLIFT
 62
8
 10
1767.359
 20
-6462.670
 30
-1755.000
 70
    32
  0
VERTEX
  8
W71LXLIFT
 62
8
 10
1768.772
 20
-6447.131
 30
-1755.000
 70
    32
  0
VERTEX
  8
W71LXLIFT
 62
8
 10
1771.399
 20
-6434.612
 30
-1755.000
 70
    32
  0
VERTEX
  8
W71LXLIFT
 62
8
 10
1769.376
 20
-6407.157
 30
-1755.000
 70
    32
  0
VERTEX
  8
W71LXLIFT
 62
8
 10
1767.703
 20
-6401.112
 30
-1755.000
 70
    32
  0
VERTEX
  8
W71LXLIFT
 62
8
 10
1763.485
 20
-6394.095
 30
-1755.000
 70
    32
  0
VERTEX
  8
W71LXLIFT
 62
8
 10
1758.897
 20
-6388.212
 30
-1755.000
 70
    32
  0
VERTEX
  8
W71LXLIFT
 62
8
 10
1752.780
 20
-6386.796
 30
-1755.000
 70
    32
  0
VERTEX
  8
W71LXLIFT
 62
8
 10
1748.845
 20
-6383.907
 30
-1755.000
 70
    32
  0
VERTEX
  8
W71LXLIFT
 62
8
 10
1746.369
 20
-6379.743
 30
-1755.000
 70
    32
  0
VERTEX
  8
W71LXLIFT
 62
8
 10
1738.692
 20
-6366.459
 30
-1755.000
 70
    32
  0
VERTEX
  8
W71LXLIFT
 62
8
 10
1730.161
 20
-6362.459
 30
-1755.000
 70
    32
  0
VERTEX
  8
W71LXLIFT
 62
8
 10
1715.522
 20
-6370.359
 30
-1755.000
 70
    32
  0
VERTEX
  8
W71LXLIFT
 62
8
 10
1712.838
 20
-6378.912
 30
-1755.000
 70
    32
  0
VERTEX
  8
W71LXLIFT
 62
8
 10
1727.436
 20
-6387.397
 30
-1755.000
 70
    32
  0
VERTEX
  8
W71LXLIFT
 62
8
 10
1737.308
 20
-6395.191
 30
-1755.000
 70
    32
  0
VERTEX
  8
W71LXLIFT
 62
8
 10
1743.211
 20
-6405.429
 30
-1755.000
 70
    32
  0
VERTEX
  8
W71LXLIFT
 62
8
 10
1745.663
 20
-6412.101
 30
-1755.000
 70
    32
  0
VERTEX
  8
W71LXLIFT
 62
8
 10
1743.114
 20
-6416.656
 30
-1755.000
 70
    32
  0
VERTEX
  8
W71LXLIFT
 62
8
 10
1733.341
 20
-6418.864
 30
-1755.000
 70
    32
  0
SEQEND
  8
W71LXLIFT
  0
POLYLINE
  8
W71LXLIFT
 62
1
 66
     1
 70
     9
  0
VERTEX
  8
W71LXLIFT
 62
1
 10
1734.341
 20
-6417.864
 30
-1737.000
 70
    32
  0
VERTEX
  8
W71LXLIFT
 62
1
 10
1744.114
 20
-6415.656
 30
-1737.000
 70
    32
  0
VERTEX
  8
W71LXLIFT
 62
1
 10
1746.663
 20
-6411.101
 30
-1737.000
 70
    32
  0
VERTEX
  8
W71LXLIFT
 62
1
 10
1744.211
 20
-6404.429
 30
-1737.000
 70
    32
  0
VERTEX
  8
W71LXLIFT
 62
1
 10
1738.308
 20
-6394.191
 30
-1737.000
 70
    32
  0
VERTEX
  8
W71LXLIFT
 62
1
 10
1728.436
 20
-6386.397
 30
-1737.000
 70
    32
  0
VERTEX
  8
W71LXLIFT
 62
1
 10
1713.838
 20
-6377.912
 30
-1737.000
 70
    32
  0
VERTEX
  8
W71LXLIFT
 62
1
 10
1716.522
 20
-6369.359
 30
-1737.000
 70
    32
  0
VERTEX
  8
W71LXLIFT
 62
1
 10
1731.161
 20
-6361.459
 30
-1737.000
 70
    32
  0
VERTEX
  8
W71LXLIFT
 62
1
 10
1739.692
 20
-6365.459
 30
-1737.000
 70
    32
  0
VERTEX
  8
W71LXLIFT
 62
1
 10
1747.369
 20
-6378.743
 30
-1737.000
 70
    32
  0
VERTEX
  8
W71LXLIFT
 62
1
 10
1749.845
 20
-6382.907
 30
-1737.000
 70
    32
  0
VERTEX
  8
W71LXLIFT
 62
1
 10
1753.780
 20
-6385.796
 30
-1737.000
 70
    32
  0
VERTEX
  8
W71LXLIFT
 62
1
 10
1759.897
 20
-6387.212
 30
-1737.000
 70
    32
  0
VERTEX
  8
W71LXLIFT
 62
1
 10
1764.485
 20
-6393.095
 30
-1737.000
 70
    32
  0
VERTEX
  8
W71LXLIFT
 62
1
 10
1768.703
 20
-6400.112
 30
-1737.000
 70
    32
  0
VERTEX
  8
W71LXLIFT
 62
1
 10
1770.376
 20
-6406.157
 30
-1737.000
 70
    32
  0
VERTEX
  8
W71LXLIFT
 62
1
 10
1772.399
 20
-6433.612
 30
-1737.000
 70
    32
  0
VERTEX
  8
W71LXLIFT
 62
1
 10
1769.772
 20
-6446.131
 30
-1737.000
 70
    32
  0
VERTEX
  8
W71LXLIFT
 62
1
 10
1768.359
 20
-6461.670
 30
-1737.000
 70
    32
  0
VERTEX
  8
W71LXLIFT
 62
1
 10
1754.508
 20
-6465.425
 30
-1737.000
 70
    32
  0
VERTEX
  8
W71LXLIFT
 62
1
 10
1745.526
 20
-6461.102
 30
-1737.000
 70
    32
  0
VERTEX
  8
W71LXLIFT
 62
1
 10
1746.544
 20
-6457.873
 30
-1737.000
 70
    32
  0
VERTEX
  8
W71LXLIFT
 62
1
 10
1737.622
 20
-6429.567
 30
-1737.000
 70
    32
  0
SEQEND
  8
W71LXLIFT
  0
POLYLINE
  8
W71LXLIFT
 62
7
 66
     1
 70
     9
  0
VERTEX
  8
W71LXLIFT
 62
7
 10
1600.961
 20
-6333.792
 30
-1772.000
 70
    32
  0
VERTEX
  8
W71LXLIFT
 62
7
 10
1604.575
 20
-6328.466
 30
-1772.000
 70
    32
  0
VERTEX
  8
W71LXLIFT
 62
7
 10
1600.237
 20
-6315.903
 30
-1772.000
 70
    32
  0
VERTEX
  8
W71LXLIFT
 62
7
 10
1608.598
 20
-6309.952
 30
-1772.000
 70
    32
  0
VERTEX
  8
W71LXLIFT
 62
7
 10
1619.971
 20
-6307.560
 30
-1772.000
 70
    32
  0
VERTEX
  8
W71LXLIFT
 62
7
 10
1625.399
 20
-6327.457
 30
-1772.000
 70
    32
  0
VERTEX
  8
W71LXLIFT
 62
7
 10
1638.602
 20
-6340.744
 30
-1772.000
 70
    32
  0
VERTEX
  8
W71LXLIFT
 62
7
 10
1646.471
 20
-6340.242
 30
-1772.000
 70
    32
  0
VERTEX
  8
W71LXLIFT
 62
7
 10
1653.253
 20
-6344.967
 30
-1772.000
 70
    32
  0
VERTEX
  8
W71LXLIFT
 62
7
 10
1663.330
 20
-6342.431
 30
-1772.000
 70
    32
  0
VERTEX
  8
W71LXLIFT
 62
7
 10
1665.144
 20
-6330.285
 30
-1772.000
 70
    32
  0
VERTEX
  8
W71LXLIFT
 62
7
 10
1662.768
 20
-6316.842
 30
-1772.000
 70
    32
  0
VERTEX
  8
W71LXLIFT
 62
7
 10
1654.769
 20
-6299.675
 30
-1772.000
 70
    32
  0
VERTEX
  8
W71LXLIFT
 62
7
 10
1664.546
 20
-6295.081
 30
-1772.000
 70
    32
  0
VERTEX
  8
W71LXLIFT
 62
7
 10
1679.895
 20
-6313.421
 30
-1772.000
 70
    32
  0
VERTEX
  8
W71LXLIFT
 62
7
 10
1687.529
 20
-6332.477
 30
-1772.000
 70
    32
  0
VERTEX
  8
W71LXLIFT
 62
7
 10
1679.512
 20
-6348.469
 30
-1772.000
 70
    32
  0
VERTEX
  8
W71LXLIFT
 62
7
 10
1678.379
 20
-6358.714
 30
-1772.000
 70
    32
  0
VERTEX
  8
W71LXLIFT
 62
7
 10
1678.727
 20
-6366.369
 30
-1772.000
 70
    32
  0
VERTEX
  8
W71LXLIFT
 62
7
 10
1682.270
 20
-6376.041
 30
-1772.000
 70
    32
  0
VERTEX
  8
W71LXLIFT
 62
7
 10
1684.549
 20
-6385.763
 30
-1772.000
 70
    32
  0
VERTEX
  8
W71LXLIFT
 62
7
 10
1682.179
 20
-6395.497
 30
-1772.000
 70
    32
  0
VERTEX
  8
W71LXLIFT
 62
7
 10
1669.515
 20
-6391.025
 30
-1772.000
 70
    32
  0
VERTEX
  8
W71LXLIFT
 62
7
 10
1662.042
 20
-6394.166
 30
-1772.000
 70
    32
  0
VERTEX
  8
W71LXLIFT
 62
7
 10
1653.231
 20
-6380.512
 30
-1772.000
 70
    32
  0
VERTEX
  8
W71LXLIFT
 62
7
 10
1594.614
 20
-6342.074
 30
-1772.000
 70
    32
  0
SEQEND
  8
W71LXLIFT
  0
POLYLINE
  8
W71LXLIFT
 62
13
 66
     1
 70
     9
  0
VERTEX
  8
W71LXLIFT
 62
13
 10
2012.951
 20
-6664.359
 30
-1767.000
 70
    32
  0
VERTEX
  8
W71LXLIFT
 62
13
 10
2005.826
 20
-6660.207
 30
-1767.000
 70
    32
  0
VERTEX
  8
W71LXLIFT
 62
13
 10
2000.913
 20
-6655.968
 30
-1767.000
 70
    32
  0
VERTEX
  8
W71LXLIFT
 62
13
 10
1996.569
 20
-6646.984
 30
-1767.000
 70
    32
  0
VERTEX
  8
W71LXLIFT
 62
13
 10
1985.690
 20
-6624.647
 30
-1767.000
 70
    32
  0
VERTEX
  8
W71LXLIFT
 62
13
 10
1974.094
 20
-6613.877
 30
-1767.000
 70
    32
  0
VERTEX
  8
W71LXLIFT
 62
13
 10
1964.421
 20
-6609.946
 30
-1767.000
 70
    32
  0
VERTEX
  8
W71LXLIFT
 62
13
 10
1960.564
 20
-6599.093
 30
-1767.000
 70
    32
  0
VERTEX
  8
W71LXLIFT
 62
13
 10
1966.148
 20
-6580.640
 30
-1767.000
 70
    32
  0
VERTEX
  8
W71LXLIFT
 62
13
 10
1967.171
 20
-6555.744
 30
-1767.000
 70
    32
  0
VERTEX
  8
W71LXLIFT
 62
13
 10
1961.666
 20
-6546.951
 30
-1767.000
 70
    32
  0
VERTEX
  8
W71LXLIFT
 62
13
 10
1955.644
 20
-6542.975
 30
-1767.000
 70
    32
  0
VERTEX
  8
W71LXLIFT
 62
13
 10
1951.202
 20
-6542.077
 30
-1767.000
 70
    32
  0
VERTEX
  8
W71LXLIFT
 62
13
 10
1949.388
 20
-6539.276
 30
-1767.000
 70
    32
  0
VERTEX
  8
W71LXLIFT
 62
13
 10
1939.800
 20
-6523.802
 30
-1767.000
 70
    32
  0
VERTEX
  8
W71LXLIFT
 62
13
 10
1947.555
 20
-6514.174
 30
-1767.000
 70
    32
  0
VERTEX
  8
W71LXLIFT
 62
13
 10
1968.611
 20
-6524.696
 30
-1767.000
 70
    32
  0
VERTEX
  8
W71LXLIFT
 62
13
 10
1967.834
 20
-6530.350
 30
-1767.000
 70
    32
  0
VERTEX
  8
W71LXLIFT
 62
13
 10
1969.651
 20
-6535.099
 30
-1767.000
 70
    32
  0
VERTEX
  8
W71LXLIFT
 62
13
 10
1988.915
 20
-6556.452
 30
-1767.000
 70
    32
  0
VERTEX
  8
W71LXLIFT
 62
13
 10
1991.217
 20
-6563.665
 30
-1767.000
 70
    32
  0
VERTEX
  8
W71LXLIFT
 62
13
 10
1990.697
 20
-6566.534
 30
-1767.000
 70
    32
  0
VERTEX
  8
W71LXLIFT
 62
13
 10
1985.889
 20
-6576.192
 30
-1767.000
 70
    32
  0
VERTEX
  8
W71LXLIFT
 62
13
 10
1986.077
 20
-6590.353
 30
-1767.000
 70
    32
  0
VERTEX
  8
W71LXLIFT
 62
13
 10
1987.175
 20
-6597.249
 30
-1767.000
 70
    32
  0
VERTEX
  8
W71LXLIFT
 62
13
 10
2002.003
 20
-6614.125
 30
-1767.000
 70
    32
  0
VERTEX
  8
W71LXLIFT
 62
13
 10
2023.660
 20
-6654.324
 30
-1767.000
 70
    32
  0
SEQEND
  8
W71LXLIFT
  0
POLYLINE
  8
W71LXLIFT
 62
11
 66
     1
 70
     9
  0
VERTEX
  8
W71LXLIFT
 62
11
 10
1606.741
 20
-6520.245
 30
-1763.000
 70
    32
  0
VERTEX
  8
W71LXLIFT
 62
11
 10
1620.410
 20
-6540.452
 30
-1763.000
 70
    32
  0
VERTEX
  8
W71LXLIFT
 62
11
 10
1619.659
 20
-6549.879
 30
-1763.000
 70
    32
  0
VERTEX
  8
W71LXLIFT
 62
11
 10
1619.672
 20
-6553.335
 30
-1763.000
 70
    32
  0
VERTEX
  8
W71LXLIFT
 62
11
 10
1625.863
 20
-6560.981
 30
-1763.000
 70
    32
  0
VERTEX
  8
W71LXLIFT
 62
11
 10
1628.839
 20
-6566.732
 30
-1763.000
 70
    32
  0
VERTEX
  8
W71LXLIFT
 62
11
 10
1627.154
 20
-6575.319
 30
-1763.000
 70
    32
  0
VERTEX
  8
W71LXLIFT
 62
11
 10
1629.428
 20
-6579.953
 30
-1763.000
 70
    32
  0
VERTEX
  8
W71LXLIFT
 62
11
 10
1667.361
 20
-6620.489
 30
-1763.000
 70
    32
  0
VERTEX
  8
W71LXLIFT
 62
11
 10
1671.474
 20
-6628.557
 30
-1763.000
 70
    32
  0
VERTEX
  8
W71LXLIFT
 62
11
 10
1676.663
 20
-6629.888
 30
-1763.000
 70
    32
  0
VERTEX
  8
W71LXLIFT
 62
11
 10
1683.869
 20
-6628.024
 30
-1763.000
 70
    32
  0
VERTEX
  8
W71LXLIFT
 62
11
 10
1694.308
 20
-6617.318
 30
-1763.000
 70
    32
  0
VERTEX
  8
W71LXLIFT
 62
11
 10
1695.278
 20
-6608.491
 30
-1763.000
 70
    32
  0
VERTEX
  8
W71LXLIFT
 62
11
 10
1697.223
 20
-6602.207
 30
-1763.000
 70
    32
  0
VERTEX
  8
W71LXLIFT
 62
11
 10
1690.256
 20
-6592.741
 30
-1763.000
 70
    32
  0
VERTEX
  8
W71LXLIFT
 62
11
 10
1680.832
 20
-6586.464
 30
-1763.000
 70
    32
  0
VERTEX
  8
W71LXLIFT
 62
11
 10
1669.562
 20
-6581.524
 30
-1763.000
 70
    32
  0
VERTEX
  8
W71LXLIFT
 62
11
 10
1665.109
 20
-6538.607
 30
-1763.000
 70
    32
  0
VERTEX
  8
W71LXLIFT
 62
11
 10
1668.569
 20
-6528.734
 30
-1763.000
 70
    32
  0
VERTEX
  8
W71LXLIFT
 62
11
 10
1676.587
 20
-6520.216
 30
-1763.000
 70
    32
  0
VERTEX
  8
W71LXLIFT
 62
11
 10
1672.161
 20
-6502.301
 30
-1763.000
 70
    32
  0
VERTEX
  8
W71LXLIFT
 62
11
 10
1663.713
 20
-6502.899
 30
-1763.000
 70
    32
  0
VERTEX
  8
W71LXLIFT
 62
11
 10
1655.247
 20
-6498.093
 30
-1763.000
 70
    32
  0
VERTEX
  8
W71LXLIFT
 62
11
 10
1649.110
 20
-6489.325
 30
-1763.000
 70
    32
  0
VERTEX
  8
W71LXLIFT
 62
11
 10
1655.076
 20
-6470.054
 30
-1763.000
 70
    32
  0
VERTEX
  8
W71LXLIFT
 62
11
 10
1662.899
 20
-6473.376
 30
-1763.000
 70
    32
  0
VERTEX
  8
W71LXLIFT
 62
11
 10
1669.003
 20
-6471.336
 30
-1763.000
 70
    32
  0
VERTEX
  8
W71LXLIFT
 62
11
 10
1671.145
 20
-6466.967
 30
-1763.000
 70
    32
  0
VERTEX
  8
W71LXLIFT
 62
11
 10
1678.387
 20
-6462.910
 30
-1763.000
 70
    32
  0
VERTEX
  8
W71LXLIFT
 62
11
 10
1680.149
 20
-6450.693
 30
-1763.000
 70
    32
  0
VERTEX
  8
W71LXLIFT
 62
11
 10
1683.167
 20
-6443.199
 30
-1763.000
 70
    32
  0
VERTEX
  8
W71LXLIFT
 62
11
 10
1696.540
 20
-6444.015
 30
-1763.000
 70
    32
  0
VERTEX
  8
W71LXLIFT
 62
11
 10
1698.107
 20
-6433.023
 30
-1763.000
 70
    32
  0
VERTEX
  8
W71LXLIFT
 62
11
 10
1681.272
 20
-6431.466
 30
-1763.000
 70
    32
  0
VERTEX
  8
W71LXLIFT
 62
11
 10
1661.707
 20
-6424.197
 30
-1763.000
 70
    32
  0
VERTEX
  8
W71LXLIFT
 62
11
 10
1642.834
 20
-6430.290
 30
-1763.000
 70
    32
  0
VERTEX
  8
W71LXLIFT
 62
11
 10
1646.803
 20
-6439.654
 30
-1763.000
 70
    32
  0
VERTEX
  8
W71LXLIFT
 62
11
 10
1639.133
 20
-6437.739
 30
-1763.000
 70
    32
  0
VERTEX
  8
W71LXLIFT
 62
11
 10
1626.466
 20
-6438.794
 30
-1763.000
 70
    32
  0
VERTEX
  8
W71LXLIFT
 62
11
 10
1611.698
 20
-6450.254
 30
-1763.000
 70
    32
  0
VERTEX
  8
W71LXLIFT
 62
11
 10
1607.828
 20
-6458.366
 30
-1763.000
 70
    32
  0
VERTEX
  8
W71LXLIFT
 62
11
 10
1604.442
 20
-6465.802
 30
-1763.000
 70
    32
  0
VERTEX
  8
W71LXLIFT
 62
11
 10
1606.753
 20
-6475.717
 30
-1763.000
 70
    32
  0
VERTEX
  8
W71LXLIFT
 62
11
 10
1619.053
 20
-6482.077
 30
-1763.000
 70
    32
  0
VERTEX
  8
W71LXLIFT
 62
11
 10
1624.787
 20
-6496.119
 30
-1763.000
 70
    32
  0
VERTEX
  8
W71LXLIFT
 62
11
 10
1624.953
 20
-6500.982
 30
-1763.000
 70
    32
  0
VERTEX
  8
W71LXLIFT
 62
11
 10
1619.419
 20
-6505.751
 30
-1763.000
 70
    32
  0
VERTEX
  8
W71LXLIFT
 62
11
 10
1607.605
 20
-6509.329
 30
-1763.000
 70
    32
  0
SEQEND
  8
W71LXLIFT
  0
POLYLINE
  8
W71LXLIFT
 62
7
 66
     1
 70
     9
  0
VERTEX
  8
W71LXLIFT
 62
7
 10
1883.403
 20
-6977.365
 30
-1757.000
 70
    32
  0
VERTEX
  8
W71LXLIFT
 62
7
 10
1899.400
 20
-6966.856
 30
-1757.000
 70
    32
  0
VERTEX
  8
W71LXLIFT
 62
7
 10
1908.281
 20
-6962.370
 30
-1757.000
 70
    32
  0
VERTEX
  8
W71LXLIFT
 62
7
 10
1919.617
 20
-6966.503
 30
-1757.000
 70
    32
  0
VERTEX
  8
W71LXLIFT
 62
7
 10
1919.067
 20
-6975.460
 30
-1757.000
 70
    32
  0
VERTEX
  8
W71LXLIFT
 62
7
 10
1926.810
 20
-6976.131
 30
-1757.000
 70
    32
  0
VERTEX
  8
W71LXLIFT
 62
7
 10
1931.052
 20
-6973.165
 30
-1757.000
 70
    32
  0
VERTEX
  8
W71LXLIFT
 62
7
 10
1932.791
 20
-6955.983
 30
-1757.000
 70
    32
  0
VERTEX
  8
W71LXLIFT
 62
7
 10
1937.414
 20
-6952.199
 30
-1757.000
 70
    32
  0
VERTEX
  8
W71LXLIFT
 62
7
 10
1943.524
 20
-6954.053
 30
-1757.000
 70
    32
  0
VERTEX
  8
W71LXLIFT
 62
7
 10
1944.765
 20
-7001.356
 30
-1757.000
 70
    32
  0
VERTEX
  8
W71LXLIFT
 62
7
 10
1945.541
 20
-7007.510
 30
-1757.000
 70
    32
  0
VERTEX
  8
W71LXLIFT
 62
7
 10
1954.022
 20
-7007.105
 30
-1757.000
 70
    32
  0
VERTEX
  8
W71LXLIFT
 62
7
 10
1956.713
 20
-7002.447
 30
-1757.000
 70
    32
  0
VERTEX
  8
W71LXLIFT
 62
7
 10
1956.291
 20
-6981.089
 30
-1757.000
 70
    32
  0
VERTEX
  8
W71LXLIFT
 62
7
 10
1957.591
 20
-6971.373
 30
-1757.000
 70
    32
  0
VERTEX
  8
W71LXLIFT
 62
7
 10
1962.406
 20
-6965.610
 30
-1757.000
 70
    32
  0
VERTEX
  8
W71LXLIFT
 62
7
 10
1965.433
 20
-6963.957
 30
-1757.000
 70
    32
  0
VERTEX
  8
W71LXLIFT
 62
7
 10
1969.753
 20
-6967.976
 30
-1757.000
 70
    32
  0
VERTEX
  8
W71LXLIFT
 62
7
 10
1974.180
 20
-6954.802
 30
-1757.000
 70
    32
  0
VERTEX
  8
W71LXLIFT
 62
7
 10
1960.567
 20
-6947.228
 30
-1757.000
 70
    32
  0
VERTEX
  8
W71LXLIFT
 62
7
 10
1956.901
 20
-6945.010
 30
-1757.000
 70
    32
  0
VERTEX
  8
W71LXLIFT
 62
7
 10
1955.229
 20
-6938.964
 30
-1757.000
 70
    32
  0
VERTEX
  8
W71LXLIFT
 62
7
 10
1951.028
 20
-6925.544
 30
-1757.000
 70
    32
  0
VERTEX
  8
W71LXLIFT
 62
7
 10
1946.383
 20
-6923.169
 30
-1757.000
 70
    32
  0
VERTEX
  8
W71LXLIFT
 62
7
 10
1938.969
 20
-6921.609
 30
-1757.000
 70
    32
  0
VERTEX
  8
W71LXLIFT
 62
7
 10
1927.264
 20
-6926.084
 30
-1757.000
 70
    32
  0
VERTEX
  8
W71LXLIFT
 62
7
 10
1918.871
 20
-6931.841
 30
-1757.000
 70
    32
  0
VERTEX
  8
W71LXLIFT
 62
7
 10
1919.510
 20
-6938.852
 30
-1757.000
 70
    32
  0
VERTEX
  8
W71LXLIFT
 62
7
 10
1911.402
 20
-6947.543
 30
-1757.000
 70
    32
  0
VERTEX
  8
W71LXLIFT
 62
7
 10
1907.816
 20
-6947.976
 30
-1757.000
 70
    32
  0
VERTEX
  8
W71LXLIFT
 62
7
 10
1902.250
 20
-6940.744
 30
-1757.000
 70
    32
  0
VERTEX
  8
W71LXLIFT
 62
7
 10
1906.901
 20
-6921.451
 30
-1757.000
 70
    32
  0
VERTEX
  8
W71LXLIFT
 62
7
 10
1899.374
 20
-6918.239
 30
-1757.000
 70
    32
  0
VERTEX
  8
W71LXLIFT
 62
7
 10
1887.645
 20
-6917.749
 30
-1757.000
 70
    32
  0
VERTEX
  8
W71LXLIFT
 62
7
 10
1885.845
 20
-6910.929
 30
-1757.000
 70
    32
  0
VERTEX
  8
W71LXLIFT
 62
7
 10
1881.124
 20
-6910.992
 30
-1757.000
 70
    32
  0
VERTEX
  8
W71LXLIFT
 62
7
 10
1876.816
 20
-6914.764
 30
-1757.000
 70
    32
  0
VERTEX
  8
W71LXLIFT
 62
7
 10
1886.689
 20
-6944.979
 30
-1757.000
 70
    32
  0
VERTEX
  8
W71LXLIFT
 62
7
 10
1884.573
 20
-6953.120
 30
-1757.000
 70
    32
  0
VERTEX
  8
W71LXLIFT
 62
7
 10
1881.093
 20
-6963.116
 30
-1757.000
 70
    32
  0
VERTEX
  8
W71LXLIFT
 62
7
 10
1877.741
 20
-6969.553
 30
-1757.000
 70
    32
  0
SEQEND
  8
W71LXLIFT
  0
POLYLINE
  8
W71LXLIFT
 62
1
 66
     1
 70
     9
  0
VERTEX
  8
W71LXLIFT
 62
1
 10
1884.403
 20
-6976.365
 30
-1744.000
 70
    32
  0
VERTEX
  8
W71LXLIFT
 62
1
 10
1900.400
 20
-6965.856
 30
-1744.000
 70
    32
  0
VERTEX
  8
W71LXLIFT
 62
1
 10
1909.281
 20
-6961.370
 30
-1744.000
 70
    32
  0
VERTEX
  8
W71LXLIFT
 62
1
 10
1920.617
 20
-6965.503
 30
-1744.000
 70
    32
  0
VERTEX
  8
W71LXLIFT
 62
1
 10
1920.067
 20
-6974.460
 30
-1744.000
 70
    32
  0
VERTEX
  8
W71LXLIFT
 62
1
 10
1927.810
 20
-6975.131
 30
-1744.000
 70
    32
  0
VERTEX
  8
W71LXLIFT
 62
1
 10
1932.052
 20
-6972.165
 30
-1744.000
 70
    32
  0
VERTEX
  8
W71LXLIFT
 62
1
 10
1933.791
 20
-6954.983
 30
-1744.000
 70
    32
  0
VERTEX
  8
W71LXLIFT
 62
1
 10
1938.414
 20
-6951.199
 30
-1744.000
 70
    32
  0
VERTEX
  8
W71LXLIFT
 62
1
 10
1944.524
 20
-6953.053
 30
-1744.000
 70
    32
  0
VERTEX
  8
W71LXLIFT
 62
1
 10
1945.765
 20
-7000.356
 30
-1744.000
 70
    32
  0
VERTEX
  8
W71LXLIFT
 62
1
 10
1946.541
 20
-7006.510
 30
-1744.000
 70
    32
  0
VERTEX
  8
W71LXLIFT
 62
1
 10
1955.022
 20
-7006.105
 30
-1744.000
 70
    32
  0
VERTEX
  8
W71LXLIFT
 62
1
 10
1957.713
 20
-7001.447
 30
-1744.000
 70
    32
  0
VERTEX
  8
W71LXLIFT
 62
1
 10
1957.291
 20
-6980.089
 30
-1744.000
 70
    32
  0
VERTEX
  8
W71LXLIFT
 62
1
 10
1958.591
 20
-6970.373
 30
-1744.000
 70
    32
  0
VERTEX
  8
W71LXLIFT
 62
1
 10
1963.406
 20
-6964.610
 30
-1744.000
 70
    32
  0
VERTEX
  8
W71LXLIFT
 62
1
 10
1966.433
 20
-6962.957
 30
-1744.000
 70
    32
  0
VERTEX
  8
W71LXLIFT
 62
1
 10
1970.753
 20
-6966.976
 30
-1744.000
 70
    32
  0
VERTEX
  8
W71LXLIFT
 62
1
 10
1975.180
 20
-6953.802
 30
-1744.000
 70
    32
  0
VERTEX
  8
W71LXLIFT
 62
1
 10
1961.567
 20
-6946.228
 30
-1744.000
 70
    32
  0
VERTEX
  8
W71LXLIFT
 62
1
 10
1957.901
 20
-6944.010
 30
-1744.000
 70
    32
  0
VERTEX
  8
W71LXLIFT
 62
1
 10
1956.229
 20
-6937.964
 30
-1744.000
 70
    32
  0
VERTEX
  8
W71LXLIFT
 62
1
 10
1952.028
 20
-6924.544
 30
-1744.000
 70
    32
  0
VERTEX
  8
W71LXLIFT
 62
1
 10
1947.383
 20
-6922.169
 30
-1744.000
 70
    32
  0
VERTEX
  8
W71LXLIFT
 62
1
 10
1939.969
 20
-6920.609
 30
-1744.000
 70
    32
  0
VERTEX
  8
W71LXLIFT
 62
1
 10
1928.264
 20
-6925.084
 30
-1744.000
 70
    32
  0
VERTEX
  8
W71LXLIFT
 62
1
 10
1919.871
 20
-6930.841
 30
-1744.000
 70
    32
  0
VERTEX
  8
W71LXLIFT
 62
1
 10
1920.510
 20
-6937.852
 30
-1744.000
 70
    32
  0
VERTEX
  8
W71LXLIFT
 62
1
 10
1912.402
 20
-6946.543
 30
-1744.000
 70
    32
  0
VERTEX
  8
W71LXLIFT
 62
1
 10
1908.816
 20
-6946.976
 30
-1744.000
 70
    32
  0
VERTEX
  8
W71LXLIFT
 62
1
 10
1903.250
 20
-6939.744
 30
-1744.000
 70
    32
  0
VERTEX
  8
W71LXLIFT
 62
1
 10
1907.901
 20
-6920.451
 30
-1744.000
 70
    32
  0
VERTEX
  8
W71LXLIFT
 62
1
 10
1900.374
 20
-6917.239
 30
-1744.000
 70
    32
  0
VERTEX
  8
W71LXLIFT
 62
1
 10
1888.645
 20
-6916.749
 30
-1744.000
 70
    32
  0
VERTEX
  8
W71LXLIFT
 62
1
 10
1886.845
 20
-6909.929
 30
-1744.000
 70
    32
  0
VERTEX
  8
W71LXLIFT
 62
1
 10
1882.124
 20
-6909.992
 30
-1744.000
 70
    32
  0
VERTEX
  8
W71LXLIFT
 62
1
 10
1877.816
 20
-6913.764
 30
-1744.000
 70
    32
  0
VERTEX
  8
W71LXLIFT
 62
1
 10
1887.689
 20
-6943.979
 30
-1744.000
 70
    32
  0
VERTEX
  8
W71LXLIFT
 62
1
 10
1885.573
 20
-6952.120
 30
-1744.000
 70
    32
  0
VERTEX
  8
W71LXLIFT
 62
1
 10
1882.093
 20
-6962.116
 30
-1744.000
 70
    32
  0
VERTEX
  8
W71LXLIFT
 62
1
 10
1878.741
 20
-6968.553
 30
-1744.000
 70
    32
  0
SEQEND
  8
W71LXLIFT
  0
POLYLINE
  8
W71LXLIFT
 62
2
 66
     1
 70
     9
  0
VERTEX
  8
W71LXLIFT
 62
2
 10
1647.980
 20
-6746.211
 30
-1746.000
 70
    32
  0
VERTEX
  8
W71LXLIFT
 62
2
 10
1653.168
 20
-6732.594
 30
-1746.000
 70
    32
  0
VERTEX
  8
W71LXLIFT
 62
2
 10
1630.991
 20
-6695.263
 30
-1746.000
 70
    32
  0
VERTEX
  8
W71LXLIFT
 62
2
 10
1643.784
 20
-6688.701
 30
-1746.000
 70
    32
  0
VERTEX
  8
W71LXLIFT
 62
2
 10
1662.546
 20
-6720.273
 30
-1746.000
 70
    32
  0
VERTEX
  8
W71LXLIFT
 62
2
 10
1671.421
 20
-6719.366
 30
-1746.000
 70
    32
  0
VERTEX
  8
W71LXLIFT
 62
2
 10
1673.121
 20
-6732.325
 30
-1746.000
 70
    32
  0
VERTEX
  8
W71LXLIFT
 62
2
 10
1676.841
 20
-6736.561
 30
-1746.000
 70
    32
  0
VERTEX
  8
W71LXLIFT
 62
2
 10
1689.616
 20
-6743.877
 30
-1746.000
 70
    32
  0
VERTEX
  8
W71LXLIFT
 62
2
 10
1699.830
 20
-6755.431
 30
-1746.000
 70
    32
  0
VERTEX
  8
W71LXLIFT
 62
2
 10
1700.828
 20
-6764.132
 30
-1746.000
 70
    32
  0
VERTEX
  8
W71LXLIFT
 62
2
 10
1705.114
 20
-6769.150
 30
-1746.000
 70
    32
  0
VERTEX
  8
W71LXLIFT
 62
2
 10
1694.920
 20
-6775.561
 30
-1746.000
 70
    32
  0
VERTEX
  8
W71LXLIFT
 62
2
 10
1679.138
 20
-6762.302
 30
-1746.000
 70
    32
  0
VERTEX
  8
W71LXLIFT
 62
2
 10
1676.923
 20
-6775.389
 30
-1746.000
 70
    32
  0
VERTEX
  8
W71LXLIFT
 62
2
 10
1667.177
 20
-6772.702
 30
-1746.000
 70
    32
  0
SEQEND
  8
W71LXLIFT
  0
POLYLINE
  8
W71LXLIFT
 62
1
 66
     1
 70
     9
  0
VERTEX
  8
W71LXLIFT
 62
1
 10
1648.980
 20
-6745.211
 30
-1734.000
 70
    32
  0
VERTEX
  8
W71LXLIFT
 62
1
 10
1654.168
 20
-6731.594
 30
-1734.000
 70
    32
  0
VERTEX
  8
W71LXLIFT
 62
1
 10
1631.991
 20
-6694.263
 30
-1734.000
 70
    32
  0
VERTEX
  8
W71LXLIFT
 62
1
 10
1644.784
 20
-6687.701
 30
-1734.000
 70
    32
  0
VERTEX
  8
W71LXLIFT
 62
1
 10
1663.546
 20
-6719.273
 30
-1734.000
 70
    32
  0
VERTEX
  8
W71LXLIFT
 62
1
 10
1672.421
 20
-6718.366
 30
-1734.000
 70
    32
  0
VERTEX
  8
W71LXLIFT
 62
1
 10
1674.121
 20
-6731.325
 30
-1734.000
 70
    32
  0
VERTEX
  8
W71LXLIFT
 62
1
 10
1677.841
 20
-6735.561
 30
-1734.000
 70
    32
  0
VERTEX
  8
W71LXLIFT
 62
1
 10
1690.616
 20
-6742.877
 30
-1734.000
 70
    32
  0
VERTEX
  8
W71LXLIFT
 62
1
 10
1700.830
 20
-6754.431
 30
-1734.000
 70
    32
  0
VERTEX
  8
W71LXLIFT
 62
1
 10
1701.828
 20
-6763.132
 30
-1734.000
 70
    32
  0
VERTEX
  8
W71LXLIFT
 62
1
 10
1706.114
 20
-6768.150
 30
-1734.000
 70
    32
  0
VERTEX
  8
W71LXLIFT
 62
1
 10
1695.920
 20
-6774.561
 30
-1734.000
 70
    32
  0
VERTEX
  8
W71LXLIFT
 62
1
 10
1680.138
 20
-6761.302
 30
-1734.000
 70
    32
  0
VERTEX
  8
W71LXLIFT
 62
1
 10
1677.923
 20
-6774.389
 30
-1734.000
 70
    32
  0
VERTEX
  8
W71LXLIFT
 62
1
 10
1668.177
 20
-6771.702
 30
-1734.000
 70
    32
  0
SEQEND
  8
W71LXLIFT
  0
POLYLINE
  8
W71LXLIFT
 62
13
 66
     1
 70
     9
  0
VERTEX
  8
W71LXLIFT
 62
13
 10
1937.993
 20
-6524.895
 30
-1748.000
 70
    32
  0
VERTEX
  8
W71LXLIFT
 62
13
 10
1945.980
 20
-6514.991
 30
-1748.000
 70
    32
  0
VERTEX
  8
W71LXLIFT
 62
13
 10
1954.342
 20
-6519.654
 30
-1748.000
 70
    32
  0
VERTEX
  8
W71LXLIFT
 62
13
 10
1960.518
 20
-6528.177
 30
-1748.000
 70
    32
  0
VERTEX
  8
W71LXLIFT
 62
13
 10
1965.417
 20
-6533.293
 30
-1748.000
 70
    32
  0
VERTEX
  8
W71LXLIFT
 62
13
 10
1972.547
 20
-6538.200
 30
-1748.000
 70
    32
  0
VERTEX
  8
W71LXLIFT
 62
13
 10
1981.138
 20
-6552.446
 30
-1748.000
 70
    32
  0
VERTEX
  8
W71LXLIFT
 62
13
 10
1986.717
 20
-6570.609
 30
-1748.000
 70
    32
  0
VERTEX
  8
W71LXLIFT
 62
13
 10
1989.075
 20
-6579.841
 30
-1748.000
 70
    32
  0
VERTEX
  8
W71LXLIFT
 62
13
 10
1988.690
 20
-6593.660
 30
-1748.000
 70
    32
  0
VERTEX
  8
W71LXLIFT
 62
13
 10
1989.635
 20
-6599.149
 30
-1748.000
 70
    32
  0
VERTEX
  8
W71LXLIFT
 62
13
 10
2002.715
 20
-6624.224
 30
-1748.000
 70
    32
  0
VERTEX
  8
W71LXLIFT
 62
13
 10
2007.289
 20
-6634.124
 30
-1748.000
 70
    32
  0
VERTEX
  8
W71LXLIFT
 62
13
 10
2012.285
 20
-6646.102
 30
-1748.000
 70
    32
  0
VERTEX
  8
W71LXLIFT
 62
13
 10
2016.783
 20
-6652.158
 30
-1748.000
 70
    32
  0
VERTEX
  8
W71LXLIFT
 62
13
 10
2009.024
 20
-6664.171
 30
-1748.000
 70
    32
  0
VERTEX
  8
W71LXLIFT
 62
13
 10
1993.233
 20
-6663.158
 30
-1748.000
 70
    32
  0
VERTEX
  8
W71LXLIFT
 62
13
 10
1978.127
 20
-6638.576
 30
-1748.000
 70
    32
  0
VERTEX
  8
W71LXLIFT
 62
13
 10
1990.885
 20
-6629.872
 30
-1748.000
 70
    32
  0
VERTEX
  8
W71LXLIFT
 62
13
 10
1981.581
 20
-6617.333
 30
-1748.000
 70
    32
  0
VERTEX
  8
W71LXLIFT
 62
13
 10
1971.652
 20
-6608.714
 30
-1748.000
 70
    32
  0
VERTEX
  8
W71LXLIFT
 62
13
 10
1963.861
 20
-6605.586
 30
-1748.000
 70
    32
  0
VERTEX
  8
W71LXLIFT
 62
13
 10
1964.558
 20
-6579.193
 30
-1748.000
 70
    32
  0
VERTEX
  8
W71LXLIFT
 62
13
 10
1963.604
 20
-6560.387
 30
-1748.000
 70
    32
  0
VERTEX
  8
W71LXLIFT
 62
13
 10
1962.209
 20
-6550.241
 30
-1748.000
 70
    32
  0
VERTEX
  8
W71LXLIFT
 62
13
 10
1951.236
 20
-6533.604
 30
-1748.000
 70
    32
  0
SEQEND
  8
W71LXLIFT
  0
POLYLINE
  8
W71LXLIFT
 62
1
 66
     1
 70
     9
  0
VERTEX
  8
W71LXLIFT
 62
1
 10
1938.993
 20
-6523.895
 30
-1734.000
 70
    32
  0
VERTEX
  8
W71LXLIFT
 62
1
 10
1946.980
 20
-6513.991
 30
-1734.000
 70
    32
  0
VERTEX
  8
W71LXLIFT
 62
1
 10
1955.342
 20
-6518.654
 30
-1734.000
 70
    32
  0
VERTEX
  8
W71LXLIFT
 62
1
 10
1961.518
 20
-6527.177
 30
-1734.000
 70
    32
  0
VERTEX
  8
W71LXLIFT
 62
1
 10
1966.417
 20
-6532.293
 30
-1734.000
 70
    32
  0
VERTEX
  8
W71LXLIFT
 62
1
 10
1973.547
 20
-6537.200
 30
-1734.000
 70
    32
  0
VERTEX
  8
W71LXLIFT
 62
1
 10
1982.138
 20
-6551.446
 30
-1734.000
 70
    32
  0
VERTEX
  8
W71LXLIFT
 62
1
 10
1987.717
 20
-6569.609
 30
-1734.000
 70
    32
  0
VERTEX
  8
W71LXLIFT
 62
1
 10
1990.075
 20
-6578.841
 30
-1734.000
 70
    32
  0
VERTEX
  8
W71LXLIFT
 62
1
 10
1989.690
 20
-6592.660
 30
-1734.000
 70
    32
  0
VERTEX
  8
W71LXLIFT
 62
1
 10
1990.635
 20
-6598.149
 30
-1734.000
 70
    32
  0
VERTEX
  8
W71LXLIFT
 62
1
 10
2003.715
 20
-6623.224
 30
-1734.000
 70
    32
  0
VERTEX
  8
W71LXLIFT
 62
1
 10
2008.289
 20
-6633.124
 30
-1734.000
 70
    32
  0
VERTEX
  8
W71LXLIFT
 62
1
 10
2013.285
 20
-6645.102
 30
-1734.000
 70
    32
  0
VERTEX
  8
W71LXLIFT
 62
1
 10
2017.783
 20
-6651.158
 30
-1734.000
 70
    32
  0
VERTEX
  8
W71LXLIFT
 62
1
 10
2010.024
 20
-6663.171
 30
-1734.000
 70
    32
  0
VERTEX
  8
W71LXLIFT
 62
1
 10
1994.233
 20
-6662.158
 30
-1734.000
 70
    32
  0
VERTEX
  8
W71LXLIFT
 62
1
 10
1979.127
 20
-6637.576
 30
-1734.000
 70
    32
  0
VERTEX
  8
W71LXLIFT
 62
1
 10
1991.885
 20
-6628.872
 30
-1734.000
 70
    32
  0
VERTEX
  8
W71LXLIFT
 62
1
 10
1982.581
 20
-6616.333
 30
-1734.000
 70
    32
  0
VERTEX
  8
W71LXLIFT
 62
1
 10
1972.652
 20
-6607.714
 30
-1734.000
 70
    32
  0
VERTEX
  8
W71LXLIFT
 62
1
 10
1964.861
 20
-6604.586
 30
-1734.000
 70
    32
  0
VERTEX
  8
W71LXLIFT
 62
1
 10
1965.558
 20
-6578.193
 30
-1734.000
 70
    32
  0
VERTEX
  8
W71LXLIFT
 62
1
 10
1964.604
 20
-6559.387
 30
-1734.000
 70
    32
  0
VERTEX
  8
W71LXLIFT
 62
1
 10
1963.209
 20
-6549.241
 30
-1734.000
 70
    32
  0
VERTEX
  8
W71LXLIFT
 62
1
 10
1952.236
 20
-6532.604
 30
-1734.000
 70
    32
  0
SEQEND
  8
W71LXLIFT
  0
POLYLINE
  8
W71LXLIFT
 62
7
 66
     1
 70
     9
  0
VERTEX
  8
W71LXLIFT
 62
7
 10
1493.903
 20
-6204.591
 30
-1759.000
 70
    32
  0
VERTEX
  8
W71LXLIFT
 62
7
 10
1525.311
 20
-6248.231
 30
-1759.000
 70
    32
  0
VERTEX
  8
W71LXLIFT
 62
7
 10
1544.007
 20
-6250.714
 30
-1759.000
 70
    32
  0
VERTEX
  8
W71LXLIFT
 62
7
 10
1568.544
 20
-6273.661
 30
-1759.000
 70
    32
  0
VERTEX
  8
W71LXLIFT
 62
7
 10
1570.818
 20
-6282.629
 30
-1759.000
 70
    32
  0
VERTEX
  8
W71LXLIFT
 62
7
 10
1592.548
 20
-6302.302
 30
-1759.000
 70
    32
  0
VERTEX
  8
W71LXLIFT
 62
7
 10
1595.582
 20
-6315.160
 30
-1759.000
 70
    32
  0
VERTEX
  8
W71LXLIFT
 62
7
 10
1596.651
 20
-6323.809
 30
-1759.000
 70
    32
  0
VERTEX
  8
W71LXLIFT
 62
7
 10
1588.323
 20
-6325.620
 30
-1759.000
 70
    32
  0
VERTEX
  8
W71LXLIFT
 62
7
 10
1580.928
 20
-6335.744
 30
-1759.000
 70
    32
  0
VERTEX
  8
W71LXLIFT
 62
7
 10
1596.101
 20
-6347.713
 30
-1759.000
 70
    32
  0
VERTEX
  8
W71LXLIFT
 62
7
 10
1606.291
 20
-6369.250
 30
-1759.000
 70
    32
  0
VERTEX
  8
W71LXLIFT
 62
7
 10
1614.378
 20
-6376.821
 30
-1759.000
 70
    32
  0
VERTEX
  8
W71LXLIFT
 62
7
 10
1624.832
 20
-6375.853
 30
-1759.000
 70
    32
  0
VERTEX
  8
W71LXLIFT
 62
7
 10
1626.718
 20
-6366.795
 30
-1759.000
 70
    32
  0
VERTEX
  8
W71LXLIFT
 62
7
 10
1636.388
 20
-6361.305
 30
-1759.000
 70
    32
  0
VERTEX
  8
W71LXLIFT
 62
7
 10
1635.104
 20
-6346.529
 30
-1759.000
 70
    32
  0
VERTEX
  8
W71LXLIFT
 62
7
 10
1630.678
 20
-6332.947
 30
-1759.000
 70
    32
  0
VERTEX
  8
W71LXLIFT
 62
7
 10
1621.496
 20
-6317.287
 30
-1759.000
 70
    32
  0
VERTEX
  8
W71LXLIFT
 62
7
 10
1618.106
 20
-6289.739
 30
-1759.000
 70
    32
  0
VERTEX
  8
W71LXLIFT
 62
7
 10
1597.217
 20
-6287.221
 30
-1759.000
 70
    32
  0
VERTEX
  8
W71LXLIFT
 62
7
 10
1587.906
 20
-6267.646
 30
-1759.000
 70
    32
  0
VERTEX
  8
W71LXLIFT
 62
7
 10
1580.503
 20
-6260.121
 30
-1759.000
 70
    32
  0
VERTEX
  8
W71LXLIFT
 62
7
 10
1572.684
 20
-6239.465
 30
-1759.000
 70
    32
  0
VERTEX
  8
W71LXLIFT
 62
7
 10
1564.836
 20
-6232.371
 30
-1759.000
 70
    32
  0
VERTEX
  8
W71LXLIFT
 62
7
 10
1553.364
 20
-6232.235
 30
-1759.000
 70
    32
  0
VERTEX
  8
W71LXLIFT
 62
7
 10
1550.016
 20
-6228.812
 30
-1759.000
 70
    32
  0
VERTEX
  8
W71LXLIFT
 62
7
 10
1536.964
 20
-6228.738
 30
-1759.000
 70
    32
  0
VERTEX
  8
W71LXLIFT
 62
7
 10
1508.691
 20
-6193.009
 30
-1759.000
 70
    32
  0
SEQEND
  8
W71LXLIFT
  0
POLYLINE
  8
W71LXLIFT
 62
7
 66
     1
 70
     9
  0
VERTEX
  8
W71LXLIFT
 62
7
 10
1588.205
 20
-6311.407
 30
-1743.000
 70
    32
  0
VERTEX
  8
W71LXLIFT
 62
7
 10
1593.652
 20
-6320.567
 30
-1743.000
 70
    32
  0
VERTEX
  8
W71LXLIFT
 62
7
 10
1600.580
 20
-6322.803
 30
-1743.000
 70
    32
  0
VERTEX
  8
W71LXLIFT
 62
7
 10
1607.885
 20
-6330.941
 30
-1743.000
 70
    32
  0
VERTEX
  8
W71LXLIFT
 62
7
 10
1616.342
 20
-6325.571
 30
-1743.000
 70
    32
  0
VERTEX
  8
W71LXLIFT
 62
7
 10
1613.907
 20
-6316.829
 30
-1743.000
 70
    32
  0
VERTEX
  8
W71LXLIFT
 62
7
 10
1616.696
 20
-6307.225
 30
-1743.000
 70
    32
  0
VERTEX
  8
W71LXLIFT
 62
7
 10
1611.063
 20
-6275.237
 30
-1743.000
 70
    32
  0
VERTEX
  8
W71LXLIFT
 62
7
 10
1604.457
 20
-6261.935
 30
-1743.000
 70
    32
  0
VERTEX
  8
W71LXLIFT
 62
7
 10
1604.071
 20
-6257.665
 30
-1743.000
 70
    32
  0
VERTEX
  8
W71LXLIFT
 62
7
 10
1584.803
 20
-6238.699
 30
-1743.000
 70
    32
  0
VERTEX
  8
W71LXLIFT
 62
7
 10
1570.530
 20
-6243.518
 30
-1743.000
 70
    32
  0
VERTEX
  8
W71LXLIFT
 62
7
 10
1565.422
 20
-6243.644
 30
-1743.000
 70
    32
  0
VERTEX
  8
W71LXLIFT
 62
7
 10
1554.756
 20
-6236.100
 30
-1743.000
 70
    32
  0
VERTEX
  8
W71LXLIFT
 62
7
 10
1545.671
 20
-6228.495
 30
-1743.000
 70
    32
  0
VERTEX
  8
W71LXLIFT
 62
7
 10
1544.718
 20
-6223.444
 30
-1743.000
 70
    32
  0
VERTEX
  8
W71LXLIFT
 62
7
 10
1544.463
 20
-6214.422
 30
-1743.000
 70
    32
  0
VERTEX
  8
W71LXLIFT
 62
7
 10
1538.303
 20
-6211.303
 30
-1743.000
 70
    32
  0
VERTEX
  8
W71LXLIFT
 62
7
 10
1530.500
 20
-6207.859
 30
-1743.000
 70
    32
  0
VERTEX
  8
W71LXLIFT
 62
7
 10
1522.917
 20
-6203.822
 30
-1743.000
 70
    32
  0
VERTEX
  8
W71LXLIFT
 62
7
 10
1507.212
 20
-6197.546
 30
-1743.000
 70
    32
  0
VERTEX
  8
W71LXLIFT
 62
7
 10
1498.760
 20
-6215.478
 30
-1743.000
 70
    32
  0
VERTEX
  8
W71LXLIFT
 62
7
 10
1511.094
 20
-6231.453
 30
-1743.000
 70
    32
  0
VERTEX
  8
W71LXLIFT
 62
7
 10
1518.579
 20
-6240.436
 30
-1743.000
 70
    32
  0
VERTEX
  8
W71LXLIFT
 62
7
 10
1532.491
 20
-6250.069
 30
-1743.000
 70
    32
  0
VERTEX
  8
W71LXLIFT
 62
7
 10
1540.101
 20
-6253.545
 30
-1743.000
 70
    32
  0
VERTEX
  8
W71LXLIFT
 62
7
 10
1546.373
 20
-6262.648
 30
-1743.000
 70
    32
  0
VERTEX
  8
W71LXLIFT
 62
7
 10
1576.451
 20
-6257.966
 30
-1743.000
 70
    32
  0
VERTEX
  8
W71LXLIFT
 62
7
 10
1585.949
 20
-6261.807
 30
-1743.000
 70
    32
  0
VERTEX
  8
W71LXLIFT
 62
7
 10
1593.585
 20
-6269.055
 30
-1743.000
 70
    32
  0
VERTEX
  8
W71LXLIFT
 62
7
 10
1595.021
 20
-6277.763
 30
-1743.000
 70
    32
  0
VERTEX
  8
W71LXLIFT
 62
7
 10
1591.338
 20
-6281.948
 30
-1743.000
 70
    32
  0
VERTEX
  8
W71LXLIFT
 62
7
 10
1586.834
 20
-6298.752
 30
-1743.000
 70
    32
  0
SEQEND
  8
W71LXLIFT
  0
POLYLINE
  8
W71LXLIFT
 62
11
 66
     1
 70
     9
  0
VERTEX
  8
W71LXLIFT
 62
11
 10
1698.989
 20
-6433.792
 30
-1750.000
 70
    32
  0
VERTEX
  8
W71LXLIFT
 62
11
 10
1667.501
 20
-6426.064
 30
-1750.000
 70
    32
  0
VERTEX
  8
W71LXLIFT
 62
11
 10
1647.833
 20
-6436.741
 30
-1750.000
 70
    32
  0
VERTEX
  8
W71LXLIFT
 62
11
 10
1648.170
 20
-6439.747
 30
-1750.000
 70
    32
  0
VERTEX
  8
W71LXLIFT
 62
11
 10
1637.835
 20
-6446.262
 30
-1750.000
 70
    32
  0
VERTEX
  8
W71LXLIFT
 62
11
 10
1630.273
 20
-6455.857
 30
-1750.000
 70
    32
  0
VERTEX
  8
W71LXLIFT
 62
11
 10
1620.641
 20
-6462.296
 30
-1750.000
 70
    32
  0
VERTEX
  8
W71LXLIFT
 62
11
 10
1615.729
 20
-6468.671
 30
-1750.000
 70
    32
  0
VERTEX
  8
W71LXLIFT
 62
11
 10
1614.659
 20
-6476.163
 30
-1750.000
 70
    32
  0
VERTEX
  8
W71LXLIFT
 62
11
 10
1617.964
 20
-6492.832
 30
-1750.000
 70
    32
  0
VERTEX
  8
W71LXLIFT
 62
11
 10
1612.491
 20
-6506.654
 30
-1750.000
 70
    32
  0
VERTEX
  8
W71LXLIFT
 62
11
 10
1609.570
 20
-6517.870
 30
-1750.000
 70
    32
  0
VERTEX
  8
W71LXLIFT
 62
11
 10
1619.291
 20
-6527.398
 30
-1750.000
 70
    32
  0
VERTEX
  8
W71LXLIFT
 62
11
 10
1624.407
 20
-6559.870
 30
-1750.000
 70
    32
  0
VERTEX
  8
W71LXLIFT
 62
11
 10
1638.816
 20
-6573.475
 30
-1750.000
 70
    32
  0
VERTEX
  8
W71LXLIFT
 62
11
 10
1650.986
 20
-6587.728
 30
-1750.000
 70
    32
  0
VERTEX
  8
W71LXLIFT
 62
11
 10
1653.398
 20
-6591.505
 30
-1750.000
 70
    32
  0
VERTEX
  8
W71LXLIFT
 62
11
 10
1661.873
 20
-6612.767
 30
-1750.000
 70
    32
  0
VERTEX
  8
W71LXLIFT
 62
11
 10
1676.454
 20
-6635.130
 30
-1750.000
 70
    32
  0
VERTEX
  8
W71LXLIFT
 62
11
 10
1681.717
 20
-6653.305
 30
-1750.000
 70
    32
  0
VERTEX
  8
W71LXLIFT
 62
11
 10
1686.921
 20
-6656.900
 30
-1750.000
 70
    32
  0
VERTEX
  8
W71LXLIFT
 62
11
 10
1690.311
 20
-6662.026
 30
-1750.000
 70
    32
  0
VERTEX
  8
W71LXLIFT
 62
11
 10
1692.699
 20
-6668.311
 30
-1750.000
 70
    32
  0
VERTEX
  8
W71LXLIFT
 62
11
 10
1694.478
 20
-6683.919
 30
-1750.000
 70
    32
  0
VERTEX
  8
W71LXLIFT
 62
11
 10
1712.724
 20
-6678.605
 30
-1750.000
 70
    32
  0
VERTEX
  8
W71LXLIFT
 62
11
 10
1720.988
 20
-6683.881
 30
-1750.000
 70
    32
  0
VERTEX
  8
W71LXLIFT
 62
11
 10
1733.130
 20
-6665.659
 30
-1750.000
 70
    32
  0
VERTEX
  8
W71LXLIFT
 62
11
 10
1724.744
 20
-6656.029
 30
-1750.000
 70
    32
  0
VERTEX
  8
W71LXLIFT
 62
11
 10
1718.129
 20
-6647.499
 30
-1750.000
 70
    32
  0
VERTEX
  8
W71LXLIFT
 62
11
 10
1713.480
 20
-6647.511
 30
-1750.000
 70
    32
  0
VERTEX
  8
W71LXLIFT
 62
11
 10
1710.247
 20
-6641.405
 30
-1750.000
 70
    32
  0
VERTEX
  8
W71LXLIFT
 62
11
 10
1699.480
 20
-6640.000
 30
-1750.000
 70
    32
  0
VERTEX
  8
W71LXLIFT
 62
11
 10
1697.662
 20
-6632.110
 30
-1750.000
 70
    32
  0
VERTEX
  8
W71LXLIFT
 62
11
 10
1702.817
 20
-6612.019
 30
-1750.000
 70
    32
  0
VERTEX
  8
W71LXLIFT
 62
11
 10
1700.690
 20
-6603.703
 30
-1750.000
 70
    32
  0
VERTEX
  8
W71LXLIFT
 62
11
 10
1697.263
 20
-6597.629
 30
-1750.000
 70
    32
  0
VERTEX
  8
W71LXLIFT
 62
11
 10
1698.697
 20
-6592.582
 30
-1750.000
 70
    32
  0
VERTEX
  8
W71LXLIFT
 62
11
 10
1697.262
 20
-6587.014
 30
-1750.000
 70
    32
  0
VERTEX
  8
W71LXLIFT
 62
11
 10
1697.675
 20
-6575.775
 30
-1750.000
 70
    32
  0
VERTEX
  8
W71LXLIFT
 62
11
 10
1684.626
 20
-6570.175
 30
-1750.000
 70
    32
  0
VERTEX
  8
W71LXLIFT
 62
11
 10
1679.864
 20
-6564.201
 30
-1750.000
 70
    32
  0
VERTEX
  8
W71LXLIFT
 62
11
 10
1675.079
 20
-6560.737
 30
-1750.000
 70
    32
  0
VERTEX
  8
W71LXLIFT
 62
11
 10
1665.399
 20
-6557.244
 30
-1750.000
 70
    32
  0
VERTEX
  8
W71LXLIFT
 62
11
 10
1654.939
 20
-6549.985
 30
-1750.000
 70
    32
  0
VERTEX
  8
W71LXLIFT
 62
11
 10
1653.244
 20
-6542.114
 30
-1750.000
 70
    32
  0
VERTEX
  8
W71LXLIFT
 62
11
 10
1649.326
 20
-6532.822
 30
-1750.000
 70
    32
  0
VERTEX
  8
W71LXLIFT
 62
11
 10
1652.505
 20
-6525.102
 30
-1750.000
 70
    32
  0
VERTEX
  8
W71LXLIFT
 62
11
 10
1653.819
 20
-6518.842
 30
-1750.000
 70
    32
  0
VERTEX
  8
W71LXLIFT
 62
11
 10
1649.617
 20
-6502.282
 30
-1750.000
 70
    32
  0
VERTEX
  8
W71LXLIFT
 62
11
 10
1645.806
 20
-6490.745
 30
-1750.000
 70
    32
  0
VERTEX
  8
W71LXLIFT
 62
11
 10
1641.991
 20
-6481.594
 30
-1750.000
 70
    32
  0
VERTEX
  8
W71LXLIFT
 62
11
 10
1650.012
 20
-6467.550
 30
-1750.000
 70
    32
  0
VERTEX
  8
W71LXLIFT
 62
11
 10
1666.901
 20
-6463.652
 30
-1750.000
 70
    32
  0
VERTEX
  8
W71LXLIFT
 62
11
 10
1673.896
 20
-6453.275
 30
-1750.000
 70
    32
  0
VERTEX
  8
W71LXLIFT
 62
11
 10
1684.742
 20
-6442.383
 30
-1750.000
 70
    32
  0
VERTEX
  8
W71LXLIFT
 62
11
 10
1695.244
 20
-6443.871
 30
-1750.000
 70
    32
  0
SEQEND
  8
W71LXLIFT
  0
POLYLINE
  8
W71LXLIFT
 62
4
 66
     1
 70
     9
  0
VERTEX
  8
W71LXLIFT
 62
4
 10
1618.420
 20
-6877.467
 30
-1749.000
 70
    32
  0
VERTEX
  8
W71LXLIFT
 62
4
 10
1608.584
 20
-6855.673
 30
-1749.000
 70
    32
  0
VERTEX
  8
W71LXLIFT
 62
4
 10
1602.419
 20
-6848.659
 30
-1749.000
 70
    32
  0
VERTEX
  8
W71LXLIFT
 62
4
 10
1589.086
 20
-6828.317
 30
-1749.000
 70
    32
  0
VERTEX
  8
W71LXLIFT
 62
4
 10
1581.298
 20
-6819.662
 30
-1749.000
 70
    32
  0
VERTEX
  8
W71LXLIFT
 62
4
 10
1581.735
 20
-6809.055
 30
-1749.000
 70
    32
  0
VERTEX
  8
W71LXLIFT
 62
4
 10
1584.316
 20
-6800.360
 30
-1749.000
 70
    32
  0
VERTEX
  8
W71LXLIFT
 62
4
 10
1583.282
 20
-6798.185
 30
-1749.000
 70
    32
  0
VERTEX
  8
W71LXLIFT
 62
4
 10
1583.890
 20
-6793.195
 30
-1749.000
 70
    32
  0
VERTEX
  8
W71LXLIFT
 62
4
 10
1581.725
 20
-6788.264
 30
-1749.000
 70
    32
  0
VERTEX
  8
W71LXLIFT
 62
4
 10
1584.484
 20
-6766.660
 30
-1749.000
 70
    32
  0
VERTEX
  8
W71LXLIFT
 62
4
 10
1588.460
 20
-6760.637
 30
-1749.000
 70
    32
  0
VERTEX
  8
W71LXLIFT
 62
4
 10
1596.607
 20
-6759.174
 30
-1749.000
 70
    32
  0
VERTEX
  8
W71LXLIFT
 62
4
 10
1601.588
 20
-6761.414
 30
-1749.000
 70
    32
  0
VERTEX
  8
W71LXLIFT
 62
4
 10
1601.568
 20
-6765.870
 30
-1749.000
 70
    32
  0
VERTEX
  8
W71LXLIFT
 62
4
 10
1604.454
 20
-6767.461
 30
-1749.000
 70
    32
  0
VERTEX
  8
W71LXLIFT
 62
4
 10
1607.684
 20
-6771.620
 30
-1749.000
 70
    32
  0
VERTEX
  8
W71LXLIFT
 62
4
 10
1611.298
 20
-6773.767
 30
-1749.000
 70
    32
  0
VERTEX
  8
W71LXLIFT
 62
4
 10
1610.468
 20
-6783.684
 30
-1749.000
 70
    32
  0
VERTEX
  8
W71LXLIFT
 62
4
 10
1608.203
 20
-6784.892
 30
-1749.000
 70
    32
  0
VERTEX
  8
W71LXLIFT
 62
4
 10
1613.070
 20
-6797.288
 30
-1749.000
 70
    32
  0
VERTEX
  8
W71LXLIFT
 62
4
 10
1615.334
 20
-6807.887
 30
-1749.000
 70
    32
  0
VERTEX
  8
W71LXLIFT
 62
4
 10
1610.360
 20
-6817.016
 30
-1749.000
 70
    32
  0
VERTEX
  8
W71LXLIFT
 62
4
 10
1610.009
 20
-6822.362
 30
-1749.000
 70
    32
  0
VERTEX
  8
W71LXLIFT
 62
4
 10
1613.055
 20
-6828.061
 30
-1749.000
 70
    32
  0
VERTEX
  8
W71LXLIFT
 62
4
 10
1618.417
 20
-6841.290
 30
-1749.000
 70
    32
  0
VERTEX
  8
W71LXLIFT
 62
4
 10
1619.834
 20
-6850.120
 30
-1749.000
 70
    32
  0
VERTEX
  8
W71LXLIFT
 62
4
 10
1623.238
 20
-6861.843
 30
-1749.000
 70
    32
  0
VERTEX
  8
W71LXLIFT
 62
4
 10
1628.102
 20
-6872.292
 30
-1749.000
 70
    32
  0
SEQEND
  8
W71LXLIFT
  0
POLYLINE
  8
W71LXLIFT
 62
1
 66
     1
 70
     9
  0
VERTEX
  8
W71LXLIFT
 62
1
 10
1619.420
 20
-6876.467
 30
-1726.000
 70
    32
  0
VERTEX
  8
W71LXLIFT
 62
1
 10
1609.584
 20
-6854.673
 30
-1726.000
 70
    32
  0
VERTEX
  8
W71LXLIFT
 62
1
 10
1603.419
 20
-6847.659
 30
-1726.000
 70
    32
  0
VERTEX
  8
W71LXLIFT
 62
1
 10
1590.086
 20
-6827.317
 30
-1726.000
 70
    32
  0
VERTEX
  8
W71LXLIFT
 62
1
 10
1582.298
 20
-6818.662
 30
-1726.000
 70
    32
  0
VERTEX
  8
W71LXLIFT
 62
1
 10
1582.735
 20
-6808.055
 30
-1726.000
 70
    32
  0
VERTEX
  8
W71LXLIFT
 62
1
 10
1585.316
 20
-6799.360
 30
-1726.000
 70
    32
  0
VERTEX
  8
W71LXLIFT
 62
1
 10
1584.282
 20
-6797.185
 30
-1726.000
 70
    32
  0
VERTEX
  8
W71LXLIFT
 62
1
 10
1584.890
 20
-6792.195
 30
-1726.000
 70
    32
  0
VERTEX
  8
W71LXLIFT
 62
1
 10
1582.725
 20
-6787.264
 30
-1726.000
 70
    32
  0
VERTEX
  8
W71LXLIFT
 62
1
 10
1585.484
 20
-6765.660
 30
-1726.000
 70
    32
  0
VERTEX
  8
W71LXLIFT
 62
1
 10
1589.460
 20
-6759.637
 30
-1726.000
 70
    32
  0
VERTEX
  8
W71LXLIFT
 62
1
 10
1597.607
 20
-6758.174
 30
-1726.000
 70
    32
  0
VERTEX
  8
W71LXLIFT
 62
1
 10
1602.588
 20
-6760.414
 30
-1726.000
 70
    32
  0
VERTEX
  8
W71LXLIFT
 62
1
 10
1602.568
 20
-6764.870
 30
-1726.000
 70
    32
  0
VERTEX
  8
W71LXLIFT
 62
1
 10
1605.454
 20
-6766.461
 30
-1726.000
 70
    32
  0
VERTEX
  8
W71LXLIFT
 62
1
 10
1608.684
 20
-6770.620
 30
-1726.000
 70
    32
  0
VERTEX
  8
W71LXLIFT
 62
1
 10
1612.298
 20
-6772.767
 30
-1726.000
 70
    32
  0
VERTEX
  8
W71LXLIFT
 62
1
 10
1611.468
 20
-6782.684
 30
-1726.000
 70
    32
  0
VERTEX
  8
W71LXLIFT
 62
1
 10
1609.203
 20
-6783.892
 30
-1726.000
 70
    32
  0
VERTEX
  8
W71LXLIFT
 62
1
 10
1614.070
 20
-6796.288
 30
-1726.000
 70
    32
  0
VERTEX
  8
W71LXLIFT
 62
1
 10
1616.334
 20
-6806.887
 30
-1726.000
 70
    32
  0
VERTEX
  8
W71LXLIFT
 62
1
 10
1611.360
 20
-6816.016
 30
-1726.000
 70
    32
  0
VERTEX
  8
W71LXLIFT
 62
1
 10
1611.009
 20
-6821.362
 30
-1726.000
 70
    32
  0
VERTEX
  8
W71LXLIFT
 62
1
 10
1614.055
 20
-6827.061
 30
-1726.000
 70
    32
  0
VERTEX
  8
W71LXLIFT
 62
1
 10
1619.417
 20
-6840.290
 30
-1726.000
 70
    32
  0
VERTEX
  8
W71LXLIFT
 62
1
 10
1620.834
 20
-6849.120
 30
-1726.000
 70
    32
  0
VERTEX
  8
W71LXLIFT
 62
1
 10
1624.238
 20
-6860.843
 30
-1726.000
 70
    32
  0
VERTEX
  8
W71LXLIFT
 62
1
 10
1629.102
 20
-6871.292
 30
-1726.000
 70
    32
  0
SEQEND
  8
W71LXLIFT
  0
POLYLINE
  8
W71LXLIFT
 62
7
 66
     1
 70
     9
  0
VERTEX
  8
W71LXLIFT
 62
7
 10
1578.759
 20
-6310.778
 30
-1727.000
 70
    32
  0
VERTEX
  8
W71LXLIFT
 62
7
 10
1585.982
 20
-6321.792
 30
-1727.000
 70
    32
  0
VERTEX
  8
W71LXLIFT
 62
7
 10
1592.233
 20
-6327.877
 30
-1727.000
 70
    32
  0
VERTEX
  8
W71LXLIFT
 62
7
 10
1599.426
 20
-6330.030
 30
-1727.000
 70
    32
  0
VERTEX
  8
W71LXLIFT
 62
7
 10
1604.741
 20
-6333.328
 30
-1727.000
 70
    32
  0
VERTEX
  8
W71LXLIFT
 62
7
 10
1611.805
 20
-6339.041
 30
-1727.000
 70
    32
  0
VERTEX
  8
W71LXLIFT
 62
7
 10
1624.738
 20
-6329.235
 30
-1727.000
 70
    32
  0
VERTEX
  8
W71LXLIFT
 62
7
 10
1621.707
 20
-6318.326
 30
-1727.000
 70
    32
  0
VERTEX
  8
W71LXLIFT
 62
7
 10
1616.748
 20
-6314.770
 30
-1727.000
 70
    32
  0
VERTEX
  8
W71LXLIFT
 62
7
 10
1614.743
 20
-6299.000
 30
-1727.000
 70
    32
  0
VERTEX
  8
W71LXLIFT
 62
7
 10
1610.554
 20
-6275.281
 30
-1727.000
 70
    32
  0
VERTEX
  8
W71LXLIFT
 62
7
 10
1608.706
 20
-6266.005
 30
-1727.000
 70
    32
  0
VERTEX
  8
W71LXLIFT
 62
7
 10
1608.424
 20
-6257.544
 30
-1727.000
 70
    32
  0
VERTEX
  8
W71LXLIFT
 62
7
 10
1586.262
 20
-6237.425
 30
-1727.000
 70
    32
  0
VERTEX
  8
W71LXLIFT
 62
7
 10
1575.556
 20
-6241.933
 30
-1727.000
 70
    32
  0
VERTEX
  8
W71LXLIFT
 62
7
 10
1574.223
 20
-6263.263
 30
-1727.000
 70
    32
  0
VERTEX
  8
W71LXLIFT
 62
7
 10
1585.755
 20
-6288.594
 30
-1727.000
 70
    32
  0
VERTEX
  8
W71LXLIFT
 62
7
 10
1579.568
 20
-6297.843
 30
-1727.000
 70
    32
  0
SEQEND
  8
W71LXLIFT
  0
POLYLINE
  8
W71LXLIFT
 62
11
 66
     1
 70
     9
  0
VERTEX
  8
W71LXLIFT
 62
11
 10
1694.159
 20
-6647.755
 30
-1730.000
 70
    32
  0
VERTEX
  8
W71LXLIFT
 62
11
 10
1690.002
 20
-6631.704
 30
-1730.000
 70
    32
  0
VERTEX
  8
W71LXLIFT
 62
11
 10
1690.400
 20
-6613.867
 30
-1730.000
 70
    32
  0
VERTEX
  8
W71LXLIFT
 62
11
 10
1694.225
 20
-6609.579
 30
-1730.000
 70
    32
  0
VERTEX
  8
W71LXLIFT
 62
11
 10
1691.384
 20
-6589.216
 30
-1730.000
 70
    32
  0
VERTEX
  8
W71LXLIFT
 62
11
 10
1686.394
 20
-6581.134
 30
-1730.000
 70
    32
  0
VERTEX
  8
W71LXLIFT
 62
11
 10
1673.827
 20
-6553.628
 30
-1730.000
 70
    32
  0
VERTEX
  8
W71LXLIFT
 62
11
 10
1678.822
 20
-6547.517
 30
-1730.000
 70
    32
  0
VERTEX
  8
W71LXLIFT
 62
11
 10
1674.085
 20
-6542.176
 30
-1730.000
 70
    32
  0
VERTEX
  8
W71LXLIFT
 62
11
 10
1672.363
 20
-6527.393
 30
-1730.000
 70
    32
  0
VERTEX
  8
W71LXLIFT
 62
11
 10
1660.394
 20
-6520.143
 30
-1730.000
 70
    32
  0
VERTEX
  8
W71LXLIFT
 62
11
 10
1656.421
 20
-6513.166
 30
-1730.000
 70
    32
  0
VERTEX
  8
W71LXLIFT
 62
11
 10
1655.954
 20
-6503.105
 30
-1730.000
 70
    32
  0
VERTEX
  8
W71LXLIFT
 62
11
 10
1639.217
 20
-6505.269
 30
-1730.000
 70
    32
  0
VERTEX
  8
W71LXLIFT
 62
11
 10
1624.538
 20
-6505.940
 30
-1730.000
 70
    32
  0
VERTEX
  8
W71LXLIFT
 62
11
 10
1610.597
 20
-6505.536
 30
-1730.000
 70
    32
  0
VERTEX
  8
W71LXLIFT
 62
11
 10
1596.398
 20
-6501.636
 30
-1730.000
 70
    32
  0
VERTEX
  8
W71LXLIFT
 62
11
 10
1589.371
 20
-6492.537
 30
-1730.000
 70
    32
  0
VERTEX
  8
W71LXLIFT
 62
11
 10
1581.420
 20
-6492.775
 30
-1730.000
 70
    32
  0
VERTEX
  8
W71LXLIFT
 62
11
 10
1577.014
 20
-6482.211
 30
-1730.000
 70
    32
  0
VERTEX
  8
W71LXLIFT
 62
11
 10
1567.523
 20
-6470.459
 30
-1730.000
 70
    32
  0
VERTEX
  8
W71LXLIFT
 62
11
 10
1569.249
 20
-6467.908
 30
-1730.000
 70
    32
  0
VERTEX
  8
W71LXLIFT
 62
11
 10
1589.830
 20
-6465.667
 30
-1730.000
 70
    32
  0
VERTEX
  8
W71LXLIFT
 62
11
 10
1602.862
 20
-6465.863
 30
-1730.000
 70
    32
  0
VERTEX
  8
W71LXLIFT
 62
11
 10
1613.144
 20
-6467.945
 30
-1730.000
 70
    32
  0
VERTEX
  8
W71LXLIFT
 62
11
 10
1619.854
 20
-6466.441
 30
-1730.000
 70
    32
  0
VERTEX
  8
W71LXLIFT
 62
11
 10
1623.613
 20
-6462.958
 30
-1730.000
 70
    32
  0
VERTEX
  8
W71LXLIFT
 62
11
 10
1623.000
 20
-6455.387
 30
-1730.000
 70
    32
  0
VERTEX
  8
W71LXLIFT
 62
11
 10
1618.188
 20
-6452.483
 30
-1730.000
 70
    32
  0
VERTEX
  8
W71LXLIFT
 62
11
 10
1594.876
 20
-6449.012
 30
-1730.000
 70
    32
  0
VERTEX
  8
W71LXLIFT
 62
11
 10
1582.538
 20
-6446.038
 30
-1730.000
 70
    32
  0
VERTEX
  8
W71LXLIFT
 62
11
 10
1573.504
 20
-6445.977
 30
-1730.000
 70
    32
  0
VERTEX
  8
W71LXLIFT
 62
11
 10
1558.855
 20
-6440.561
 30
-1730.000
 70
    32
  0
VERTEX
  8
W71LXLIFT
 62
11
 10
1550.415
 20
-6443.861
 30
-1730.000
 70
    32
  0
VERTEX
  8
W71LXLIFT
 62
11
 10
1552.891
 20
-6451.165
 30
-1730.000
 70
    32
  0
VERTEX
  8
W71LXLIFT
 62
11
 10
1550.948
 20
-6463.730
 30
-1730.000
 70
    32
  0
VERTEX
  8
W71LXLIFT
 62
11
 10
1547.357
 20
-6478.356
 30
-1730.000
 70
    32
  0
VERTEX
  8
W71LXLIFT
 62
11
 10
1548.751
 20
-6485.361
 30
-1730.000
 70
    32
  0
VERTEX
  8
W71LXLIFT
 62
11
 10
1550.968
 20
-6493.503
 30
-1730.000
 70
    32
  0
VERTEX
  8
W71LXLIFT
 62
11
 10
1547.749
 20
-6501.468
 30
-1730.000
 70
    32
  0
VERTEX
  8
W71LXLIFT
 62
11
 10
1547.346
 20
-6511.076
 30
-1730.000
 70
    32
  0
VERTEX
  8
W71LXLIFT
 62
11
 10
1548.704
 20
-6520.274
 30
-1730.000
 70
    32
  0
VERTEX
  8
W71LXLIFT
 62
11
 10
1555.532
 20
-6524.316
 30
-1730.000
 70
    32
  0
VERTEX
  8
W71LXLIFT
 62
11
 10
1559.983
 20
-6523.582
 30
-1730.000
 70
    32
  0
VERTEX
  8
W71LXLIFT
 62
11
 10
1566.134
 20
-6528.333
 30
-1730.000
 70
    32
  0
VERTEX
  8
W71LXLIFT
 62
11
 10
1584.150
 20
-6532.716
 30
-1730.000
 70
    32
  0
VERTEX
  8
W71LXLIFT
 62
11
 10
1593.754
 20
-6535.506
 30
-1730.000
 70
    32
  0
VERTEX
  8
W71LXLIFT
 62
11
 10
1608.413
 20
-6538.097
 30
-1730.000
 70
    32
  0
VERTEX
  8
W71LXLIFT
 62
11
 10
1612.141
 20
-6541.896
 30
-1730.000
 70
    32
  0
VERTEX
  8
W71LXLIFT
 62
11
 10
1622.308
 20
-6539.185
 30
-1730.000
 70
    32
  0
VERTEX
  8
W71LXLIFT
 62
11
 10
1630.231
 20
-6548.175
 30
-1730.000
 70
    32
  0
VERTEX
  8
W71LXLIFT
 62
11
 10
1637.188
 20
-6563.606
 30
-1730.000
 70
    32
  0
VERTEX
  8
W71LXLIFT
 62
11
 10
1640.616
 20
-6580.294
 30
-1730.000
 70
    32
  0
VERTEX
  8
W71LXLIFT
 62
11
 10
1646.701
 20
-6600.798
 30
-1730.000
 70
    32
  0
VERTEX
  8
W71LXLIFT
 62
11
 10
1659.358
 20
-6601.375
 30
-1730.000
 70
    32
  0
VERTEX
  8
W71LXLIFT
 62
11
 10
1680.829
 20
-6641.167
 30
-1730.000
 70
    32
  0
VERTEX
  8
W71LXLIFT
 62
11
 10
1681.613
 20
-6650.023
 30
-1730.000
 70
    32
  0
SEQEND
  8
W71LXLIFT
  0
POLYLINE
  8
W71LXLIFT
 62
13
 66
     1
 70
     9
  0
VERTEX
  8
W71LXLIFT
 62
13
 10
1443.197
 20
-6377.817
 30
-1705.000
 70
    32
  0
VERTEX
  8
W71LXLIFT
 62
13
 10
1461.946
 20
-6395.319
 30
-1705.000
 70
    32
  0
VERTEX
  8
W71LXLIFT
 62
13
 10
1464.891
 20
-6411.491
 30
-1705.000
 70
    32
  0
VERTEX
  8
W71LXLIFT
 62
13
 10
1445.229
 20
-6396.167
 30
-1705.000
 70
    32
  0
VERTEX
  8
W71LXLIFT
 62
13
 10
1442.894
 20
-6400.568
 30
-1705.000
 70
    32
  0
VERTEX
  8
W71LXLIFT
 62
13
 10
1434.318
 20
-6407.866
 30
-1705.000
 70
    32
  0
VERTEX
  8
W71LXLIFT
 62
13
 10
1429.779
 20
-6410.721
 30
-1705.000
 70
    32
  0
VERTEX
  8
W71LXLIFT
 62
13
 10
1429.301
 20
-6415.292
 30
-1705.000
 70
    32
  0
VERTEX
  8
W71LXLIFT
 62
13
 10
1431.877
 20
-6428.265
 30
-1705.000
 70
    32
  0
VERTEX
  8
W71LXLIFT
 62
13
 10
1430.084
 20
-6435.955
 30
-1705.000
 70
    32
  0
VERTEX
  8
W71LXLIFT
 62
13
 10
1434.675
 20
-6451.259
 30
-1705.000
 70
    32
  0
VERTEX
  8
W71LXLIFT
 62
13
 10
1434.317
 20
-6457.043
 30
-1705.000
 70
    32
  0
VERTEX
  8
W71LXLIFT
 62
13
 10
1420.677
 20
-6461.836
 30
-1705.000
 70
    32
  0
VERTEX
  8
W71LXLIFT
 62
13
 10
1415.706
 20
-6438.684
 30
-1705.000
 70
    32
  0
VERTEX
  8
W71LXLIFT
 62
13
 10
1404.158
 20
-6437.845
 30
-1705.000
 70
    32
  0
VERTEX
  8
W71LXLIFT
 62
13
 10
1389.757
 20
-6426.942
 30
-1705.000
 70
    32
  0
VERTEX
  8
W71LXLIFT
 62
13
 10
1386.417
 20
-6423.080
 30
-1705.000
 70
    32
  0
VERTEX
  8
W71LXLIFT
 62
13
 10
1400.591
 20
-6408.259
 30
-1705.000
 70
    32
  0
VERTEX
  8
W71LXLIFT
 62
13
 10
1416.982
 20
-6386.633
 30
-1705.000
 70
    32
  0
VERTEX
  8
W71LXLIFT
 62
13
 10
1429.332
 20
-6363.168
 30
-1705.000
 70
    32
  0
SEQEND
  8
W71LXLIFT
  0
POLYLINE
  8
W71LXLIFT
 62
1
 66
     1
 70
     9
  0
VERTEX
  8
W71LXLIFT
 62
1
 10
1444.197
 20
-6376.817
 30
-1695.000
 70
    32
  0
VERTEX
  8
W71LXLIFT
 62
1
 10
1462.946
 20
-6394.319
 30
-1695.000
 70
    32
  0
VERTEX
  8
W71LXLIFT
 62
1
 10
1465.891
 20
-6410.491
 30
-1695.000
 70
    32
  0
VERTEX
  8
W71LXLIFT
 62
1
 10
1446.229
 20
-6395.167
 30
-1695.000
 70
    32
  0
VERTEX
  8
W71LXLIFT
 62
1
 10
1443.894
 20
-6399.568
 30
-1695.000
 70
    32
  0
VERTEX
  8
W71LXLIFT
 62
1
 10
1435.318
 20
-6406.866
 30
-1695.000
 70
    32
  0
VERTEX
  8
W71LXLIFT
 62
1
 10
1430.779
 20
-6409.721
 30
-1695.000
 70
    32
  0
VERTEX
  8
W71LXLIFT
 62
1
 10
1430.301
 20
-6414.292
 30
-1695.000
 70
    32
  0
VERTEX
  8
W71LXLIFT
 62
1
 10
1432.877
 20
-6427.265
 30
-1695.000
 70
    32
  0
VERTEX
  8
W71LXLIFT
 62
1
 10
1431.084
 20
-6434.955
 30
-1695.000
 70
    32
  0
VERTEX
  8
W71LXLIFT
 62
1
 10
1435.675
 20
-6450.259
 30
-1695.000
 70
    32
  0
VERTEX
  8
W71LXLIFT
 62
1
 10
1435.317
 20
-6456.043
 30
-1695.000
 70
    32
  0
VERTEX
  8
W71LXLIFT
 62
1
 10
1421.677
 20
-6460.836
 30
-1695.000
 70
    32
  0
VERTEX
  8
W71LXLIFT
 62
1
 10
1416.706
 20
-6437.684
 30
-1695.000
 70
    32
  0
VERTEX
  8
W71LXLIFT
 62
1
 10
1405.158
 20
-6436.845
 30
-1695.000
 70
    32
  0
VERTEX
  8
W71LXLIFT
 62
1
 10
1390.757
 20
-6425.942
 30
-1695.000
 70
    32
  0
VERTEX
  8
W71LXLIFT
 62
1
 10
1387.417
 20
-6422.080
 30
-1695.000
 70
    32
  0
VERTEX
  8
W71LXLIFT
 62
1
 10
1401.591
 20
-6407.259
 30
-1695.000
 70
    32
  0
VERTEX
  8
W71LXLIFT
 62
1
 10
1417.982
 20
-6385.633
 30
-1695.000
 70
    32
  0
VERTEX
  8
W71LXLIFT
 62
1
 10
1430.332
 20
-6362.168
 30
-1695.000
 70
    32
  0
SEQEND
  8
W71LXLIFT
  0
POLYLINE
  8
W71LXLIFT
 62
7
 66
     1
 70
     9
  0
VERTEX
  8
W71LXLIFT
 62
7
 10
1537.179
 20
-6269.094
 30
-1724.000
 70
    32
  0
VERTEX
  8
W71LXLIFT
 62
7
 10
1538.841
 20
-6266.156
 30
-1724.000
 70
    32
  0
VERTEX
  8
W71LXLIFT
 62
7
 10
1558.065
 20
-6254.717
 30
-1724.000
 70
    32
  0
VERTEX
  8
W71LXLIFT
 62
7
 10
1565.515
 20
-6242.277
 30
-1724.000
 70
    32
  0
VERTEX
  8
W71LXLIFT
 62
7
 10
1562.019
 20
-6227.588
 30
-1724.000
 70
    32
  0
VERTEX
  8
W71LXLIFT
 62
7
 10
1558.837
 20
-6218.412
 30
-1724.000
 70
    32
  0
VERTEX
  8
W71LXLIFT
 62
7
 10
1560.443
 20
-6210.316
 30
-1724.000
 70
    32
  0
VERTEX
  8
W71LXLIFT
 62
7
 10
1550.570
 20
-6199.381
 30
-1724.000
 70
    32
  0
VERTEX
  8
W71LXLIFT
 62
7
 10
1529.039
 20
-6198.519
 30
-1724.000
 70
    32
  0
VERTEX
  8
W71LXLIFT
 62
7
 10
1524.173
 20
-6193.597
 30
-1724.000
 70
    32
  0
VERTEX
  8
W71LXLIFT
 62
7
 10
1507.579
 20
-6194.465
 30
-1724.000
 70
    32
  0
VERTEX
  8
W71LXLIFT
 62
7
 10
1495.722
 20
-6185.726
 30
-1724.000
 70
    32
  0
VERTEX
  8
W71LXLIFT
 62
7
 10
1491.060
 20
-6185.421
 30
-1724.000
 70
    32
  0
VERTEX
  8
W71LXLIFT
 62
7
 10
1483.860
 20
-6198.654
 30
-1724.000
 70
    32
  0
VERTEX
  8
W71LXLIFT
 62
7
 10
1497.522
 20
-6211.826
 30
-1724.000
 70
    32
  0
VERTEX
  8
W71LXLIFT
 62
7
 10
1500.907
 20
-6219.338
 30
-1724.000
 70
    32
  0
VERTEX
  8
W71LXLIFT
 62
7
 10
1514.241
 20
-6227.873
 30
-1724.000
 70
    32
  0
VERTEX
  8
W71LXLIFT
 62
7
 10
1520.789
 20
-6241.543
 30
-1724.000
 70
    32
  0
VERTEX
  8
W71LXLIFT
 62
7
 10
1525.783
 20
-6254.713
 30
-1724.000
 70
    32
  0
VERTEX
  8
W71LXLIFT
 62
7
 10
1527.109
 20
-6263.718
 30
-1724.000
 70
    32
  0
SEQEND
  8
W71LXLIFT
  0
POLYLINE
  8
W71LXLIFT
 62
1
 66
     1
 70
     9
  0
VERTEX
  8
W71LXLIFT
 62
1
 10
1528.109
 20
-6262.718
 30
-1713.000
 70
    32
  0
VERTEX
  8
W71LXLIFT
 62
1
 10
1526.783
 20
-6253.713
 30
-1713.000
 70
    32
  0
VERTEX
  8
W71LXLIFT
 62
1
 10
1521.789
 20
-6240.543
 30
-1713.000
 70
    32
  0
VERTEX
  8
W71LXLIFT
 62
1
 10
1515.241
 20
-6226.873
 30
-1713.000
 70
    32
  0
VERTEX
  8
W71LXLIFT
 62
1
 10
1501.907
 20
-6218.338
 30
-1713.000
 70
    32
  0
VERTEX
  8
W71LXLIFT
 62
1
 10
1498.522
 20
-6210.826
 30
-1713.000
 70
    32
  0
VERTEX
  8
W71LXLIFT
 62
1
 10
1484.860
 20
-6197.654
 30
-1713.000
 70
    32
  0
VERTEX
  8
W71LXLIFT
 62
1
 10
1492.060
 20
-6184.421
 30
-1713.000
 70
    32
  0
VERTEX
  8
W71LXLIFT
 62
1
 10
1496.722
 20
-6184.726
 30
-1713.000
 70
    32
  0
VERTEX
  8
W71LXLIFT
 62
1
 10
1508.579
 20
-6193.465
 30
-1713.000
 70
    32
  0
VERTEX
  8
W71LXLIFT
 62
1
 10
1525.173
 20
-6192.597
 30
-1713.000
 70
    32
  0
VERTEX
  8
W71LXLIFT
 62
1
 10
1530.039
 20
-6197.519
 30
-1713.000
 70
    32
  0
VERTEX
  8
W71LXLIFT
 62
1
 10
1551.570
 20
-6198.381
 30
-1713.000
 70
    32
  0
VERTEX
  8
W71LXLIFT
 62
1
 10
1561.443
 20
-6209.316
 30
-1713.000
 70
    32
  0
VERTEX
  8
W71LXLIFT
 62
1
 10
1559.837
 20
-6217.412
 30
-1713.000
 70
    32
  0
VERTEX
  8
W71LXLIFT
 62
1
 10
1563.019
 20
-6226.588
 30
-1713.000
 70
    32
  0
VERTEX
  8
W71LXLIFT
 62
1
 10
1566.515
 20
-6241.277
 30
-1713.000
 70
    32
  0
VERTEX
  8
W71LXLIFT
 62
1
 10
1559.065
 20
-6253.717
 30
-1713.000
 70
    32
  0
VERTEX
  8
W71LXLIFT
 62
1
 10
1539.841
 20
-6265.156
 30
-1713.000
 70
    32
  0
VERTEX
  8
W71LXLIFT
 62
1
 10
1538.179
 20
-6268.094
 30
-1713.000
 70
    32
  0
SEQEND
  8
W71LXLIFT
  0
POLYLINE
  8
W71LXLIFT
 62
11
 66
     1
 70
     9
  0
VERTEX
  8
W71LXLIFT
 62
11
 10
1690.198
 20
-6633.619
 30
-1704.000
 70
    32
  0
VERTEX
  8
W71LXLIFT
 62
11
 10
1689.126
 20
-6627.356
 30
-1704.000
 70
    32
  0
VERTEX
  8
W71LXLIFT
 62
11
 10
1688.314
 20
-6604.114
 30
-1704.000
 70
    32
  0
VERTEX
  8
W71LXLIFT
 62
11
 10
1682.715
 20
-6582.933
 30
-1704.000
 70
    32
  0
VERTEX
  8
W71LXLIFT
 62
11
 10
1682.675
 20
-6580.038
 30
-1704.000
 70
    32
  0
VERTEX
  8
W71LXLIFT
 62
11
 10
1667.910
 20
-6556.075
 30
-1704.000
 70
    32
  0
VERTEX
  8
W71LXLIFT
 62
11
 10
1667.968
 20
-6540.760
 30
-1704.000
 70
    32
  0
VERTEX
  8
W71LXLIFT
 62
11
 10
1660.358
 20
-6529.810
 30
-1704.000
 70
    32
  0
VERTEX
  8
W71LXLIFT
 62
11
 10
1666.780
 20
-6511.616
 30
-1704.000
 70
    32
  0
VERTEX
  8
W71LXLIFT
 62
11
 10
1648.398
 20
-6505.981
 30
-1704.000
 70
    32
  0
VERTEX
  8
W71LXLIFT
 62
11
 10
1637.190
 20
-6510.095
 30
-1704.000
 70
    32
  0
VERTEX
  8
W71LXLIFT
 62
11
 10
1628.556
 20
-6520.901
 30
-1704.000
 70
    32
  0
VERTEX
  8
W71LXLIFT
 62
11
 10
1639.995
 20
-6540.125
 30
-1704.000
 70
    32
  0
VERTEX
  8
W71LXLIFT
 62
11
 10
1638.668
 20
-6542.928
 30
-1704.000
 70
    32
  0
VERTEX
  8
W71LXLIFT
 62
11
 10
1620.330
 20
-6534.661
 30
-1704.000
 70
    32
  0
VERTEX
  8
W71LXLIFT
 62
11
 10
1618.398
 20
-6521.980
 30
-1704.000
 70
    32
  0
VERTEX
  8
W71LXLIFT
 62
11
 10
1600.872
 20
-6520.815
 30
-1704.000
 70
    32
  0
VERTEX
  8
W71LXLIFT
 62
11
 10
1578.071
 20
-6478.737
 30
-1704.000
 70
    32
  0
VERTEX
  8
W71LXLIFT
 62
11
 10
1584.008
 20
-6461.220
 30
-1704.000
 70
    32
  0
VERTEX
  8
W71LXLIFT
 62
11
 10
1593.060
 20
-6454.877
 30
-1704.000
 70
    32
  0
VERTEX
  8
W71LXLIFT
 62
11
 10
1588.000
 20
-6442.513
 30
-1704.000
 70
    32
  0
VERTEX
  8
W71LXLIFT
 62
11
 10
1578.031
 20
-6430.998
 30
-1704.000
 70
    32
  0
VERTEX
  8
W71LXLIFT
 62
11
 10
1550.980
 20
-6448.976
 30
-1704.000
 70
    32
  0
VERTEX
  8
W71LXLIFT
 62
11
 10
1542.662
 20
-6452.295
 30
-1704.000
 70
    32
  0
VERTEX
  8
W71LXLIFT
 62
11
 10
1550.498
 20
-6485.829
 30
-1704.000
 70
    32
  0
VERTEX
  8
W71LXLIFT
 62
11
 10
1552.356
 20
-6519.036
 30
-1704.000
 70
    32
  0
VERTEX
  8
W71LXLIFT
 62
11
 10
1568.528
 20
-6523.565
 30
-1704.000
 70
    32
  0
VERTEX
  8
W71LXLIFT
 62
11
 10
1572.808
 20
-6524.688
 30
-1704.000
 70
    32
  0
VERTEX
  8
W71LXLIFT
 62
11
 10
1576.490
 20
-6524.836
 30
-1704.000
 70
    32
  0
VERTEX
  8
W71LXLIFT
 62
11
 10
1585.689
 20
-6534.093
 30
-1704.000
 70
    32
  0
VERTEX
  8
W71LXLIFT
 62
11
 10
1598.223
 20
-6538.983
 30
-1704.000
 70
    32
  0
VERTEX
  8
W71LXLIFT
 62
11
 10
1608.488
 20
-6543.134
 30
-1704.000
 70
    32
  0
VERTEX
  8
W71LXLIFT
 62
11
 10
1625.000
 20
-6552.616
 30
-1704.000
 70
    32
  0
VERTEX
  8
W71LXLIFT
 62
11
 10
1644.684
 20
-6562.290
 30
-1704.000
 70
    32
  0
VERTEX
  8
W71LXLIFT
 62
11
 10
1650.813
 20
-6583.304
 30
-1704.000
 70
    32
  0
VERTEX
  8
W71LXLIFT
 62
11
 10
1653.370
 20
-6596.399
 30
-1704.000
 70
    32
  0
VERTEX
  8
W71LXLIFT
 62
11
 10
1649.730
 20
-6597.953
 30
-1704.000
 70
    32
  0
VERTEX
  8
W71LXLIFT
 62
11
 10
1652.253
 20
-6604.574
 30
-1704.000
 70
    32
  0
VERTEX
  8
W71LXLIFT
 62
11
 10
1661.082
 20
-6611.824
 30
-1704.000
 70
    32
  0
VERTEX
  8
W71LXLIFT
 62
11
 10
1667.274
 20
-6625.751
 30
-1704.000
 70
    32
  0
VERTEX
  8
W71LXLIFT
 62
11
 10
1676.753
 20
-6637.188
 30
-1704.000
 70
    32
  0
SEQEND
  8
W71LXLIFT
  0
POLYLINE
  8
W71LXLIFT
 62
1
 66
     1
 70
     9
  0
VERTEX
  8
W71LXLIFT
 62
1
 10
1677.753
 20
-6636.188
 30
-1693.000
 70
    32
  0
VERTEX
  8
W71LXLIFT
 62
1
 10
1668.274
 20
-6624.751
 30
-1693.000
 70
    32
  0
VERTEX
  8
W71LXLIFT
 62
1
 10
1662.082
 20
-6610.824
 30
-1693.000
 70
    32
  0
VERTEX
  8
W71LXLIFT
 62
1
 10
1653.253
 20
-6603.574
 30
-1693.000
 70
    32
  0
VERTEX
  8
W71LXLIFT
 62
1
 10
1650.730
 20
-6596.953
 30
-1693.000
 70
    32
  0
VERTEX
  8
W71LXLIFT
 62
1
 10
1654.370
 20
-6595.399
 30
-1693.000
 70
    32
  0
VERTEX
  8
W71LXLIFT
 62
1
 10
1651.813
 20
-6582.304
 30
-1693.000
 70
    32
  0
VERTEX
  8
W71LXLIFT
 62
1
 10
1645.684
 20
-6561.290
 30
-1693.000
 70
    32
  0
VERTEX
  8
W71LXLIFT
 62
1
 10
1626.000
 20
-6551.616
 30
-1693.000
 70
    32
  0
VERTEX
  8
W71LXLIFT
 62
1
 10
1609.488
 20
-6542.134
 30
-1693.000
 70
    32
  0
VERTEX
  8
W71LXLIFT
 62
1
 10
1599.223
 20
-6537.983
 30
-1693.000
 70
    32
  0
VERTEX
  8
W71LXLIFT
 62
1
 10
1586.689
 20
-6533.093
 30
-1693.000
 70
    32
  0
VERTEX
  8
W71LXLIFT
 62
1
 10
1577.490
 20
-6523.836
 30
-1693.000
 70
    32
  0
VERTEX
  8
W71LXLIFT
 62
1
 10
1573.808
 20
-6523.688
 30
-1693.000
 70
    32
  0
VERTEX
  8
W71LXLIFT
 62
1
 10
1569.528
 20
-6522.565
 30
-1693.000
 70
    32
  0
VERTEX
  8
W71LXLIFT
 62
1
 10
1553.356
 20
-6518.036
 30
-1693.000
 70
    32
  0
VERTEX
  8
W71LXLIFT
 62
1
 10
1551.498
 20
-6484.829
 30
-1693.000
 70
    32
  0
VERTEX
  8
W71LXLIFT
 62
1
 10
1543.662
 20
-6451.295
 30
-1693.000
 70
    32
  0
VERTEX
  8
W71LXLIFT
 62
1
 10
1551.980
 20
-6447.976
 30
-1693.000
 70
    32
  0
VERTEX
  8
W71LXLIFT
 62
1
 10
1579.031
 20
-6429.998
 30
-1693.000
 70
    32
  0
VERTEX
  8
W71LXLIFT
 62
1
 10
1589.000
 20
-6441.513
 30
-1693.000
 70
    32
  0
VERTEX
  8
W71LXLIFT
 62
1
 10
1594.060
 20
-6453.877
 30
-1693.000
 70
    32
  0
VERTEX
  8
W71LXLIFT
 62
1
 10
1585.008
 20
-6460.220
 30
-1693.000
 70
    32
  0
VERTEX
  8
W71LXLIFT
 62
1
 10
1579.071
 20
-6477.737
 30
-1693.000
 70
    32
  0
VERTEX
  8
W71LXLIFT
 62
1
 10
1601.872
 20
-6519.815
 30
-1693.000
 70
    32
  0
VERTEX
  8
W71LXLIFT
 62
1
 10
1619.398
 20
-6520.980
 30
-1693.000
 70
    32
  0
VERTEX
  8
W71LXLIFT
 62
1
 10
1621.330
 20
-6533.661
 30
-1693.000
 70
    32
  0
VERTEX
  8
W71LXLIFT
 62
1
 10
1639.668
 20
-6541.928
 30
-1693.000
 70
    32
  0
VERTEX
  8
W71LXLIFT
 62
1
 10
1640.995
 20
-6539.125
 30
-1693.000
 70
    32
  0
VERTEX
  8
W71LXLIFT
 62
1
 10
1629.556
 20
-6519.901
 30
-1693.000
 70
    32
  0
VERTEX
  8
W71LXLIFT
 62
1
 10
1638.190
 20
-6509.095
 30
-1693.000
 70
    32
  0
VERTEX
  8
W71LXLIFT
 62
1
 10
1649.398
 20
-6504.981
 30
-1693.000
 70
    32
  0
VERTEX
  8
W71LXLIFT
 62
1
 10
1667.780
 20
-6510.616
 30
-1693.000
 70
    32
  0
VERTEX
  8
W71LXLIFT
 62
1
 10
1661.358
 20
-6528.810
 30
-1693.000
 70
    32
  0
VERTEX
  8
W71LXLIFT
 62
1
 10
1668.968
 20
-6539.760
 30
-1693.000
 70
    32
  0
VERTEX
  8
W71LXLIFT
 62
1
 10
1668.910
 20
-6555.075
 30
-1693.000
 70
    32
  0
VERTEX
  8
W71LXLIFT
 62
1
 10
1683.675
 20
-6579.038
 30
-1693.000
 70
    32
  0
VERTEX
  8
W71LXLIFT
 62
1
 10
1683.715
 20
-6581.933
 30
-1693.000
 70
    32
  0
VERTEX
  8
W71LXLIFT
 62
1
 10
1689.314
 20
-6603.114
 30
-1693.000
 70
    32
  0
VERTEX
  8
W71LXLIFT
 62
1
 10
1690.126
 20
-6626.356
 30
-1693.000
 70
    32
  0
VERTEX
  8
W71LXLIFT
 62
1
 10
1691.198
 20
-6632.619
 30
-1693.000
 70
    32
  0
SEQEND
  8
W71LXLIFT
  0
POLYLINE
  8
W71LXLIFT
 62
5
 66
     1
 70
     9
  0
VERTEX
  8
W71LXLIFT
 62
5
 10
1523.502
 20
-6657.697
 30
-1660.000
 70
    32
  0
VERTEX
  8
W71LXLIFT
 62
5
 10
1525.571
 20
-6665.147
 30
-1660.000
 70
    32
  0
VERTEX
  8
W71LXLIFT
 62
5
 10
1537.924
 20
-6664.686
 30
-1660.000
 70
    32
  0
VERTEX
  8
W71LXLIFT
 62
5
 10
1537.700
 20
-6663.810
 30
-1660.000
 70
    32
  0
VERTEX
  8
W71LXLIFT
 62
5
 10
1537.145
 20
-6659.252
 30
-1660.000
 70
    32
  0
VERTEX
  8
W71LXLIFT
 62
5
 10
1536.348
 20
-6642.777
 30
-1660.000
 70
    32
  0
VERTEX
  8
W71LXLIFT
 62
5
 10
1540.331
 20
-6632.634
 30
-1660.000
 70
    32
  0
VERTEX
  8
W71LXLIFT
 62
5
 10
1523.322
 20
-6602.175
 30
-1660.000
 70
    32
  0
VERTEX
  8
W71LXLIFT
 62
5
 10
1513.921
 20
-6602.847
 30
-1660.000
 70
    32
  0
VERTEX
  8
W71LXLIFT
 62
5
 10
1509.450
 20
-6599.951
 30
-1660.000
 70
    32
  0
VERTEX
  8
W71LXLIFT
 62
5
 10
1499.189
 20
-6588.527
 30
-1660.000
 70
    32
  0
VERTEX
  8
W71LXLIFT
 62
5
 10
1489.050
 20
-6586.164
 30
-1660.000
 70
    32
  0
VERTEX
  8
W71LXLIFT
 62
5
 10
1478.015
 20
-6573.462
 30
-1660.000
 70
    32
  0
VERTEX
  8
W71LXLIFT
 62
5
 10
1458.470
 20
-6558.306
 30
-1660.000
 70
    32
  0
VERTEX
  8
W71LXLIFT
 62
5
 10
1444.182
 20
-6554.757
 30
-1660.000
 70
    32
  0
VERTEX
  8
W71LXLIFT
 62
5
 10
1431.813
 20
-6544.401
 30
-1660.000
 70
    32
  0
VERTEX
  8
W71LXLIFT
 62
5
 10
1423.251
 20
-6531.357
 30
-1660.000
 70
    32
  0
VERTEX
  8
W71LXLIFT
 62
5
 10
1426.474
 20
-6516.887
 30
-1660.000
 70
    32
  0
VERTEX
  8
W71LXLIFT
 62
5
 10
1428.789
 20
-6506.705
 30
-1660.000
 70
    32
  0
VERTEX
  8
W71LXLIFT
 62
5
 10
1412.937
 20
-6497.257
 30
-1660.000
 70
    32
  0
VERTEX
  8
W71LXLIFT
 62
5
 10
1409.768
 20
-6486.244
 30
-1660.000
 70
    32
  0
VERTEX
  8
W71LXLIFT
 62
5
 10
1404.693
 20
-6478.391
 30
-1660.000
 70
    32
  0
VERTEX
  8
W71LXLIFT
 62
5
 10
1395.775
 20
-6479.062
 30
-1660.000
 70
    32
  0
VERTEX
  8
W71LXLIFT
 62
5
 10
1391.651
 20
-6483.858
 30
-1660.000
 70
    32
  0
VERTEX
  8
W71LXLIFT
 62
5
 10
1392.757
 20
-6507.406
 30
-1660.000
 70
    32
  0
VERTEX
  8
W71LXLIFT
 62
5
 10
1398.534
 20
-6519.540
 30
-1660.000
 70
    32
  0
VERTEX
  8
W71LXLIFT
 62
5
 10
1396.240
 20
-6527.430
 30
-1660.000
 70
    32
  0
VERTEX
  8
W71LXLIFT
 62
5
 10
1400.856
 20
-6540.296
 30
-1660.000
 70
    32
  0
VERTEX
  8
W71LXLIFT
 62
5
 10
1420.856
 20
-6555.021
 30
-1660.000
 70
    32
  0
VERTEX
  8
W71LXLIFT
 62
5
 10
1428.198
 20
-6573.195
 30
-1660.000
 70
    32
  0
VERTEX
  8
W71LXLIFT
 62
5
 10
1437.304
 20
-6584.334
 30
-1660.000
 70
    32
  0
VERTEX
  8
W71LXLIFT
 62
5
 10
1446.487
 20
-6586.278
 30
-1660.000
 70
    32
  0
VERTEX
  8
W71LXLIFT
 62
5
 10
1467.328
 20
-6591.343
 30
-1660.000
 70
    32
  0
VERTEX
  8
W71LXLIFT
 62
5
 10
1469.476
 20
-6591.800
 30
-1660.000
 70
    32
  0
VERTEX
  8
W71LXLIFT
 62
5
 10
1478.914
 20
-6599.890
 30
-1660.000
 70
    32
  0
VERTEX
  8
W71LXLIFT
 62
5
 10
1505.785
 20
-6621.156
 30
-1660.000
 70
    32
  0
VERTEX
  8
W71LXLIFT
 62
5
 10
1523.356
 20
-6645.959
 30
-1660.000
 70
    32
  0
VERTEX
  8
W71LXLIFT
 62
5
 10
1523.857
 20
-6654.048
 30
-1660.000
 70
    32
  0
VERTEX
  8
W71LXLIFT
 62
5
 10
1523.413
 20
-6656.642
 30
-1660.000
 70
    32
  0
SEQEND
  8
W71LXLIFT
  0
POLYLINE
  8
W71LXLIFT
 62
5
 66
     1
 70
     9
  0
VERTEX
  8
W71LXLIFT
 62
5
 10
2172.220
 20
-8294.862
 30
-1663.000
 70
    32
  0
VERTEX
  8
W71LXLIFT
 62
5
 10
2173.967
 20
-8312.830
 30
-1663.000
 70
    32
  0
VERTEX
  8
W71LXLIFT
 62
5
 10
2171.577
 20
-8340.715
 30
-1663.000
 70
    32
  0
VERTEX
  8
W71LXLIFT
 62
5
 10
2169.100
 20
-8362.885
 30
-1663.000
 70
    32
  0
VERTEX
  8
W71LXLIFT
 62
5
 10
2168.103
 20
-8379.847
 30
-1663.000
 70
    32
  0
VERTEX
  8
W71LXLIFT
 62
5
 10
2170.332
 20
-8396.404
 30
-1663.000
 70
    32
  0
VERTEX
  8
W71LXLIFT
 62
5
 10
2159.603
 20
-8396.953
 30
-1663.000
 70
    32
  0
VERTEX
  8
W71LXLIFT
 62
5
 10
2159.088
 20
-8385.172
 30
-1663.000
 70
    32
  0
VERTEX
  8
W71LXLIFT
 62
5
 10
2155.578
 20
-8379.294
 30
-1663.000
 70
    32
  0
VERTEX
  8
W71LXLIFT
 62
5
 10
2159.802
 20
-8364.168
 30
-1663.000
 70
    32
  0
VERTEX
  8
W71LXLIFT
 62
5
 10
2159.802
 20
-8364.168
 30
-1663.000
 70
    32
  0
VERTEX
  8
W71LXLIFT
 62
5
 10
2158.351
 20
-8346.862
 30
-1663.000
 70
    32
  0
VERTEX
  8
W71LXLIFT
 62
5
 10
2158.351
 20
-8346.862
 30
-1663.000
 70
    32
  0
VERTEX
  8
W71LXLIFT
 62
5
 10
2155.204
 20
-8342.053
 30
-1663.000
 70
    32
  0
VERTEX
  8
W71LXLIFT
 62
5
 10
2160.333
 20
-8325.230
 30
-1663.000
 70
    32
  0
VERTEX
  8
W71LXLIFT
 62
5
 10
2162.792
 20
-8303.366
 30
-1663.000
 70
    32
  0
SEQEND
  8
W71LXLIFT
  0
POLYLINE
  8
W71LXLIFT
 62
5
 66
     1
 70
     9
  0
VERTEX
  8
W71LXLIFT
 62
5
 10
1581.187
 20
-6788.747
 30
-1720.157
 70
    32
  0
VERTEX
  8
W71LXLIFT
 62
5
 10
1583.766
 20
-6785.883
 30
-1720.157
 70
    32
  0
VERTEX
  8
W71LXLIFT
 62
5
 10
1590.578
 20
-6776.305
 30
-1720.157
 70
    32
  0
VERTEX
  8
W71LXLIFT
 62
5
 10
1595.257
 20
-6769.727
 30
-1720.157
 70
    32
  0
VERTEX
  8
W71LXLIFT
 62
5
 10
1588.377
 20
-6764.834
 30
-1720.157
 70
    32
  0
VERTEX
  8
W71LXLIFT
 62
5
 10
1581.107
 20
-6762.117
 30
-1720.157
 70
    32
  0
VERTEX
  8
W71LXLIFT
 62
5
 10
1579.506
 20
-6761.518
 30
-1720.157
 70
    32
  0
VERTEX
  8
W71LXLIFT
 62
5
 10
1578.609
 20
-6756.675
 30
-1720.157
 70
    32
  0
VERTEX
  8
W71LXLIFT
 62
5
 10
1577.874
 20
-6752.705
 30
-1720.157
 70
    32
  0
VERTEX
  8
W71LXLIFT
 62
5
 10
1577.633
 20
-6751.401
 30
-1720.157
 70
    32
  0
VERTEX
  8
W71LXLIFT
 62
5
 10
1568.273
 20
-6749.894
 30
-1720.157
 70
    32
  0
VERTEX
  8
W71LXLIFT
 62
5
 10
1563.292
 20
-6744.017
 30
-1720.157
 70
    32
  0
VERTEX
  8
W71LXLIFT
 62
5
 10
1562.638
 20
-6744.460
 30
-1720.157
 70
    32
  0
VERTEX
  8
W71LXLIFT
 62
5
 10
1553.164
 20
-6750.879
 30
-1720.157
 70
    32
  0
VERTEX
  8
W71LXLIFT
 62
5
 10
1556.287
 20
-6755.984
 30
-1720.157
 70
    32
  0
VERTEX
  8
W71LXLIFT
 62
5
 10
1557.321
 20
-6757.673
 30
-1720.157
 70
    32
  0
VERTEX
  8
W71LXLIFT
 62
5
 10
1561.346
 20
-6764.252
 30
-1720.157
 70
    32
  0
VERTEX
  8
W71LXLIFT
 62
5
 10
1564.521
 20
-6772.526
 30
-1720.157
 70
    32
  0
VERTEX
  8
W71LXLIFT
 62
5
 10
1564.998
 20
-6773.768
 30
-1720.157
 70
    32
  0
VERTEX
  8
W71LXLIFT
 62
5
 10
1565.706
 20
-6776.416
 30
-1720.157
 70
    32
  0
VERTEX
  8
W71LXLIFT
 62
5
 10
1568.206
 20
-6785.762
 30
-1719.613
 70
    32
  0
SEQEND
  8
W71LXLIFT
  0
POLYLINE
  8
W71LXLIFT
 62
5
 66
     1
 70
     9
  0
VERTEX
  8
W71LXLIFT
 62
5
 10
1396.008
 20
-6524.638
 30
-1805.587
 70
    32
  0
VERTEX
  8
W71LXLIFT
 62
5
 10
1396.310
 20
-6518.640
 30
-1805.593
 70
    32
  0
VERTEX
  8
W71LXLIFT
 62
5
 10
1397.380
 20
-6514.938
 30
-1805.599
 70
    32
  0
VERTEX
  8
W71LXLIFT
 62
5
 10
1397.207
 20
-6509.085
 30
-1805.605
 70
    32
  0
VERTEX
  8
W71LXLIFT
 62
5
 10
1398.238
 20
-6505.278
 30
-1805.614
 70
    32
  0
VERTEX
  8
W71LXLIFT
 62
5
 10
1383.325
 20
-6500.431
 30
-1805.596
 70
    32
  0
VERTEX
  8
W71LXLIFT
 62
5
 10
1377.578
 20
-6494.602
 30
-1805.590
 70
    32
  0
VERTEX
  8
W71LXLIFT
 62
5
 10
1370.361
 20
-6484.616
 30
-1805.585
 70
    32
  0
VERTEX
  8
W71LXLIFT
 62
5
 10
1360.349
 20
-6491.322
 30
-1805.585
 70
    32
  0
VERTEX
  8
W71LXLIFT
 62
5
 10
1366.381
 20
-6499.984
 30
-1805.577
 70
    32
  0
VERTEX
  8
W71LXLIFT
 62
5
 10
1371.864
 20
-6510.242
 30
-1805.574
 70
    32
  0
VERTEX
  8
W71LXLIFT
 62
5
 10
1358.536
 20
-6533.719
 30
-1805.559
 70
    32
  0
VERTEX
  8
W71LXLIFT
 62
5
 10
1362.540
 20
-6533.998
 30
-1805.556
 70
    32
  0
VERTEX
  8
W71LXLIFT
 62
5
 10
1369.717
 20
-6537.507
 30
-1805.551
 70
    32
  0
VERTEX
  8
W71LXLIFT
 62
5
 10
1382.364
 20
-6532.199
 30
-1805.548
 70
    32
  0
VERTEX
  8
W71LXLIFT
 62
5
 10
1388.095
 20
-6530.570
 30
-1805.556
 70
    32
  0
VERTEX
  8
W71LXLIFT
 62
5
 10
1389.986
 20
-6531.872
 30
-1805.561
 70
    32
  0
SEQEND
  8
W71LXLIFT
  0
POINT
  8
W71LXLIFT
 62
1
 10
2083.941
 20
-7891.961
 30
-1723.000
  0
POINT
  8
W71LXLIFT
 62
1
 10
2102.337
 20
-7916.738
 30
-1799.000
  0
LINE
  8
W71LXLIFT
 62
3
 10
2083.941
 20
-7891.961
 30
-1723.000
 11
2102.337
 21
-7916.738
 31
-1799.000
  0
POINT
  8
W71LXLIFT
 62
1
 10
1569.136
 20
-6808.095
 30
-1680.348
  0
POINT
  8
W71LXLIFT
 62
1
 10
1977.741
 20
-6970.533
 30
-1830.000
  0
POINT
  8
W71LXLIFT
 62
1
 10
1844.300
 20
-6838.878
 30
-2005.000
  0
POINT
  8
W71LXLIFT
 62
1
 10
1799.247
 20
-6866.162
 30
-2005.000
  0
POINT
  8
W71LXLIFT
 62
1
 10
1762.851
 20
-6842.119
 30
-1827.716
  0
LINE
  8
W71LXLIFT
 62
13
 10
1762.851
 20
-6842.119
 30
-1827.716
 11
1799.247
 21
-6866.162
 31
-2005.000
  0
LINE
  8
W71LXLIFT
 62
13
 10
1763.118
 20
-6842.295
 30
-1829.016
 11
1844.300
 21
-6838.878
 31
-2005.000
  0
POINT
  8
W71LXLIFT
 62
1
 10
1992.324
 20
-6942.817
 30
-1968.920
  0
LINE
  8
W71LXLIFT
 62
7
 10
1977.741
 20
-6970.533
 30
-1830.000
 11
1992.324
 21
-6942.817
 31
-1968.920
  0
POLYLINE
  8
W71LXLIFT
 62
6
 66
     1
 70
     9
  0
VERTEX
  8
W71LXLIFT
 62
6
 10
1574.388
 20
-6701.209
 30
-1824.278
 70
    32
  0
VERTEX
  8
W71LXLIFT
 62
6
 10
1583.065
 20
-6719.306
 30
-1824.333
 70
    32
  0
VERTEX
  8
W71LXLIFT
 62
6
 10
1590.998
 20
-6725.172
 30
-1824.482
 70
    32
  0
VERTEX
  8
W71LXLIFT
 62
6
 10
1599.231
 20
-6739.403
 30
-1824.561
 70
    32
  0
VERTEX
  8
W71LXLIFT
 62
6
 10
1616.280
 20
-6741.138
 30
-1824.981
 70
    32
  0
VERTEX
  8
W71LXLIFT
 62
6
 10
1622.928
 20
-6743.965
 30
-1825.125
 70
    32
  0
VERTEX
  8
W71LXLIFT
 62
6
 10
1627.626
 20
-6743.805
 30
-1825.246
 70
    32
  0
VERTEX
  8
W71LXLIFT
 62
6
 10
1629.037
 20
-6736.952
 30
-1825.345
 70
    32
  0
VERTEX
  8
W71LXLIFT
 62
6
 10
1643.536
 20
-6730.110
 30
-1825.778
 70
    32
  0
VERTEX
  8
W71LXLIFT
 62
6
 10
1643.871
 20
-6713.154
 30
-1825.942
 70
    32
  0
VERTEX
  8
W71LXLIFT
 62
6
 10
1642.390
 20
-6703.398
 30
-1825.994
 70
    32
  0
VERTEX
  8
W71LXLIFT
 62
6
 10
1668.983
 20
-6703.600
 30
-1826.671
 70
    32
  0
VERTEX
  8
W71LXLIFT
 62
6
 10
1676.372
 20
-6709.577
 30
-1826.804
 70
    32
  0
VERTEX
  8
W71LXLIFT
 62
6
 10
1690.607
 20
-6741.052
 30
-1826.879
 70
    32
  0
VERTEX
  8
W71LXLIFT
 62
6
 10
1688.618
 20
-6762.182
 30
-1826.634
 70
    32
  0
VERTEX
  8
W71LXLIFT
 62
6
 10
1723.526
 20
-6751.176
 30
-1827.627
 70
    32
  0
VERTEX
  8
W71LXLIFT
 62
6
 10
1722.586
 20
-6746.328
 30
-1827.647
 70
    32
  0
VERTEX
  8
W71LXLIFT
 62
6
 10
1718.663
 20
-6735.518
 30
-1827.646
 70
    32
  0
VERTEX
  8
W71LXLIFT
 62
6
 10
1715.425
 20
-6718.349
 30
-1827.721
 70
    32
  0
VERTEX
  8
W71LXLIFT
 62
6
 10
1707.709
 20
-6705.594
 30
-1827.641
 70
    32
  0
VERTEX
  8
W71LXLIFT
 62
6
 10
1704.449
 20
-6691.482
 30
-1827.687
 70
    32
  0
VERTEX
  8
W71LXLIFT
 62
6
 10
1703.551
 20
-6681.333
 30
-1827.757
 70
    32
  0
VERTEX
  8
W71LXLIFT
 62
6
 10
1699.809
 20
-6679.720
 30
-1827.677
 70
    32
  0
VERTEX
  8
W71LXLIFT
 62
6
 10
1698.370
 20
-6679.100
 30
-1827.646
 70
    32
  0
VERTEX
  8
W71LXLIFT
 62
6
 10
1696.545
 20
-6677.188
 30
-1827.616
 70
    32
  0
VERTEX
  8
W71LXLIFT
 62
6
 10
1693.089
 20
-6673.568
 30
-1827.561
 70
    32
  0
VERTEX
  8
W71LXLIFT
 62
6
 10
1689.821
 20
-6670.146
 30
-1827.509
 70
    32
  0
VERTEX
  8
W71LXLIFT
 62
6
 10
1680.452
 20
-6650.159
 30
-1827.454
 70
    32
  0
VERTEX
  8
W71LXLIFT
 62
6
 10
1668.124
 20
-6642.590
 30
-1827.208
 70
    32
  0
VERTEX
  8
W71LXLIFT
 62
6
 10
1656.863
 20
-6646.692
 30
-1827.014
 70
    32
  0
VERTEX
  8
W71LXLIFT
 62
6
 10
1665.937
 20
-6668.305
 30
-1826.917
 70
    32
  0
VERTEX
  8
W71LXLIFT
 62
6
 10
1659.727
 20
-6670.178
 30
-1826.741
 70
    32
  0
VERTEX
  8
W71LXLIFT
 62
6
 10
1628.527
 20
-6669.368
 30
-1825.952
 70
    32
  0
VERTEX
  8
W71LXLIFT
 62
6
 10
1618.611
 20
-6676.382
 30
-1825.634
 70
    32
  0
VERTEX
  8
W71LXLIFT
 62
6
 10
1612.038
 20
-6678.502
 30
-1825.447
 70
    32
  0
VERTEX
  8
W71LXLIFT
 62
6
 10
1598.513
 20
-6679.298
 30
-1825.094
 70
    32
  0
VERTEX
  8
W71LXLIFT
 62
6
 10
1589.770
 20
-6679.813
 30
-1824.867
 70
    32
  0
VERTEX
  8
W71LXLIFT
 62
6
 10
1585.628
 20
-6679.500
 30
-1824.783
 70
    32
  0
VERTEX
  8
W71LXLIFT
 62
6
 10
1575.107
 20
-6678.706
 30
-1824.570
 70
    32
  0
SEQEND
  8
W71LXLIFT
  0
POLYLINE
  8
W71LXLIFT
 62
1
 66
     1
 70
     9
  0
VERTEX
  8
W71LXLIFT
 62
1
 10
1575.388
 20
-6700.209
 30
-1814.278
 70
    32
  0
VERTEX
  8
W71LXLIFT
 62
1
 10
1584.065
 20
-6718.306
 30
-1814.333
 70
    32
  0
VERTEX
  8
W71LXLIFT
 62
1
 10
1591.998
 20
-6724.172
 30
-1814.482
 70
    32
  0
VERTEX
  8
W71LXLIFT
 62
1
 10
1600.231
 20
-6738.403
 30
-1814.561
 70
    32
  0
VERTEX
  8
W71LXLIFT
 62
1
 10
1617.280
 20
-6740.138
 30
-1814.981
 70
    32
  0
VERTEX
  8
W71LXLIFT
 62
1
 10
1623.928
 20
-6742.965
 30
-1815.125
 70
    32
  0
VERTEX
  8
W71LXLIFT
 62
1
 10
1628.626
 20
-6742.805
 30
-1815.246
 70
    32
  0
VERTEX
  8
W71LXLIFT
 62
1
 10
1630.037
 20
-6735.952
 30
-1815.345
 70
    32
  0
VERTEX
  8
W71LXLIFT
 62
1
 10
1644.536
 20
-6729.110
 30
-1815.778
 70
    32
  0
VERTEX
  8
W71LXLIFT
 62
1
 10
1644.871
 20
-6712.154
 30
-1815.942
 70
    32
  0
VERTEX
  8
W71LXLIFT
 62
1
 10
1643.390
 20
-6702.398
 30
-1815.994
 70
    32
  0
VERTEX
  8
W71LXLIFT
 62
1
 10
1669.983
 20
-6702.600
 30
-1816.671
 70
    32
  0
VERTEX
  8
W71LXLIFT
 62
1
 10
1677.372
 20
-6708.577
 30
-1816.804
 70
    32
  0
VERTEX
  8
W71LXLIFT
 62
1
 10
1691.607
 20
-6740.052
 30
-1816.879
 70
    32
  0
VERTEX
  8
W71LXLIFT
 62
1
 10
1689.618
 20
-6761.182
 30
-1816.634
 70
    32
  0
VERTEX
  8
W71LXLIFT
 62
1
 10
1724.526
 20
-6750.176
 30
-1817.627
 70
    32
  0
VERTEX
  8
W71LXLIFT
 62
1
 10
1723.586
 20
-6745.328
 30
-1817.647
 70
    32
  0
VERTEX
  8
W71LXLIFT
 62
1
 10
1719.663
 20
-6734.518
 30
-1817.646
 70
    32
  0
VERTEX
  8
W71LXLIFT
 62
1
 10
1716.425
 20
-6717.349
 30
-1817.721
 70
    32
  0
VERTEX
  8
W71LXLIFT
 62
1
 10
1708.709
 20
-6704.594
 30
-1817.641
 70
    32
  0
VERTEX
  8
W71LXLIFT
 62
1
 10
1705.449
 20
-6690.482
 30
-1817.687
 70
    32
  0
VERTEX
  8
W71LXLIFT
 62
1
 10
1704.551
 20
-6680.333
 30
-1817.757
 70
    32
  0
VERTEX
  8
W71LXLIFT
 62
1
 10
1700.809
 20
-6678.720
 30
-1817.677
 70
    32
  0
VERTEX
  8
W71LXLIFT
 62
1
 10
1699.370
 20
-6678.100
 30
-1817.646
 70
    32
  0
VERTEX
  8
W71LXLIFT
 62
1
 10
1697.545
 20
-6676.188
 30
-1817.616
 70
    32
  0
VERTEX
  8
W71LXLIFT
 62
1
 10
1694.089
 20
-6672.568
 30
-1817.561
 70
    32
  0
VERTEX
  8
W71LXLIFT
 62
1
 10
1690.821
 20
-6669.146
 30
-1817.509
 70
    32
  0
VERTEX
  8
W71LXLIFT
 62
1
 10
1681.452
 20
-6649.159
 30
-1817.454
 70
    32
  0
VERTEX
  8
W71LXLIFT
 62
1
 10
1669.124
 20
-6641.590
 30
-1817.208
 70
    32
  0
VERTEX
  8
W71LXLIFT
 62
1
 10
1657.863
 20
-6645.692
 30
-1817.014
 70
    32
  0
VERTEX
  8
W71LXLIFT
 62
1
 10
1666.937
 20
-6667.305
 30
-1816.917
 70
    32
  0
VERTEX
  8
W71LXLIFT
 62
1
 10
1660.727
 20
-6669.178
 30
-1816.741
 70
    32
  0
VERTEX
  8
W71LXLIFT
 62
1
 10
1629.527
 20
-6668.368
 30
-1815.952
 70
    32
  0
VERTEX
  8
W71LXLIFT
 62
1
 10
1619.611
 20
-6675.382
 30
-1815.634
 70
    32
  0
VERTEX
  8
W71LXLIFT
 62
1
 10
1613.038
 20
-6677.502
 30
-1815.447
 70
    32
  0
VERTEX
  8
W71LXLIFT
 62
1
 10
1599.513
 20
-6678.298
 30
-1815.094
 70
    32
  0
VERTEX
  8
W71LXLIFT
 62
1
 10
1590.770
 20
-6678.813
 30
-1814.867
 70
    32
  0
VERTEX
  8
W71LXLIFT
 62
1
 10
1586.628
 20
-6678.500
 30
-1814.783
 70
    32
  0
VERTEX
  8
W71LXLIFT
 62
1
 10
1576.107
 20
-6677.706
 30
-1814.570
 70
    32
  0
SEQEND
  8
W71LXLIFT
  0
POINT
  8
W71LXLIFT
 62
1
 10
1640.894
 20
-6691.650
 30
-1825.205
  0
POINT
  8
W71LXLIFT
 62
1
 10
1686.854
 20
-6719.440
 30
-1915.000
  0
LINE
  8
W71LXLIFT
 62
6
 10
1640.894
 20
-6691.650
 30
-1825.205
 11
1686.854
 21
-6719.440
 31
-1915.000
  0
POLYLINE
  8
W71LXLIFT
 62
3
 66
     1
 70
     9
  0
VERTEX
  8
W71LXLIFT
 62
3
 10
1559.244
 20
-6670.505
 30
-1824.499
 70
    32
  0
VERTEX
  8
W71LXLIFT
 62
3
 10
1548.598
 20
-6644.029
 30
-1824.852
 70
    32
  0
VERTEX
  8
W71LXLIFT
 62
3
 10
1440.227
 20
-6494.495
 30
-1825.319
 70
    32
  0
VERTEX
  8
W71LXLIFT
 62
3
 10
1435.452
 20
-6493.794
 30
-1825.352
 70
    32
  0
VERTEX
  8
W71LXLIFT
 62
3
 10
1427.893
 20
-6486.292
 30
-1825.420
 70
    32
  0
VERTEX
  8
W71LXLIFT
 62
3
 10
1422.592
 20
-6475.320
 30
-1825.482
 70
    32
  0
VERTEX
  8
W71LXLIFT
 62
3
 10
1510.709
 20
-6412.338
 30
-1828.277
 70
    32
  0
VERTEX
  8
W71LXLIFT
 62
3
 10
1514.291
 20
-6420.339
 30
-1828.254
 70
    32
  0
VERTEX
  8
W71LXLIFT
 62
3
 10
1516.571
 20
-6420.189
 30
-1828.278
 70
    32
  0
VERTEX
  8
W71LXLIFT
 62
3
 10
1518.315
 20
-6420.477
 30
-1828.294
 70
    32
  0
VERTEX
  8
W71LXLIFT
 62
3
 10
1520.789
 20
-6420.886
 30
-1828.317
 70
    32
  0
VERTEX
  8
W71LXLIFT
 62
3
 10
1529.274
 20
-6427.311
 30
-1828.357
 70
    32
  0
VERTEX
  8
W71LXLIFT
 62
3
 10
1540.672
 20
-6434.174
 30
-1828.423
 70
    32
  0
VERTEX
  8
W71LXLIFT
 62
3
 10
1634.124
 20
-6560.508
 30
-1827.669
 70
    32
  0
VERTEX
  8
W71LXLIFT
 62
3
 10
1668.124
 20
-6642.590
 30
-1827.208
 70
    32
  0
VERTEX
  8
W71LXLIFT
 62
3
 10
1656.870
 20
-6646.710
 30
-1827.014
 70
    32
  0
VERTEX
  8
W71LXLIFT
 62
3
 10
1665.937
 20
-6668.305
 30
-1826.917
 70
    32
  0
VERTEX
  8
W71LXLIFT
 62
3
 10
1659.727
 20
-6670.178
 30
-1826.741
 70
    32
  0
VERTEX
  8
W71LXLIFT
 62
3
 10
1628.527
 20
-6669.368
 30
-1825.952
 70
    32
  0
VERTEX
  8
W71LXLIFT
 62
3
 10
1618.611
 20
-6676.382
 30
-1825.634
 70
    32
  0
VERTEX
  8
W71LXLIFT
 62
3
 10
1612.038
 20
-6678.502
 30
-1825.447
 70
    32
  0
VERTEX
  8
W71LXLIFT
 62
3
 10
1597.898
 20
-6679.334
 30
-1825.078
 70
    32
  0
VERTEX
  8
W71LXLIFT
 62
3
 10
1589.770
 20
-6679.813
 30
-1824.867
 70
    32
  0
VERTEX
  8
W71LXLIFT
 62
3
 10
1585.787
 20
-6679.512
 30
-1824.786
 70
    32
  0
VERTEX
  8
W71LXLIFT
 62
3
 10
1575.107
 20
-6678.706
 30
-1824.570
 70
    32
  0
VERTEX
  8
W71LXLIFT
 62
3
 10
1570.162
 20
-6671.282
 30
-1824.641
 70
    32
  0
SEQEND
  8
W71LXLIFT
  0
POLYLINE
  8
W71LXLIFT
 62
1
 66
     1
 70
     9
  0
VERTEX
  8
W71LXLIFT
 62
1
 10
1560.244
 20
-6669.505
 30
-1814.499
 70
    32
  0
VERTEX
  8
W71LXLIFT
 62
1
 10
1549.598
 20
-6643.029
 30
-1814.852
 70
    32
  0
VERTEX
  8
W71LXLIFT
 62
1
 10
1441.227
 20
-6493.495
 30
-1815.319
 70
    32
  0
VERTEX
  8
W71LXLIFT
 62
1
 10
1436.452
 20
-6492.794
 30
-1815.352
 70
    32
  0
VERTEX
  8
W71LXLIFT
 62
1
 10
1428.893
 20
-6485.292
 30
-1815.420
 70
    32
  0
VERTEX
  8
W71LXLIFT
 62
1
 10
1423.592
 20
-6474.320
 30
-1815.482
 70
    32
  0
VERTEX
  8
W71LXLIFT
 62
1
 10
1511.709
 20
-6411.338
 30
-1818.277
 70
    32
  0
VERTEX
  8
W71LXLIFT
 62
1
 10
1515.291
 20
-6419.339
 30
-1818.254
 70
    32
  0
VERTEX
  8
W71LXLIFT
 62
1
 10
1517.571
 20
-6419.189
 30
-1818.278
 70
    32
  0
VERTEX
  8
W71LXLIFT
 62
1
 10
1519.315
 20
-6419.477
 30
-1818.294
 70
    32
  0
VERTEX
  8
W71LXLIFT
 62
1
 10
1521.789
 20
-6419.886
 30
-1818.317
 70
    32
  0
VERTEX
  8
W71LXLIFT
 62
1
 10
1530.274
 20
-6426.311
 30
-1818.357
 70
    32
  0
VERTEX
  8
W71LXLIFT
 62
1
 10
1541.672
 20
-6433.174
 30
-1818.423
 70
    32
  0
VERTEX
  8
W71LXLIFT
 62
1
 10
1635.124
 20
-6559.508
 30
-1817.669
 70
    32
  0
VERTEX
  8
W71LXLIFT
 62
1
 10
1669.124
 20
-6641.590
 30
-1817.208
 70
    32
  0
VERTEX
  8
W71LXLIFT
 62
1
 10
1657.870
 20
-6645.710
 30
-1817.014
 70
    32
  0
VERTEX
  8
W71LXLIFT
 62
1
 10
1666.937
 20
-6667.305
 30
-1816.917
 70
    32
  0
VERTEX
  8
W71LXLIFT
 62
1
 10
1660.727
 20
-6669.178
 30
-1816.741
 70
    32
  0
VERTEX
  8
W71LXLIFT
 62
1
 10
1629.527
 20
-6668.368
 30
-1815.952
 70
    32
  0
VERTEX
  8
W71LXLIFT
 62
1
 10
1619.611
 20
-6675.382
 30
-1815.634
 70
    32
  0
VERTEX
  8
W71LXLIFT
 62
1
 10
1613.038
 20
-6677.502
 30
-1815.447
 70
    32
  0
VERTEX
  8
W71LXLIFT
 62
1
 10
1598.898
 20
-6678.334
 30
-1815.078
 70
    32
  0
VERTEX
  8
W71LXLIFT
 62
1
 10
1590.770
 20
-6678.813
 30
-1814.867
 70
    32
  0
VERTEX
  8
W71LXLIFT
 62
1
 10
1586.787
 20
-6678.512
 30
-1814.786
 70
    32
  0
VERTEX
  8
W71LXLIFT
 62
1
 10
1576.107
 20
-6677.706
 30
-1814.570
 70
    32
  0
VERTEX
  8
W71LXLIFT
 62
1
 10
1571.162
 20
-6670.282
 30
-1814.641
 70
    32
  0
SEQEND
  8
W71LXLIFT
  0
POINT
  8
W71LXLIFT
 62
1
 10
1563.161
 20
-6554.327
 30
-1815.126
  0
POLYLINE
  8
W71LXLIFT
 62
8
 66
     1
 70
     9
  0
VERTEX
  8
W71LXLIFT
 62
8
 10
1599.996
 20
-6767.563
 30
-1824.351
 70
    32
  0
VERTEX
  8
W71LXLIFT
 62
8
 10
1608.585
 20
-6762.646
 30
-1824.595
 70
    32
  0
VERTEX
  8
W71LXLIFT
 62
8
 10
1610.772
 20
-6763.568
 30
-1824.640
 70
    32
  0
VERTEX
  8
W71LXLIFT
 62
8
 10
1619.777
 20
-6767.955
 30
-1824.824
 70
    32
  0
VERTEX
  8
W71LXLIFT
 62
8
 10
1627.132
 20
-6773.803
 30
-1824.958
 70
    32
  0
VERTEX
  8
W71LXLIFT
 62
8
 10
1627.963
 20
-6776.806
 30
-1824.952
 70
    32
  0
VERTEX
  8
W71LXLIFT
 62
8
 10
1623.907
 20
-6782.186
 30
-1824.808
 70
    32
  0
VERTEX
  8
W71LXLIFT
 62
8
 10
1618.800
 20
-6786.494
 30
-1824.651
 70
    32
  0
VERTEX
  8
W71LXLIFT
 62
8
 10
1614.095
 20
-6789.730
 30
-1824.513
 70
    32
  0
VERTEX
  8
W71LXLIFT
 62
8
 10
1611.511
 20
-6790.077
 30
-1824.448
 70
    32
  0
VERTEX
  8
W71LXLIFT
 62
8
 10
1604.774
 20
-6788.103
 30
-1824.303
 70
    32
  0
VERTEX
  8
W71LXLIFT
 62
8
 10
1598.962
 20
-6781.230
 30
-1824.218
 70
    32
  0
SEQEND
  8
W71LXLIFT
  0
POLYLINE
  8
W71LXLIFT
 62
1
 66
     1
 70
     9
  0
VERTEX
  8
W71LXLIFT
 62
1
 10
1600.996
 20
-6766.563
 30
-1814.351
 70
    32
  0
VERTEX
  8
W71LXLIFT
 62
1
 10
1609.585
 20
-6761.646
 30
-1814.595
 70
    32
  0
VERTEX
  8
W71LXLIFT
 62
1
 10
1611.772
 20
-6762.568
 30
-1814.640
 70
    32
  0
VERTEX
  8
W71LXLIFT
 62
1
 10
1620.777
 20
-6766.955
 30
-1814.824
 70
    32
  0
VERTEX
  8
W71LXLIFT
 62
1
 10
1628.132
 20
-6772.803
 30
-1814.958
 70
    32
  0
VERTEX
  8
W71LXLIFT
 62
1
 10
1628.963
 20
-6775.806
 30
-1814.952
 70
    32
  0
VERTEX
  8
W71LXLIFT
 62
1
 10
1624.907
 20
-6781.186
 30
-1814.808
 70
    32
  0
VERTEX
  8
W71LXLIFT
 62
1
 10
1619.800
 20
-6785.494
 30
-1814.651
 70
    32
  0
VERTEX
  8
W71LXLIFT
 62
1
 10
1615.095
 20
-6788.730
 30
-1814.513
 70
    32
  0
VERTEX
  8
W71LXLIFT
 62
1
 10
1612.511
 20
-6789.077
 30
-1814.448
 70
    32
  0
VERTEX
  8
W71LXLIFT
 62
1
 10
1605.774
 20
-6787.103
 30
-1814.303
 70
    32
  0
VERTEX
  8
W71LXLIFT
 62
1
 10
1599.962
 20
-6780.230
 30
-1814.218
 70
    32
  0
SEQEND
  8
W71LXLIFT
  0
POINT
  8
W71LXLIFT
 62
1
 10
1612.256
 20
-6775.291
 30
-1814.824
  0
POINT
  8
W71LXLIFT
 62
1
 10
1542.334
 20
-6581.934
 30
-1682.275
  0
LINE
  8
W71LXLIFT
 62
3
 10
1542.334
 20
-6581.934
 30
-1682.275
 11
1563.161
 21
-6554.327
 31
-1815.126
  0
LINE
  8
W71LXLIFT
 62
8
 10
1569.136
 20
-6808.095
 30
-1680.348
 11
1612.256
 21
-6775.291
 31
-1814.824
  0
POINT
  8
W71LXLIFT
 62
1
 10
1529.750
 20
-5952.035
 30
-1819.897
  0
POINT
  8
W71LXLIFT
 62
1
 10
1354.075
 20
-5643.658
 30
-1819.897
  0
POINT
  8
W71LXLIFT
 62
1
 10
1313.576
 20
-5648.274
 30
-1680.140
  0
POLYLINE
  8
W71LXLIFT
 62
11
 66
     1
 70
     9
  0
VERTEX
  8
W71LXLIFT
 62
11
 10
1736.252
 20
-6658.979
 30
-1828.713
 70
    32
  0
VERTEX
  8
W71LXLIFT
 62
11
 10
1729.933
 20
-6633.701
 30
-1828.841
 70
    32
  0
VERTEX
  8
W71LXLIFT
 62
11
 10
1728.402
 20
-6630.300
 30
-1828.849
 70
    32
  0
VERTEX
  8
W71LXLIFT
 62
11
 10
1712.178
 20
-6622.068
 30
-1828.521
 70
    32
  0
VERTEX
  8
W71LXLIFT
 62
11
 10
1707.529
 20
-6615.560
 30
-1828.462
 70
    32
  0
VERTEX
  8
W71LXLIFT
 62
11
 10
1705.450
 20
-6607.237
 30
-1828.485
 70
    32
  0
VERTEX
  8
W71LXLIFT
 62
11
 10
1684.462
 20
-6566.181
 30
-1828.326
 70
    32
  0
VERTEX
  8
W71LXLIFT
 62
11
 10
1669.982
 20
-6547.402
 30
-1828.432
 70
    32
  0
VERTEX
  8
W71LXLIFT
 62
11
 10
1647.547
 20
-6525.815
 30
-1828.523
 70
    32
  0
VERTEX
  8
W71LXLIFT
 62
11
 10
1638.296
 20
-6514.022
 30
-1828.615
 70
    32
  0
VERTEX
  8
W71LXLIFT
 62
11
 10
1658.376
 20
-6492.465
 30
-1829.206
 70
    32
  0
VERTEX
  8
W71LXLIFT
 62
11
 10
1674.374
 20
-6485.856
 30
-1829.422
 70
    32
  0
VERTEX
  8
W71LXLIFT
 62
11
 10
1687.497
 20
-6511.600
 30
-1829.364
 70
    32
  0
VERTEX
  8
W71LXLIFT
 62
11
 10
1702.580
 20
-6535.412
 30
-1829.127
 70
    32
  0
VERTEX
  8
W71LXLIFT
 62
11
 10
1710.684
 20
-6552.199
 30
-1829.124
 70
    32
  0
VERTEX
  8
W71LXLIFT
 62
11
 10
1715.626
 20
-6575.799
 30
-1829.034
 70
    32
  0
VERTEX
  8
W71LXLIFT
 62
11
 10
1732.554
 20
-6609.434
 30
-1829.070
 70
    32
  0
VERTEX
  8
W71LXLIFT
 62
11
 10
1740.282
 20
-6620.522
 30
-1829.076
 70
    32
  0
VERTEX
  8
W71LXLIFT
 62
11
 10
1752.172
 20
-6632.473
 30
-1829.126
 70
    32
  0
VERTEX
  8
W71LXLIFT
 62
11
 10
1760.626
 20
-6635.452
 30
-1829.207
 70
    32
  0
SEQEND
  8
W71LXLIFT
  0
POLYLINE
  8
W71LXLIFT
 62
7
 66
     1
 70
     9
  0
VERTEX
  8
W71LXLIFT
 62
7
 10
2052.888
 20
-7023.325
 30
-1827.011
 70
    32
  0
VERTEX
  8
W71LXLIFT
 62
7
 10
2045.050
 20
-7023.342
 30
-1827.093
 70
    32
  0
VERTEX
  8
W71LXLIFT
 62
7
 10
2043.714
 20
-7036.574
 30
-1826.908
 70
    32
  0
VERTEX
  8
W71LXLIFT
 62
7
 10
2054.775
 20
-7064.270
 30
-1826.375
 70
    32
  0
VERTEX
  8
W71LXLIFT
 62
7
 10
2045.258
 20
-7072.176
 30
-1826.355
 70
    32
  0
VERTEX
  8
W71LXLIFT
 62
7
 10
2035.527
 20
-7073.853
 30
-1826.432
 70
    32
  0
VERTEX
  8
W71LXLIFT
 62
7
 10
2026.260
 20
-7048.302
 30
-1826.914
 70
    32
  0
VERTEX
  8
W71LXLIFT
 62
7
 10
2020.139
 20
-7031.065
 30
-1827.238
 70
    32
  0
VERTEX
  8
W71LXLIFT
 62
7
 10
2021.958
 20
-7015.899
 30
-1827.447
 70
    32
  0
VERTEX
  8
W71LXLIFT
 62
7
 10
2018.997
 20
-7007.949
 30
-1827.598
 70
    32
  0
VERTEX
  8
W71LXLIFT
 62
7
 10
2014.054
 20
-7004.798
 30
-1827.697
 70
    32
  0
VERTEX
  8
W71LXLIFT
 62
7
 10
2012.135
 20
-6995.570
 30
-1827.856
 70
    32
  0
VERTEX
  8
W71LXLIFT
 62
7
 10
2011.229
 20
-6991.210
 30
-1827.859
 70
    32
  0
VERTEX
  8
W71LXLIFT
 62
7
 10
1993.819
 20
-6984.569
 30
-1827.828
 70
    32
  0
VERTEX
  8
W71LXLIFT
 62
7
 10
1961.969
 20
-6984.065
 30
-1827.759
 70
    32
  0
VERTEX
  8
W71LXLIFT
 62
7
 10
1947.500
 20
-6983.391
 30
-1827.728
 70
    32
  0
VERTEX
  8
W71LXLIFT
 62
7
 10
1948.430
 20
-6983.016
 30
-1827.730
 70
    32
  0
VERTEX
  8
W71LXLIFT
 62
7
 10
1942.181
 20
-6972.968
 30
-1827.727
 70
    32
  0
VERTEX
  8
W71LXLIFT
 62
7
 10
1925.849
 20
-6959.344
 30
-1827.706
 70
    32
  0
VERTEX
  8
W71LXLIFT
 62
7
 10
1918.547
 20
-6950.229
 30
-1827.699
 70
    32
  0
VERTEX
  8
W71LXLIFT
 62
7
 10
1884.141
 20
-6937.094
 30
-1827.638
 70
    32
  0
VERTEX
  8
W71LXLIFT
 62
7
 10
1887.855
 20
-6914.265
 30
-1828.118
 70
    32
  0
VERTEX
  8
W71LXLIFT
 62
7
 10
1898.181
 20
-6919.325
 30
-1828.004
 70
    32
  0
VERTEX
  8
W71LXLIFT
 62
7
 10
1906.271
 20
-6913.337
 30
-1828.130
 70
    32
  0
VERTEX
  8
W71LXLIFT
 62
7
 10
1917.652
 20
-6919.891
 30
-1827.983
 70
    32
  0
VERTEX
  8
W71LXLIFT
 62
7
 10
1928.408
 20
-6930.045
 30
-1827.759
 70
    32
  0
VERTEX
  8
W71LXLIFT
 62
7
 10
1941.871
 20
-6939.668
 30
-1827.761
 70
    32
  0
VERTEX
  8
W71LXLIFT
 62
7
 10
1972.080
 20
-6955.696
 30
-1827.811
 70
    32
  0
VERTEX
  8
W71LXLIFT
 62
7
 10
1977.613
 20
-6955.607
 30
-1827.823
 70
    32
  0
VERTEX
  8
W71LXLIFT
 62
7
 10
1985.530
 20
-6951.422
 30
-1827.845
 70
    32
  0
VERTEX
  8
W71LXLIFT
 62
7
 10
1997.287
 20
-6941.141
 30
-1827.881
 70
    32
  0
VERTEX
  8
W71LXLIFT
 62
7
 10
2005.541
 20
-6935.307
 30
-1827.811
 70
    32
  0
VERTEX
  8
W71LXLIFT
 62
7
 10
2059.772
 20
-7015.866
 30
-1826.784
 70
    32
  0
SEQEND
  8
W71LXLIFT
  0
POLYLINE
  8
W71LXLIFT
 62
1
 66
     1
 70
     9
  0
VERTEX
  8
W71LXLIFT
 62
1
 10
2053.888
 20
-7022.325
 30
-1817.011
 70
    32
  0
VERTEX
  8
W71LXLIFT
 62
1
 10
2046.050
 20
-7022.342
 30
-1817.093
 70
    32
  0
VERTEX
  8
W71LXLIFT
 62
1
 10
2044.714
 20
-7035.574
 30
-1816.908
 70
    32
  0
VERTEX
  8
W71LXLIFT
 62
1
 10
2055.775
 20
-7063.270
 30
-1816.375
 70
    32
  0
VERTEX
  8
W71LXLIFT
 62
1
 10
2046.258
 20
-7071.176
 30
-1816.355
 70
    32
  0
VERTEX
  8
W71LXLIFT
 62
1
 10
2036.527
 20
-7072.853
 30
-1816.432
 70
    32
  0
VERTEX
  8
W71LXLIFT
 62
1
 10
2027.260
 20
-7047.302
 30
-1816.914
 70
    32
  0
VERTEX
  8
W71LXLIFT
 62
1
 10
2021.139
 20
-7030.065
 30
-1817.238
 70
    32
  0
VERTEX
  8
W71LXLIFT
 62
1
 10
2022.958
 20
-7014.899
 30
-1817.447
 70
    32
  0
VERTEX
  8
W71LXLIFT
 62
1
 10
2019.997
 20
-7006.949
 30
-1817.598
 70
    32
  0
VERTEX
  8
W71LXLIFT
 62
1
 10
2015.054
 20
-7003.798
 30
-1817.697
 70
    32
  0
VERTEX
  8
W71LXLIFT
 62
1
 10
2013.135
 20
-6994.570
 30
-1817.856
 70
    32
  0
VERTEX
  8
W71LXLIFT
 62
1
 10
2012.229
 20
-6990.210
 30
-1817.859
 70
    32
  0
VERTEX
  8
W71LXLIFT
 62
1
 10
1994.819
 20
-6983.569
 30
-1817.828
 70
    32
  0
VERTEX
  8
W71LXLIFT
 62
1
 10
1962.969
 20
-6983.065
 30
-1817.759
 70
    32
  0
VERTEX
  8
W71LXLIFT
 62
1
 10
1948.500
 20
-6982.391
 30
-1817.728
 70
    32
  0
VERTEX
  8
W71LXLIFT
 62
1
 10
1949.430
 20
-6982.016
 30
-1817.730
 70
    32
  0
VERTEX
  8
W71LXLIFT
 62
1
 10
1943.181
 20
-6971.968
 30
-1817.727
 70
    32
  0
VERTEX
  8
W71LXLIFT
 62
1
 10
1926.849
 20
-6958.344
 30
-1817.706
 70
    32
  0
VERTEX
  8
W71LXLIFT
 62
1
 10
1919.547
 20
-6949.229
 30
-1817.699
 70
    32
  0
VERTEX
  8
W71LXLIFT
 62
1
 10
1885.141
 20
-6936.094
 30
-1817.638
 70
    32
  0
VERTEX
  8
W71LXLIFT
 62
1
 10
1888.855
 20
-6913.265
 30
-1818.118
 70
    32
  0
VERTEX
  8
W71LXLIFT
 62
1
 10
1899.181
 20
-6918.325
 30
-1818.004
 70
    32
  0
VERTEX
  8
W71LXLIFT
 62
1
 10
1907.271
 20
-6912.337
 30
-1818.130
 70
    32
  0
VERTEX
  8
W71LXLIFT
 62
1
 10
1918.652
 20
-6918.891
 30
-1817.983
 70
    32
  0
VERTEX
  8
W71LXLIFT
 62
1
 10
1929.408
 20
-6929.045
 30
-1817.759
 70
    32
  0
VERTEX
  8
W71LXLIFT
 62
1
 10
1942.871
 20
-6938.668
 30
-1817.761
 70
    32
  0
VERTEX
  8
W71LXLIFT
 62
1
 10
1973.080
 20
-6954.696
 30
-1817.811
 70
    32
  0
VERTEX
  8
W71LXLIFT
 62
1
 10
1978.613
 20
-6954.607
 30
-1817.823
 70
    32
  0
VERTEX
  8
W71LXLIFT
 62
1
 10
1986.530
 20
-6950.422
 30
-1817.845
 70
    32
  0
VERTEX
  8
W71LXLIFT
 62
1
 10
1998.287
 20
-6940.141
 30
-1817.881
 70
    32
  0
VERTEX
  8
W71LXLIFT
 62
1
 10
2006.541
 20
-6934.307
 30
-1817.811
 70
    32
  0
VERTEX
  8
W71LXLIFT
 62
1
 10
2060.772
 20
-7014.866
 30
-1816.784
 70
    32
  0
SEQEND
  8
W71LXLIFT
  0
POINT
  8
W71LXLIFT
 62
1
 10
1968.748
 20
-6972.523
 30
-1817.777
  0
POINT
  8
W71LXLIFT
 62
1
 10
1954.535
 20
-6956.097
 30
-1757.000
  0
LINE
  8
W71LXLIFT
 62
7
 10
1954.535
 20
-6956.097
 30
-1757.000
 11
1968.748
 21
-6972.523
 31
-1817.777
  0
POLYLINE
  8
W71LXLIFT
 62
6
 66
     1
 70
     9
  0
VERTEX
  8
W71LXLIFT
 62
6
 10
1943.146
 20
-7110.361
 30
-1826.581
 70
    32
  0
VERTEX
  8
W71LXLIFT
 62
6
 10
1947.739
 20
-7115.812
 30
-1826.536
 70
    32
  0
VERTEX
  8
W71LXLIFT
 62
6
 10
1950.028
 20
-7126.972
 30
-1826.216
 70
    32
  0
VERTEX
  8
W71LXLIFT
 62
6
 10
1965.116
 20
-7150.410
 30
-1825.873
 70
    32
  0
VERTEX
  8
W71LXLIFT
 62
6
 10
1975.175
 20
-7170.946
 30
-1825.472
 70
    32
  0
VERTEX
  8
W71LXLIFT
 62
6
 10
1971.891
 20
-7201.760
 30
-1824.281
 70
    32
  0
VERTEX
  8
W71LXLIFT
 62
6
 10
1974.357
 20
-7221.094
 30
-1823.951
 70
    32
  0
VERTEX
  8
W71LXLIFT
 62
6
 10
1965.874
 20
-7225.824
 30
-1824.001
 70
    32
  0
VERTEX
  8
W71LXLIFT
 62
6
 10
1963.472
 20
-7235.227
 30
-1823.987
 70
    32
  0
VERTEX
  8
W71LXLIFT
 62
6
 10
1944.432
 20
-7229.500
 30
-1824.155
 70
    32
  0
VERTEX
  8
W71LXLIFT
 62
6
 10
1943.683
 20
-7203.223
 30
-1824.251
 70
    32
  0
VERTEX
  8
W71LXLIFT
 62
6
 10
1947.602
 20
-7190.069
 30
-1824.266
 70
    32
  0
VERTEX
  8
W71LXLIFT
 62
6
 10
1943.906
 20
-7149.228
 30
-1825.236
 70
    32
  0
VERTEX
  8
W71LXLIFT
 62
6
 10
1939.811
 20
-7133.698
 30
-1825.652
 70
    32
  0
VERTEX
  8
W71LXLIFT
 62
6
 10
1933.449
 20
-7121.932
 30
-1825.863
 70
    32
  0
SEQEND
  8
W71LXLIFT
  0
POLYLINE
  8
W71LXLIFT
 62
3
 66
     1
 70
     9
  0
VERTEX
  8
W71LXLIFT
 62
3
 10
2112.320
 20
-7958.401
 30
-1820.615
 70
    32
  0
VERTEX
  8
W71LXLIFT
 62
3
 10
2110.552
 20
-7946.816
 30
-1820.823
 70
    32
  0
VERTEX
  8
W71LXLIFT
 62
3
 10
2104.020
 20
-7935.812
 30
-1820.974
 70
    32
  0
VERTEX
  8
W71LXLIFT
 62
3
 10
2099.053
 20
-7932.101
 30
-1820.974
 70
    32
  0
VERTEX
  8
W71LXLIFT
 62
3
 10
2087.195
 20
-7932.063
 30
-1820.944
 70
    32
  0
VERTEX
  8
W71LXLIFT
 62
3
 10
2080.006
 20
-7919.182
 30
-1820.960
 70
    32
  0
VERTEX
  8
W71LXLIFT
 62
3
 10
2067.179
 20
-7917.597
 30
-1820.932
 70
    32
  0
VERTEX
  8
W71LXLIFT
 62
3
 10
2062.764
 20
-7898.646
 30
-1820.971
 70
    32
  0
VERTEX
  8
W71LXLIFT
 62
3
 10
2058.262
 20
-7892.258
 30
-1820.988
 70
    32
  0
VERTEX
  8
W71LXLIFT
 62
3
 10
2064.134
 20
-7883.699
 30
-1821.015
 70
    32
  0
VERTEX
  8
W71LXLIFT
 62
3
 10
2050.798
 20
-7860.779
 30
-1821.154
 70
    32
  0
VERTEX
  8
W71LXLIFT
 62
3
 10
2055.264
 20
-7856.744
 30
-1821.133
 70
    32
  0
VERTEX
  8
W71LXLIFT
 62
3
 10
2060.610
 20
-7855.775
 30
-1821.095
 70
    32
  0
VERTEX
  8
W71LXLIFT
 62
3
 10
2075.705
 20
-7879.162
 30
-1821.058
 70
    32
  0
VERTEX
  8
W71LXLIFT
 62
3
 10
2083.242
 20
-7879.156
 30
-1821.077
 70
    32
  0
VERTEX
  8
W71LXLIFT
 62
3
 10
2100.838
 20
-7906.842
 30
-1821.047
 70
    32
  0
VERTEX
  8
W71LXLIFT
 62
3
 10
2112.810
 20
-7915.649
 30
-1821.054
 70
    32
  0
VERTEX
  8
W71LXLIFT
 62
3
 10
2109.046
 20
-7924.776
 30
-1821.020
 70
    32
  0
VERTEX
  8
W71LXLIFT
 62
3
 10
2113.671
 20
-7930.981
 30
-1821.015
 70
    32
  0
VERTEX
  8
W71LXLIFT
 62
3
 10
2119.740
 20
-7929.198
 30
-1821.036
 70
    32
  0
VERTEX
  8
W71LXLIFT
 62
3
 10
2125.969
 20
-7937.403
 30
-1820.924
 70
    32
  0
VERTEX
  8
W71LXLIFT
 62
3
 10
2139.920
 20
-7938.320
 30
-1820.893
 70
    32
  0
SEQEND
  8
W71LXLIFT
  0
POINT
  8
W71LXLIFT
 62
1
 10
2052.454
 20
-7887.658
 30
-1709.000
  0
POINT
  8
W71LXLIFT
 62
1
 10
2041.317
 20
-7905.978
 30
-1676.000
  0
LINE
  8
W71LXLIFT
 62
3
 10
2041.317
 20
-7905.978
 30
-1676.000
 11
2052.454
 21
-7887.658
 31
-1709.000
  0
POINT
  8
W71LXLIFT
 62
1
 10
1437.364
 20
-6236.093
 30
-1682.872
  0
LINE
  8
W71LXLIFT
 62
6
 10
1437.364
 20
-6236.093
 30
-1682.872
 11
1443.793
 21
-6236.797
 31
-1763.000
  0
POINT
  8
W71LXLIFT
 62
1
 10
1443.793
 20
-6236.797
 30
-1763.000
  0
POLYLINE
  8
W71LXLIFT
 62
2
 66
     1
 70
     9
  0
VERTEX
  8
W71LXLIFT
 62
2
 10
1443.796
 20
-5751.985
 30
-1830.013
 70
    32
  0
VERTEX
  8
W71LXLIFT
 62
2
 10
1468.385
 20
-5776.718
 30
-1830.317
 70
    32
  0
VERTEX
  8
W71LXLIFT
 62
2
 10
1476.960
 20
-5774.446
 30
-1830.445
 70
    32
  0
VERTEX
  8
W71LXLIFT
 62
2
 10
1484.112
 20
-5780.695
 30
-1830.535
 70
    32
  0
VERTEX
  8
W71LXLIFT
 62
2
 10
1488.635
 20
-5793.010
 30
-1830.575
 70
    32
  0
VERTEX
  8
W71LXLIFT
 62
2
 10
1500.270
 20
-5855.478
 30
-1830.615
 70
    32
  0
VERTEX
  8
W71LXLIFT
 62
2
 10
1500.303
 20
-5870.066
 30
-1830.586
 70
    32
  0
VERTEX
  8
W71LXLIFT
 62
2
 10
1501.883
 20
-5874.413
 30
-1830.600
 70
    32
  0
VERTEX
  8
W71LXLIFT
 62
2
 10
1500.969
 20
-5877.907
 30
-1830.580
 70
    32
  0
VERTEX
  8
W71LXLIFT
 62
2
 10
1491.926
 20
-5887.262
 30
-1830.428
 70
    32
  0
VERTEX
  8
W71LXLIFT
 62
2
 10
1475.629
 20
-5896.647
 30
-1830.089
 70
    32
  0
VERTEX
  8
W71LXLIFT
 62
2
 10
1493.610
 20
-5913.271
 30
-1830.191
 70
    32
  0
VERTEX
  8
W71LXLIFT
 62
2
 10
1502.052
 20
-5920.248
 30
-1830.248
 70
    32
  0
VERTEX
  8
W71LXLIFT
 62
2
 10
1508.283
 20
-5926.258
 30
-1830.281
 70
    32
  0
VERTEX
  8
W71LXLIFT
 62
2
 10
1517.766
 20
-5934.896
 30
-1830.337
 70
    32
  0
VERTEX
  8
W71LXLIFT
 62
2
 10
1528.173
 20
-5944.471
 30
-1830.397
 70
    32
  0
VERTEX
  8
W71LXLIFT
 62
2
 10
1534.069
 20
-5949.895
 30
-1830.431
 70
    32
  0
VERTEX
  8
W71LXLIFT
 62
2
 10
1537.880
 20
-5960.964
 30
-1830.490
 70
    32
  0
VERTEX
  8
W71LXLIFT
 62
2
 10
1543.494
 20
-5973.283
 30
-1830.598
 70
    32
  0
VERTEX
  8
W71LXLIFT
 62
2
 10
1549.815
 20
-6001.540
 30
-1830.612
 70
    32
  0
VERTEX
  8
W71LXLIFT
 62
2
 10
1554.991
 20
-6021.185
 30
-1830.557
 70
    32
  0
VERTEX
  8
W71LXLIFT
 62
2
 10
1569.387
 20
-6031.520
 30
-1830.750
 70
    32
  0
VERTEX
  8
W71LXLIFT
 62
2
 10
1568.834
 20
-6037.846
 30
-1830.687
 70
    32
  0
VERTEX
  8
W71LXLIFT
 62
2
 10
1573.536
 20
-6056.165
 30
-1830.634
 70
    32
  0
VERTEX
  8
W71LXLIFT
 62
2
 10
1550.657
 20
-6076.673
 30
-1830.066
 70
    32
  0
VERTEX
  8
W71LXLIFT
 62
2
 10
1540.059
 20
-6070.455
 30
-1829.875
 70
    32
  0
VERTEX
  8
W71LXLIFT
 62
2
 10
1537.518
 20
-6067.217
 30
-1829.843
 70
    32
  0
VERTEX
  8
W71LXLIFT
 62
2
 10
1543.865
 20
-6039.504
 30
-1830.190
 70
    32
  0
VERTEX
  8
W71LXLIFT
 62
2
 10
1545.699
 20
-6029.554
 30
-1830.308
 70
    32
  0
VERTEX
  8
W71LXLIFT
 62
2
 10
1541.819
 20
-6012.287
 30
-1830.376
 70
    32
  0
VERTEX
  8
W71LXLIFT
 62
2
 10
1536.261
 20
-5991.688
 30
-1830.438
 70
    32
  0
VERTEX
  8
W71LXLIFT
 62
2
 10
1530.883
 20
-5975.922
 30
-1830.375
 70
    32
  0
VERTEX
  8
W71LXLIFT
 62
2
 10
1527.498
 20
-5960.358
 30
-1830.304
 70
    32
  0
VERTEX
  8
W71LXLIFT
 62
2
 10
1514.608
 20
-5944.913
 30
-1830.191
 70
    32
  0
VERTEX
  8
W71LXLIFT
 62
2
 10
1505.277
 20
-5937.196
 30
-1830.128
 70
    32
  0
VERTEX
  8
W71LXLIFT
 62
2
 10
1495.856
 20
-5928.706
 30
-1830.070
 70
    32
  0
VERTEX
  8
W71LXLIFT
 62
2
 10
1487.410
 20
-5920.683
 30
-1830.024
 70
    32
  0
VERTEX
  8
W71LXLIFT
 62
2
 10
1472.183
 20
-5906.429
 30
-1829.938
 70
    32
  0
VERTEX
  8
W71LXLIFT
 62
2
 10
1460.604
 20
-5897.371
 30
-1829.856
 70
    32
  0
VERTEX
  8
W71LXLIFT
 62
2
 10
1471.291
 20
-5882.877
 30
-1830.142
 70
    32
  0
VERTEX
  8
W71LXLIFT
 62
2
 10
1472.802
 20
-5884.261
 30
-1830.161
 70
    32
  0
VERTEX
  8
W71LXLIFT
 62
2
 10
1477.914
 20
-5880.436
 30
-1830.242
 70
    32
  0
VERTEX
  8
W71LXLIFT
 62
2
 10
1485.382
 20
-5869.986
 30
-1830.371
 70
    32
  0
VERTEX
  8
W71LXLIFT
 62
2
 10
1490.571
 20
-5851.795
 30
-1830.483
 70
    32
  0
VERTEX
  8
W71LXLIFT
 62
2
 10
1481.994
 20
-5812.191
 30
-1830.440
 70
    32
  0
VERTEX
  8
W71LXLIFT
 62
2
 10
1475.597
 20
-5806.122
 30
-1830.360
 70
    32
  0
VERTEX
  8
W71LXLIFT
 62
2
 10
1455.753
 20
-5785.002
 30
-1830.125
 70
    32
  0
VERTEX
  8
W71LXLIFT
 62
2
 10
1444.558
 20
-5771.995
 30
-1829.983
 70
    32
  0
VERTEX
  8
W71LXLIFT
 62
2
 10
1436.071
 20
-5763.401
 30
-1829.878
 70
    32
  0
VERTEX
  8
W71LXLIFT
 62
2
 10
1431.134
 20
-5758.402
 30
-1829.817
 70
    32
  0
SEQEND
  8
W71LXLIFT
  0
POLYLINE
  8
W71LXLIFT
 62
1
 66
     1
 70
     9
  0
VERTEX
  8
W71LXLIFT
 62
1
 10
1444.796
 20
-5750.985
 30
-1820.013
 70
    32
  0
VERTEX
  8
W71LXLIFT
 62
1
 10
1444.796
 20
-5750.985
 30
-1820.013
 70
    32
  0
VERTEX
  8
W71LXLIFT
 62
1
 10
1469.385
 20
-5775.718
 30
-1820.317
 70
    32
  0
VERTEX
  8
W71LXLIFT
 62
1
 10
1477.960
 20
-5773.446
 30
-1820.445
 70
    32
  0
VERTEX
  8
W71LXLIFT
 62
1
 10
1485.112
 20
-5779.695
 30
-1820.535
 70
    32
  0
VERTEX
  8
W71LXLIFT
 62
1
 10
1489.635
 20
-5792.010
 30
-1820.575
 70
    32
  0
VERTEX
  8
W71LXLIFT
 62
1
 10
1501.270
 20
-5854.478
 30
-1820.615
 70
    32
  0
VERTEX
  8
W71LXLIFT
 62
1
 10
1501.303
 20
-5869.066
 30
-1820.586
 70
    32
  0
VERTEX
  8
W71LXLIFT
 62
1
 10
1502.883
 20
-5873.413
 30
-1820.600
 70
    32
  0
VERTEX
  8
W71LXLIFT
 62
1
 10
1501.969
 20
-5876.907
 30
-1820.580
 70
    32
  0
VERTEX
  8
W71LXLIFT
 62
1
 10
1492.926
 20
-5886.262
 30
-1820.428
 70
    32
  0
VERTEX
  8
W71LXLIFT
 62
1
 10
1476.629
 20
-5895.647
 30
-1820.089
 70
    32
  0
VERTEX
  8
W71LXLIFT
 62
1
 10
1494.610
 20
-5912.271
 30
-1820.191
 70
    32
  0
VERTEX
  8
W71LXLIFT
 62
1
 10
1503.052
 20
-5919.248
 30
-1820.248
 70
    32
  0
VERTEX
  8
W71LXLIFT
 62
1
 10
1509.283
 20
-5925.258
 30
-1820.281
 70
    32
  0
VERTEX
  8
W71LXLIFT
 62
1
 10
1518.766
 20
-5933.896
 30
-1820.337
 70
    32
  0
VERTEX
  8
W71LXLIFT
 62
1
 10
1529.173
 20
-5943.471
 30
-1820.397
 70
    32
  0
VERTEX
  8
W71LXLIFT
 62
1
 10
1535.069
 20
-5948.895
 30
-1820.431
 70
    32
  0
VERTEX
  8
W71LXLIFT
 62
1
 10
1538.880
 20
-5959.964
 30
-1820.490
 70
    32
  0
VERTEX
  8
W71LXLIFT
 62
1
 10
1544.494
 20
-5972.283
 30
-1820.598
 70
    32
  0
VERTEX
  8
W71LXLIFT
 62
1
 10
1550.815
 20
-6000.540
 30
-1820.612
 70
    32
  0
VERTEX
  8
W71LXLIFT
 62
1
 10
1555.991
 20
-6020.185
 30
-1820.557
 70
    32
  0
VERTEX
  8
W71LXLIFT
 62
1
 10
1570.387
 20
-6030.520
 30
-1820.750
 70
    32
  0
VERTEX
  8
W71LXLIFT
 62
1
 10
1569.834
 20
-6036.846
 30
-1820.687
 70
    32
  0
VERTEX
  8
W71LXLIFT
 62
1
 10
1574.536
 20
-6055.165
 30
-1820.634
 70
    32
  0
VERTEX
  8
W71LXLIFT
 62
1
 10
1551.657
 20
-6075.673
 30
-1820.066
 70
    32
  0
VERTEX
  8
W71LXLIFT
 62
1
 10
1541.059
 20
-6069.455
 30
-1819.875
 70
    32
  0
VERTEX
  8
W71LXLIFT
 62
1
 10
1538.518
 20
-6066.217
 30
-1819.843
 70
    32
  0
VERTEX
  8
W71LXLIFT
 62
1
 10
1544.865
 20
-6038.504
 30
-1820.190
 70
    32
  0
VERTEX
  8
W71LXLIFT
 62
1
 10
1546.699
 20
-6028.554
 30
-1820.308
 70
    32
  0
VERTEX
  8
W71LXLIFT
 62
1
 10
1542.819
 20
-6011.287
 30
-1820.376
 70
    32
  0
VERTEX
  8
W71LXLIFT
 62
1
 10
1537.261
 20
-5990.688
 30
-1820.438
 70
    32
  0
VERTEX
  8
W71LXLIFT
 62
1
 10
1531.883
 20
-5974.922
 30
-1820.375
 70
    32
  0
VERTEX
  8
W71LXLIFT
 62
1
 10
1528.498
 20
-5959.358
 30
-1820.304
 70
    32
  0
VERTEX
  8
W71LXLIFT
 62
1
 10
1515.608
 20
-5943.913
 30
-1820.191
 70
    32
  0
VERTEX
  8
W71LXLIFT
 62
1
 10
1506.277
 20
-5936.196
 30
-1820.128
 70
    32
  0
VERTEX
  8
W71LXLIFT
 62
1
 10
1496.856
 20
-5927.706
 30
-1820.070
 70
    32
  0
VERTEX
  8
W71LXLIFT
 62
1
 10
1488.410
 20
-5919.683
 30
-1820.024
 70
    32
  0
VERTEX
  8
W71LXLIFT
 62
1
 10
1473.183
 20
-5905.429
 30
-1819.938
 70
    32
  0
VERTEX
  8
W71LXLIFT
 62
1
 10
1461.604
 20
-5896.371
 30
-1819.856
 70
    32
  0
VERTEX
  8
W71LXLIFT
 62
1
 10
1472.291
 20
-5881.877
 30
-1820.142
 70
    32
  0
VERTEX
  8
W71LXLIFT
 62
1
 10
1473.802
 20
-5883.261
 30
-1820.161
 70
    32
  0
VERTEX
  8
W71LXLIFT
 62
1
 10
1478.914
 20
-5879.436
 30
-1820.242
 70
    32
  0
VERTEX
  8
W71LXLIFT
 62
1
 10
1486.382
 20
-5868.986
 30
-1820.371
 70
    32
  0
VERTEX
  8
W71LXLIFT
 62
1
 10
1491.571
 20
-5850.795
 30
-1820.483
 70
    32
  0
VERTEX
  8
W71LXLIFT
 62
1
 10
1482.994
 20
-5811.191
 30
-1820.440
 70
    32
  0
VERTEX
  8
W71LXLIFT
 62
1
 10
1476.597
 20
-5805.122
 30
-1820.360
 70
    32
  0
VERTEX
  8
W71LXLIFT
 62
1
 10
1456.753
 20
-5784.002
 30
-1820.125
 70
    32
  0
VERTEX
  8
W71LXLIFT
 62
1
 10
1445.558
 20
-5770.995
 30
-1819.983
 70
    32
  0
VERTEX
  8
W71LXLIFT
 62
1
 10
1437.071
 20
-5762.401
 30
-1819.878
 70
    32
  0
VERTEX
  8
W71LXLIFT
 62
1
 10
1432.134
 20
-5757.402
 30
-1819.817
 70
    32
  0
SEQEND
  8
W71LXLIFT
  0
LINE
  8
W71LXLIFT
 62
2
 10
1466.452
 20
-5950.853
 30
-1682.796
 11
1529.750
 21
-5952.035
 31
-1819.897
  0
POINT
  8
W71LXLIFT
 62
1
 10
1466.452
 20
-5950.853
 30
-1682.796
  0
LINE
  8
W71LXLIFT
 62
8
 10
1313.576
 20
-5648.274
 30
-1680.140
 11
1354.075
 21
-5643.658
 31
-1819.897
  0
LINE
  8
W71LXLIFT
 62
8
 10
1337.201
 20
-5697.761
 30
-1679.806
 11
1354.075
 21
-5643.658
 31
-1819.897
  0
POINT
  8
W71LXLIFT
 62
1
 10
1337.201
 20
-5697.761
 30
-1679.806
  0
POLYLINE
  8
W71LXLIFT
 62
1
 66
     1
 70
     9
  0
VERTEX
  8
W71LXLIFT
 62
1
 10
1761.742
 20
-6818.212
 30
-1817.714
 70
    32
  0
VERTEX
  8
W71LXLIFT
 62
1
 10
1774.636
 20
-6832.853
 30
-1817.755
 70
    32
  0
VERTEX
  8
W71LXLIFT
 62
1
 10
1784.887
 20
-6841.803
 30
-1817.809
 70
    32
  0
VERTEX
  8
W71LXLIFT
 62
1
 10
1791.642
 20
-6851.937
 30
-1817.810
 70
    32
  0
VERTEX
  8
W71LXLIFT
 62
1
 10
1800.942
 20
-6858.312
 30
-1817.874
 70
    32
  0
VERTEX
  8
W71LXLIFT
 62
1
 10
1804.958
 20
-6878.009
 30
-1817.764
 70
    32
  0
VERTEX
  8
W71LXLIFT
 62
1
 10
1804.568
 20
-6883.838
 30
-1817.713
 70
    32
  0
VERTEX
  8
W71LXLIFT
 62
1
 10
1801.169
 20
-6891.583
 30
-1817.608
 70
    32
  0
VERTEX
  8
W71LXLIFT
 62
1
 10
1801.507
 20
-6897.203
 30
-1817.568
 70
    32
  0
VERTEX
  8
W71LXLIFT
 62
1
 10
1805.877
 20
-6914.323
 30
-1817.486
 70
    32
  0
VERTEX
  8
W71LXLIFT
 62
1
 10
1815.198
 20
-6930.996
 30
-1817.470
 70
    32
  0
VERTEX
  8
W71LXLIFT
 62
1
 10
1803.281
 20
-6946.714
 30
-1817.181
 70
    32
  0
VERTEX
  8
W71LXLIFT
 62
1
 10
1798.998
 20
-6946.755
 30
-1817.125
 70
    32
  0
VERTEX
  8
W71LXLIFT
 62
1
 10
1795.519
 20
-6944.463
 30
-1817.104
 70
    32
  0
VERTEX
  8
W71LXLIFT
 62
1
 10
1793.603
 20
-6940.915
 30
-1817.115
 70
    32
  0
VERTEX
  8
W71LXLIFT
 62
1
 10
1791.050
 20
-6931.715
 30
-1817.161
 70
    32
  0
VERTEX
  8
W71LXLIFT
 62
1
 10
1788.325
 20
-6918.074
 30
-1817.235
 70
    32
  0
VERTEX
  8
W71LXLIFT
 62
1
 10
1780.658
 20
-6901.836
 30
-1817.269
 70
    32
  0
VERTEX
  8
W71LXLIFT
 62
1
 10
1776.286
 20
-6889.191
 30
-1817.317
 70
    32
  0
VERTEX
  8
W71LXLIFT
 62
1
 10
1770.822
 20
-6882.778
 30
-1817.302
 70
    32
  0
VERTEX
  8
W71LXLIFT
 62
1
 10
1756.579
 20
-6854.326
 30
-1817.357
 70
    32
  0
VERTEX
  8
W71LXLIFT
 62
1
 10
1748.232
 20
-6840.271
 30
-1817.367
 70
    32
  0
SEQEND
  8
W71LXLIFT
  0
POLYLINE
  8
W71LXLIFT
 62
1
 66
     1
 70
     9
  0
VERTEX
  8
W71LXLIFT
 62
1
 10
1761.742
 20
-6818.212
 30
-1817.714
 70
    32
  0
VERTEX
  8
W71LXLIFT
 62
1
 10
1750.463
 20
-6812.160
 30
-1817.624
 70
    32
  0
VERTEX
  8
W71LXLIFT
 62
1
 10
1731.384
 20
-6793.926
 30
-1817.400
 70
    32
  0
VERTEX
  8
W71LXLIFT
 62
1
 10
1729.425
 20
-6790.248
 30
-1817.384
 70
    32
  0
VERTEX
  8
W71LXLIFT
 62
1
 10
1728.059
 20
-6781.746
 30
-1817.427
 70
    32
  0
VERTEX
  8
W71LXLIFT
 62
1
 10
1729.960
 20
-6778.225
 30
-1817.508
 70
    32
  0
VERTEX
  8
W71LXLIFT
 62
1
 10
1724.937
 20
-6752.297
 30
-1817.618
 70
    32
  0
VERTEX
  8
W71LXLIFT
 62
1
 10
1689.618
 20
-6761.182
 30
-1816.634
 70
    32
  0
VERTEX
  8
W71LXLIFT
 62
1
 10
1686.410
 20
-6762.873
 30
-1816.537
 70
    32
  0
VERTEX
  8
W71LXLIFT
 62
1
 10
1686.143
 20
-6774.812
 30
-1816.421
 70
    32
  0
VERTEX
  8
W71LXLIFT
 62
1
 10
1696.886
 20
-6789.329
 30
-1816.562
 70
    32
  0
VERTEX
  8
W71LXLIFT
 62
1
 10
1698.173
 20
-6799.769
 30
-1816.499
 70
    32
  0
VERTEX
  8
W71LXLIFT
 62
1
 10
1702.049
 20
-6815.128
 30
-1816.457
 70
    32
  0
VERTEX
  8
W71LXLIFT
 62
1
 10
1709.480
 20
-6815.992
 30
-1816.639
 70
    32
  0
VERTEX
  8
W71LXLIFT
 62
1
 10
1716.352
 20
-6820.014
 30
-1816.777
 70
    32
  0
VERTEX
  8
W71LXLIFT
 62
1
 10
1725.882
 20
-6831.785
 30
-1816.913
 70
    32
  0
VERTEX
  8
W71LXLIFT
 62
1
 10
1731.006
 20
-6831.271
 30
-1817.048
 70
    32
  0
VERTEX
  8
W71LXLIFT
 62
1
 10
1748.232
 20
-6840.271
 30
-1817.367
 70
    32
  0
VERTEX
  8
W71LXLIFT
 62
1
 10
1748.232
 20
-6840.271
 30
-1817.367
 70
    32
  0
SEQEND
  8
W71LXLIFT
  0
POLYLINE
  8
W71LXLIFT
 62
13
 66
     1
 70
     9
  0
VERTEX
  8
W71LXLIFT
 62
13
 10
1760.742
 20
-6819.212
 30
-1827.714
 70
    32
  0
VERTEX
  8
W71LXLIFT
 62
13
 10
1773.636
 20
-6833.853
 30
-1827.755
 70
    32
  0
VERTEX
  8
W71LXLIFT
 62
13
 10
1783.887
 20
-6842.803
 30
-1827.809
 70
    32
  0
VERTEX
  8
W71LXLIFT
 62
13
 10
1790.642
 20
-6852.937
 30
-1827.810
 70
    32
  0
VERTEX
  8
W71LXLIFT
 62
13
 10
1799.942
 20
-6859.312
 30
-1827.874
 70
    32
  0
VERTEX
  8
W71LXLIFT
 62
13
 10
1803.958
 20
-6879.009
 30
-1827.764
 70
    32
  0
VERTEX
  8
W71LXLIFT
 62
13
 10
1803.568
 20
-6884.838
 30
-1827.713
 70
    32
  0
VERTEX
  8
W71LXLIFT
 62
13
 10
1800.169
 20
-6892.583
 30
-1827.608
 70
    32
  0
VERTEX
  8
W71LXLIFT
 62
13
 10
1800.507
 20
-6898.203
 30
-1827.568
 70
    32
  0
VERTEX
  8
W71LXLIFT
 62
13
 10
1804.877
 20
-6915.323
 30
-1827.486
 70
    32
  0
VERTEX
  8
W71LXLIFT
 62
13
 10
1814.198
 20
-6931.996
 30
-1827.470
 70
    32
  0
VERTEX
  8
W71LXLIFT
 62
13
 10
1802.281
 20
-6947.714
 30
-1827.181
 70
    32
  0
VERTEX
  8
W71LXLIFT
 62
13
 10
1797.998
 20
-6947.755
 30
-1827.125
 70
    32
  0
VERTEX
  8
W71LXLIFT
 62
13
 10
1794.519
 20
-6945.463
 30
-1827.104
 70
    32
  0
VERTEX
  8
W71LXLIFT
 62
13
 10
1792.603
 20
-6941.915
 30
-1827.115
 70
    32
  0
VERTEX
  8
W71LXLIFT
 62
13
 10
1790.050
 20
-6932.715
 30
-1827.161
 70
    32
  0
VERTEX
  8
W71LXLIFT
 62
13
 10
1787.325
 20
-6919.074
 30
-1827.235
 70
    32
  0
VERTEX
  8
W71LXLIFT
 62
13
 10
1779.658
 20
-6902.836
 30
-1827.269
 70
    32
  0
VERTEX
  8
W71LXLIFT
 62
13
 10
1775.286
 20
-6890.191
 30
-1827.317
 70
    32
  0
VERTEX
  8
W71LXLIFT
 62
13
 10
1769.822
 20
-6883.778
 30
-1827.302
 70
    32
  0
VERTEX
  8
W71LXLIFT
 62
13
 10
1755.579
 20
-6855.326
 30
-1827.357
 70
    32
  0
VERTEX
  8
W71LXLIFT
 62
13
 10
1747.232
 20
-6841.271
 30
-1827.367
 70
    32
  0
SEQEND
  8
W71LXLIFT
  0
POLYLINE
  8
W71LXLIFT
 62
13
 66
     1
 70
     9
  0
VERTEX
  8
W71LXLIFT
 62
13
 10
1760.742
 20
-6819.212
 30
-1827.714
 70
    32
  0
VERTEX
  8
W71LXLIFT
 62
13
 10
1749.463
 20
-6813.160
 30
-1827.624
 70
    32
  0
VERTEX
  8
W71LXLIFT
 62
13
 10
1730.384
 20
-6794.926
 30
-1827.400
 70
    32
  0
VERTEX
  8
W71LXLIFT
 62
13
 10
1728.425
 20
-6791.248
 30
-1827.384
 70
    32
  0
VERTEX
  8
W71LXLIFT
 62
13
 10
1727.059
 20
-6782.746
 30
-1827.427
 70
    32
  0
VERTEX
  8
W71LXLIFT
 62
13
 10
1728.960
 20
-6779.225
 30
-1827.508
 70
    32
  0
VERTEX
  8
W71LXLIFT
 62
13
 10
1723.937
 20
-6753.297
 30
-1827.618
 70
    32
  0
VERTEX
  8
W71LXLIFT
 62
13
 10
1688.618
 20
-6762.182
 30
-1826.634
 70
    32
  0
VERTEX
  8
W71LXLIFT
 62
13
 10
1685.410
 20
-6763.873
 30
-1826.537
 70
    32
  0
VERTEX
  8
W71LXLIFT
 62
13
 10
1685.143
 20
-6775.812
 30
-1826.421
 70
    32
  0
VERTEX
  8
W71LXLIFT
 62
13
 10
1695.886
 20
-6790.329
 30
-1826.562
 70
    32
  0
VERTEX
  8
W71LXLIFT
 62
13
 10
1697.173
 20
-6800.769
 30
-1826.499
 70
    32
  0
VERTEX
  8
W71LXLIFT
 62
13
 10
1701.049
 20
-6816.128
 30
-1826.457
 70
    32
  0
VERTEX
  8
W71LXLIFT
 62
13
 10
1708.480
 20
-6816.992
 30
-1826.639
 70
    32
  0
VERTEX
  8
W71LXLIFT
 62
13
 10
1715.352
 20
-6821.014
 30
-1826.777
 70
    32
  0
VERTEX
  8
W71LXLIFT
 62
13
 10
1724.882
 20
-6832.785
 30
-1826.913
 70
    32
  0
VERTEX
  8
W71LXLIFT
 62
13
 10
1730.006
 20
-6832.271
 30
-1827.048
 70
    32
  0
VERTEX
  8
W71LXLIFT
 62
13
 10
1747.232
 20
-6841.271
 30
-1827.367
 70
    32
  0
VERTEX
  8
W71LXLIFT
 62
13
 10
1747.232
 20
-6841.271
 30
-1827.367
 70
    32
  0
SEQEND
  8
W71LXLIFT
  0
POLYLINE
  8
W71LXLIFT
 62
8
 66
     1
 70
     9
  0
VERTEX
  8
W71LXLIFT
 62
8
 10
1336.227
 20
-5592.693
 30
-1830.575
 70
    32
  0
VERTEX
  8
W71LXLIFT
 62
8
 10
1338.730
 20
-5588.627
 30
-1830.592
 70
    32
  0
VERTEX
  8
W71LXLIFT
 62
8
 10
1331.558
 20
-5581.350
 30
-1830.631
 70
    32
  0
VERTEX
  8
W71LXLIFT
 62
8
 10
1330.682
 20
-5579.300
 30
-1830.640
 70
    32
  0
VERTEX
  8
W71LXLIFT
 62
8
 10
1326.782
 20
-5571.636
 30
-1830.672
 70
    32
  0
VERTEX
  8
W71LXLIFT
 62
8
 10
1323.572
 20
-5559.754
 30
-1830.717
 70
    32
  0
VERTEX
  8
W71LXLIFT
 62
8
 10
1319.381
 20
-5547.746
 30
-1830.767
 70
    32
  0
VERTEX
  8
W71LXLIFT
 62
8
 10
1314.424
 20
-5536.992
 30
-1830.803
 70
    32
  0
VERTEX
  8
W71LXLIFT
 62
8
 10
1309.672
 20
-5526.685
 30
-1830.838
 70
    32
  0
VERTEX
  8
W71LXLIFT
 62
8
 10
1304.390
 20
-5515.225
 30
-1830.877
 70
    32
  0
VERTEX
  8
W71LXLIFT
 62
8
 10
1299.584
 20
-5504.801
 30
-1830.912
 70
    32
  0
VERTEX
  8
W71LXLIFT
 62
8
 10
1292.331
 20
-5501.448
 30
-1830.909
 70
    32
  0
VERTEX
  8
W71LXLIFT
 62
8
 10
1284.108
 20
-5506.531
 30
-1830.878
 70
    32
  0
VERTEX
  8
W71LXLIFT
 62
8
 10
1280.777
 20
-5513.776
 30
-1830.851
 70
    32
  0
VERTEX
  8
W71LXLIFT
 62
8
 10
1277.298
 20
-5525.875
 30
-1830.810
 70
    32
  0
VERTEX
  8
W71LXLIFT
 62
8
 10
1281.888
 20
-5535.364
 30
-1830.795
 70
    32
  0
VERTEX
  8
W71LXLIFT
 62
8
 10
1293.494
 20
-5540.391
 30
-1830.804
 70
    32
  0
VERTEX
  8
W71LXLIFT
 62
8
 10
1296.736
 20
-5560.079
 30
-1830.729
 70
    32
  0
VERTEX
  8
W71LXLIFT
 62
8
 10
1304.578
 20
-5568.821
 30
-1830.685
 70
    32
  0
VERTEX
  8
W71LXLIFT
 62
8
 10
1319.138
 20
-5576.065
 30
-1830.657
 70
    32
  0
VERTEX
  8
W71LXLIFT
 62
8
 10
1324.069
 20
-5594.954
 30
-1830.575
 70
    32
  0
SEQEND
  8
W71LXLIFT
  0
POLYLINE
  8
W71LXLIFT
 62
8
 66
     1
 70
     9
  0
VERTEX
  8
W71LXLIFT
 62
8
 10
1336.227
 20
-5592.693
 30
-1830.575
 70
    32
  0
VERTEX
  8
W71LXLIFT
 62
8
 10
1353.846
 20
-5627.028
 30
-1830.402
 70
    32
  0
VERTEX
  8
W71LXLIFT
 62
8
 10
1360.991
 20
-5622.689
 30
-1830.416
 70
    32
  0
VERTEX
  8
W71LXLIFT
 62
8
 10
1368.530
 20
-5629.163
 30
-1830.379
 70
    32
  0
VERTEX
  8
W71LXLIFT
 62
8
 10
1366.455
 20
-5635.511
 30
-1830.352
 70
    32
  0
VERTEX
  8
W71LXLIFT
 62
8
 10
1375.669
 20
-5660.198
 30
-1830.230
 70
    32
  0
VERTEX
  8
W71LXLIFT
 62
8
 10
1377.823
 20
-5662.048
 30
-1830.220
 70
    32
  0
VERTEX
  8
W71LXLIFT
 62
8
 10
1373.092
 20
-5668.619
 30
-1830.193
 70
    32
  0
VERTEX
  8
W71LXLIFT
 62
8
 10
1381.584
 20
-5683.093
 30
-1830.119
 70
    32
  0
VERTEX
  8
W71LXLIFT
 62
8
 10
1382.610
 20
-5683.924
 30
-1830.115
 70
    32
  0
VERTEX
  8
W71LXLIFT
 62
8
 10
1387.474
 20
-5680.013
 30
-1830.128
 70
    32
  0
VERTEX
  8
W71LXLIFT
 62
8
 10
1392.693
 20
-5688.387
 30
-1830.085
 70
    32
  0
VERTEX
  8
W71LXLIFT
 62
8
 10
1395.303
 20
-5696.242
 30
-1830.047
 70
    32
  0
VERTEX
  8
W71LXLIFT
 62
8
 10
1394.231
 20
-5702.376
 30
-1830.020
 70
    32
  0
VERTEX
  8
W71LXLIFT
 62
8
 10
1407.092
 20
-5727.654
 30
-1829.892
 70
    32
  0
VERTEX
  8
W71LXLIFT
 62
8
 10
1443.796
 20
-5751.985
 30
-1830.013
 70
    32
  0
VERTEX
  8
W71LXLIFT
 62
8
 10
1431.134
 20
-5758.402
 30
-1829.817
 70
    32
  0
VERTEX
  8
W71LXLIFT
 62
8
 10
1431.134
 20
-5758.402
 30
-1829.817
 70
    32
  0
VERTEX
  8
W71LXLIFT
 62
8
 10
1431.134
 20
-5758.402
 30
-1829.817
 70
    32
  0
VERTEX
  8
W71LXLIFT
 62
8
 10
1421.049
 20
-5757.919
 30
-1829.745
 70
    32
  0
VERTEX
  8
W71LXLIFT
 62
8
 10
1415.081
 20
-5751.436
 30
-1829.775
 70
    32
  0
VERTEX
  8
W71LXLIFT
 62
8
 10
1397.056
 20
-5740.231
 30
-1829.911
 70
    32
  0
VERTEX
  8
W71LXLIFT
 62
8
 10
1384.981
 20
-5723.386
 30
-1829.931
 70
    32
  0
VERTEX
  8
W71LXLIFT
 62
8
 10
1384.399
 20
-5715.203
 30
-1829.969
 70
    32
  0
VERTEX
  8
W71LXLIFT
 62
8
 10
1375.974
 20
-5704.509
 30
-1830.025
 70
    32
  0
VERTEX
  8
W71LXLIFT
 62
8
 10
1368.379
 20
-5693.708
 30
-1830.082
 70
    32
  0
VERTEX
  8
W71LXLIFT
 62
8
 10
1359.234
 20
-5676.476
 30
-1830.169
 70
    32
  0
VERTEX
  8
W71LXLIFT
 62
8
 10
1338.759
 20
-5649.165
 30
-1830.312
 70
    32
  0
VERTEX
  8
W71LXLIFT
 62
8
 10
1338.397
 20
-5633.164
 30
-1830.387
 70
    32
  0
VERTEX
  8
W71LXLIFT
 62
8
 10
1331.460
 20
-5608.280
 30
-1830.507
 70
    32
  0
VERTEX
  8
W71LXLIFT
 62
8
 10
1324.069
 20
-5594.954
 30
-1830.575
 70
    32
  0
VERTEX
  8
W71LXLIFT
 62
8
 10
1324.069
 20
-5594.954
 30
-1830.575
 70
    32
  0
SEQEND
  8
W71LXLIFT
  0
POLYLINE
  8
W71LXLIFT
 62
1
 66
     1
 70
     9
  0
VERTEX
  8
W71LXLIFT
 62
1
 10
1325.069
 20
-5593.954
 30
-1820.575
 70
    32
  0
VERTEX
  8
W71LXLIFT
 62
1
 10
1325.069
 20
-5593.954
 30
-1820.575
 70
    32
  0
VERTEX
  8
W71LXLIFT
 62
1
 10
1332.460
 20
-5607.280
 30
-1820.507
 70
    32
  0
VERTEX
  8
W71LXLIFT
 62
1
 10
1339.397
 20
-5632.164
 30
-1820.387
 70
    32
  0
VERTEX
  8
W71LXLIFT
 62
1
 10
1339.759
 20
-5648.165
 30
-1820.312
 70
    32
  0
VERTEX
  8
W71LXLIFT
 62
1
 10
1360.234
 20
-5675.476
 30
-1820.169
 70
    32
  0
VERTEX
  8
W71LXLIFT
 62
1
 10
1369.379
 20
-5692.708
 30
-1820.082
 70
    32
  0
VERTEX
  8
W71LXLIFT
 62
1
 10
1376.974
 20
-5703.509
 30
-1820.025
 70
    32
  0
VERTEX
  8
W71LXLIFT
 62
1
 10
1385.399
 20
-5714.203
 30
-1819.969
 70
    32
  0
VERTEX
  8
W71LXLIFT
 62
1
 10
1385.981
 20
-5722.386
 30
-1819.931
 70
    32
  0
VERTEX
  8
W71LXLIFT
 62
1
 10
1398.056
 20
-5739.231
 30
-1819.911
 70
    32
  0
VERTEX
  8
W71LXLIFT
 62
1
 10
1416.081
 20
-5750.436
 30
-1819.775
 70
    32
  0
VERTEX
  8
W71LXLIFT
 62
1
 10
1422.049
 20
-5756.919
 30
-1819.745
 70
    32
  0
VERTEX
  8
W71LXLIFT
 62
1
 10
1432.134
 20
-5757.402
 30
-1819.817
 70
    32
  0
VERTEX
  8
W71LXLIFT
 62
1
 10
1432.134
 20
-5757.402
 30
-1819.817
 70
    32
  0
VERTEX
  8
W71LXLIFT
 62
1
 10
1444.796
 20
-5750.985
 30
-1820.013
 70
    32
  0
VERTEX
  8
W71LXLIFT
 62
1
 10
1408.092
 20
-5726.654
 30
-1819.892
 70
    32
  0
VERTEX
  8
W71LXLIFT
 62
1
 10
1395.231
 20
-5701.376
 30
-1820.020
 70
    32
  0
VERTEX
  8
W71LXLIFT
 62
1
 10
1396.303
 20
-5695.242
 30
-1820.047
 70
    32
  0
VERTEX
  8
W71LXLIFT
 62
1
 10
1393.693
 20
-5687.387
 30
-1820.085
 70
    32
  0
VERTEX
  8
W71LXLIFT
 62
1
 10
1388.474
 20
-5679.013
 30
-1820.128
 70
    32
  0
VERTEX
  8
W71LXLIFT
 62
1
 10
1383.610
 20
-5682.924
 30
-1820.115
 70
    32
  0
VERTEX
  8
W71LXLIFT
 62
1
 10
1382.584
 20
-5682.093
 30
-1820.119
 70
    32
  0
VERTEX
  8
W71LXLIFT
 62
1
 10
1374.092
 20
-5667.619
 30
-1820.193
 70
    32
  0
VERTEX
  8
W71LXLIFT
 62
1
 10
1378.823
 20
-5661.048
 30
-1820.220
 70
    32
  0
VERTEX
  8
W71LXLIFT
 62
1
 10
1376.669
 20
-5659.198
 30
-1820.230
 70
    32
  0
VERTEX
  8
W71LXLIFT
 62
1
 10
1367.455
 20
-5634.511
 30
-1820.352
 70
    32
  0
VERTEX
  8
W71LXLIFT
 62
1
 10
1369.530
 20
-5628.163
 30
-1820.379
 70
    32
  0
VERTEX
  8
W71LXLIFT
 62
1
 10
1361.991
 20
-5621.689
 30
-1820.416
 70
    32
  0
VERTEX
  8
W71LXLIFT
 62
1
 10
1354.846
 20
-5626.028
 30
-1820.402
 70
    32
  0
VERTEX
  8
W71LXLIFT
 62
1
 10
1337.227
 20
-5591.693
 30
-1820.575
 70
    32
  0
SEQEND
  8
W71LXLIFT
  0
POLYLINE
  8
W71LXLIFT
 62
1
 66
     1
 70
     9
  0
VERTEX
  8
W71LXLIFT
 62
1
 10
1337.227
 20
-5591.693
 30
-1820.575
 70
    32
  0
VERTEX
  8
W71LXLIFT
 62
1
 10
1339.730
 20
-5587.627
 30
-1820.592
 70
    32
  0
VERTEX
  8
W71LXLIFT
 62
1
 10
1332.558
 20
-5580.350
 30
-1820.631
 70
    32
  0
VERTEX
  8
W71LXLIFT
 62
1
 10
1331.682
 20
-5578.300
 30
-1820.640
 70
    32
  0
VERTEX
  8
W71LXLIFT
 62
1
 10
1327.782
 20
-5570.636
 30
-1820.672
 70
    32
  0
VERTEX
  8
W71LXLIFT
 62
1
 10
1324.572
 20
-5558.754
 30
-1820.717
 70
    32
  0
VERTEX
  8
W71LXLIFT
 62
1
 10
1320.381
 20
-5546.746
 30
-1820.767
 70
    32
  0
VERTEX
  8
W71LXLIFT
 62
1
 10
1315.424
 20
-5535.992
 30
-1820.803
 70
    32
  0
VERTEX
  8
W71LXLIFT
 62
1
 10
1310.672
 20
-5525.685
 30
-1820.838
 70
    32
  0
VERTEX
  8
W71LXLIFT
 62
1
 10
1305.390
 20
-5514.225
 30
-1820.877
 70
    32
  0
VERTEX
  8
W71LXLIFT
 62
1
 10
1300.584
 20
-5503.801
 30
-1820.912
 70
    32
  0
VERTEX
  8
W71LXLIFT
 62
1
 10
1293.331
 20
-5500.448
 30
-1820.909
 70
    32
  0
VERTEX
  8
W71LXLIFT
 62
1
 10
1285.108
 20
-5505.531
 30
-1820.878
 70
    32
  0
VERTEX
  8
W71LXLIFT
 62
1
 10
1281.777
 20
-5512.776
 30
-1820.851
 70
    32
  0
VERTEX
  8
W71LXLIFT
 62
1
 10
1278.298
 20
-5524.875
 30
-1820.810
 70
    32
  0
VERTEX
  8
W71LXLIFT
 62
1
 10
1282.888
 20
-5534.364
 30
-1820.795
 70
    32
  0
VERTEX
  8
W71LXLIFT
 62
1
 10
1294.494
 20
-5539.391
 30
-1820.804
 70
    32
  0
VERTEX
  8
W71LXLIFT
 62
1
 10
1297.736
 20
-5559.079
 30
-1820.729
 70
    32
  0
VERTEX
  8
W71LXLIFT
 62
1
 10
1305.578
 20
-5567.821
 30
-1820.685
 70
    32
  0
VERTEX
  8
W71LXLIFT
 62
1
 10
1320.138
 20
-5575.065
 30
-1820.657
 70
    32
  0
VERTEX
  8
W71LXLIFT
 62
1
 10
1325.069
 20
-5593.954
 30
-1820.575
 70
    32
  0
SEQEND
  8
W71LXLIFT
  0
POLYLINE
  8
W71LXLIFT
 62
7
 66
     1
 70
     9
  0
VERTEX
  8
W71LXLIFT
 62
7
 10
2056.736
 20
-7942.193
 30
-1709.210
 70
    32
  0
VERTEX
  8
W71LXLIFT
 62
7
 10
2052.940
 20
-7942.775
 30
-1706.940
 70
    32
  0
VERTEX
  8
W71LXLIFT
 62
7
 10
2051.240
 20
-7943.035
 30
-1706.430
 70
    32
  0
VERTEX
  8
W71LXLIFT
 62
7
 10
2050.440
 20
-7943.158
 30
-1706.540
 70
    32
  0
VERTEX
  8
W71LXLIFT
 62
7
 10
2050.094
 20
-7943.211
 30
-1705.980
 70
    32
  0
VERTEX
  8
W71LXLIFT
 62
7
 10
2048.789
 20
-7943.411
 30
-1705.980
 70
    32
  0
VERTEX
  8
W71LXLIFT
 62
7
 10
2047.484
 20
-7943.611
 30
-1705.930
 70
    32
  0
VERTEX
  8
W71LXLIFT
 62
7
 10
2046.436
 20
-7943.772
 30
-1705.730
 70
    32
  0
VERTEX
  8
W71LXLIFT
 62
7
 10
2046.288
 20
-7943.795
 30
-1705.320
 70
    32
  0
VERTEX
  8
W71LXLIFT
 62
7
 10
2046.041
 20
-7943.833
 30
-1705.020
 70
    32
  0
VERTEX
  8
W71LXLIFT
 62
7
 10
2046.337
 20
-7943.787
 30
-1704.460
 70
    32
  0
VERTEX
  8
W71LXLIFT
 62
7
 10
2046.288
 20
-7943.795
 30
-1703.910
 70
    32
  0
VERTEX
  8
W71LXLIFT
 62
7
 10
2046.041
 20
-7943.833
 30
-1703.750
 70
    32
  0
VERTEX
  8
W71LXLIFT
 62
7
 10
2047.237
 20
-7943.649
 30
-1703.050
 70
    32
  0
VERTEX
  8
W71LXLIFT
 62
7
 10
2046.842
 20
-7943.710
 30
-1702.690
 70
    32
  0
VERTEX
  8
W71LXLIFT
 62
7
 10
2045.833
 20
-7943.864
 30
-1702.290
 70
    32
  0
VERTEX
  8
W71LXLIFT
 62
7
 10
2045.833
 20
-7943.864
 30
-1701.630
 70
    32
  0
VERTEX
  8
W71LXLIFT
 62
7
 10
2045.339
 20
-7943.940
 30
-1700.570
 70
    32
  0
VERTEX
  8
W71LXLIFT
 62
7
 10
2045.240
 20
-7943.955
 30
-1700.060
 70
    32
  0
VERTEX
  8
W71LXLIFT
 62
7
 10
2046.743
 20
-7943.725
 30
-1699.200
 70
    32
  0
VERTEX
  8
W71LXLIFT
 62
7
 10
2047.642
 20
-7943.587
 30
-1698.550
 70
    32
  0
VERTEX
  8
W71LXLIFT
 62
7
 10
2048.334
 20
-7943.481
 30
-1698.400
 70
    32
  0
VERTEX
  8
W71LXLIFT
 62
7
 10
2048.641
 20
-7943.434
 30
-1698.040
 70
    32
  0
VERTEX
  8
W71LXLIFT
 62
7
 10
2048.591
 20
-7943.442
 30
-1697.790
 70
    32
  0
VERTEX
  8
W71LXLIFT
 62
7
 10
2049.589
 20
-7943.289
 30
-1697.590
 70
    32
  0
VERTEX
  8
W71LXLIFT
 62
7
 10
2049.837
 20
-7943.251
 30
-1697.890
 70
    32
  0
VERTEX
  8
W71LXLIFT
 62
7
 10
2050.687
 20
-7943.120
 30
-1697.990
 70
    32
  0
VERTEX
  8
W71LXLIFT
 62
7
 10
2050.993
 20
-7943.073
 30
-1698.650
 70
    32
  0
VERTEX
  8
W71LXLIFT
 62
7
 10
2051.734
 20
-7942.960
 30
-1700.420
 70
    32
  0
VERTEX
  8
W71LXLIFT
 62
7
 10
2051.734
 20
-7942.960
 30
-1700.970
 70
    32
  0
VERTEX
  8
W71LXLIFT
 62
7
 10
2052.041
 20
-7942.913
 30
-1701.380
 70
    32
  0
VERTEX
  8
W71LXLIFT
 62
7
 10
2052.041
 20
-7942.913
 30
-1701.930
 70
    32
  0
VERTEX
  8
W71LXLIFT
 62
7
 10
2052.940
 20
-7942.775
 30
-1703.700
 70
    32
  0
VERTEX
  8
W71LXLIFT
 62
7
 10
2054.542
 20
-7942.529
 30
-1704.820
 70
    32
  0
VERTEX
  8
W71LXLIFT
 62
7
 10
2055.145
 20
-7942.437
 30
-1706.080
 70
    32
  0
VERTEX
  8
W71LXLIFT
 62
7
 10
2055.036
 20
-7942.454
 30
-1706.690
 70
    32
  0
VERTEX
  8
W71LXLIFT
 62
7
 10
2056.894
 20
-7942.169
 30
-1707.500
 70
    32
  0
VERTEX
  8
W71LXLIFT
 62
7
 10
2057.042
 20
-7942.146
 30
-1707.800
 70
    32
  0
SEQEND
  8
W71LXLIFT
  0
POLYLINE
  8
W71LXLIFT
 62
7
 66
     1
 70
     9
  0
VERTEX
  8
W71LXLIFT
 62
7
 10
2045.797
 20
-7947.917
 30
-1709.870
 70
    32
  0
VERTEX
  8
W71LXLIFT
 62
7
 10
2045.491
 20
-7947.964
 30
-1707.830
 70
    32
  0
VERTEX
  8
W71LXLIFT
 62
7
 10
2045.639
 20
-7947.941
 30
-1706.310
 70
    32
  0
VERTEX
  8
W71LXLIFT
 62
7
 10
2047.438
 20
-7947.665
 30
-1703.280
 70
    32
  0
VERTEX
  8
W71LXLIFT
 62
7
 10
2047.141
 20
-7947.711
 30
-1701.920
 70
    32
  0
VERTEX
  8
W71LXLIFT
 62
7
 10
2049.988
 20
-7947.274
 30
-1700.180
 70
    32
  0
VERTEX
  8
W71LXLIFT
 62
7
 10
2049.988
 20
-7947.274
 30
-1699.800
 70
    32
  0
VERTEX
  8
W71LXLIFT
 62
7
 10
2051.560
 20
-7947.033
 30
-1699.490
 70
    32
  0
VERTEX
  8
W71LXLIFT
 62
7
 10
2052.380
 20
-7946.907
 30
-1700.100
 70
    32
  0
VERTEX
  8
W71LXLIFT
 62
7
 10
2054.327
 20
-7946.609
 30
-1703.660
 70
    32
  0
VERTEX
  8
W71LXLIFT
 62
7
 10
2055.978
 20
-7946.356
 30
-1705.250
 70
    32
  0
VERTEX
  8
W71LXLIFT
 62
7
 10
2057.629
 20
-7946.103
 30
-1707.980
 70
    32
  0
VERTEX
  8
W71LXLIFT
 62
7
 10
2058.449
 20
-7945.977
 30
-1707.980
 70
    32
  0
VERTEX
  8
W71LXLIFT
 62
7
 10
2059.873
 20
-7945.759
 30
-1711.310
 70
    32
  0
VERTEX
  8
W71LXLIFT
 62
7
 10
2060.920
 20
-7945.598
 30
-1712.600
 70
    32
  0
VERTEX
  8
W71LXLIFT
 62
7
 10
2060.772
 20
-7945.621
 30
-1713.280
 70
    32
  0
VERTEX
  8
W71LXLIFT
 62
7
 10
2059.497
 20
-7945.816
 30
-1712.220
 70
    32
  0
VERTEX
  8
W71LXLIFT
 62
7
 10
2058.301
 20
-7946.000
 30
-1712.370
 70
    32
  0
VERTEX
  8
W71LXLIFT
 62
7
 10
2057.253
 20
-7946.160
 30
-1711.230
 70
    32
  0
VERTEX
  8
W71LXLIFT
 62
7
 10
2055.830
 20
-7946.379
 30
-1711.160
 70
    32
  0
VERTEX
  8
W71LXLIFT
 62
7
 10
2055.454
 20
-7946.436
 30
-1710.400
 70
    32
  0
VERTEX
  8
W71LXLIFT
 62
7
 10
2054.555
 20
-7946.574
 30
-1710.250
 70
    32
  0
VERTEX
  8
W71LXLIFT
 62
7
 10
2052.904
 20
-7946.827
 30
-1709.720
 70
    32
  0
VERTEX
  8
W71LXLIFT
 62
7
 10
2051.856
 20
-7946.988
 30
-1709.720
 70
    32
  0
VERTEX
  8
W71LXLIFT
 62
7
 10
2051.263
 20
-7947.079
 30
-1709.110
 70
    32
  0
VERTEX
  8
W71LXLIFT
 62
7
 10
2049.988
 20
-7947.274
 30
-1708.810
 70
    32
  0
VERTEX
  8
W71LXLIFT
 62
7
 10
2048.565
 20
-7947.492
 30
-1709.420
 70
    32
  0
VERTEX
  8
W71LXLIFT
 62
7
 10
2047.438
 20
-7947.665
 30
-1709.420
 70
    32
  0
SEQEND
  8
W71LXLIFT
  0
POLYLINE
  8
W71LXLIFT
 62
7
 66
     1
 70
     9
  0
VERTEX
  8
W71LXLIFT
 62
7
 10
2061.467
 20
-7949.561
 30
-1714.530
 70
    32
  0
VERTEX
  8
W71LXLIFT
 62
7
 10
2052.532
 20
-7950.931
 30
-1712.430
 70
    32
  0
VERTEX
  8
W71LXLIFT
 62
7
 10
2050.535
 20
-7951.237
 30
-1712.860
 70
    32
  0
VERTEX
  8
W71LXLIFT
 62
7
 10
2048.953
 20
-7951.479
 30
-1712.360
 70
    32
  0
VERTEX
  8
W71LXLIFT
 62
7
 10
2045.810
 20
-7951.961
 30
-1712.140
 70
    32
  0
VERTEX
  8
W71LXLIFT
 62
7
 10
2045.672
 20
-7951.983
 30
-1709.470
 70
    32
  0
VERTEX
  8
W71LXLIFT
 62
7
 10
2045.316
 20
-7952.037
 30
-1707.080
 70
    32
  0
VERTEX
  8
W71LXLIFT
 62
7
 10
2048.242
 20
-7951.589
 30
-1705.490
 70
    32
  0
VERTEX
  8
W71LXLIFT
 62
7
 10
2049.032
 20
-7951.467
 30
-1703.900
 70
    32
  0
VERTEX
  8
W71LXLIFT
 62
7
 10
2051.464
 20
-7951.095
 30
-1702.380
 70
    32
  0
VERTEX
  8
W71LXLIFT
 62
7
 10
2051.385
 20
-7951.107
 30
-1701.800
 70
    32
  0
VERTEX
  8
W71LXLIFT
 62
7
 10
2053.392
 20
-7950.799
 30
-1701.370
 70
    32
  0
VERTEX
  8
W71LXLIFT
 62
7
 10
2055.032
 20
-7950.548
 30
-1702.160
 70
    32
  0
VERTEX
  8
W71LXLIFT
 62
7
 10
2055.467
 20
-7950.481
 30
-1702.810
 70
    32
  0
VERTEX
  8
W71LXLIFT
 62
7
 10
2056.396
 20
-7950.338
 30
-1702.810
 70
    32
  0
VERTEX
  8
W71LXLIFT
 62
7
 10
2058.749
 20
-7949.978
 30
-1704.550
 70
    32
  0
VERTEX
  8
W71LXLIFT
 62
7
 10
2059.253
 20
-7949.900
 30
-1705.630
 70
    32
  0
VERTEX
  8
W71LXLIFT
 62
7
 10
2060.182
 20
-7949.758
 30
-1706.210
 70
    32
  0
VERTEX
  8
W71LXLIFT
 62
7
 10
2060.686
 20
-7949.681
 30
-1707.440
 70
    32
  0
VERTEX
  8
W71LXLIFT
 62
7
 10
2060.044
 20
-7949.779
 30
-1707.660
 70
    32
  0
VERTEX
  8
W71LXLIFT
 62
7
 10
2060.044
 20
-7949.779
 30
-1708.310
 70
    32
  0
VERTEX
  8
W71LXLIFT
 62
7
 10
2060.894
 20
-7949.649
 30
-1709.030
 70
    32
  0
VERTEX
  8
W71LXLIFT
 62
7
 10
2060.894
 20
-7949.649
 30
-1710.690
 70
    32
  0
VERTEX
  8
W71LXLIFT
 62
7
 10
2060.756
 20
-7949.670
 30
-1711.130
 70
    32
  0
VERTEX
  8
W71LXLIFT
 62
7
 10
2061.467
 20
-7949.561
 30
-1712.720
 70
    32
  0
VERTEX
  8
W71LXLIFT
 62
7
 10
2062.189
 20
-7949.450
 30
-1712.650
 70
    32
  0
VERTEX
  8
W71LXLIFT
 62
7
 10
2063.543
 20
-7949.243
 30
-1715.030
 70
    32
  0
SEQEND
  8
W71LXLIFT
  0
POLYLINE
  8
W71LXLIFT
 62
7
 66
     1
 70
     9
  0
VERTEX
  8
W71LXLIFT
 62
7
 10
2060.749
 20
-7953.718
 30
-1715.830
 70
    32
  0
VERTEX
  8
W71LXLIFT
 62
7
 10
2056.884
 20
-7954.310
 30
-1714.630
 70
    32
  0
VERTEX
  8
W71LXLIFT
 62
7
 10
2047.197
 20
-7955.795
 30
-1714.300
 70
    32
  0
VERTEX
  8
W71LXLIFT
 62
7
 10
2045.477
 20
-7956.059
 30
-1707.340
 70
    32
  0
VERTEX
  8
W71LXLIFT
 62
7
 10
2046.663
 20
-7955.877
 30
-1706.260
 70
    32
  0
VERTEX
  8
W71LXLIFT
 62
7
 10
2057.200
 20
-7954.262
 30
-1701.580
 70
    32
  0
VERTEX
  8
W71LXLIFT
 62
7
 10
2058.703
 20
-7954.032
 30
-1701.800
 70
    32
  0
VERTEX
  8
W71LXLIFT
 62
7
 10
2061.500
 20
-7953.603
 30
-1703.210
 70
    32
  0
VERTEX
  8
W71LXLIFT
 62
7
 10
2062.686
 20
-7953.421
 30
-1705.600
 70
    32
  0
VERTEX
  8
W71LXLIFT
 62
7
 10
2063.012
 20
-7953.371
 30
-1706.580
 70
    32
  0
VERTEX
  8
W71LXLIFT
 62
7
 10
2063.764
 20
-7953.256
 30
-1706.470
 70
    32
  0
VERTEX
  8
W71LXLIFT
 62
7
 10
2064.406
 20
-7953.157
 30
-1707.560
 70
    32
  0
VERTEX
  8
W71LXLIFT
 62
7
 10
2066.017
 20
-7952.910
 30
-1708.210
 70
    32
  0
VERTEX
  8
W71LXLIFT
 62
7
 10
2066.670
 20
-7952.810
 30
-1710.500
 70
    32
  0
VERTEX
  8
W71LXLIFT
 62
7
 10
2067.312
 20
-7952.712
 30
-1710.060
 70
    32
  0
VERTEX
  8
W71LXLIFT
 62
7
 10
2070.969
 20
-7952.151
 30
-1714.520
 70
    32
  0
VERTEX
  8
W71LXLIFT
 62
7
 10
2069.576
 20
-7952.365
 30
-1715.280
 70
    32
  0
VERTEX
  8
W71LXLIFT
 62
7
 10
2067.846
 20
-7952.630
 30
-1714.850
 70
    32
  0
VERTEX
  8
W71LXLIFT
 62
7
 10
2067.638
 20
-7952.662
 30
-1714.090
 70
    32
  0
VERTEX
  8
W71LXLIFT
 62
7
 10
2066.452
 20
-7952.843
 30
-1714.630
 70
    32
  0
VERTEX
  8
W71LXLIFT
 62
7
 10
2065.592
 20
-7952.975
 30
-1714.200
 70
    32
  0
VERTEX
  8
W71LXLIFT
 62
7
 10
2064.406
 20
-7953.157
 30
-1715.720
 70
    32
  0
SEQEND
  8
W71LXLIFT
  0
POLYLINE
  8
W71LXLIFT
 62
7
 66
     1
 70
     9
  0
VERTEX
  8
W71LXLIFT
 62
7
 10
2062.334
 20
-7957.522
 30
-1716.460
 70
    32
  0
VERTEX
  8
W71LXLIFT
 62
7
 10
2053.566
 20
-7958.866
 30
-1717.130
 70
    32
  0
VERTEX
  8
W71LXLIFT
 62
7
 10
2049.790
 20
-7959.445
 30
-1716.910
 70
    32
  0
VERTEX
  8
W71LXLIFT
 62
7
 10
2049.563
 20
-7959.480
 30
-1715.790
 70
    32
  0
VERTEX
  8
W71LXLIFT
 62
7
 10
2048.456
 20
-7959.649
 30
-1715.450
 70
    32
  0
VERTEX
  8
W71LXLIFT
 62
7
 10
2046.459
 20
-7959.955
 30
-1707.260
 70
    32
  0
VERTEX
  8
W71LXLIFT
 62
7
 10
2046.686
 20
-7959.921
 30
-1706.030
 70
    32
  0
VERTEX
  8
W71LXLIFT
 62
7
 10
2049.345
 20
-7959.513
 30
-1704.450
 70
    32
  0
VERTEX
  8
W71LXLIFT
 62
7
 10
2050.235
 20
-7959.376
 30
-1705.130
 70
    32
  0
VERTEX
  8
W71LXLIFT
 62
7
 10
2051.787
 20
-7959.139
 30
-1704.340
 70
    32
  0
VERTEX
  8
W71LXLIFT
 62
7
 10
2051.569
 20
-7959.172
 30
-1703.560
 70
    32
  0
VERTEX
  8
W71LXLIFT
 62
7
 10
2053.892
 20
-7958.816
 30
-1702.210
 70
    32
  0
VERTEX
  8
W71LXLIFT
 62
7
 10
2057.668
 20
-7958.237
 30
-1698.170
 70
    32
  0
VERTEX
  8
W71LXLIFT
 62
7
 10
2058.330
 20
-7958.135
 30
-1696.940
 70
    32
  0
VERTEX
  8
W71LXLIFT
 62
7
 10
2060.001
 20
-7957.879
 30
-1696.490
 70
    32
  0
VERTEX
  8
W71LXLIFT
 62
7
 10
2061.108
 20
-7957.710
 30
-1697.160
 70
    32
  0
VERTEX
  8
W71LXLIFT
 62
7
 10
2061.997
 20
-7957.573
 30
-1698.960
 70
    32
  0
VERTEX
  8
W71LXLIFT
 62
7
 10
2063.658
 20
-7957.319
 30
-1700.300
 70
    32
  0
VERTEX
  8
W71LXLIFT
 62
7
 10
2065.546
 20
-7957.029
 30
-1702.770
 70
    32
  0
VERTEX
  8
W71LXLIFT
 62
7
 10
2066.436
 20
-7956.893
 30
-1705.690
 70
    32
  0
VERTEX
  8
W71LXLIFT
 62
7
 10
2073.533
 20
-7955.805
 30
-1714.330
 70
    32
  0
VERTEX
  8
W71LXLIFT
 62
7
 10
2074.314
 20
-7955.685
 30
-1715.670
 70
    32
  0
VERTEX
  8
W71LXLIFT
 62
7
 10
2072.870
 20
-7955.906
 30
-1716.460
 70
    32
  0
VERTEX
  8
W71LXLIFT
 62
7
 10
2071.210
 20
-7956.161
 30
-1716.460
 70
    32
  0
VERTEX
  8
W71LXLIFT
 62
7
 10
2067.434
 20
-7956.740
 30
-1715.560
 70
    32
  0
VERTEX
  8
W71LXLIFT
 62
7
 10
2064.439
 20
-7957.199
 30
-1716.460
 70
    32
  0
SEQEND
  8
W71LXLIFT
  0
POLYLINE
  8
W71LXLIFT
 62
7
 66
     1
 70
     9
  0
VERTEX
  8
W71LXLIFT
 62
7
 10
2067.763
 20
-7960.736
 30
-1717.910
 70
    32
  0
VERTEX
  8
W71LXLIFT
 62
7
 10
2063.058
 20
-7961.457
 30
-1718.570
 70
    32
  0
VERTEX
  8
W71LXLIFT
 62
7
 10
2061.615
 20
-7961.679
 30
-1718.040
 70
    32
  0
VERTEX
  8
W71LXLIFT
 62
7
 10
2059.648
 20
-7961.980
 30
-1718.830
 70
    32
  0
VERTEX
  8
W71LXLIFT
 62
7
 10
2054.024
 20
-7962.842
 30
-1718.040
 70
    32
  0
VERTEX
  8
W71LXLIFT
 62
7
 10
2052.581
 20
-7963.064
 30
-1716.720
 70
    32
  0
VERTEX
  8
W71LXLIFT
 62
7
 10
2050.357
 20
-7963.405
 30
-1716.720
 70
    32
  0
VERTEX
  8
W71LXLIFT
 62
7
 10
2046.433
 20
-7964.006
 30
-1705.600
 70
    32
  0
VERTEX
  8
W71LXLIFT
 62
7
 10
2051.404
 20
-7963.244
 30
-1700.310
 70
    32
  0
VERTEX
  8
W71LXLIFT
 62
7
 10
2054.943
 20
-7962.701
 30
-1698.320
 70
    32
  0
VERTEX
  8
W71LXLIFT
 62
7
 10
2055.991
 20
-7962.541
 30
-1695.680
 70
    32
  0
VERTEX
  8
W71LXLIFT
 62
7
 10
2057.553
 20
-7962.301
 30
-1695.410
 70
    32
  0
VERTEX
  8
W71LXLIFT
 62
7
 10
2057.948
 20
-7962.241
 30
-1691.180
 70
    32
  0
VERTEX
  8
W71LXLIFT
 62
7
 10
2059.124
 20
-7962.060
 30
-1689.860
 70
    32
  0
VERTEX
  8
W71LXLIFT
 62
7
 10
2063.315
 20
-7961.418
 30
-1687.610
 70
    32
  0
VERTEX
  8
W71LXLIFT
 62
7
 10
2064.096
 20
-7961.298
 30
-1689.060
 70
    32
  0
VERTEX
  8
W71LXLIFT
 62
7
 10
2064.758
 20
-7961.197
 30
-1691.310
 70
    32
  0
VERTEX
  8
W71LXLIFT
 62
7
 10
2068.030
 20
-7960.695
 30
-1694.090
 70
    32
  0
VERTEX
  8
W71LXLIFT
 62
7
 10
2069.078
 20
-7960.534
 30
-1694.090
 70
    32
  0
VERTEX
  8
W71LXLIFT
 62
7
 10
2069.335
 20
-7960.495
 30
-1695.550
 70
    32
  0
VERTEX
  8
W71LXLIFT
 62
7
 10
2071.164
 20
-7960.215
 30
-1694.090
 70
    32
  0
VERTEX
  8
W71LXLIFT
 62
7
 10
2070.126
 20
-7960.374
 30
-1695.940
 70
    32
  0
VERTEX
  8
W71LXLIFT
 62
7
 10
2070.511
 20
-7960.315
 30
-1696.870
 70
    32
  0
VERTEX
  8
W71LXLIFT
 62
7
 10
2069.859
 20
-7960.415
 30
-1699.120
 70
    32
  0
VERTEX
  8
W71LXLIFT
 62
7
 10
2070.126
 20
-7960.374
 30
-1699.780
 70
    32
  0
VERTEX
  8
W71LXLIFT
 62
7
 10
2070.778
 20
-7960.274
 30
-1699.120
 70
    32
  0
VERTEX
  8
W71LXLIFT
 62
7
 10
2070.907
 20
-7960.254
 30
-1702.290
 70
    32
  0
VERTEX
  8
W71LXLIFT
 62
7
 10
2071.559
 20
-7960.154
 30
-1705.200
 70
    32
  0
VERTEX
  8
W71LXLIFT
 62
7
 10
2072.211
 20
-7960.054
 30
-1705.870
 70
    32
  0
VERTEX
  8
W71LXLIFT
 62
7
 10
2072.211
 20
-7960.054
 30
-1707.850
 70
    32
  0
VERTEX
  8
W71LXLIFT
 62
7
 10
2073.259
 20
-7959.893
 30
-1710.500
 70
    32
  0
VERTEX
  8
W71LXLIFT
 62
7
 10
2075.226
 20
-7959.592
 30
-1712.220
 70
    32
  0
VERTEX
  8
W71LXLIFT
 62
7
 10
2077.974
 20
-7959.171
 30
-1714.330
 70
    32
  0
VERTEX
  8
W71LXLIFT
 62
7
 10
2079.417
 20
-7958.949
 30
-1715.530
 70
    32
  0
VERTEX
  8
W71LXLIFT
 62
7
 10
2079.803
 20
-7958.890
 30
-1716.320
 70
    32
  0
VERTEX
  8
W71LXLIFT
 62
7
 10
2079.150
 20
-7958.990
 30
-1717.110
 70
    32
  0
SEQEND
  8
W71LXLIFT
  0
POLYLINE
  8
W71LXLIFT
 62
7
 66
     1
 70
     9
  0
VERTEX
  8
W71LXLIFT
 62
7
 10
2065.492
 20
-7965.898
 30
-1719.800
 70
    32
  0
VERTEX
  8
W71LXLIFT
 62
7
 10
2050.971
 20
-7968.124
 30
-1717.770
 70
    32
  0
VERTEX
  8
W71LXLIFT
 62
7
 10
2046.711
 20
-7968.777
 30
-1707.640
 70
    32
  0
VERTEX
  8
W71LXLIFT
 62
7
 10
2046.207
 20
-7968.854
 30
-1705.360
 70
    32
  0
VERTEX
  8
W71LXLIFT
 62
7
 10
2051.722
 20
-7968.008
 30
-1699.800
 70
    32
  0
VERTEX
  8
W71LXLIFT
 62
7
 10
2053.225
 20
-7967.778
 30
-1695.740
 70
    32
  0
VERTEX
  8
W71LXLIFT
 62
7
 10
2055.726
 20
-7967.395
 30
-1695.490
 70
    32
  0
VERTEX
  8
W71LXLIFT
 62
7
 10
2057.693
 20
-7967.093
 30
-1693.760
 70
    32
  0
VERTEX
  8
W71LXLIFT
 62
7
 10
2059.037
 20
-7966.887
 30
-1691.450
 70
    32
  0
VERTEX
  8
W71LXLIFT
 62
7
 10
2059.037
 20
-7966.887
 30
-1684.930
 70
    32
  0
VERTEX
  8
W71LXLIFT
 62
7
 10
2059.304
 20
-7966.846
 30
-1683.980
 70
    32
  0
VERTEX
  8
W71LXLIFT
 62
7
 10
2063.070
 20
-7966.269
 30
-1684.120
 70
    32
  0
VERTEX
  8
W71LXLIFT
 62
7
 10
2071.808
 20
-7964.929
 30
-1694.990
 70
    32
  0
VERTEX
  8
W71LXLIFT
 62
7
 10
2071.936
 20
-7964.909
 30
-1700.280
 70
    32
  0
VERTEX
  8
W71LXLIFT
 62
7
 10
2073.547
 20
-7964.662
 30
-1706.810
 70
    32
  0
VERTEX
  8
W71LXLIFT
 62
7
 10
2074.220
 20
-7964.559
 30
-1711.020
 70
    32
  0
VERTEX
  8
W71LXLIFT
 62
7
 10
2076.908
 20
-7964.147
 30
-1714.010
 70
    32
  0
VERTEX
  8
W71LXLIFT
 62
7
 10
2080.674
 20
-7963.570
 30
-1716.320
 70
    32
  0
VERTEX
  8
W71LXLIFT
 62
7
 10
2080.813
 20
-7963.549
 30
-1717.270
 70
    32
  0
VERTEX
  8
W71LXLIFT
 62
7
 10
2073.152
 20
-7964.723
 30
-1719.030
 70
    32
  0
SEQEND
  8
W71LXLIFT
  0
POLYLINE
  8
W71LXLIFT
 62
7
 66
     1
 70
     9
  0
VERTEX
  8
W71LXLIFT
 62
7
 10
2066.898
 20
-7969.729
 30
-1720.620
 70
    32
  0
VERTEX
  8
W71LXLIFT
 62
7
 10
2058.576
 20
-7971.005
 30
-1719.480
 70
    32
  0
VERTEX
  8
W71LXLIFT
 62
7
 10
2054.790
 20
-7971.585
 30
-1719.670
 70
    32
  0
VERTEX
  8
W71LXLIFT
 62
7
 10
2049.680
 20
-7972.368
 30
-1718.520
 70
    32
  0
VERTEX
  8
W71LXLIFT
 62
7
 10
2049.867
 20
-7972.340
 30
-1713.360
 70
    32
  0
VERTEX
  8
W71LXLIFT
 62
7
 10
2046.091
 20
-7972.918
 30
-1707.040
 70
    32
  0
VERTEX
  8
W71LXLIFT
 62
7
 10
2054.602
 20
-7971.614
 30
-1693.850
 70
    32
  0
VERTEX
  8
W71LXLIFT
 62
7
 10
2053.841
 20
-7971.730
 30
-1690.790
 70
    32
  0
VERTEX
  8
W71LXLIFT
 62
7
 10
2055.353
 20
-7971.499
 30
-1689.830
 70
    32
  0
VERTEX
  8
W71LXLIFT
 62
7
 10
2056.490
 20
-7971.324
 30
-1684.860
 70
    32
  0
VERTEX
  8
W71LXLIFT
 62
7
 10
2059.139
 20
-7970.918
 30
-1682.560
 70
    32
  0
VERTEX
  8
W71LXLIFT
 62
7
 10
2060.839
 20
-7970.658
 30
-1683.140
 70
    32
  0
VERTEX
  8
W71LXLIFT
 62
7
 10
2065.198
 20
-7969.989
 30
-1683.330
 70
    32
  0
VERTEX
  8
W71LXLIFT
 62
7
 10
2066.523
 20
-7969.786
 30
-1683.900
 70
    32
  0
VERTEX
  8
W71LXLIFT
 62
7
 10
2067.650
 20
-7969.613
 30
-1686.200
 70
    32
  0
VERTEX
  8
W71LXLIFT
 62
7
 10
2068.223
 20
-7969.526
 30
-1687.920
 70
    32
  0
VERTEX
  8
W71LXLIFT
 62
7
 10
2069.547
 20
-7969.322
 30
-1688.680
 70
    32
  0
VERTEX
  8
W71LXLIFT
 62
7
 10
2072.760
 20
-7968.830
 30
-1694.040
 70
    32
  0
VERTEX
  8
W71LXLIFT
 62
7
 10
2072.009
 20
-7968.945
 30
-1696.140
 70
    32
  0
VERTEX
  8
W71LXLIFT
 62
7
 10
2072.384
 20
-7968.888
 30
-1699.010
 70
    32
  0
VERTEX
  8
W71LXLIFT
 62
7
 10
2072.384
 20
-7968.888
 30
-1701.690
 70
    32
  0
VERTEX
  8
W71LXLIFT
 62
7
 10
2073.333
 20
-7968.742
 30
-1702.640
 70
    32
  0
VERTEX
  8
W71LXLIFT
 62
7
 10
2074.084
 20
-7968.627
 30
-1704.370
 70
    32
  0
VERTEX
  8
W71LXLIFT
 62
7
 10
2075.982
 20
-7968.336
 30
-1704.940
 70
    32
  0
VERTEX
  8
W71LXLIFT
 62
7
 10
2075.785
 20
-7968.366
 30
-1706.660
 70
    32
  0
VERTEX
  8
W71LXLIFT
 62
7
 10
2074.084
 20
-7968.627
 30
-1710.490
 70
    32
  0
VERTEX
  8
W71LXLIFT
 62
7
 10
2078.819
 20
-7967.901
 30
-1718.330
 70
    32
  0
SEQEND
  8
W71LXLIFT
  0
POLYLINE
  8
W71LXLIFT
 62
7
 66
     1
 70
     9
  0
VERTEX
  8
W71LXLIFT
 62
7
 10
2066.417
 20
-7973.849
 30
-1721.210
 70
    32
  0
VERTEX
  8
W71LXLIFT
 62
7
 10
2060.141
 20
-7974.811
 30
-1720.320
 70
    32
  0
VERTEX
  8
W71LXLIFT
 62
7
 10
2057.007
 20
-7975.292
 30
-1720.570
 70
    32
  0
VERTEX
  8
W71LXLIFT
 62
7
 10
2052.490
 20
-7975.984
 30
-1719.050
 70
    32
  0
VERTEX
  8
W71LXLIFT
 62
7
 10
2050.236
 20
-7976.330
 30
-1718.800
 70
    32
  0
VERTEX
  8
W71LXLIFT
 62
7
 10
2050.355
 20
-7976.312
 30
-1713.350
 70
    32
  0
VERTEX
  8
W71LXLIFT
 62
7
 10
2048.724
 20
-7976.562
 30
-1709.290
 70
    32
  0
VERTEX
  8
W71LXLIFT
 62
7
 10
2048.981
 20
-7976.522
 30
-1705.100
 70
    32
  0
VERTEX
  8
W71LXLIFT
 62
7
 10
2049.604
 20
-7976.427
 30
-1700.920
 70
    32
  0
VERTEX
  8
W71LXLIFT
 62
7
 10
2051.867
 20
-7976.080
 30
-1699.270
 70
    32
  0
VERTEX
  8
W71LXLIFT
 62
7
 10
2052.361
 20
-7976.004
 30
-1696.860
 70
    32
  0
VERTEX
  8
W71LXLIFT
 62
7
 10
2052.490
 20
-7975.984
 30
-1693.940
 70
    32
  0
VERTEX
  8
W71LXLIFT
 62
7
 10
2052.490
 20
-7975.984
 30
-1690.770
 70
    32
  0
VERTEX
  8
W71LXLIFT
 62
7
 10
2055.119
 20
-7975.581
 30
-1689.890
 70
    32
  0
VERTEX
  8
W71LXLIFT
 62
7
 10
2057.630
 20
-7975.196
 30
-1683.930
 70
    32
  0
VERTEX
  8
W71LXLIFT
 62
7
 10
2059.389
 20
-7974.927
 30
-1681.770
 70
    32
  0
VERTEX
  8
W71LXLIFT
 62
7
 10
2060.269
 20
-7974.792
 30
-1681.640
 70
    32
  0
VERTEX
  8
W71LXLIFT
 62
7
 10
2061.020
 20
-7974.676
 30
-1681.900
 70
    32
  0
VERTEX
  8
W71LXLIFT
 62
7
 10
2062.780
 20
-7974.407
 30
-1681.770
 70
    32
  0
VERTEX
  8
W71LXLIFT
 62
7
 10
2065.281
 20
-7974.023
 30
-1683.420
 70
    32
  0
VERTEX
  8
W71LXLIFT
 62
7
 10
2066.911
 20
-7973.773
 30
-1684.430
 70
    32
  0
VERTEX
  8
W71LXLIFT
 62
7
 10
2068.295
 20
-7973.561
 30
-1686.080
 70
    32
  0
VERTEX
  8
W71LXLIFT
 62
7
 10
2071.182
 20
-7973.119
 30
-1689.380
 70
    32
  0
VERTEX
  8
W71LXLIFT
 62
7
 10
2075.323
 20
-7972.484
 30
-1695.340
 70
    32
  0
VERTEX
  8
W71LXLIFT
 62
7
 10
2075.699
 20
-7972.426
 30
-1696.990
 70
    32
  0
VERTEX
  8
W71LXLIFT
 62
7
 10
2075.195
 20
-7972.503
 30
-1698.890
 70
    32
  0
VERTEX
  8
W71LXLIFT
 62
7
 10
2075.323
 20
-7972.484
 30
-1702.690
 70
    32
  0
VERTEX
  8
W71LXLIFT
 62
7
 10
2076.193
 20
-7972.350
 30
-1706.880
 70
    32
  0
VERTEX
  8
W71LXLIFT
 62
7
 10
2074.819
 20
-7972.561
 30
-1709.800
 70
    32
  0
VERTEX
  8
W71LXLIFT
 62
7
 10
2074.562
 20
-7972.600
 30
-1711.060
 70
    32
  0
VERTEX
  8
W71LXLIFT
 62
7
 10
2076.193
 20
-7972.350
 30
-1712.590
 70
    32
  0
VERTEX
  8
W71LXLIFT
 62
7
 10
2075.442
 20
-7972.465
 30
-1713.600
 70
    32
  0
VERTEX
  8
W71LXLIFT
 62
7
 10
2077.201
 20
-7972.196
 30
-1716.140
 70
    32
  0
VERTEX
  8
W71LXLIFT
 62
7
 10
2077.705
 20
-7972.118
 30
-1719.940
 70
    32
  0
VERTEX
  8
W71LXLIFT
 62
7
 10
2075.946
 20
-7972.388
 30
-1719.940
 70
    32
  0
VERTEX
  8
W71LXLIFT
 62
7
 10
2072.437
 20
-7972.926
 30
-1719.310
 70
    32
  0
VERTEX
  8
W71LXLIFT
 62
7
 10
2068.799
 20
-7973.484
 30
-1720.830
 70
    32
  0
SEQEND
  8
W71LXLIFT
  0
POLYLINE
  8
W71LXLIFT
 62
7
 66
     1
 70
     9
  0
VERTEX
  8
W71LXLIFT
 62
7
 10
2067.280
 20
-7977.763
 30
-1722.170
 70
    32
  0
VERTEX
  8
W71LXLIFT
 62
7
 10
2059.076
 20
-7979.021
 30
-1720.730
 70
    32
  0
VERTEX
  8
W71LXLIFT
 62
7
 10
2050.872
 20
-7980.279
 30
-1720.310
 70
    32
  0
VERTEX
  8
W71LXLIFT
 62
7
 10
2051.861
 20
-7980.127
 30
-1716.440
 70
    32
  0
VERTEX
  8
W71LXLIFT
 62
7
 10
2051.584
 20
-7980.170
 30
-1713.730
 70
    32
  0
VERTEX
  8
W71LXLIFT
 62
7
 10
2052.849
 20
-7979.976
 30
-1711.440
 70
    32
  0
VERTEX
  8
W71LXLIFT
 62
7
 10
2050.447
 20
-7980.344
 30
-1703.000
 70
    32
  0
VERTEX
  8
W71LXLIFT
 62
7
 10
2050.447
 20
-7980.344
 30
-1700.140
 70
    32
  0
VERTEX
  8
W71LXLIFT
 62
7
 10
2051.436
 20
-7980.193
 30
-1699.280
 70
    32
  0
VERTEX
  8
W71LXLIFT
 62
7
 10
2051.584
 20
-7980.170
 30
-1698.280
 70
    32
  0
VERTEX
  8
W71LXLIFT
 62
7
 10
2050.585
 20
-7980.323
 30
-1694.420
 70
    32
  0
VERTEX
  8
W71LXLIFT
 62
7
 10
2053.847
 20
-7979.823
 30
-1688.980
 70
    32
  0
VERTEX
  8
W71LXLIFT
 62
7
 10
2056.249
 20
-7979.455
 30
-1687.550
 70
    32
  0
VERTEX
  8
W71LXLIFT
 62
7
 10
2057.238
 20
-7979.303
 30
-1686.260
 70
    32
  0
VERTEX
  8
W71LXLIFT
 62
7
 10
2059.501
 20
-7978.956
 30
-1682.110
 70
    32
  0
VERTEX
  8
W71LXLIFT
 62
7
 10
2061.063
 20
-7978.717
 30
-1682.690
 70
    32
  0
VERTEX
  8
W71LXLIFT
 62
7
 10
2061.913
 20
-7978.586
 30
-1681.970
 70
    32
  0
VERTEX
  8
W71LXLIFT
 62
7
 10
2063.465
 20
-7978.348
 30
-1682.400
 70
    32
  0
VERTEX
  8
W71LXLIFT
 62
7
 10
2065.165
 20
-7978.088
 30
-1682.260
 70
    32
  0
VERTEX
  8
W71LXLIFT
 62
7
 10
2067.854
 20
-7977.676
 30
-1685.690
 70
    32
  0
VERTEX
  8
W71LXLIFT
 62
7
 10
2070.256
 20
-7977.307
 30
-1686.830
 70
    32
  0
VERTEX
  8
W71LXLIFT
 62
7
 10
2071.244
 20
-7977.156
 30
-1688.550
 70
    32
  0
VERTEX
  8
W71LXLIFT
 62
7
 10
2073.794
 20
-7976.765
 30
-1690.120
 70
    32
  0
VERTEX
  8
W71LXLIFT
 62
7
 10
2074.219
 20
-7976.700
 30
-1691.700
 70
    32
  0
VERTEX
  8
W71LXLIFT
 62
7
 10
2074.783
 20
-7976.613
 30
-1691.700
 70
    32
  0
VERTEX
  8
W71LXLIFT
 62
7
 10
2076.760
 20
-7976.310
 30
-1694.420
 70
    32
  0
VERTEX
  8
W71LXLIFT
 62
7
 10
2076.344
 20
-7976.374
 30
-1699.420
 70
    32
  0
VERTEX
  8
W71LXLIFT
 62
7
 10
2077.610
 20
-7976.180
 30
-1701.570
 70
    32
  0
VERTEX
  8
W71LXLIFT
 62
7
 10
2079.171
 20
-7975.940
 30
-1702.280
 70
    32
  0
VERTEX
  8
W71LXLIFT
 62
7
 10
2078.746
 20
-7976.006
 30
-1703.570
 70
    32
  0
VERTEX
  8
W71LXLIFT
 62
7
 10
2076.344
 20
-7976.374
 30
-1708.430
 70
    32
  0
VERTEX
  8
W71LXLIFT
 62
7
 10
2076.483
 20
-7976.353
 30
-1710.860
 70
    32
  0
VERTEX
  8
W71LXLIFT
 62
7
 10
2077.610
 20
-7976.180
 30
-1713.580
 70
    32
  0
VERTEX
  8
W71LXLIFT
 62
7
 10
2076.908
 20
-7976.287
 30
-1715.590
 70
    32
  0
VERTEX
  8
W71LXLIFT
 62
7
 10
2077.471
 20
-7976.201
 30
-1718.020
 70
    32
  0
VERTEX
  8
W71LXLIFT
 62
7
 10
2077.610
 20
-7976.180
 30
-1720.590
 70
    32
  0
VERTEX
  8
W71LXLIFT
 62
7
 10
2071.392
 20
-7977.133
 30
-1720.730
 70
    32
  0
VERTEX
  8
W71LXLIFT
 62
7
 10
2069.831
 20
-7977.372
 30
-1721.880
 70
    32
  0
SEQEND
  8
W71LXLIFT
  0
POLYLINE
  8
W71LXLIFT
 62
7
 66
     1
 70
     9
  0
VERTEX
  8
W71LXLIFT
 62
7
 10
2070.447
 20
-7981.325
 30
-1723.060
 70
    32
  0
VERTEX
  8
W71LXLIFT
 62
7
 10
2064.961
 20
-7982.166
 30
-1722.430
 70
    32
  0
VERTEX
  8
W71LXLIFT
 62
7
 10
2060.710
 20
-7982.817
 30
-1720.910
 70
    32
  0
VERTEX
  8
W71LXLIFT
 62
7
 10
2052.852
 20
-7984.022
 30
-1720.410
 70
    32
  0
VERTEX
  8
W71LXLIFT
 62
7
 10
2052.852
 20
-7984.022
 30
-1718.640
 70
    32
  0
VERTEX
  8
W71LXLIFT
 62
7
 10
2054.216
 20
-7983.813
 30
-1717.380
 70
    32
  0
VERTEX
  8
W71LXLIFT
 62
7
 10
2054.345
 20
-7983.793
 30
-1714.600
 70
    32
  0
VERTEX
  8
W71LXLIFT
 62
7
 10
2054.216
 20
-7983.813
 30
-1712.840
 70
    32
  0
VERTEX
  8
W71LXLIFT
 62
7
 10
2054.473
 20
-7983.774
 30
-1710.940
 70
    32
  0
VERTEX
  8
W71LXLIFT
 62
7
 10
2052.595
 20
-7984.062
 30
-1705.390
 70
    32
  0
VERTEX
  8
W71LXLIFT
 62
7
 10
2050.599
 20
-7984.368
 30
-1701.100
 70
    32
  0
VERTEX
  8
W71LXLIFT
 62
7
 10
2050.599
 20
-7984.368
 30
-1698.450
 70
    32
  0
VERTEX
  8
W71LXLIFT
 62
7
 10
2049.976
 20
-7984.463
 30
-1696.300
 70
    32
  0
VERTEX
  8
W71LXLIFT
 62
7
 10
2050.223
 20
-7984.425
 30
-1695.290
 70
    32
  0
VERTEX
  8
W71LXLIFT
 62
7
 10
2052.477
 20
-7984.080
 30
-1695.170
 70
    32
  0
VERTEX
  8
W71LXLIFT
 62
7
 10
2053.218
 20
-7983.966
 30
-1692.890
 70
    32
  0
VERTEX
  8
W71LXLIFT
 62
7
 10
2052.852
 20
-7984.022
 30
-1689.110
 70
    32
  0
VERTEX
  8
W71LXLIFT
 62
7
 10
2054.098
 20
-7983.831
 30
-1687.090
 70
    32
  0
VERTEX
  8
W71LXLIFT
 62
7
 10
2054.849
 20
-7983.716
 30
-1687.090
 70
    32
  0
VERTEX
  8
W71LXLIFT
 62
7
 10
2055.096
 20
-7983.678
 30
-1686.200
 70
    32
  0
VERTEX
  8
W71LXLIFT
 62
7
 10
2056.964
 20
-7983.392
 30
-1686.330
 70
    32
  0
VERTEX
  8
W71LXLIFT
 62
7
 10
2057.597
 20
-7983.295
 30
-1686.580
 70
    32
  0
VERTEX
  8
W71LXLIFT
 62
7
 10
2058.091
 20
-7983.219
 30
-1685.070
 70
    32
  0
VERTEX
  8
W71LXLIFT
 62
7
 10
2060.710
 20
-7982.817
 30
-1684.940
 70
    32
  0
VERTEX
  8
W71LXLIFT
 62
7
 10
2062.460
 20
-7982.549
 30
-1684.440
 70
    32
  0
VERTEX
  8
W71LXLIFT
 62
7
 10
2066.582
 20
-7981.917
 30
-1685.070
 70
    32
  0
VERTEX
  8
W71LXLIFT
 62
7
 10
2070.447
 20
-7981.325
 30
-1686.330
 70
    32
  0
VERTEX
  8
W71LXLIFT
 62
7
 10
2072.325
 20
-7981.037
 30
-1687.970
 70
    32
  0
VERTEX
  8
W71LXLIFT
 62
7
 10
2073.570
 20
-7980.846
 30
-1689.110
 70
    32
  0
VERTEX
  8
W71LXLIFT
 62
7
 10
2075.191
 20
-7980.597
 30
-1689.490
 70
    32
  0
VERTEX
  8
W71LXLIFT
 62
7
 10
2078.443
 20
-7980.099
 30
-1694.410
 70
    32
  0
VERTEX
  8
W71LXLIFT
 62
7
 10
2080.440
 20
-7979.793
 30
-1698.070
 70
    32
  0
VERTEX
  8
W71LXLIFT
 62
7
 10
2079.570
 20
-7979.926
 30
-1701.100
 70
    32
  0
VERTEX
  8
W71LXLIFT
 62
7
 10
2079.570
 20
-7979.926
 30
-1702.230
 70
    32
  0
VERTEX
  8
W71LXLIFT
 62
7
 10
2080.568
 20
-7979.773
 30
-1701.600
 70
    32
  0
VERTEX
  8
W71LXLIFT
 62
7
 10
2079.194
 20
-7979.984
 30
-1704.880
 70
    32
  0
VERTEX
  8
W71LXLIFT
 62
7
 10
2079.066
 20
-7980.003
 30
-1707.910
 70
    32
  0
VERTEX
  8
W71LXLIFT
 62
7
 10
2078.315
 20
-7980.119
 30
-1710.820
 70
    32
  0
VERTEX
  8
W71LXLIFT
 62
7
 10
2078.068
 20
-7980.156
 30
-1712.710
 70
    32
  0
VERTEX
  8
W71LXLIFT
 62
7
 10
2076.694
 20
-7980.367
 30
-1714.600
 70
    32
  0
VERTEX
  8
W71LXLIFT
 62
7
 10
2077.563
 20
-7980.234
 30
-1717.130
 70
    32
  0
VERTEX
  8
W71LXLIFT
 62
7
 10
2077.563
 20
-7980.234
 30
-1719.400
 70
    32
  0
VERTEX
  8
W71LXLIFT
 62
7
 10
2077.692
 20
-7980.214
 30
-1720.540
 70
    32
  0
VERTEX
  8
W71LXLIFT
 62
7
 10
2077.939
 20
-7980.176
 30
-1721.920
 70
    32
  0
VERTEX
  8
W71LXLIFT
 62
7
 10
2074.074
 20
-7980.769
 30
-1722.430
 70
    32
  0
SEQEND
  8
W71LXLIFT
  0
POLYLINE
  8
W71LXLIFT
 62
7
 66
     1
 70
     9
  0
VERTEX
  8
W71LXLIFT
 62
7
 10
2055.900
 20
-7987.602
 30
-1720.360
 70
    32
  0
VERTEX
  8
W71LXLIFT
 62
7
 10
2056.028
 20
-7987.582
 30
-1716.730
 70
    32
  0
VERTEX
  8
W71LXLIFT
 62
7
 10
2058.994
 20
-7987.127
 30
-1710.850
 70
    32
  0
VERTEX
  8
W71LXLIFT
 62
7
 10
2058.499
 20
-7987.203
 30
-1706.970
 70
    32
  0
VERTEX
  8
W71LXLIFT
 62
7
 10
2059.369
 20
-7987.070
 30
-1707.100
 70
    32
  0
VERTEX
  8
W71LXLIFT
 62
7
 10
2058.747
 20
-7987.165
 30
-1703.470
 70
    32
  0
VERTEX
  8
W71LXLIFT
 62
7
 10
2057.877
 20
-7987.299
 30
-1701.220
 70
    32
  0
VERTEX
  8
W71LXLIFT
 62
7
 10
2057.877
 20
-7987.299
 30
-1699.460
 70
    32
  0
VERTEX
  8
W71LXLIFT
 62
7
 10
2057.877
 20
-7987.299
 30
-1696.340
 70
    32
  0
VERTEX
  8
W71LXLIFT
 62
7
 10
2057.135
 20
-7987.412
 30
-1692.580
 70
    32
  0
VERTEX
  8
W71LXLIFT
 62
7
 10
2057.135
 20
-7987.412
 30
-1691.200
 70
    32
  0
VERTEX
  8
W71LXLIFT
 62
7
 10
2058.994
 20
-7987.127
 30
-1688.950
 70
    32
  0
VERTEX
  8
W71LXLIFT
 62
7
 10
2061.840
 20
-7986.691
 30
-1687.070
 70
    32
  0
VERTEX
  8
W71LXLIFT
 62
7
 10
2064.074
 20
-7986.348
 30
-1686.570
 70
    32
  0
VERTEX
  8
W71LXLIFT
 62
7
 10
2067.415
 20
-7985.836
 30
-1686.820
 70
    32
  0
VERTEX
  8
W71LXLIFT
 62
7
 10
2069.026
 20
-7985.589
 30
-1687.320
 70
    32
  0
VERTEX
  8
W71LXLIFT
 62
7
 10
2070.134
 20
-7985.420
 30
-1688.080
 70
    32
  0
VERTEX
  8
W71LXLIFT
 62
7
 10
2072.486
 20
-7985.059
 30
-1688.200
 70
    32
  0
VERTEX
  8
W71LXLIFT
 62
7
 10
2073.603
 20
-7984.888
 30
-1689.330
 70
    32
  0
VERTEX
  8
W71LXLIFT
 62
7
 10
2074.344
 20
-7984.774
 30
-1691.580
 70
    32
  0
VERTEX
  8
W71LXLIFT
 62
7
 10
2074.591
 20
-7984.736
 30
-1693.830
 70
    32
  0
VERTEX
  8
W71LXLIFT
 62
7
 10
2076.697
 20
-7984.413
 30
-1694.960
 70
    32
  0
VERTEX
  8
W71LXLIFT
 62
7
 10
2078.180
 20
-7984.186
 30
-1694.460
 70
    32
  0
VERTEX
  8
W71LXLIFT
 62
7
 10
2079.544
 20
-7983.977
 30
-1696.840
 70
    32
  0
VERTEX
  8
W71LXLIFT
 62
7
 10
2081.768
 20
-7983.636
 30
-1697.460
 70
    32
  0
VERTEX
  8
W71LXLIFT
 62
7
 10
2080.908
 20
-7983.768
 30
-1701.090
 70
    32
  0
VERTEX
  8
W71LXLIFT
 62
7
 10
2080.661
 20
-7983.806
 30
-1703.090
 70
    32
  0
VERTEX
  8
W71LXLIFT
 62
7
 10
2078.308
 20
-7984.166
 30
-1707.600
 70
    32
  0
VERTEX
  8
W71LXLIFT
 62
7
 10
2078.555
 20
-7984.128
 30
-1709.220
 70
    32
  0
VERTEX
  8
W71LXLIFT
 62
7
 10
2078.061
 20
-7984.204
 30
-1711.100
 70
    32
  0
VERTEX
  8
W71LXLIFT
 62
7
 10
2079.415
 20
-7983.997
 30
-1722.990
 70
    32
  0
VERTEX
  8
W71LXLIFT
 62
7
 10
2067.287
 20
-7985.856
 30
-1723.120
 70
    32
  0
VERTEX
  8
W71LXLIFT
 62
7
 10
2062.088
 20
-7986.653
 30
-1720.740
 70
    32
  0
SEQEND
  8
W71LXLIFT
  0
POLYLINE
  8
W71LXLIFT
 62
5
 66
     1
 70
     9
  0
VERTEX
  8
W71LXLIFT
 62
5
 10
2047.454
 20
-7943.616
 30
-1705.950
 70
    32
  0
VERTEX
  8
W71LXLIFT
 62
5
 10
2046.021
 20
-7943.836
 30
-1705.720
 70
    32
  0
VERTEX
  8
W71LXLIFT
 62
5
 10
2044.964
 20
-7943.998
 30
-1703.820
 70
    32
  0
VERTEX
  8
W71LXLIFT
 62
5
 10
2032.786
 20
-7945.865
 30
-1679.990
 70
    32
  0
VERTEX
  8
W71LXLIFT
 62
5
 10
2052.446
 20
-7942.851
 30
-1680.320
 70
    32
  0
VERTEX
  8
W71LXLIFT
 62
5
 10
2052.505
 20
-7942.841
 30
-1706.720
 70
    32
  0
VERTEX
  8
W71LXLIFT
 62
5
 10
2051.300
 20
-7943.026
 30
-1706.330
 70
    32
  0
VERTEX
  8
W71LXLIFT
 62
5
 10
2050.469
 20
-7943.154
 30
-1706.490
 70
    32
  0
VERTEX
  8
W71LXLIFT
 62
5
 10
2050.015
 20
-7943.223
 30
-1706.030
 70
    32
  0
SEQEND
  8
W71LXLIFT
  0
POLYLINE
  8
W71LXLIFT
 62
5
 66
     1
 70
     9
  0
VERTEX
  8
W71LXLIFT
 62
5
 10
2051.164
 20
-7947.094
 30
-1709.040
 70
    32
  0
VERTEX
  8
W71LXLIFT
 62
5
 10
2049.830
 20
-7947.298
 30
-1708.780
 70
    32
  0
VERTEX
  8
W71LXLIFT
 62
5
 10
2048.248
 20
-7947.541
 30
-1709.370
 70
    32
  0
VERTEX
  8
W71LXLIFT
 62
5
 10
2033.511
 20
-7949.800
 30
-1679.710
 70
    32
  0
VERTEX
  8
W71LXLIFT
 62
5
 10
2052.953
 20
-7946.820
 30
-1679.920
 70
    32
  0
VERTEX
  8
W71LXLIFT
 62
5
 10
2052.914
 20
-7946.826
 30
-1709.710
 70
    32
  0
VERTEX
  8
W71LXLIFT
 62
5
 10
2059.675
 20
-7945.789
 30
-1710.980
 70
    32
  0
VERTEX
  8
W71LXLIFT
 62
5
 10
2060.841
 20
-7945.610
 30
-1712.410
 70
    32
  0
VERTEX
  8
W71LXLIFT
 62
5
 10
2060.752
 20
-7945.624
 30
-1713.080
 70
    32
  0
VERTEX
  8
W71LXLIFT
 62
5
 10
2059.507
 20
-7945.815
 30
-1712.240
 70
    32
  0
VERTEX
  8
W71LXLIFT
 62
5
 10
2058.340
 20
-7945.994
 30
-1712.320
 70
    32
  0
VERTEX
  8
W71LXLIFT
 62
5
 10
2057.332
 20
-7946.148
 30
-1711.140
 70
    32
  0
VERTEX
  8
W71LXLIFT
 62
5
 10
2055.751
 20
-7946.391
 30
-1711.140
 70
    32
  0
VERTEX
  8
W71LXLIFT
 62
5
 10
2055.336
 20
-7946.454
 30
-1710.390
 70
    32
  0
VERTEX
  8
W71LXLIFT
 62
5
 10
2053.003
 20
-7946.812
 30
-1710.050
 70
    32
  0
SEQEND
  8
W71LXLIFT
  0
POLYLINE
  8
W71LXLIFT
 62
5
 66
     1
 70
     9
  0
VERTEX
  8
W71LXLIFT
 62
5
 10
2048.578
 20
-7951.537
 30
-1712.320
 70
    32
  0
VERTEX
  8
W71LXLIFT
 62
5
 10
2048.311
 20
-7951.578
 30
-1710.930
 70
    32
  0
VERTEX
  8
W71LXLIFT
 62
5
 10
2049.883
 20
-7951.337
 30
-1710.970
 70
    32
  0
VERTEX
  8
W71LXLIFT
 62
5
 10
2033.959
 20
-7953.778
 30
-1680.250
 70
    32
  0
VERTEX
  8
W71LXLIFT
 62
5
 10
2053.441
 20
-7950.792
 30
-1680.180
 70
    32
  0
VERTEX
  8
W71LXLIFT
 62
5
 10
2053.718
 20
-7950.749
 30
-1710.950
 70
    32
  0
VERTEX
  8
W71LXLIFT
 62
5
 10
2060.825
 20
-7949.659
 30
-1711.110
 70
    32
  0
VERTEX
  8
W71LXLIFT
 62
5
 10
2061.378
 20
-7949.575
 30
-1712.720
 70
    32
  0
VERTEX
  8
W71LXLIFT
 62
5
 10
2062.100
 20
-7949.464
 30
-1712.640
 70
    32
  0
VERTEX
  8
W71LXLIFT
 62
5
 10
2063.523
 20
-7949.246
 30
-1714.970
 70
    32
  0
VERTEX
  8
W71LXLIFT
 62
5
 10
2052.640
 20
-7950.914
 30
-1712.400
 70
    32
  0
VERTEX
  8
W71LXLIFT
 62
5
 10
2050.654
 20
-7951.219
 30
-1712.880
 70
    32
  0
SEQEND
  8
W71LXLIFT
  0
POLYLINE
  8
W71LXLIFT
 62
5
 66
     1
 70
     9
  0
VERTEX
  8
W71LXLIFT
 62
5
 10
2049.817
 20
-7955.394
 30
-1714.370
 70
    32
  0
VERTEX
  8
W71LXLIFT
 62
5
 10
2049.204
 20
-7955.488
 30
-1711.150
 70
    32
  0
VERTEX
  8
W71LXLIFT
 62
5
 10
2050.469
 20
-7955.294
 30
-1711.110
 70
    32
  0
VERTEX
  8
W71LXLIFT
 62
5
 10
2034.535
 20
-7957.737
 30
-1679.220
 70
    32
  0
VERTEX
  8
W71LXLIFT
 62
5
 10
2054.126
 20
-7954.733
 30
-1679.340
 70
    32
  0
VERTEX
  8
W71LXLIFT
 62
5
 10
2054.245
 20
-7954.715
 30
-1711.030
 70
    32
  0
VERTEX
  8
W71LXLIFT
 62
5
 10
2068.014
 20
-7952.604
 30
-1711.110
 70
    32
  0
VERTEX
  8
W71LXLIFT
 62
5
 10
2070.732
 20
-7952.187
 30
-1714.480
 70
    32
  0
VERTEX
  8
W71LXLIFT
 62
5
 10
2069.704
 20
-7952.345
 30
-1715.180
 70
    32
  0
VERTEX
  8
W71LXLIFT
 62
5
 10
2067.974
 20
-7952.610
 30
-1714.950
 70
    32
  0
VERTEX
  8
W71LXLIFT
 62
5
 10
2067.520
 20
-7952.680
 30
-1714.130
 70
    32
  0
VERTEX
  8
W71LXLIFT
 62
5
 10
2066.482
 20
-7952.839
 30
-1714.720
 70
    32
  0
VERTEX
  8
W71LXLIFT
 62
5
 10
2065.563
 20
-7952.980
 30
-1714.130
 70
    32
  0
VERTEX
  8
W71LXLIFT
 62
5
 10
2064.297
 20
-7953.174
 30
-1715.760
 70
    32
  0
VERTEX
  8
W71LXLIFT
 62
5
 10
2060.620
 20
-7953.738
 30
-1715.880
 70
    32
  0
VERTEX
  8
W71LXLIFT
 62
5
 10
2057.062
 20
-7954.283
 30
-1714.720
 70
    32
  0
SEQEND
  8
W71LXLIFT
  0
POLYLINE
  8
W71LXLIFT
 62
5
 66
     1
 70
     9
  0
VERTEX
  8
W71LXLIFT
 62
5
 10
2051.105
 20
-7959.243
 30
-1717.070
 70
    32
  0
VERTEX
  8
W71LXLIFT
 62
5
 10
2050.146
 20
-7959.390
 30
-1710.990
 70
    32
  0
VERTEX
  8
W71LXLIFT
 62
5
 10
2036.703
 20
-7961.451
 30
-1690.290
 70
    32
  0
VERTEX
  8
W71LXLIFT
 62
5
 10
2035.863
 20
-7961.580
 30
-1680.550
 70
    32
  0
VERTEX
  8
W71LXLIFT
 62
5
 10
2069.263
 20
-7956.459
 30
-1680.800
 70
    32
  0
VERTEX
  8
W71LXLIFT
 62
5
 10
2069.707
 20
-7956.391
 30
-1710.960
 70
    32
  0
VERTEX
  8
W71LXLIFT
 62
5
 10
2070.834
 20
-7956.218
 30
-1711.040
 70
    32
  0
VERTEX
  8
W71LXLIFT
 62
5
 10
2073.473
 20
-7955.814
 30
-1714.060
 70
    32
  0
VERTEX
  8
W71LXLIFT
 62
5
 10
2074.274
 20
-7955.691
 30
-1715.450
 70
    32
  0
VERTEX
  8
W71LXLIFT
 62
5
 10
2073.009
 20
-7955.885
 30
-1716.490
 70
    32
  0
VERTEX
  8
W71LXLIFT
 62
5
 10
2070.943
 20
-7956.202
 30
-1716.490
 70
    32
  0
VERTEX
  8
W71LXLIFT
 62
5
 10
2067.276
 20
-7956.764
 30
-1715.450
 70
    32
  0
VERTEX
  8
W71LXLIFT
 62
5
 10
2064.755
 20
-7957.150
 30
-1716.490
 70
    32
  0
SEQEND
  8
W71LXLIFT
  0
POLYLINE
  8
W71LXLIFT
 62
5
 66
     1
 70
     9
  0
VERTEX
  8
W71LXLIFT
 62
5
 10
2052.413
 20
-7963.089
 30
-1716.780
 70
    32
  0
VERTEX
  8
W71LXLIFT
 62
5
 10
2051.345
 20
-7963.253
 30
-1710.870
 70
    32
  0
VERTEX
  8
W71LXLIFT
 62
5
 10
2041.382
 20
-7964.781
 30
-1695.600
 70
    32
  0
VERTEX
  8
W71LXLIFT
 62
5
 10
2035.777
 20
-7965.640
 30
-1679.910
 70
    32
  0
VERTEX
  8
W71LXLIFT
 62
5
 10
2070.047
 20
-7960.386
 30
-1680.030
 70
    32
  0
VERTEX
  8
W71LXLIFT
 62
5
 10
2069.938
 20
-7960.403
 30
-1710.990
 70
    32
  0
VERTEX
  8
W71LXLIFT
 62
5
 10
2074.050
 20
-7959.772
 30
-1711.140
 70
    32
  0
VERTEX
  8
W71LXLIFT
 62
5
 10
2079.892
 20
-7958.877
 30
-1716.240
 70
    32
  0
VERTEX
  8
W71LXLIFT
 62
5
 10
2078.162
 20
-7959.142
 30
-1717.180
 70
    32
  0
VERTEX
  8
W71LXLIFT
 62
5
 10
2070.867
 20
-7960.260
 30
-1717.590
 70
    32
  0
VERTEX
  8
W71LXLIFT
 62
5
 10
2063.029
 20
-7961.462
 30
-1718.530
 70
    32
  0
VERTEX
  8
W71LXLIFT
 62
5
 10
2061.299
 20
-7961.727
 30
-1717.990
 70
    32
  0
VERTEX
  8
W71LXLIFT
 62
5
 10
2059.707
 20
-7961.971
 30
-1718.790
 70
    32
  0
VERTEX
  8
W71LXLIFT
 62
5
 10
2053.737
 20
-7962.886
 30
-1717.850
 70
    32
  0
SEQEND
  8
W71LXLIFT
  0
POLYLINE
  8
W71LXLIFT
 62
5
 66
     1
 70
     9
  0
VERTEX
  8
W71LXLIFT
 62
5
 10
2051.001
 20
-7968.119
 30
-1717.570
 70
    32
  0
VERTEX
  8
W71LXLIFT
 62
5
 10
2051.040
 20
-7968.113
 30
-1711.150
 70
    32
  0
VERTEX
  8
W71LXLIFT
 62
5
 10
2052.266
 20
-7967.925
 30
-1711.090
 70
    32
  0
VERTEX
  8
W71LXLIFT
 62
5
 10
2036.500
 20
-7970.342
 30
-1679.850
 70
    32
  0
VERTEX
  8
W71LXLIFT
 62
5
 10
2070.691
 20
-7965.100
 30
-1680.170
 70
    32
  0
VERTEX
  8
W71LXLIFT
 62
5
 10
2070.869
 20
-7965.073
 30
-1711.060
 70
    32
  0
VERTEX
  8
W71LXLIFT
 62
5
 10
2074.338
 20
-7964.541
 30
-1711.030
 70
    32
  0
VERTEX
  8
W71LXLIFT
 62
5
 10
2076.592
 20
-7964.196
 30
-1713.590
 70
    32
  0
VERTEX
  8
W71LXLIFT
 62
5
 10
2080.674
 20
-7963.570
 30
-1716.140
 70
    32
  0
VERTEX
  8
W71LXLIFT
 62
5
 10
2080.951
 20
-7963.527
 30
-1717.140
 70
    32
  0
VERTEX
  8
W71LXLIFT
 62
5
 10
2073.636
 20
-7964.649
 30
-1718.990
 70
    32
  0
VERTEX
  8
W71LXLIFT
 62
5
 10
2065.620
 20
-7965.878
 30
-1719.840
 70
    32
  0
SEQEND
  8
W71LXLIFT
  0
POLYLINE
  8
W71LXLIFT
 62
5
 66
     1
 70
     9
  0
VERTEX
  8
W71LXLIFT
 62
5
 10
2049.640
 20
-7972.374
 30
-1718.410
 70
    32
  0
VERTEX
  8
W71LXLIFT
 62
5
 10
2051.133
 20
-7972.146
 30
-1710.980
 70
    32
  0
VERTEX
  8
W71LXLIFT
 62
5
 10
2052.971
 20
-7971.864
 30
-1711.010
 70
    32
  0
VERTEX
  8
W71LXLIFT
 62
5
 10
2036.929
 20
-7974.323
 30
-1680.390
 70
    32
  0
VERTEX
  8
W71LXLIFT
 62
5
 10
2071.771
 20
-7968.981
 30
-1680.470
 70
    32
  0
VERTEX
  8
W71LXLIFT
 62
5
 10
2071.870
 20
-7968.966
 30
-1710.840
 70
    32
  0
VERTEX
  8
W71LXLIFT
 62
5
 10
2074.638
 20
-7968.542
 30
-1711.000
 70
    32
  0
VERTEX
  8
W71LXLIFT
 62
5
 10
2078.700
 20
-7967.919
 30
-1718.280
 70
    32
  0
VERTEX
  8
W71LXLIFT
 62
5
 10
2067.047
 20
-7969.706
 30
-1720.660
 70
    32
  0
VERTEX
  8
W71LXLIFT
 62
5
 10
2057.755
 20
-7971.130
 30
-1719.470
 70
    32
  0
VERTEX
  8
W71LXLIFT
 62
5
 10
2054.483
 20
-7971.632
 30
-1719.470
 70
    32
  0
SEQEND
  8
W71LXLIFT
  0
POLYLINE
  8
W71LXLIFT
 62
5
 66
     1
 70
     9
  0
VERTEX
  8
W71LXLIFT
 62
5
 10
2050.345
 20
-7976.313
 30
-1718.560
 70
    32
  0
VERTEX
  8
W71LXLIFT
 62
5
 10
2050.760
 20
-7976.249
 30
-1711.000
 70
    32
  0
VERTEX
  8
W71LXLIFT
 62
5
 10
2037.515
 20
-7978.280
 30
-1679.790
 70
    32
  0
VERTEX
  8
W71LXLIFT
 62
5
 10
2067.218
 20
-7973.726
 30
-1680.380
 70
    32
  0
VERTEX
  8
W71LXLIFT
 62
5
 10
2067.346
 20
-7973.707
 30
-1711.010
 70
    32
  0
VERTEX
  8
W71LXLIFT
 62
5
 10
2074.967
 20
-7972.538
 30
-1711.000
 70
    32
  0
VERTEX
  8
W71LXLIFT
 62
5
 10
2077.765
 20
-7972.109
 30
-1719.980
 70
    32
  0
VERTEX
  8
W71LXLIFT
 62
5
 10
2072.318
 20
-7972.944
 30
-1719.350
 70
    32
  0
VERTEX
  8
W71LXLIFT
 62
5
 10
2066.397
 20
-7973.852
 30
-1721.390
 70
    32
  0
VERTEX
  8
W71LXLIFT
 62
5
 10
2060.012
 20
-7974.831
 30
-1720.290
 70
    32
  0
VERTEX
  8
W71LXLIFT
 62
5
 10
2056.889
 20
-7975.310
 30
-1720.610
 70
    32
  0
SEQEND
  8
W71LXLIFT
  0
POLYLINE
  8
W71LXLIFT
 62
5
 66
     1
 70
     9
  0
VERTEX
  8
W71LXLIFT
 62
5
 10
2051.050
 20
-7980.252
 30
-1720.180
 70
    32
  0
VERTEX
  8
W71LXLIFT
 62
5
 10
2051.149
 20
-7980.237
 30
-1710.920
 70
    32
  0
VERTEX
  8
W71LXLIFT
 62
5
 10
2053.630
 20
-7979.856
 30
-1710.970
 70
    32
  0
VERTEX
  8
W71LXLIFT
 62
5
 10
2048.272
 20
-7980.678
 30
-1680.440
 70
    32
  0
VERTEX
  8
W71LXLIFT
 62
5
 10
2072.786
 20
-7976.919
 30
-1680.520
 70
    32
  0
VERTEX
  8
W71LXLIFT
 62
5
 10
2072.727
 20
-7976.928
 30
-1710.880
 70
    32
  0
VERTEX
  8
W71LXLIFT
 62
5
 10
2076.661
 20
-7976.325
 30
-1710.890
 70
    32
  0
VERTEX
  8
W71LXLIFT
 62
5
 10
2077.461
 20
-7976.203
 30
-1713.470
 70
    32
  0
VERTEX
  8
W71LXLIFT
 62
5
 10
2076.947
 20
-7976.281
 30
-1715.440
 70
    32
  0
VERTEX
  8
W71LXLIFT
 62
5
 10
2077.600
 20
-7976.181
 30
-1720.570
 70
    32
  0
VERTEX
  8
W71LXLIFT
 62
5
 10
2071.353
 20
-7977.139
 30
-1720.700
 70
    32
  0
VERTEX
  8
W71LXLIFT
 62
5
 10
2069.791
 20
-7977.379
 30
-1721.890
 70
    32
  0
VERTEX
  8
W71LXLIFT
 62
5
 10
2067.320
 20
-7977.757
 30
-1722.150
 70
    32
  0
VERTEX
  8
W71LXLIFT
 62
5
 10
2061.458
 20
-7978.656
 30
-1720.970
 70
    32
  0
SEQEND
  8
W71LXLIFT
  0
POLYLINE
  8
W71LXLIFT
 62
5
 66
     1
 70
     9
  0
VERTEX
  8
W71LXLIFT
 62
5
 10
2046.937
 20
-7939.648
 30
-1710.950
 70
    32
  0
VERTEX
  8
W71LXLIFT
 62
5
 10
2034.710
 20
-7941.523
 30
-1691.730
 70
    32
  0
VERTEX
  8
W71LXLIFT
 62
5
 10
2031.853
 20
-7941.961
 30
-1679.730
 70
    32
  0
VERTEX
  8
W71LXLIFT
 62
5
 10
2051.484
 20
-7938.951
 30
-1679.860
 70
    32
  0
VERTEX
  8
W71LXLIFT
 62
5
 10
2053.135
 20
-7938.698
 30
-1710.940
 70
    32
  0
SEQEND
  8
W71LXLIFT
  0
POLYLINE
  8
W71LXLIFT
 62
5
 66
     1
 70
     9
  0
VERTEX
  8
W71LXLIFT
 62
5
 10
2046.173
 20
-7935.719
 30
-1711.130
 70
    32
  0
VERTEX
  8
W71LXLIFT
 62
5
 10
2036.644
 20
-7937.180
 30
-1694.330
 70
    32
  0
VERTEX
  8
W71LXLIFT
 62
5
 10
2031.554
 20
-7937.960
 30
-1679.890
 70
    32
  0
VERTEX
  8
W71LXLIFT
 62
5
 10
2051.155
 20
-7934.955
 30
-1679.640
 70
    32
  0
VERTEX
  8
W71LXLIFT
 62
5
 10
2051.234
 20
-7934.943
 30
-1711.090
 70
    32
  0
SEQEND
  8
W71LXLIFT
  0
POLYLINE
  8
W71LXLIFT
 62
5
 66
     1
 70
     9
  0
VERTEX
  8
W71LXLIFT
 62
5
 10
2045.161
 20
-7931.827
 30
-1711.000
 70
    32
  0
VERTEX
  8
W71LXLIFT
 62
5
 10
2031.155
 20
-7933.974
 30
-1682.260
 70
    32
  0
VERTEX
  8
W71LXLIFT
 62
5
 10
2035.158
 20
-7933.361
 30
-1680.010
 70
    32
  0
VERTEX
  8
W71LXLIFT
 62
5
 10
2049.876
 20
-7931.104
 30
-1680.160
 70
    32
  0
VERTEX
  8
W71LXLIFT
 62
5
 10
2050.647
 20
-7930.986
 30
-1711.110
 70
    32
  0
SEQEND
  8
W71LXLIFT
  0
POLYLINE
  8
W71LXLIFT
 62
5
 66
     1
 70
     9
  0
VERTEX
  8
W71LXLIFT
 62
5
 10
2044.961
 20
-7927.811
 30
-1711.110
 70
    32
  0
VERTEX
  8
W71LXLIFT
 62
5
 10
2031.409
 20
-7929.889
 30
-1689.110
 70
    32
  0
VERTEX
  8
W71LXLIFT
 62
5
 10
2030.262
 20
-7930.065
 30
-1680.150
 70
    32
  0
VERTEX
  8
W71LXLIFT
 62
5
 10
2045.139
 20
-7927.784
 30
-1680.020
 70
    32
  0
VERTEX
  8
W71LXLIFT
 62
5
 10
2049.409
 20
-7927.129
 30
-1711.150
 70
    32
  0
SEQEND
  8
W71LXLIFT
  0
POLYLINE
  8
W71LXLIFT
 62
5
 66
     1
 70
     9
  0
VERTEX
  8
W71LXLIFT
 62
5
 10
2044.137
 20
-7923.891
 30
-1711.130
 70
    32
  0
VERTEX
  8
W71LXLIFT
 62
5
 10
2028.944
 20
-7926.220
 30
-1686.900
 70
    32
  0
VERTEX
  8
W71LXLIFT
 62
5
 10
2029.518
 20
-7926.132
 30
-1680.110
 70
    32
  0
VERTEX
  8
W71LXLIFT
 62
5
 10
2044.572
 20
-7923.824
 30
-1680.160
 70
    32
  0
VERTEX
  8
W71LXLIFT
 62
5
 10
2049.139
 20
-7923.124
 30
-1711.030
 70
    32
  0
SEQEND
  8
W71LXLIFT
  0
POLYLINE
  8
W71LXLIFT
 62
5
 66
     1
 70
     9
  0
VERTEX
  8
W71LXLIFT
 62
5
 10
2052.862
 20
-7984.021
 30
-1720.400
 70
    32
  0
VERTEX
  8
W71LXLIFT
 62
5
 10
2053.722
 20
-7983.889
 30
-1711.030
 70
    32
  0
VERTEX
  8
W71LXLIFT
 62
5
 10
2056.124
 20
-7983.521
 30
-1711.020
 70
    32
  0
VERTEX
  8
W71LXLIFT
 62
5
 10
2048.701
 20
-7984.659
 30
-1680.240
 70
    32
  0
VERTEX
  8
W71LXLIFT
 62
5
 10
2073.610
 20
-7980.840
 30
-1680.390
 70
    32
  0
VERTEX
  8
W71LXLIFT
 62
5
 10
2077.376
 20
-7980.262
 30
-1687.870
 70
    32
  0
VERTEX
  8
W71LXLIFT
 62
5
 10
2074.480
 20
-7980.706
 30
-1710.900
 70
    32
  0
VERTEX
  8
W71LXLIFT
 62
5
 10
2077.287
 20
-7980.276
 30
-1710.990
 70
    32
  0
VERTEX
  8
W71LXLIFT
 62
5
 10
2077.346
 20
-7980.267
 30
-1713.410
 70
    32
  0
VERTEX
  8
W71LXLIFT
 62
5
 10
2076.753
 20
-7980.358
 30
-1714.930
 70
    32
  0
VERTEX
  8
W71LXLIFT
 62
5
 10
2077.801
 20
-7980.197
 30
-1721.910
 70
    32
  0
VERTEX
  8
W71LXLIFT
 62
5
 10
2071.040
 20
-7981.234
 30
-1722.980
 70
    32
  0
SEQEND
  8
W71LXLIFT
  0
POLYLINE
  8
W71LXLIFT
 62
5
 66
     1
 70
     9
  0
VERTEX
  8
W71LXLIFT
 62
5
 10
2055.999
 20
-7987.587
 30
-1720.280
 70
    32
  0
VERTEX
  8
W71LXLIFT
 62
5
 10
2055.663
 20
-7987.638
 30
-1711.110
 70
    32
  0
VERTEX
  8
W71LXLIFT
 62
5
 10
2057.610
 20
-7987.340
 30
-1711.100
 70
    32
  0
VERTEX
  8
W71LXLIFT
 62
5
 10
2049.228
 20
-7988.625
 30
-1679.860
 70
    32
  0
VERTEX
  8
W71LXLIFT
 62
5
 10
2073.741
 20
-7984.866
 30
-1680.300
 70
    32
  0
VERTEX
  8
W71LXLIFT
 62
5
 10
2081.224
 20
-7983.719
 30
-1693.570
 70
    32
  0
VERTEX
  8
W71LXLIFT
 62
5
 10
2077.448
 20
-7984.298
 30
-1711.110
 70
    32
  0
VERTEX
  8
W71LXLIFT
 62
5
 10
2079.138
 20
-7984.039
 30
-1723.100
 70
    32
  0
VERTEX
  8
W71LXLIFT
 62
5
 10
2067.326
 20
-7985.850
 30
-1723.010
 70
    32
  0
VERTEX
  8
W71LXLIFT
 62
5
 10
2061.939
 20
-7986.676
 30
-1720.690
 70
    32
  0
SEQEND
  8
W71LXLIFT
  0
POLYLINE
  8
W71LXLIFT
 62
5
 66
     1
 70
     9
  0
VERTEX
  8
W71LXLIFT
 62
5
 10
2059.461
 20
-7991.102
 30
-1723.130
 70
    32
  0
VERTEX
  8
W71LXLIFT
 62
5
 10
2057.060
 20
-7991.471
 30
-1711.160
 70
    32
  0
VERTEX
  8
W71LXLIFT
 62
5
 10
2067.310
 20
-7989.899
 30
-1711.020
 70
    32
  0
VERTEX
  8
W71LXLIFT
 62
5
 10
2055.735
 20
-7991.674
 30
-1679.920
 70
    32
  0
VERTEX
  8
W71LXLIFT
 62
5
 10
2070.651
 20
-7989.387
 30
-1679.930
 70
    32
  0
VERTEX
  8
W71LXLIFT
 62
5
 10
2077.441
 20
-7988.346
 30
-1702.750
 70
    32
  0
VERTEX
  8
W71LXLIFT
 62
5
 10
2076.245
 20
-7988.529
 30
-1711.060
 70
    32
  0
VERTEX
  8
W71LXLIFT
 62
5
 10
2078.252
 20
-7988.222
 30
-1711.050
 70
    32
  0
VERTEX
  8
W71LXLIFT
 62
5
 10
2080.713
 20
-7987.844
 30
-1723.120
 70
    32
  0
SEQEND
  8
W71LXLIFT
  0
POLYLINE
  8
W71LXLIFT
 62
5
 66
     1
 70
     9
  0
VERTEX
  8
W71LXLIFT
 62
5
 10
2045.065
 20
-7922.203
 30
-1711.134
 70
    32
  0
VERTEX
  8
W71LXLIFT
 62
5
 10
2028.069
 20
-7913.060
 30
-1688.492
 70
    32
  0
VERTEX
  8
W71LXLIFT
 62
5
 10
2048.769
 20
-7907.762
 30
-1688.145
 70
    32
  0
VERTEX
  8
W71LXLIFT
 62
5
 10
2053.076
 20
-7920.108
 30
-1710.925
 70
    32
  0
SEQEND
  8
W71LXLIFT
  0
POLYLINE
  8
W71LXLIFT
 62
5
 66
     1
 70
     9
  0
VERTEX
  8
W71LXLIFT
 62
5
 10
2045.390
 20
-7922.510
 30
-1711.258
 70
    32
  0
VERTEX
  8
W71LXLIFT
 62
5
 10
2027.078
 20
-7915.572
 30
-1685.614
 70
    32
  0
VERTEX
  8
W71LXLIFT
 62
5
 10
2048.933
 20
-7910.403
 30
-1684.997
 70
    32
  0
VERTEX
  8
W71LXLIFT
 62
5
 10
2052.167
 20
-7920.900
 30
-1711.050
 70
    32
  0
SEQEND
  8
W71LXLIFT
  0
POLYLINE
  8
W71LXLIFT
 62
5
 66
     1
 70
     9
  0
VERTEX
  8
W71LXLIFT
 62
5
 10
2045.742
 20
-7922.802
 30
-1711.393
 70
    32
  0
VERTEX
  8
W71LXLIFT
 62
5
 10
2025.825
 20
-7918.155
 30
-1683.842
 70
    32
  0
VERTEX
  8
W71LXLIFT
 62
5
 10
2048.782
 20
-7913.338
 30
-1683.690
 70
    32
  0
VERTEX
  8
W71LXLIFT
 62
5
 10
2051.405
 20
-7921.583
 30
-1711.259
 70
    32
  0
SEQEND
  8
W71LXLIFT
  0
POLYLINE
  8
W71LXLIFT
 62
5
 66
     1
 70
     9
  0
VERTEX
  8
W71LXLIFT
 62
5
 10
2045.606
 20
-7923.036
 30
-1711.405
 70
    32
  0
VERTEX
  8
W71LXLIFT
 62
5
 10
2025.121
 20
-7920.421
 30
-1682.465
 70
    32
  0
VERTEX
  8
W71LXLIFT
 62
5
 10
2048.111
 20
-7916.000
 30
-1682.555
 70
    32
  0
VERTEX
  8
W71LXLIFT
 62
5
 10
2050.605
 20
-7922.052
 30
-1711.324
 70
    32
  0
SEQEND
  8
W71LXLIFT
  0
POLYLINE
  8
W71LXLIFT
 62
5
 66
     1
 70
     9
  0
VERTEX
  8
W71LXLIFT
 62
5
 10
2045.095
 20
-7923.362
 30
-1711.202
 70
    32
  0
VERTEX
  8
W71LXLIFT
 62
5
 10
2025.015
 20
-7923.109
 30
-1680.800
 70
    32
  0
VERTEX
  8
W71LXLIFT
 62
5
 10
2049.069
 20
-7918.894
 30
-1680.927
 70
    32
  0
VERTEX
  8
W71LXLIFT
 62
5
 10
2050.058
 20
-7922.479
 30
-1711.120
 70
    32
  0
SEQEND
  8
W71LXLIFT
  0
POLYLINE
  8
W71LXLIFT
 62
1
 66
     1
 70
     8
  0
VERTEX
  8
W71LXLIFT
 62
1
 10
2187.460
 20
-8557.593
 30
-1777.031
 70
    32
  0
VERTEX
  8
W71LXLIFT
 62
1
 10
2200.706
 20
-8522.995
 30
-1787.976
 70
    32
  0
VERTEX
  8
W71LXLIFT
 62
1
 10
2210.145
 20
-8496.363
 30
-1794.276
 70
    32
  0
VERTEX
  8
W71LXLIFT
 62
1
 10
2220.094
 20
-8469.445
 30
-1799.856
 70
    32
  0
VERTEX
  8
W71LXLIFT
 62
1
 10
2215.361
 20
-8449.362
 30
-1799.715
 70
    32
  0
VERTEX
  8
W71LXLIFT
 62
1
 10
2223.661
 20
-8435.935
 30
-1799.606
 70
    32
  0
VERTEX
  8
W71LXLIFT
 62
1
 10
2234.261
 20
-8429.363
 30
-1799.545
 70
    32
  0
VERTEX
  8
W71LXLIFT
 62
1
 10
2231.402
 20
-8396.049
 30
-1799.305
 70
    32
  0
VERTEX
  8
W71LXLIFT
 62
1
 10
2232.995
 20
-8382.692
 30
-1799.205
 70
    32
  0
VERTEX
  8
W71LXLIFT
 62
1
 10
2231.270
 20
-8375.749
 30
-1798.949
 70
    32
  0
VERTEX
  8
W71LXLIFT
 62
1
 10
2227.091
 20
-8369.588
 30
-1798.784
 70
    32
  0
VERTEX
  8
W71LXLIFT
 62
1
 10
2225.751
 20
-8350.423
 30
-1798.337
 70
    32
  0
VERTEX
  8
W71LXLIFT
 62
1
 10
2225.845
 20
-8338.012
 30
-1798.054
 70
    32
  0
VERTEX
  8
W71LXLIFT
 62
1
 10
2229.251
 20
-8332.844
 30
-1797.955
 70
    32
  0
VERTEX
  8
W71LXLIFT
 62
1
 10
2234.223
 20
-8332.877
 30
-1797.984
 70
    32
  0
VERTEX
  8
W71LXLIFT
 62
1
 10
2238.446
 20
-8336.229
 30
-1798.086
 70
    32
  0
VERTEX
  8
W71LXLIFT
 62
1
 10
2243.603
 20
-8358.393
 30
-1798.623
 70
    32
  0
VERTEX
  8
W71LXLIFT
 62
1
 10
2251.580
 20
-8367.575
 30
-1798.879
 70
    32
  0
VERTEX
  8
W71LXLIFT
 62
1
 10
2259.794
 20
-8414.277
 30
-1799.404
 70
    32
  0
VERTEX
  8
W71LXLIFT
 62
1
 10
2261.474
 20
-8416.001
 30
-1799.415
 70
    32
  0
VERTEX
  8
W71LXLIFT
 62
1
 10
2254.698
 20
-8445.958
 30
-1799.642
 70
    32
  0
VERTEX
  8
W71LXLIFT
 62
1
 10
2250.654
 20
-8455.334
 30
-1799.716
 70
    32
  0
VERTEX
  8
W71LXLIFT
 62
1
 10
2254.124
 20
-8466.137
 30
-1799.791
 70
    32
  0
VERTEX
  8
W71LXLIFT
 62
1
 10
2259.715
 20
-8471.587
 30
-1799.824
 70
    32
  0
VERTEX
  8
W71LXLIFT
 62
1
 10
2249.846
 20
-8480.946
 30
-1799.904
 70
    32
  0
VERTEX
  8
W71LXLIFT
 62
1
 10
2238.099
 20
-8475.378
 30
-1799.878
 70
    32
  0
VERTEX
  8
W71LXLIFT
 62
1
 10
2228.535
 20
-8485.157
 30
-1797.922
 70
    32
  0
VERTEX
  8
W71LXLIFT
 62
1
 10
2218.663
 20
-8508.858
 30
-1792.487
 70
    32
  0
VERTEX
  8
W71LXLIFT
 62
1
 10
2209.116
 20
-8530.487
 30
-1787.047
 70
    32
  0
VERTEX
  8
W71LXLIFT
 62
1
 10
2198.268
 20
-8557.693
 30
-1778.138
 70
    32
  0
SEQEND
  8
W71LXLIFT
  0
POLYLINE
  8
W71LXLIFT
 62
3
 66
     1
 70
     9
  0
VERTEX
  8
W71LXLIFT
 62
3
 10
1944.792
 20
-7117.327
 30
-1809.000
 70
    32
  0
VERTEX
  8
W71LXLIFT
 62
3
 10
1928.570
 20
-7121.703
 30
-1809.000
 70
    32
  0
VERTEX
  8
W71LXLIFT
 62
3
 10
1925.923
 20
-7126.024
 30
-1809.000
 70
    32
  0
VERTEX
  8
W71LXLIFT
 62
3
 10
1933.620
 20
-7162.884
 30
-1809.000
 70
    32
  0
VERTEX
  8
W71LXLIFT
 62
3
 10
1936.448
 20
-7173.569
 30
-1809.000
 70
    32
  0
VERTEX
  8
W71LXLIFT
 62
3
 10
1941.213
 20
-7192.855
 30
-1809.000
 70
    32
  0
VERTEX
  8
W71LXLIFT
 62
3
 10
1942.061
 20
-7211.319
 30
-1809.000
 70
    32
  0
VERTEX
  8
W71LXLIFT
 62
3
 10
1942.355
 20
-7225.639
 30
-1809.000
 70
    32
  0
VERTEX
  8
W71LXLIFT
 62
3
 10
1953.472
 20
-7225.532
 30
-1809.000
 70
    32
  0
VERTEX
  8
W71LXLIFT
 62
3
 10
1960.210
 20
-7223.118
 30
-1809.000
 70
    32
  0
VERTEX
  8
W71LXLIFT
 62
3
 10
1972.881
 20
-7204.942
 30
-1809.000
 70
    32
  0
VERTEX
  8
W71LXLIFT
 62
3
 10
1975.684
 20
-7183.555
 30
-1809.000
 70
    32
  0
VERTEX
  8
W71LXLIFT
 62
3
 10
1974.478
 20
-7170.494
 30
-1809.000
 70
    32
  0
VERTEX
  8
W71LXLIFT
 62
3
 10
1968.853
 20
-7150.010
 30
-1809.000
 70
    32
  0
VERTEX
  8
W71LXLIFT
 62
3
 10
1959.802
 20
-7131.076
 30
-1809.000
 70
    32
  0
SEQEND
  8
W71LXLIFT
  0
POLYLINE
  8
W71LXLIFT
 62
4
 66
     1
 70
     9
  0
VERTEX
  8
W71LXLIFT
 62
4
 10
1963.843
 20
-7135.441
 30
-1806.000
 70
    32
  0
VERTEX
  8
W71LXLIFT
 62
4
 10
1945.115
 20
-7120.728
 30
-1806.000
 70
    32
  0
VERTEX
  8
W71LXLIFT
 62
4
 10
1931.053
 20
-7120.526
 30
-1806.000
 70
    32
  0
VERTEX
  8
W71LXLIFT
 62
4
 10
1924.546
 20
-7123.683
 30
-1806.000
 70
    32
  0
VERTEX
  8
W71LXLIFT
 62
4
 10
1925.382
 20
-7137.917
 30
-1806.000
 70
    32
  0
VERTEX
  8
W71LXLIFT
 62
4
 10
1932.832
 20
-7167.688
 30
-1806.000
 70
    32
  0
VERTEX
  8
W71LXLIFT
 62
4
 10
1934.165
 20
-7174.603
 30
-1806.000
 70
    32
  0
VERTEX
  8
W71LXLIFT
 62
4
 10
1939.728
 20
-7193.315
 30
-1806.000
 70
    32
  0
VERTEX
  8
W71LXLIFT
 62
4
 10
1940.097
 20
-7225.444
 30
-1806.000
 70
    32
  0
VERTEX
  8
W71LXLIFT
 62
4
 10
1950.814
 20
-7225.623
 30
-1806.000
 70
    32
  0
VERTEX
  8
W71LXLIFT
 62
4
 10
1958.894
 20
-7222.549
 30
-1806.000
 70
    32
  0
VERTEX
  8
W71LXLIFT
 62
4
 10
1972.706
 20
-7203.856
 30
-1806.000
 70
    32
  0
VERTEX
  8
W71LXLIFT
 62
4
 10
1975.428
 20
-7184.042
 30
-1806.000
 70
    32
  0
VERTEX
  8
W71LXLIFT
 62
4
 10
1973.362
 20
-7169.782
 30
-1806.000
 70
    32
  0
SEQEND
  8
W71LXLIFT
  0
POLYLINE
  8
W71LXLIFT
 62
5
 66
     1
 70
     9
  0
VERTEX
  8
W71LXLIFT
 62
5
 10
1959.951
 20
-7133.391
 30
-1803.000
 70
    32
  0
VERTEX
  8
W71LXLIFT
 62
5
 10
1945.033
 20
-7122.300
 30
-1803.000
 70
    32
  0
VERTEX
  8
W71LXLIFT
 62
5
 10
1927.797
 20
-7121.047
 30
-1803.000
 70
    32
  0
VERTEX
  8
W71LXLIFT
 62
5
 10
1921.919
 20
-7124.660
 30
-1803.000
 70
    32
  0
VERTEX
  8
W71LXLIFT
 62
5
 10
1922.126
 20
-7138.438
 30
-1803.000
 70
    32
  0
VERTEX
  8
W71LXLIFT
 62
5
 10
1928.053
 20
-7153.862
 30
-1803.000
 70
    32
  0
VERTEX
  8
W71LXLIFT
 62
5
 10
1931.788
 20
-7172.978
 30
-1803.000
 70
    32
  0
VERTEX
  8
W71LXLIFT
 62
5
 10
1938.044
 20
-7193.919
 30
-1803.000
 70
    32
  0
VERTEX
  8
W71LXLIFT
 62
5
 10
1937.495
 20
-7225.191
 30
-1803.000
 70
    32
  0
VERTEX
  8
W71LXLIFT
 62
5
 10
1949.728
 20
-7225.797
 30
-1803.000
 70
    32
  0
VERTEX
  8
W71LXLIFT
 62
5
 10
1958.407
 20
-7222.293
 30
-1803.000
 70
    32
  0
VERTEX
  8
W71LXLIFT
 62
5
 10
1972.276
 20
-7203.257
 30
-1803.000
 70
    32
  0
VERTEX
  8
W71LXLIFT
 62
5
 10
1975.141
 20
-7183.642
 30
-1803.000
 70
    32
  0
VERTEX
  8
W71LXLIFT
 62
5
 10
1967.947
 20
-7153.385
 30
-1803.000
 70
    32
  0
VERTEX
  8
W71LXLIFT
 62
5
 10
1964.376
 20
-7142.930
 30
-1803.000
 70
    32
  0
VERTEX
  8
W71LXLIFT
 62
5
 10
1962.245
 20
-7136.588
 30
-1803.000
 70
    32
  0
SEQEND
  8
W71LXLIFT
  0
POLYLINE
  8
W71LXLIFT
 62
6
 66
     1
 70
     9
  0
VERTEX
  8
W71LXLIFT
 62
6
 10
1959.208
 20
-7133.621
 30
-1800.000
 70
    32
  0
VERTEX
  8
W71LXLIFT
 62
6
 10
1945.494
 20
-7123.786
 30
-1800.000
 70
    32
  0
VERTEX
  8
W71LXLIFT
 62
6
 10
1927.971
 20
-7122.133
 30
-1800.000
 70
    32
  0
VERTEX
  8
W71LXLIFT
 62
6
 10
1918.524
 20
-7127.096
 30
-1800.000
 70
    32
  0
VERTEX
  8
W71LXLIFT
 62
6
 10
1919.468
 20
-7138.529
 30
-1800.000
 70
    32
  0
VERTEX
  8
W71LXLIFT
 62
6
 10
1928.207
 20
-7158.292
 30
-1800.000
 70
    32
  0
VERTEX
  8
W71LXLIFT
 62
6
 10
1930.852
 20
-7175.467
 30
-1800.000
 70
    32
  0
VERTEX
  8
W71LXLIFT
 62
6
 10
1936.702
 20
-7194.579
 30
-1800.000
 70
    32
  0
VERTEX
  8
W71LXLIFT
 62
6
 10
1936.067
 20
-7225.309
 30
-1800.000
 70
    32
  0
VERTEX
  8
W71LXLIFT
 62
6
 10
1948.156
 20
-7225.714
 30
-1800.000
 70
    32
  0
VERTEX
  8
W71LXLIFT
 62
6
 10
1957.434
 20
-7221.780
 30
-1800.000
 70
    32
  0
VERTEX
  8
W71LXLIFT
 62
6
 10
1964.013
 20
-7212.820
 30
-1800.000
 70
    32
  0
VERTEX
  8
W71LXLIFT
 62
6
 10
1972.245
 20
-7202.371
 30
-1800.000
 70
    32
  0
VERTEX
  8
W71LXLIFT
 62
6
 10
1974.854
 20
-7183.243
 30
-1800.000
 70
    32
  0
VERTEX
  8
W71LXLIFT
 62
6
 10
1967.230
 20
-7152.386
 30
-1800.000
 70
    32
  0
VERTEX
  8
W71LXLIFT
 62
6
 10
1964.008
 20
-7144.102
 30
-1800.000
 70
    32
  0
SEQEND
  8
W71LXLIFT
  0
POLYLINE
  8
W71LXLIFT
 62
7
 66
     1
 70
     9
  0
VERTEX
  8
W71LXLIFT
 62
7
 10
1957.642
 20
-7135.653
 30
-1797.000
 70
    32
  0
VERTEX
  8
W71LXLIFT
 62
7
 10
1943.267
 20
-7124.476
 30
-1797.000
 70
    32
  0
VERTEX
  8
W71LXLIFT
 62
7
 10
1927.715
 20
-7122.619
 30
-1797.000
 70
    32
  0
VERTEX
  8
W71LXLIFT
 62
7
 10
1916.016
 20
-7129.502
 30
-1797.000
 70
    32
  0
VERTEX
  8
W71LXLIFT
 62
7
 10
1919.218
 20
-7141.130
 30
-1797.000
 70
    32
  0
VERTEX
  8
W71LXLIFT
 62
7
 10
1926.117
 20
-7157.067
 30
-1797.000
 70
    32
  0
VERTEX
  8
W71LXLIFT
 62
7
 10
1928.357
 20
-7172.413
 30
-1797.000
 70
    32
  0
VERTEX
  8
W71LXLIFT
 62
7
 10
1935.217
 20
-7195.039
 30
-1797.000
 70
    32
  0
VERTEX
  8
W71LXLIFT
 62
7
 10
1934.351
 20
-7225.026
 30
-1797.000
 70
    32
  0
VERTEX
  8
W71LXLIFT
 62
7
 10
1946.728
 20
-7225.831
 30
-1797.000
 70
    32
  0
VERTEX
  8
W71LXLIFT
 62
7
 10
1956.661
 20
-7221.124
 30
-1797.000
 70
    32
  0
VERTEX
  8
W71LXLIFT
 62
7
 10
1962.098
 20
-7212.681
 30
-1797.000
 70
    32
  0
VERTEX
  8
W71LXLIFT
 62
7
 10
1971.959
 20
-7201.971
 30
-1797.000
 70
    32
  0
VERTEX
  8
W71LXLIFT
 62
7
 10
1973.968
 20
-7183.273
 30
-1797.000
 70
    32
  0
VERTEX
  8
W71LXLIFT
 62
7
 10
1967.179
 20
-7154.844
 30
-1797.000
 70
    32
  0
VERTEX
  8
W71LXLIFT
 62
7
 10
1963.696
 20
-7144.932
 30
-1797.000
 70
    32
  0
SEQEND
  8
W71LXLIFT
  0
POLYLINE
  8
W71LXLIFT
 62
8
 66
     1
 70
     9
  0
VERTEX
  8
W71LXLIFT
 62
8
 10
1956.643
 20
-7136.370
 30
-1794.000
 70
    32
  0
VERTEX
  8
W71LXLIFT
 62
8
 10
1943.303
 20
-7127.477
 30
-1794.000
 70
    32
  0
VERTEX
  8
W71LXLIFT
 62
8
 10
1931.863
 20
-7124.184
 30
-1794.000
 70
    32
  0
VERTEX
  8
W71LXLIFT
 62
8
 10
1924.863
 20
-7124.969
 30
-1794.000
 70
    32
  0
VERTEX
  8
W71LXLIFT
 62
8
 10
1921.038
 20
-7126.806
 30
-1794.000
 70
    32
  0
VERTEX
  8
W71LXLIFT
 62
8
 10
1919.190
 20
-7130.554
 30
-1794.000
 70
    32
  0
VERTEX
  8
W71LXLIFT
 62
8
 10
1917.891
 20
-7136.331
 30
-1794.000
 70
    32
  0
VERTEX
  8
W71LXLIFT
 62
8
 10
1918.885
 20
-7145.304
 30
-1794.000
 70
    32
  0
VERTEX
  8
W71LXLIFT
 62
8
 10
1920.207
 20
-7147.989
 30
-1794.000
 70
    32
  0
VERTEX
  8
W71LXLIFT
 62
8
 10
1931.078
 20
-7185.900
 30
-1794.000
 70
    32
  0
VERTEX
  8
W71LXLIFT
 62
8
 10
1933.620
 20
-7196.185
 30
-1794.000
 70
    32
  0
VERTEX
  8
W71LXLIFT
 62
8
 10
1933.122
 20
-7225.000
 30
-1794.000
 70
    32
  0
VERTEX
  8
W71LXLIFT
 62
8
 10
1944.813
 20
-7225.692
 30
-1794.000
 70
    32
  0
VERTEX
  8
W71LXLIFT
 62
8
 10
1955.601
 20
-7220.068
 30
-1794.000
 70
    32
  0
VERTEX
  8
W71LXLIFT
 62
8
 10
1961.780
 20
-7211.395
 30
-1794.000
 70
    32
  0
VERTEX
  8
W71LXLIFT
 62
8
 10
1971.815
 20
-7201.771
 30
-1794.000
 70
    32
  0
VERTEX
  8
W71LXLIFT
 62
8
 10
1973.022
 20
-7193.337
 30
-1794.000
 70
    32
  0
VERTEX
  8
W71LXLIFT
 62
8
 10
1973.052
 20
-7182.417
 30
-1794.000
 70
    32
  0
VERTEX
  8
W71LXLIFT
 62
8
 10
1966.611
 20
-7156.160
 30
-1794.000
 70
    32
  0
VERTEX
  8
W71LXLIFT
 62
8
 10
1962.011
 20
-7145.535
 30
-1794.000
 70
    32
  0
SEQEND
  8
W71LXLIFT
  0
POLYLINE
  8
W71LXLIFT
 62
11
 66
     1
 70
     9
  0
VERTEX
  8
W71LXLIFT
 62
11
 10
1953.755
 20
-7135.718
 30
-1791.000
 70
    32
  0
VERTEX
  8
W71LXLIFT
 62
11
 10
1930.465
 20
-7125.187
 30
-1791.000
 70
    32
  0
VERTEX
  8
W71LXLIFT
 62
11
 10
1926.778
 20
-7125.108
 30
-1791.000
 70
    32
  0
VERTEX
  8
W71LXLIFT
 62
11
 10
1922.099
 20
-7127.861
 30
-1791.000
 70
    32
  0
VERTEX
  8
W71LXLIFT
 62
11
 10
1919.094
 20
-7137.586
 30
-1791.000
 70
    32
  0
VERTEX
  8
W71LXLIFT
 62
11
 10
1917.636
 20
-7148.622
 30
-1791.000
 70
    32
  0
VERTEX
  8
W71LXLIFT
 62
11
 10
1924.491
 20
-7169.133
 30
-1791.000
 70
    32
  0
VERTEX
  8
W71LXLIFT
 62
11
 10
1929.225
 20
-7187.533
 30
-1791.000
 70
    32
  0
VERTEX
  8
W71LXLIFT
 62
11
 10
1931.567
 20
-7197.962
 30
-1791.000
 70
    32
  0
VERTEX
  8
W71LXLIFT
 62
11
 10
1931.637
 20
-7225.460
 30
-1791.000
 70
    32
  0
VERTEX
  8
W71LXLIFT
 62
11
 10
1943.154
 20
-7225.066
 30
-1791.000
 70
    32
  0
VERTEX
  8
W71LXLIFT
 62
11
 10
1954.684
 20
-7219.213
 30
-1791.000
 70
    32
  0
VERTEX
  8
W71LXLIFT
 62
11
 10
1960.551
 20
-7211.369
 30
-1791.000
 70
    32
  0
VERTEX
  8
W71LXLIFT
 62
11
 10
1970.873
 20
-7202.145
 30
-1791.000
 70
    32
  0
VERTEX
  8
W71LXLIFT
 62
11
 10
1972.035
 20
-7198.284
 30
-1791.000
 70
    32
  0
VERTEX
  8
W71LXLIFT
 62
11
 10
1972.191
 20
-7181.218
 30
-1791.000
 70
    32
  0
VERTEX
  8
W71LXLIFT
 62
11
 10
1967.713
 20
-7162.332
 30
-1791.000
 70
    32
  0
VERTEX
  8
W71LXLIFT
 62
11
 10
1960.639
 20
-7145.309
 30
-1791.000
 70
    32
  0
SEQEND
  8
W71LXLIFT
  0
POLYLINE
  8
W71LXLIFT
 62
13
 66
     1
 70
     9
  0
VERTEX
  8
W71LXLIFT
 62
13
 10
1952.307
 20
-7139.180
 30
-1788.000
 70
    32
  0
VERTEX
  8
W71LXLIFT
 62
13
 10
1927.552
 20
-7125.764
 30
-1788.000
 70
    32
  0
VERTEX
  8
W71LXLIFT
 62
13
 10
1925.698
 20
-7127.397
 30
-1788.000
 70
    32
  0
VERTEX
  8
W71LXLIFT
 62
13
 10
1918.199
 20
-7145.191
 30
-1788.000
 70
    32
  0
VERTEX
  8
W71LXLIFT
 62
13
 10
1916.787
 20
-7151.654
 30
-1788.000
 70
    32
  0
VERTEX
  8
W71LXLIFT
 62
13
 10
1923.411
 20
-7171.422
 30
-1788.000
 70
    32
  0
VERTEX
  8
W71LXLIFT
 62
13
 10
1927.285
 20
-7188.623
 30
-1788.000
 70
    32
  0
VERTEX
  8
W71LXLIFT
 62
13
 10
1929.770
 20
-7199.251
 30
-1788.000
 70
    32
  0
VERTEX
  8
W71LXLIFT
 62
13
 10
1930.152
 20
-7225.920
 30
-1788.000
 70
    32
  0
VERTEX
  8
W71LXLIFT
 62
13
 10
1941.781
 20
-7224.840
 30
-1788.000
 70
    32
  0
VERTEX
  8
W71LXLIFT
 62
13
 10
1954.024
 20
-7217.870
 30
-1788.000
 70
    32
  0
VERTEX
  8
W71LXLIFT
 62
13
 10
1959.691
 20
-7210.170
 30
-1788.000
 70
    32
  0
VERTEX
  8
W71LXLIFT
 62
13
 10
1970.299
 20
-7201.346
 30
-1788.000
 70
    32
  0
VERTEX
  8
W71LXLIFT
 62
13
 10
1971.548
 20
-7198.027
 30
-1788.000
 70
    32
  0
VERTEX
  8
W71LXLIFT
 62
13
 10
1970.619
 20
-7181.135
 30
-1788.000
 70
    32
  0
VERTEX
  8
W71LXLIFT
 62
13
 10
1967.176
 20
-7164.534
 30
-1788.000
 70
    32
  0
VERTEX
  8
W71LXLIFT
 62
13
 10
1956.465
 20
-7144.974
 30
-1788.000
 70
    32
  0
SEQEND
  8
W71LXLIFT
  0
POLYLINE
  8
W71LXLIFT
 62
1
 66
     1
 70
     9
  0
VERTEX
  8
W71LXLIFT
 62
1
 10
1965.665
 20
-7166.224
 30
-1785.000
 70
    32
  0
VERTEX
  8
W71LXLIFT
 62
1
 10
1953.839
 20
-7145.951
 30
-1785.000
 70
    32
  0
VERTEX
  8
W71LXLIFT
 62
1
 10
1947.278
 20
-7139.761
 30
-1785.000
 70
    32
  0
VERTEX
  8
W71LXLIFT
 62
1
 10
1941.266
 20
-7135.599
 30
-1785.000
 70
    32
  0
VERTEX
  8
W71LXLIFT
 62
1
 10
1926.187
 20
-7139.459
 30
-1785.000
 70
    32
  0
VERTEX
  8
W71LXLIFT
 62
1
 10
1916.126
 20
-7150.312
 30
-1785.000
 70
    32
  0
VERTEX
  8
W71LXLIFT
 62
1
 10
1915.563
 20
-7153.743
 30
-1785.000
 70
    32
  0
VERTEX
  8
W71LXLIFT
 62
1
 10
1920.461
 20
-7168.998
 30
-1785.000
 70
    32
  0
VERTEX
  8
W71LXLIFT
 62
1
 10
1925.774
 20
-7190.312
 30
-1785.000
 70
    32
  0
VERTEX
  8
W71LXLIFT
 62
1
 10
1928.341
 20
-7199.368
 30
-1785.000
 70
    32
  0
VERTEX
  8
W71LXLIFT
 62
1
 10
1928.519
 20
-7224.065
 30
-1785.000
 70
    32
  0
VERTEX
  8
W71LXLIFT
 62
1
 10
1928.181
 20
-7226.124
 30
-1785.000
 70
    32
  0
VERTEX
  8
W71LXLIFT
 62
1
 10
1940.153
 20
-7225.101
 30
-1785.000
 70
    32
  0
VERTEX
  8
W71LXLIFT
 62
1
 10
1953.163
 20
-7216.671
 30
-1785.000
 70
    32
  0
VERTEX
  8
W71LXLIFT
 62
1
 10
1959.230
 20
-7208.685
 30
-1785.000
 70
    32
  0
VERTEX
  8
W71LXLIFT
 62
1
 10
1969.726
 20
-7200.546
 30
-1785.000
 70
    32
  0
VERTEX
  8
W71LXLIFT
 62
1
 10
1970.719
 20
-7197.714
 30
-1785.000
 70
    32
  0
VERTEX
  8
W71LXLIFT
 62
1
 10
1968.904
 20
-7180.853
 30
-1785.000
 70
    32
  0
SEQEND
  8
W71LXLIFT
  0
POLYLINE
  8
W71LXLIFT
 62
3
 66
     1
 70
     9
  0
VERTEX
  8
W71LXLIFT
 62
3
 10
1962.285
 20
-7163.200
 30
-1782.000
 70
    32
  0
VERTEX
  8
W71LXLIFT
 62
3
 10
1946.628
 20
-7142.649
 30
-1782.000
 70
    32
  0
VERTEX
  8
W71LXLIFT
 62
3
 10
1940.847
 20
-7139.230
 30
-1782.000
 70
    32
  0
VERTEX
  8
W71LXLIFT
 62
3
 10
1930.678
 20
-7141.079
 30
-1782.000
 70
    32
  0
VERTEX
  8
W71LXLIFT
 62
3
 10
1925.537
 20
-7142.347
 30
-1782.000
 70
    32
  0
VERTEX
  8
W71LXLIFT
 62
3
 10
1916.725
 20
-7149.882
 30
-1782.000
 70
    32
  0
VERTEX
  8
W71LXLIFT
 62
3
 10
1915.333
 20
-7153.000
 30
-1782.000
 70
    32
  0
VERTEX
  8
W71LXLIFT
 62
3
 10
1915.051
 20
-7154.716
 30
-1782.000
 70
    32
  0
VERTEX
  8
W71LXLIFT
 62
3
 10
1922.906
 20
-7186.316
 30
-1782.000
 70
    32
  0
VERTEX
  8
W71LXLIFT
 62
3
 10
1924.689
 20
-7190.486
 30
-1782.000
 70
    32
  0
VERTEX
  8
W71LXLIFT
 62
3
 10
1926.943
 20
-7200.372
 30
-1782.000
 70
    32
  0
VERTEX
  8
W71LXLIFT
 62
3
 10
1927.375
 20
-7212.777
 30
-1782.000
 70
    32
  0
VERTEX
  8
W71LXLIFT
 62
3
 10
1927.377
 20
-7224.582
 30
-1782.000
 70
    32
  0
VERTEX
  8
W71LXLIFT
 62
3
 10
1926.952
 20
-7226.098
 30
-1782.000
 70
    32
  0
VERTEX
  8
W71LXLIFT
 62
3
 10
1938.924
 20
-7225.074
 30
-1782.000
 70
    32
  0
VERTEX
  8
W71LXLIFT
 62
3
 10
1945.969
 20
-7219.715
 30
-1782.000
 70
    32
  0
VERTEX
  8
W71LXLIFT
 62
3
 10
1952.589
 20
-7215.872
 30
-1782.000
 70
    32
  0
VERTEX
  8
W71LXLIFT
 62
3
 10
1958.113
 20
-7207.972
 30
-1782.000
 70
    32
  0
VERTEX
  8
W71LXLIFT
 62
3
 10
1968.896
 20
-7200.233
 30
-1782.000
 70
    32
  0
VERTEX
  8
W71LXLIFT
 62
3
 10
1970.089
 20
-7197.258
 30
-1782.000
 70
    32
  0
VERTEX
  8
W71LXLIFT
 62
3
 10
1967.332
 20
-7180.770
 30
-1782.000
 70
    32
  0
SEQEND
  8
W71LXLIFT
  0
POLYLINE
  8
W71LXLIFT
 62
4
 66
     1
 70
     9
  0
VERTEX
  8
W71LXLIFT
 62
4
 10
1944.488
 20
-7143.883
 30
-1779.000
 70
    32
  0
VERTEX
  8
W71LXLIFT
 62
4
 10
1938.425
 20
-7142.179
 30
-1779.000
 70
    32
  0
VERTEX
  8
W71LXLIFT
 62
4
 10
1931.538
 20
-7142.278
 30
-1779.000
 70
    32
  0
VERTEX
  8
W71LXLIFT
 62
4
 10
1924.825
 20
-7143.463
 30
-1779.000
 70
    32
  0
VERTEX
  8
W71LXLIFT
 62
4
 10
1919.833
 20
-7147.046
 30
-1779.000
 70
    32
  0
VERTEX
  8
W71LXLIFT
 62
4
 10
1914.360
 20
-7152.488
 30
-1779.000
 70
    32
  0
VERTEX
  8
W71LXLIFT
 62
4
 10
1913.454
 20
-7155.862
 30
-1779.000
 70
    32
  0
VERTEX
  8
W71LXLIFT
 62
4
 10
1921.078
 20
-7186.719
 30
-1779.000
 70
    32
  0
VERTEX
  8
W71LXLIFT
 62
4
 10
1922.830
 20
-7190.003
 30
-1779.000
 70
    32
  0
VERTEX
  8
W71LXLIFT
 62
4
 10
1925.053
 20
-7199.003
 30
-1779.000
 70
    32
  0
VERTEX
  8
W71LXLIFT
 62
4
 10
1925.756
 20
-7205.462
 30
-1779.000
 70
    32
  0
VERTEX
  8
W71LXLIFT
 62
4
 10
1926.204
 20
-7224.213
 30
-1779.000
 70
    32
  0
VERTEX
  8
W71LXLIFT
 62
4
 10
1925.667
 20
-7226.415
 30
-1779.000
 70
    32
  0
VERTEX
  8
W71LXLIFT
 62
4
 10
1938.437
 20
-7224.818
 30
-1779.000
 70
    32
  0
VERTEX
  8
W71LXLIFT
 62
4
 10
1946.107
 20
-7217.800
 30
-1779.000
 70
    32
  0
VERTEX
  8
W71LXLIFT
 62
4
 10
1951.729
 20
-7214.673
 30
-1779.000
 70
    32
  0
VERTEX
  8
W71LXLIFT
 62
4
 10
1957.396
 20
-7206.973
 30
-1779.000
 70
    32
  0
VERTEX
  8
W71LXLIFT
 62
4
 10
1967.980
 20
-7199.378
 30
-1779.000
 70
    32
  0
VERTEX
  8
W71LXLIFT
 62
4
 10
1968.916
 20
-7196.889
 30
-1779.000
 70
    32
  0
VERTEX
  8
W71LXLIFT
 62
4
 10
1966.190
 20
-7181.287
 30
-1779.000
 70
    32
  0
VERTEX
  8
W71LXLIFT
 62
4
 10
1960.570
 20
-7162.918
 30
-1779.000
 70
    32
  0
SEQEND
  8
W71LXLIFT
  0
POLYLINE
  8
W71LXLIFT
 62
5
 66
     1
 70
     9
  0
VERTEX
  8
W71LXLIFT
 62
5
 10
1937.500
 20
-7224.628
 30
-1776.000
 70
    32
  0
VERTEX
  8
W71LXLIFT
 62
5
 10
1945.004
 20
-7217.971
 30
-1776.000
 70
    32
  0
VERTEX
  8
W71LXLIFT
 62
5
 10
1951.495
 20
-7213.736
 30
-1776.000
 70
    32
  0
VERTEX
  8
W71LXLIFT
 62
5
 10
1956.118
 20
-7206.604
 30
-1776.000
 70
    32
  0
VERTEX
  8
W71LXLIFT
 62
5
 10
1967.540
 20
-7198.618
 30
-1776.000
 70
    32
  0
VERTEX
  8
W71LXLIFT
 62
5
 10
1967.995
 20
-7196.596
 30
-1776.000
 70
    32
  0
VERTEX
  8
W71LXLIFT
 62
5
 10
1965.097
 20
-7181.935
 30
-1776.000
 70
    32
  0
VERTEX
  8
W71LXLIFT
 62
5
 10
1960.277
 20
-7166.957
 30
-1776.000
 70
    32
  0
VERTEX
  8
W71LXLIFT
 62
5
 10
1956.803
 20
-7161.822
 30
-1776.000
 70
    32
  0
VERTEX
  8
W71LXLIFT
 62
5
 10
1943.581
 20
-7146.940
 30
-1776.000
 70
    32
  0
VERTEX
  8
W71LXLIFT
 62
5
 10
1940.495
 20
-7144.705
 30
-1776.000
 70
    32
  0
VERTEX
  8
W71LXLIFT
 62
5
 10
1937.513
 20
-7144.091
 30
-1776.000
 70
    32
  0
VERTEX
  8
W71LXLIFT
 62
5
 10
1928.129
 20
-7143.408
 30
-1776.000
 70
    32
  0
VERTEX
  8
W71LXLIFT
 62
5
 10
1923.971
 20
-7144.697
 30
-1776.000
 70
    32
  0
VERTEX
  8
W71LXLIFT
 62
5
 10
1918.559
 20
-7148.369
 30
-1776.000
 70
    32
  0
VERTEX
  8
W71LXLIFT
 62
5
 10
1912.932
 20
-7154.103
 30
-1776.000
 70
    32
  0
VERTEX
  8
W71LXLIFT
 62
5
 10
1911.839
 20
-7157.006
 30
-1776.000
 70
    32
  0
VERTEX
  8
W71LXLIFT
 62
5
 10
1912.030
 20
-7161.108
 30
-1776.000
 70
    32
  0
VERTEX
  8
W71LXLIFT
 62
5
 10
1920.225
 20
-7189.345
 30
-1776.000
 70
    32
  0
VERTEX
  8
W71LXLIFT
 62
5
 10
1921.752
 20
-7192.063
 30
-1776.000
 70
    32
  0
VERTEX
  8
W71LXLIFT
 62
5
 10
1924.119
 20
-7202.444
 30
-1776.000
 70
    32
  0
VERTEX
  8
W71LXLIFT
 62
5
 10
1924.517
 20
-7224.833
 30
-1776.000
 70
    32
  0
VERTEX
  8
W71LXLIFT
 62
5
 10
1924.241
 20
-7226.515
 30
-1776.000
 70
    32
  0
SEQEND
  8
W71LXLIFT
  0
POLYLINE
  8
W71LXLIFT
 62
6
 66
     1
 70
     9
  0
VERTEX
  8
W71LXLIFT
 62
6
 10
1937.259
 20
-7224.589
 30
-1773.000
 70
    32
  0
VERTEX
  8
W71LXLIFT
 62
6
 10
1944.502
 20
-7217.271
 30
-1773.000
 70
    32
  0
VERTEX
  8
W71LXLIFT
 62
6
 10
1950.015
 20
-7213.739
 30
-1773.000
 70
    32
  0
VERTEX
  8
W71LXLIFT
 62
6
 10
1955.734
 20
-7205.184
 30
-1773.000
 70
    32
  0
VERTEX
  8
W71LXLIFT
 62
6
 10
1966.798
 20
-7197.879
 30
-1773.000
 70
    32
  0
VERTEX
  8
W71LXLIFT
 62
6
 10
1967.214
 20
-7196.098
 30
-1773.000
 70
    32
  0
VERTEX
  8
W71LXLIFT
 62
6
 10
1965.789
 20
-7186.736
 30
-1773.000
 70
    32
  0
VERTEX
  8
W71LXLIFT
 62
6
 10
1964.115
 20
-7181.157
 30
-1773.000
 70
    32
  0
VERTEX
  8
W71LXLIFT
 62
6
 10
1959.887
 20
-7170.840
 30
-1773.000
 70
    32
  0
VERTEX
  8
W71LXLIFT
 62
6
 10
1956.531
 20
-7164.984
 30
-1773.000
 70
    32
  0
VERTEX
  8
W71LXLIFT
 62
6
 10
1949.551
 20
-7157.914
 30
-1773.000
 70
    32
  0
VERTEX
  8
W71LXLIFT
 62
6
 10
1940.499
 20
-7146.186
 30
-1773.000
 70
    32
  0
VERTEX
  8
W71LXLIFT
 62
6
 10
1927.491
 20
-7144.290
 30
-1773.000
 70
    32
  0
VERTEX
  8
W71LXLIFT
 62
6
 10
1922.534
 20
-7145.940
 30
-1773.000
 70
    32
  0
VERTEX
  8
W71LXLIFT
 62
6
 10
1916.702
 20
-7149.913
 30
-1773.000
 70
    32
  0
VERTEX
  8
W71LXLIFT
 62
6
 10
1911.696
 20
-7155.626
 30
-1773.000
 70
    32
  0
VERTEX
  8
W71LXLIFT
 62
6
 10
1910.148
 20
-7160.551
 30
-1773.000
 70
    32
  0
VERTEX
  8
W71LXLIFT
 62
6
 10
1910.876
 20
-7163.631
 30
-1773.000
 70
    32
  0
VERTEX
  8
W71LXLIFT
 62
6
 10
1914.448
 20
-7175.690
 30
-1773.000
 70
    32
  0
VERTEX
  8
W71LXLIFT
 62
6
 10
1916.829
 20
-7183.729
 30
-1773.000
 70
    32
  0
VERTEX
  8
W71LXLIFT
 62
6
 10
1919.303
 20
-7188.947
 30
-1773.000
 70
    32
  0
VERTEX
  8
W71LXLIFT
 62
6
 10
1921.078
 20
-7194.666
 30
-1773.000
 70
    32
  0
VERTEX
  8
W71LXLIFT
 62
6
 10
1922.800
 20
-7202.967
 30
-1773.000
 70
    32
  0
VERTEX
  8
W71LXLIFT
 62
6
 10
1922.941
 20
-7211.130
 30
-1773.000
 70
    32
  0
VERTEX
  8
W71LXLIFT
 62
6
 10
1923.395
 20
-7224.155
 30
-1773.000
 70
    32
  0
VERTEX
  8
W71LXLIFT
 62
6
 10
1923.202
 20
-7226.837
 30
-1773.000
 70
    32
  0
SEQEND
  8
W71LXLIFT
  0
POLYLINE
  8
W71LXLIFT
 62
7
 66
     1
 70
     9
  0
VERTEX
  8
W71LXLIFT
 62
7
 10
1937.299
 20
-7224.349
 30
-1770.000
 70
    32
  0
VERTEX
  8
W71LXLIFT
 62
7
 10
1942.481
 20
-7216.815
 30
-1770.000
 70
    32
  0
VERTEX
  8
W71LXLIFT
 62
7
 10
1949.111
 20
-7212.480
 30
-1770.000
 70
    32
  0
VERTEX
  8
W71LXLIFT
 62
7
 10
1955.110
 20
-7203.725
 30
-1770.000
 70
    32
  0
VERTEX
  8
W71LXLIFT
 62
7
 10
1965.095
 20
-7196.982
 30
-1770.000
 70
    32
  0
VERTEX
  8
W71LXLIFT
 62
7
 10
1965.991
 20
-7195.280
 30
-1770.000
 70
    32
  0
VERTEX
  8
W71LXLIFT
 62
7
 10
1966.134
 20
-7188.396
 30
-1770.000
 70
    32
  0
VERTEX
  8
W71LXLIFT
 62
7
 10
1965.667
 20
-7185.976
 30
-1770.000
 70
    32
  0
VERTEX
  8
W71LXLIFT
 62
7
 10
1960.497
 20
-7174.640
 30
-1770.000
 70
    32
  0
VERTEX
  8
W71LXLIFT
 62
7
 10
1955.177
 20
-7167.227
 30
-1770.000
 70
    32
  0
VERTEX
  8
W71LXLIFT
 62
7
 10
1948.996
 20
-7159.796
 30
-1770.000
 70
    32
  0
VERTEX
  8
W71LXLIFT
 62
7
 10
1945.067
 20
-7156.682
 30
-1770.000
 70
    32
  0
VERTEX
  8
W71LXLIFT
 62
7
 10
1939.402
 20
-7147.609
 30
-1770.000
 70
    32
  0
VERTEX
  8
W71LXLIFT
 62
7
 10
1926.154
 20
-7145.673
 30
-1770.000
 70
    32
  0
VERTEX
  8
W71LXLIFT
 62
7
 10
1921.516
 20
-7146.883
 30
-1770.000
 70
    32
  0
VERTEX
  8
W71LXLIFT
 62
7
 10
1914.986
 20
-7151.357
 30
-1770.000
 70
    32
  0
VERTEX
  8
W71LXLIFT
 62
7
 10
1910.363
 20
-7158.490
 30
-1770.000
 70
    32
  0
VERTEX
  8
W71LXLIFT
 62
7
 10
1910.112
 20
-7162.272
 30
-1770.000
 70
    32
  0
VERTEX
  8
W71LXLIFT
 62
7
 10
1912.340
 20
-7172.753
 30
-1770.000
 70
    32
  0
VERTEX
  8
W71LXLIFT
 62
7
 10
1915.388
 20
-7183.492
 30
-1770.000
 70
    32
  0
VERTEX
  8
W71LXLIFT
 62
7
 10
1916.855
 20
-7185.830
 30
-1770.000
 70
    32
  0
VERTEX
  8
W71LXLIFT
 62
7
 10
1919.103
 20
-7188.667
 30
-1770.000
 70
    32
  0
VERTEX
  8
W71LXLIFT
 62
7
 10
1922.263
 20
-7203.988
 30
-1770.000
 70
    32
  0
VERTEX
  8
W71LXLIFT
 62
7
 10
1922.020
 20
-7210.732
 30
-1770.000
 70
    32
  0
VERTEX
  8
W71LXLIFT
 62
7
 10
1922.674
 20
-7224.037
 30
-1770.000
 70
    32
  0
VERTEX
  8
W71LXLIFT
 62
7
 10
1922.442
 20
-7226.958
 30
-1770.000
 70
    32
  0
SEQEND
  8
W71LXLIFT
  0
POLYLINE
  8
W71LXLIFT
 62
8
 66
     1
 70
     9
  0
VERTEX
  8
W71LXLIFT
 62
8
 10
1936.876
 20
-7223.169
 30
-1767.000
 70
    32
  0
VERTEX
  8
W71LXLIFT
 62
8
 10
1939.313
 20
-7221.844
 30
-1767.000
 70
    32
  0
VERTEX
  8
W71LXLIFT
 62
8
 10
1942.742
 20
-7217.475
 30
-1767.000
 70
    32
  0
VERTEX
  8
W71LXLIFT
 62
8
 10
1949.806
 20
-7210.498
 30
-1767.000
 70
    32
  0
VERTEX
  8
W71LXLIFT
 62
8
 10
1953.927
 20
-7202.666
 30
-1767.000
 70
    32
  0
VERTEX
  8
W71LXLIFT
 62
8
 10
1962.812
 20
-7195.866
 30
-1767.000
 70
    32
  0
VERTEX
  8
W71LXLIFT
 62
8
 10
1963.489
 20
-7194.744
 30
-1767.000
 70
    32
  0
VERTEX
  8
W71LXLIFT
 62
8
 10
1964.055
 20
-7189.040
 30
-1767.000
 70
    32
  0
VERTEX
  8
W71LXLIFT
 62
8
 10
1963.165
 20
-7185.440
 30
-1767.000
 70
    32
  0
VERTEX
  8
W71LXLIFT
 62
8
 10
1958.916
 20
-7174.503
 30
-1767.000
 70
    32
  0
VERTEX
  8
W71LXLIFT
 62
8
 10
1948.641
 20
-7161.957
 30
-1767.000
 70
    32
  0
VERTEX
  8
W71LXLIFT
 62
8
 10
1940.173
 20
-7151.929
 30
-1767.000
 70
    32
  0
VERTEX
  8
W71LXLIFT
 62
8
 10
1937.248
 20
-7150.214
 30
-1767.000
 70
    32
  0
VERTEX
  8
W71LXLIFT
 62
8
 10
1930.721
 20
-7147.905
 30
-1767.000
 70
    32
  0
VERTEX
  8
W71LXLIFT
 62
8
 10
1925.036
 20
-7146.476
 30
-1767.000
 70
    32
  0
VERTEX
  8
W71LXLIFT
 62
8
 10
1923.437
 20
-7147.199
 30
-1767.000
 70
    32
  0
VERTEX
  8
W71LXLIFT
 62
8
 10
1930.815
 20
-7153.348
 30
-1767.000
 70
    32
  0
VERTEX
  8
W71LXLIFT
 62
8
 10
1936.283
 20
-7163.622
 30
-1767.000
 70
    32
  0
VERTEX
  8
W71LXLIFT
 62
8
 10
1938.384
 20
-7171.862
 30
-1767.000
 70
    32
  0
VERTEX
  8
W71LXLIFT
 62
8
 10
1942.701
 20
-7177.876
 30
-1767.000
 70
    32
  0
VERTEX
  8
W71LXLIFT
 62
8
 10
1943.322
 20
-7186.119
 30
-1767.000
 70
    32
  0
VERTEX
  8
W71LXLIFT
 62
8
 10
1939.445
 20
-7195.471
 30
-1767.000
 70
    32
  0
VERTEX
  8
W71LXLIFT
 62
8
 10
1939.324
 20
-7202.975
 30
-1767.000
 70
    32
  0
VERTEX
  8
W71LXLIFT
 62
8
 10
1936.292
 20
-7206.422
 30
-1767.000
 70
    32
  0
VERTEX
  8
W71LXLIFT
 62
8
 10
1935.810
 20
-7213.126
 30
-1767.000
 70
    32
  0
SEQEND
  8
W71LXLIFT
  0
POLYLINE
  8
W71LXLIFT
 62
11
 66
     1
 70
     9
  0
VERTEX
  8
W71LXLIFT
 62
11
 10
1937.303
 20
-7225.829
 30
-1764.000
 70
    32
  0
VERTEX
  8
W71LXLIFT
 62
11
 10
1939.281
 20
-7225.045
 30
-1764.000
 70
    32
  0
VERTEX
  8
W71LXLIFT
 62
11
 10
1939.409
 20
-7220.503
 30
-1764.000
 70
    32
  0
VERTEX
  8
W71LXLIFT
 62
11
 10
1948.606
 20
-7210.300
 30
-1764.000
 70
    32
  0
VERTEX
  8
W71LXLIFT
 62
11
 10
1952.128
 20
-7203.110
 30
-1764.000
 70
    32
  0
VERTEX
  8
W71LXLIFT
 62
11
 10
1960.708
 20
-7194.409
 30
-1764.000
 70
    32
  0
VERTEX
  8
W71LXLIFT
 62
11
 10
1961.202
 20
-7192.147
 30
-1764.000
 70
    32
  0
VERTEX
  8
W71LXLIFT
 62
11
 10
1958.831
 20
-7180.286
 30
-1764.000
 70
    32
  0
VERTEX
  8
W71LXLIFT
 62
11
 10
1953.966
 20
-7170.851
 30
-1764.000
 70
    32
  0
VERTEX
  8
W71LXLIFT
 62
11
 10
1949.330
 20
-7165.278
 30
-1764.000
 70
    32
  0
VERTEX
  8
W71LXLIFT
 62
11
 10
1940.827
 20
-7156.970
 30
-1764.000
 70
    32
  0
VERTEX
  8
W71LXLIFT
 62
11
 10
1933.047
 20
-7150.262
 30
-1764.000
 70
    32
  0
VERTEX
  8
W71LXLIFT
 62
11
 10
1929.603
 20
-7148.708
 30
-1764.000
 70
    32
  0
VERTEX
  8
W71LXLIFT
 62
11
 10
1924.219
 20
-7147.698
 30
-1764.000
 70
    32
  0
VERTEX
  8
W71LXLIFT
 62
11
 10
1930.614
 20
-7153.068
 30
-1764.000
 70
    32
  0
VERTEX
  8
W71LXLIFT
 62
11
 10
1936.283
 20
-7163.622
 30
-1764.000
 70
    32
  0
VERTEX
  8
W71LXLIFT
 62
11
 10
1938.345
 20
-7172.102
 30
-1764.000
 70
    32
  0
VERTEX
  8
W71LXLIFT
 62
11
 10
1942.701
 20
-7177.876
 30
-1764.000
 70
    32
  0
VERTEX
  8
W71LXLIFT
 62
11
 10
1943.462
 20
-7186.019
 30
-1764.000
 70
    32
  0
VERTEX
  8
W71LXLIFT
 62
11
 10
1939.485
 20
-7195.231
 30
-1764.000
 70
    32
  0
VERTEX
  8
W71LXLIFT
 62
11
 10
1939.185
 20
-7203.075
 30
-1764.000
 70
    32
  0
VERTEX
  8
W71LXLIFT
 62
11
 10
1936.332
 20
-7206.182
 30
-1764.000
 70
    32
  0
VERTEX
  8
W71LXLIFT
 62
11
 10
1935.770
 20
-7213.366
 30
-1764.000
 70
    32
  0
SEQEND
  8
W71LXLIFT
  0
POLYLINE
  8
W71LXLIFT
 62
13
 66
     1
 70
     9
  0
VERTEX
  8
W71LXLIFT
 62
13
 10
1938.031
 20
-7228.909
 30
-1761.000
 70
    32
  0
VERTEX
  8
W71LXLIFT
 62
13
 10
1938.944
 20
-7226.346
 30
-1761.000
 70
    32
  0
VERTEX
  8
W71LXLIFT
 62
13
 10
1939.581
 20
-7217.201
 30
-1761.000
 70
    32
  0
VERTEX
  8
W71LXLIFT
 62
13
 10
1945.208
 20
-7211.467
 30
-1761.000
 70
    32
  0
VERTEX
  8
W71LXLIFT
 62
13
 10
1946.982
 20
-7208.923
 30
-1761.000
 70
    32
  0
VERTEX
  8
W71LXLIFT
 62
13
 10
1952.475
 20
-7197.987
 30
-1761.000
 70
    32
  0
VERTEX
  8
W71LXLIFT
 62
13
 10
1957.568
 20
-7194.756
 30
-1761.000
 70
    32
  0
VERTEX
  8
W71LXLIFT
 62
13
 10
1957.578
 20
-7190.934
 30
-1761.000
 70
    32
  0
VERTEX
  8
W71LXLIFT
 62
13
 10
1955.978
 20
-7183.393
 30
-1761.000
 70
    32
  0
VERTEX
  8
W71LXLIFT
 62
13
 10
1951.145
 20
-7170.757
 30
-1761.000
 70
    32
  0
VERTEX
  8
W71LXLIFT
 62
13
 10
1947.090
 20
-7165.402
 30
-1761.000
 70
    32
  0
VERTEX
  8
W71LXLIFT
 62
13
 10
1941.856
 20
-7160.470
 30
-1761.000
 70
    32
  0
VERTEX
  8
W71LXLIFT
 62
13
 10
1938.938
 20
-7161.716
 30
-1761.000
 70
    32
  0
VERTEX
  8
W71LXLIFT
 62
13
 10
1931.850
 20
-7151.545
 30
-1761.000
 70
    32
  0
VERTEX
  8
W71LXLIFT
 62
13
 10
1928.585
 20
-7149.650
 30
-1761.000
 70
    32
  0
VERTEX
  8
W71LXLIFT
 62
13
 10
1927.065
 20
-7149.893
 30
-1761.000
 70
    32
  0
VERTEX
  8
W71LXLIFT
 62
13
 10
1930.614
 20
-7153.068
 30
-1761.000
 70
    32
  0
VERTEX
  8
W71LXLIFT
 62
13
 10
1936.283
 20
-7163.622
 30
-1761.000
 70
    32
  0
VERTEX
  8
W71LXLIFT
 62
13
 10
1938.384
 20
-7171.862
 30
-1761.000
 70
    32
  0
VERTEX
  8
W71LXLIFT
 62
13
 10
1942.701
 20
-7177.876
 30
-1761.000
 70
    32
  0
VERTEX
  8
W71LXLIFT
 62
13
 10
1943.222
 20
-7185.979
 30
-1761.000
 70
    32
  0
VERTEX
  8
W71LXLIFT
 62
13
 10
1939.384
 20
-7195.091
 30
-1761.000
 70
    32
  0
VERTEX
  8
W71LXLIFT
 62
13
 10
1939.324
 20
-7202.975
 30
-1761.000
 70
    32
  0
VERTEX
  8
W71LXLIFT
 62
13
 10
1936.332
 20
-7206.182
 30
-1761.000
 70
    32
  0
VERTEX
  8
W71LXLIFT
 62
13
 10
1935.709
 20
-7212.986
 30
-1761.000
 70
    32
  0
VERTEX
  8
W71LXLIFT
 62
13
 10
1937.665
 20
-7226.629
 30
-1761.000
 70
    32
  0
SEQEND
  8
W71LXLIFT
  0
POLYLINE
  8
W71LXLIFT
 62
1
 66
     1
 70
     9
  0
VERTEX
  8
W71LXLIFT
 62
1
 10
1937.726
 20
-7227.009
 30
-1758.000
 70
    32
  0
VERTEX
  8
W71LXLIFT
 62
1
 10
1938.381
 20
-7225.267
 30
-1758.000
 70
    32
  0
VERTEX
  8
W71LXLIFT
 62
1
 10
1938.416
 20
-7215.282
 30
-1758.000
 70
    32
  0
VERTEX
  8
W71LXLIFT
 62
1
 10
1944.182
 20
-7209.448
 30
-1758.000
 70
    32
  0
VERTEX
  8
W71LXLIFT
 62
1
 10
1946.145
 20
-7202.741
 30
-1758.000
 70
    32
  0
VERTEX
  8
W71LXLIFT
 62
1
 10
1954.385
 20
-7193.861
 30
-1758.000
 70
    32
  0
VERTEX
  8
W71LXLIFT
 62
1
 10
1954.395
 20
-7190.040
 30
-1758.000
 70
    32
  0
VERTEX
  8
W71LXLIFT
 62
1
 10
1949.550
 20
-7172.961
 30
-1758.000
 70
    32
  0
VERTEX
  8
W71LXLIFT
 62
1
 10
1945.029
 20
-7165.186
 30
-1758.000
 70
    32
  0
VERTEX
  8
W71LXLIFT
 62
1
 10
1942.405
 20
-7163.890
 30
-1758.000
 70
    32
  0
VERTEX
  8
W71LXLIFT
 62
1
 10
1936.322
 20
-7163.382
 30
-1758.000
 70
    32
  0
VERTEX
  8
W71LXLIFT
 62
1
 10
1938.384
 20
-7171.862
 30
-1758.000
 70
    32
  0
VERTEX
  8
W71LXLIFT
 62
1
 10
1942.701
 20
-7177.876
 30
-1758.000
 70
    32
  0
VERTEX
  8
W71LXLIFT
 62
1
 10
1943.361
 20
-7185.879
 30
-1758.000
 70
    32
  0
VERTEX
  8
W71LXLIFT
 62
1
 10
1939.384
 20
-7195.091
 30
-1758.000
 70
    32
  0
VERTEX
  8
W71LXLIFT
 62
1
 10
1939.224
 20
-7202.835
 30
-1758.000
 70
    32
  0
VERTEX
  8
W71LXLIFT
 62
1
 10
1936.432
 20
-7206.322
 30
-1758.000
 70
    32
  0
VERTEX
  8
W71LXLIFT
 62
1
 10
1935.609
 20
-7212.846
 30
-1758.000
 70
    32
  0
VERTEX
  8
W71LXLIFT
 62
1
 10
1937.303
 20
-7225.829
 30
-1758.000
 70
    32
  0
SEQEND
  8
W71LXLIFT
  0
POLYLINE
  8
W71LXLIFT
 62
3
 66
     1
 70
     9
  0
VERTEX
  8
W71LXLIFT
 62
3
 10
1938.228
 20
-7204.397
 30
-1755.000
 70
    32
  0
VERTEX
  8
W71LXLIFT
 62
3
 10
1941.031
 20
-7205.352
 30
-1755.000
 70
    32
  0
VERTEX
  8
W71LXLIFT
 62
3
 10
1952.517
 20
-7190.964
 30
-1755.000
 70
    32
  0
VERTEX
  8
W71LXLIFT
 62
3
 10
1952.212
 20
-7189.063
 30
-1755.000
 70
    32
  0
VERTEX
  8
W71LXLIFT
 62
3
 10
1945.227
 20
-7172.249
 30
-1755.000
 70
    32
  0
VERTEX
  8
W71LXLIFT
 62
3
 10
1938.886
 20
-7172.561
 30
-1755.000
 70
    32
  0
VERTEX
  8
W71LXLIFT
 62
3
 10
1942.500
 20
-7177.597
 30
-1755.000
 70
    32
  0
VERTEX
  8
W71LXLIFT
 62
3
 10
1943.361
 20
-7185.879
 30
-1755.000
 70
    32
  0
VERTEX
  8
W71LXLIFT
 62
3
 10
1939.345
 20
-7195.331
 30
-1755.000
 70
    32
  0
VERTEX
  8
W71LXLIFT
 62
3
 10
1939.285
 20
-7203.215
 30
-1755.000
 70
    32
  0
SEQEND
  8
W71LXLIFT
  0
POLYLINE
  8
W71LXLIFT
 62
4
 66
     1
 70
     9
  0
VERTEX
  8
W71LXLIFT
 62
4
 10
1908.263
 20
-7123.126
 30
-1753.320
 70
    32
  0
VERTEX
  8
W71LXLIFT
 62
4
 10
1909.622
 20
-7128.024
 30
-1754.165
 70
    32
  0
VERTEX
  8
W71LXLIFT
 62
4
 10
1916.666
 20
-7135.624
 30
-1755.252
 70
    32
  0
VERTEX
  8
W71LXLIFT
 62
4
 10
1918.086
 20
-7141.424
 30
-1755.684
 70
    32
  0
VERTEX
  8
W71LXLIFT
 62
4
 10
1922.577
 20
-7146.440
 30
-1756.168
 70
    32
  0
VERTEX
  8
W71LXLIFT
 62
4
 10
1930.525
 20
-7152.855
 30
-1756.861
 70
    32
  0
VERTEX
  8
W71LXLIFT
 62
4
 10
1936.249
 20
-7163.452
 30
-1756.344
 70
    32
  0
VERTEX
  8
W71LXLIFT
 62
4
 10
1938.617
 20
-7172.479
 30
-1755.875
 70
    32
  0
VERTEX
  8
W71LXLIFT
 62
4
 10
1942.458
 20
-7177.547
 30
-1755.728
 70
    32
  0
VERTEX
  8
W71LXLIFT
 62
4
 10
1943.411
 20
-7185.803
 30
-1755.346
 70
    32
  0
VERTEX
  8
W71LXLIFT
 62
4
 10
1939.503
 20
-7194.958
 30
-1754.887
 70
    32
  0
VERTEX
  8
W71LXLIFT
 62
4
 10
1939.263
 20
-7202.835
 30
-1754.585
 70
    32
  0
VERTEX
  8
W71LXLIFT
 62
4
 10
1936.332
 20
-7206.128
 30
-1754.540
 70
    32
  0
VERTEX
  8
W71LXLIFT
 62
4
 10
1935.659
 20
-7212.852
 30
-1754.448
 70
    32
  0
VERTEX
  8
W71LXLIFT
 62
4
 10
1937.173
 20
-7222.021
 30
-1754.734
 70
    32
  0
VERTEX
  8
W71LXLIFT
 62
4
 10
1939.285
 20
-7234.284
 30
-1755.187
 70
    32
  0
VERTEX
  8
W71LXLIFT
 62
4
 10
1933.470
 20
-7235.764
 30
-1755.278
 70
    32
  0
VERTEX
  8
W71LXLIFT
 62
4
 10
1924.740
 20
-7235.924
 30
-1755.014
 70
    32
  0
VERTEX
  8
W71LXLIFT
 62
4
 10
1921.942
 20
-7227.402
 30
-1755.264
 70
    32
  0
VERTEX
  8
W71LXLIFT
 62
4
 10
1921.117
 20
-7221.967
 30
-1754.181
 70
    32
  0
VERTEX
  8
W71LXLIFT
 62
4
 10
1920.615
 20
-7209.718
 30
-1754.491
 70
    32
  0
VERTEX
  8
W71LXLIFT
 62
4
 10
1920.671
 20
-7199.833
 30
-1754.724
 70
    32
  0
VERTEX
  8
W71LXLIFT
 62
4
 10
1917.942
 20
-7187.585
 30
-1755.376
 70
    32
  0
VERTEX
  8
W71LXLIFT
 62
4
 10
1915.801
 20
-7184.681
 30
-1755.722
 70
    32
  0
VERTEX
  8
W71LXLIFT
 62
4
 10
1911.809
 20
-7177.280
 30
-1756.144
 70
    32
  0
VERTEX
  8
W71LXLIFT
 62
4
 10
1911.656
 20
-7169.144
 30
-1756.531
 70
    32
  0
VERTEX
  8
W71LXLIFT
 62
4
 10
1909.275
 20
-7163.827
 30
-1756.870
 70
    32
  0
VERTEX
  8
W71LXLIFT
 62
4
 10
1904.659
 20
-7161.255
 30
-1756.544
 70
    32
  0
VERTEX
  8
W71LXLIFT
 62
4
 10
1902.725
 20
-7154.530
 30
-1756.033
 70
    32
  0
VERTEX
  8
W71LXLIFT
 62
4
 10
1896.003
 20
-7150.769
 30
-1755.557
 70
    32
  0
VERTEX
  8
W71LXLIFT
 62
4
 10
1891.594
 20
-7136.820
 30
-1754.485
 70
    32
  0
VERTEX
  8
W71LXLIFT
 62
4
 10
1897.579
 20
-7129.474
 30
-1753.811
 70
    32
  0
VERTEX
  8
W71LXLIFT
 62
4
 10
1897.669
 20
-7119.669
 30
-1752.255
 70
    32
  0
SEQEND
  8
W71LXLIFT
  0
TEXT
  8
W71LXLIFT
 62
3
 10
1915.261
 20
-7136.472
 30
-1743.243
 40
1.969
  1
st-375t
 41
 1.0 
  0
TEXT
  8
W71LXLIFT
 62
3
 10
1915.276
 20
-7139.904
 30
-1743.243
 40
1.969
  1
-1743.2431
 41
 1.0 
  0
TEXT
  8
W71LXLIFT
 62
3
 10
1912.680
 20
-7120.589
 30
-1743.434
 40
1.969
  1
-1743.4344
 41
 1.0 
  0
TEXT
  8
W71LXLIFT
 62
3
 10
1912.664
 20
-7123.531
 30
-1743.434
 40
1.969
  1
st-375s
 41
 1.0 
  0
POINT
  8
W71LXLIFT
 62
3
 10
1906.286
 20
-7122.550
 30
-1743.434
  0
POLYLINE
  8
W71LXLIFT
 62
1
 66
     1
 70
     9
  0
VERTEX
  8
W71LXLIFT
 62
1
 10
1906.286
 20
-7120.817
 30
-1743.434
 70
    32
  0
VERTEX
  8
W71LXLIFT
 62
1
 10
1904.286
 20
-7124.283
 30
-1743.434
 70
    32
  0
VERTEX
  8
W71LXLIFT
 62
1
 10
1908.286
 20
-7124.283
 30
-1743.434
 70
    32
  0
SEQEND
  8
W71LXLIFT
  0
POINT
  8
W71LXLIFT
 62
3
 10
1908.638
 20
-7135.246
 30
-1743.243
  0
POLYLINE
  8
W71LXLIFT
 62
1
 66
     1
 70
     9
  0
VERTEX
  8
W71LXLIFT
 62
1
 10
1908.638
 20
-7133.512
 30
-1743.243
 70
    32
  0
VERTEX
  8
W71LXLIFT
 62
1
 10
1906.638
 20
-7136.979
 30
-1743.243
 70
    32
  0
VERTEX
  8
W71LXLIFT
 62
1
 10
1910.638
 20
-7136.979
 30
-1743.243
 70
    32
  0
SEQEND
  8
W71LXLIFT
  0
POLYLINE
  8
W71LXLIFT
 62
1
 66
     1
 70
     9
  0
VERTEX
  8
W71LXLIFT
 62
1
 10
1877.218
 20
-7059.399
 30
-1741.334
 70
    32
  0
VERTEX
  8
W71LXLIFT
 62
1
 10
1885.593
 20
-7078.484
 30
-1743.469
 70
    32
  0
VERTEX
  8
W71LXLIFT
 62
1
 10
1895.286
 20
-7098.949
 30
-1742.957
 70
    32
  0
VERTEX
  8
W71LXLIFT
 62
1
 10
1897.482
 20
-7107.537
 30
-1742.769
 70
    32
  0
VERTEX
  8
W71LXLIFT
 62
1
 10
1898.811
 20
-7121.958
 30
-1743.350
 70
    32
  0
VERTEX
  8
W71LXLIFT
 62
1
 10
1893.388
 20
-7134.433
 30
-1743.531
 70
    32
  0
VERTEX
  8
W71LXLIFT
 62
1
 10
1892.133
 20
-7140.604
 30
-1742.046
 70
    32
  0
VERTEX
  8
W71LXLIFT
 62
1
 10
1889.879
 20
-7149.108
 30
-1740.977
 70
    32
  0
VERTEX
  8
W71LXLIFT
 62
1
 10
1889.235
 20
-7155.384
 30
-1740.545
 70
    32
  0
VERTEX
  8
W71LXLIFT
 62
1
 10
1891.517
 20
-7160.980
 30
-1744.169
 70
    32
  0
VERTEX
  8
W71LXLIFT
 62
1
 10
1891.941
 20
-7166.587
 30
-1744.360
 70
    32
  0
VERTEX
  8
W71LXLIFT
 62
1
 10
1902.761
 20
-7169.515
 30
-1743.360
 70
    32
  0
VERTEX
  8
W71LXLIFT
 62
1
 10
1907.032
 20
-7177.121
 30
-1744.907
 70
    32
  0
VERTEX
  8
W71LXLIFT
 62
1
 10
1911.464
 20
-7180.552
 30
-1745.406
 70
    32
  0
VERTEX
  8
W71LXLIFT
 62
1
 10
1913.864
 20
-7190.540
 30
-1745.188
 70
    32
  0
VERTEX
  8
W71LXLIFT
 62
1
 10
1914.126
 20
-7200.748
 30
-1745.258
 70
    32
  0
VERTEX
  8
W71LXLIFT
 62
1
 10
1914.366
 20
-7206.467
 30
-1743.317
 70
    32
  0
VERTEX
  8
W71LXLIFT
 62
1
 10
1913.924
 20
-7214.603
 30
-1743.480
 70
    32
  0
VERTEX
  8
W71LXLIFT
 62
1
 10
1912.881
 20
-7223.651
 30
-1743.305
 70
    32
  0
VERTEX
  8
W71LXLIFT
 62
1
 10
1914.075
 20
-7235.540
 30
-1743.235
 70
    32
  0
VERTEX
  8
W71LXLIFT
 62
1
 10
1934.627
 20
-7232.005
 30
-1743.589
 70
    32
  0
VERTEX
  8
W71LXLIFT
 62
1
 10
1933.822
 20
-7219.285
 30
-1744.463
 70
    32
  0
VERTEX
  8
W71LXLIFT
 62
1
 10
1932.093
 20
-7208.807
 30
-1743.406
 70
    32
  0
VERTEX
  8
W71LXLIFT
 62
1
 10
1930.022
 20
-7197.314
 30
-1742.960
 70
    32
  0
VERTEX
  8
W71LXLIFT
 62
1
 10
1935.588
 20
-7195.111
 30
-1743.458
 70
    32
  0
VERTEX
  8
W71LXLIFT
 62
1
 10
1944.717
 20
-7179.641
 30
-1750.617
 70
    32
  0
VERTEX
  8
W71LXLIFT
 62
1
 10
1937.235
 20
-7170.290
 30
-1742.855
 70
    32
  0
VERTEX
  8
W71LXLIFT
 62
1
 10
1927.503
 20
-7159.507
 30
-1740.859
 70
    32
  0
VERTEX
  8
W71LXLIFT
 62
1
 10
1917.336
 20
-7151.458
 30
-1738.611
 70
    32
  0
VERTEX
  8
W71LXLIFT
 62
1
 10
1915.911
 20
-7135.968
 30
-1742.637
 70
    32
  0
VERTEX
  8
W71LXLIFT
 62
1
 10
1913.940
 20
-7134.608
 30
-1743.925
 70
    32
  0
VERTEX
  8
W71LXLIFT
 62
1
 10
1908.225
 20
-7112.093
 30
-1743.033
 70
    32
  0
VERTEX
  8
W71LXLIFT
 62
1
 10
1901.753
 20
-7087.691
 30
-1742.908
 70
    32
  0
VERTEX
  8
W71LXLIFT
 62
1
 10
1888.794
 20
-7059.067
 30
-1740.148
 70
    32
  0
SEQEND
  8
W71LXLIFT
  0
POLYLINE
  8
W71LXLIFT
 62
7
 66
     1
 70
     9
  0
VERTEX
  8
W71LXLIFT
 62
7
 10
1876.888
 20
-7036.649
 30
-1737.435
 70
    32
  0
VERTEX
  8
W71LXLIFT
 62
7
 10
1885.435
 20
-7054.922
 30
-1737.205
 70
    32
  0
VERTEX
  8
W71LXLIFT
 62
7
 10
1891.233
 20
-7063.956
 30
-1735.299
 70
    32
  0
VERTEX
  8
W71LXLIFT
 62
7
 10
1897.676
 20
-7079.840
 30
-1732.771
 70
    32
  0
VERTEX
  8
W71LXLIFT
 62
7
 10
1899.676
 20
-7094.136
 30
-1731.520
 70
    32
  0
VERTEX
  8
W71LXLIFT
 62
7
 10
1905.977
 20
-7116.369
 30
-1730.631
 70
    32
  0
VERTEX
  8
W71LXLIFT
 62
7
 10
1911.290
 20
-7134.961
 30
-1729.583
 70
    32
  0
VERTEX
  8
W71LXLIFT
 62
7
 10
1909.133
 20
-7140.790
 30
-1729.335
 70
    32
  0
VERTEX
  8
W71LXLIFT
 62
7
 10
1909.343
 20
-7151.845
 30
-1728.649
 70
    32
  0
VERTEX
  8
W71LXLIFT
 62
7
 10
1913.760
 20
-7159.962
 30
-1728.125
 70
    32
  0
VERTEX
  8
W71LXLIFT
 62
7
 10
1920.206
 20
-7171.276
 30
-1729.106
 70
    32
  0
VERTEX
  8
W71LXLIFT
 62
7
 10
1923.008
 20
-7174.128
 30
-1730.847
 70
    32
  0
VERTEX
  8
W71LXLIFT
 62
7
 10
1919.339
 20
-7183.585
 30
-1730.934
 70
    32
  0
VERTEX
  8
W71LXLIFT
 62
7
 10
1921.066
 20
-7195.872
 30
-1730.229
 70
    32
  0
VERTEX
  8
W71LXLIFT
 62
7
 10
1923.832
 20
-7208.130
 30
-1732.065
 70
    32
  0
VERTEX
  8
W71LXLIFT
 62
7
 10
1926.780
 20
-7217.839
 30
-1731.155
 70
    32
  0
VERTEX
  8
W71LXLIFT
 62
7
 10
1919.724
 20
-7222.935
 30
-1731.593
 70
    32
  0
VERTEX
  8
W71LXLIFT
 62
7
 10
1913.844
 20
-7220.899
 30
-1732.254
 70
    32
  0
VERTEX
  8
W71LXLIFT
 62
7
 10
1912.824
 20
-7217.642
 30
-1732.439
 70
    32
  0
VERTEX
  8
W71LXLIFT
 62
7
 10
1910.335
 20
-7205.675
 30
-1732.175
 70
    32
  0
VERTEX
  8
W71LXLIFT
 62
7
 10
1907.126
 20
-7196.286
 30
-1729.845
 70
    32
  0
VERTEX
  8
W71LXLIFT
 62
7
 10
1905.891
 20
-7192.106
 30
-1729.328
 70
    32
  0
VERTEX
  8
W71LXLIFT
 62
7
 10
1902.380
 20
-7191.228
 30
-1730.190
 70
    32
  0
VERTEX
  8
W71LXLIFT
 62
7
 10
1895.456
 20
-7180.596
 30
-1730.202
 70
    32
  0
VERTEX
  8
W71LXLIFT
 62
7
 10
1890.698
 20
-7168.461
 30
-1731.709
 70
    32
  0
VERTEX
  8
W71LXLIFT
 62
7
 10
1885.214
 20
-7156.615
 30
-1730.689
 70
    32
  0
VERTEX
  8
W71LXLIFT
 62
7
 10
1881.421
 20
-7145.508
 30
-1730.499
 70
    32
  0
VERTEX
  8
W71LXLIFT
 62
7
 10
1877.179
 20
-7139.070
 30
-1729.600
 70
    32
  0
VERTEX
  8
W71LXLIFT
 62
7
 10
1883.381
 20
-7127.825
 30
-1731.213
 70
    32
  0
VERTEX
  8
W71LXLIFT
 62
7
 10
1890.244
 20
-7122.523
 30
-1730.604
 70
    32
  0
VERTEX
  8
W71LXLIFT
 62
7
 10
1891.194
 20
-7118.670
 30
-1731.031
 70
    32
  0
VERTEX
  8
W71LXLIFT
 62
7
 10
1886.774
 20
-7106.178
 30
-1731.446
 70
    32
  0
VERTEX
  8
W71LXLIFT
 62
7
 10
1889.640
 20
-7096.392
 30
-1733.086
 70
    32
  0
VERTEX
  8
W71LXLIFT
 62
7
 10
1888.908
 20
-7093.183
 30
-1732.842
 70
    32
  0
VERTEX
  8
W71LXLIFT
 62
7
 10
1887.623
 20
-7083.755
 30
-1732.669
 70
    32
  0
VERTEX
  8
W71LXLIFT
 62
7
 10
1882.840
 20
-7070.968
 30
-1735.065
 70
    32
  0
VERTEX
  8
W71LXLIFT
 62
7
 10
1875.496
 20
-7055.032
 30
-1737.265
 70
    32
  0
VERTEX
  8
W71LXLIFT
 62
7
 10
1871.730
 20
-7047.108
 30
-1737.867
 70
    32
  0
VERTEX
  8
W71LXLIFT
 62
7
 10
1868.273
 20
-7039.444
 30
-1737.641
 70
    32
  0
SEQEND
  8
W71LXLIFT
  0
TEXT
  8
W71LXLIFT
 62
7
 10
1909.845
 20
-7113.336
 30
-1731.633
 40
1.969
  1
-1731.6326
 50
2.010
 41
 1.0 
  0
TEXT
  8
W71LXLIFT
 62
7
 10
1909.927
 20
-7116.628
 30
-1731.633
 40
1.969
  1
ST-446T
 50
2.010
 41
 1.0 
  0
TEXT
  8
W71LXLIFT
 62
7
 10
1911.892
 20
-7128.113
 30
-1731.397
 40
1.969
  1
-1731.3966
 50
2.010
 41
 1.0 
  0
POLYLINE
  8
W71LXLIFT
 62
7
 66
     1
 70
     9
  0
VERTEX
  8
W71LXLIFT
 62
7
 10
1904.321
 20
-7114.895
 30
-1731.633
 70
    32
  0
VERTEX
  8
W71LXLIFT
 62
7
 10
1902.321
 20
-7118.361
 30
-1731.633
 70
    32
  0
VERTEX
  8
W71LXLIFT
 62
7
 10
1906.321
 20
-7118.361
 30
-1731.633
 70
    32
  0
SEQEND
  8
W71LXLIFT
  0
POINT
  8
W71LXLIFT
 62
7
 10
1904.321
 20
-7117.122
 30
-1731.633
  0
POLYLINE
  8
W71LXLIFT
 62
7
 66
     1
 70
     9
  0
VERTEX
  8
W71LXLIFT
 62
7
 10
1905.709
 20
-7121.770
 30
-1731.397
 70
    32
  0
VERTEX
  8
W71LXLIFT
 62
7
 10
1903.709
 20
-7125.237
 30
-1731.397
 70
    32
  0
VERTEX
  8
W71LXLIFT
 62
7
 10
1907.709
 20
-7125.237
 30
-1731.397
 70
    32
  0
SEQEND
  8
W71LXLIFT
  0
POINT
  8
W71LXLIFT
 62
7
 10
1905.709
 20
-7123.833
 30
-1731.397
  0
TEXT
  8
W71LXLIFT
 62
7
 10
1911.975
 20
-7124.985
 30
-1731.397
 40
1.969
  1
ST-446S
 50
2.010
 41
 1.0 
  0
POLYLINE
  8
W71LXLIFT
 62
6
 66
     1
 70
     8
  0
VERTEX
  8
W71LXLIFT
 62
6
 10
2193.701
 20
-8521.286
 30
-1702.366
 70
    32
  0
VERTEX
  8
W71LXLIFT
 62
6
 10
2195.138
 20
-8525.830
 30
-1702.703
 70
    32
  0
VERTEX
  8
W71LXLIFT
 62
6
 10
2197.448
 20
-8533.132
 30
-1702.439
 70
    32
  0
VERTEX
  8
W71LXLIFT
 62
6
 10
2200.319
 20
-8535.577
 30
-1702.330
 70
    32
  0
VERTEX
  8
W71LXLIFT
 62
6
 10
2203.754
 20
-8545.465
 30
-1701.970
 70
    32
  0
VERTEX
  8
W71LXLIFT
 62
6
 10
2205.714
 20
-8551.108
 30
-1701.748
 70
    32
  0
VERTEX
  8
W71LXLIFT
 62
6
 10
2208.754
 20
-8559.857
 30
-1701.754
 70
    32
  0
VERTEX
  8
W71LXLIFT
 62
6
 10
2222.040
 20
-8558.199
 30
-1701.768
 70
    32
  0
VERTEX
  8
W71LXLIFT
 62
6
 10
2232.489
 20
-8556.896
 30
-1701.767
 70
    32
  0
VERTEX
  8
W71LXLIFT
 62
6
 10
2245.515
 20
-8554.490
 30
-1701.767
 70
    32
  0
VERTEX
  8
W71LXLIFT
 62
6
 10
2238.005
 20
-8541.503
 30
-1701.781
 70
    32
  0
VERTEX
  8
W71LXLIFT
 62
6
 10
2237.902
 20
-8541.325
 30
-1701.781
 70
    32
  0
VERTEX
  8
W71LXLIFT
 62
6
 10
2236.782
 20
-8539.138
 30
-1701.779
 70
    32
  0
VERTEX
  8
W71LXLIFT
 62
6
 10
2230.060
 20
-8526.015
 30
-1702.321
 70
    32
  0
VERTEX
  8
W71LXLIFT
 62
6
 10
2225.192
 20
-8517.312
 30
-1702.685
 70
    32
  0
VERTEX
  8
W71LXLIFT
 62
6
 10
2224.314
 20
-8515.743
 30
-1702.746
 70
    32
  0
VERTEX
  8
W71LXLIFT
 62
6
 10
2223.394
 20
-8514.098
 30
-1702.614
 70
    32
  0
VERTEX
  8
W71LXLIFT
 62
6
 10
2215.702
 20
-8500.347
 30
-1701.522
 70
    32
  0
VERTEX
  8
W71LXLIFT
 62
6
 10
2212.311
 20
-8490.324
 30
-1700.780
 70
    32
  0
VERTEX
  8
W71LXLIFT
 62
6
 10
2212.045
 20
-8489.537
 30
-1700.810
 70
    32
  0
VERTEX
  8
W71LXLIFT
 62
6
 10
2210.377
 20
-8486.043
 30
-1700.954
 70
    32
  0
VERTEX
  8
W71LXLIFT
 62
6
 10
2205.229
 20
-8475.256
 30
-1701.682
 70
    32
  0
VERTEX
  8
W71LXLIFT
 62
6
 10
2201.356
 20
-8467.143
 30
-1702.079
 70
    32
  0
VERTEX
  8
W71LXLIFT
 62
6
 10
2198.970
 20
-8462.143
 30
-1702.144
 70
    32
  0
VERTEX
  8
W71LXLIFT
 62
6
 10
2198.970
 20
-8461.333
 30
-1702.156
 70
    32
  0
VERTEX
  8
W71LXLIFT
 62
6
 10
2198.959
 20
-8439.252
 30
-1700.012
 70
    32
  0
VERTEX
  8
W71LXLIFT
 62
6
 10
2198.959
 20
-8438.709
 30
-1699.956
 70
    32
  0
VERTEX
  8
W71LXLIFT
 62
6
 10
2198.864
 20
-8433.615
 30
-1699.434
 70
    32
  0
VERTEX
  8
W71LXLIFT
 62
6
 10
2198.799
 20
-8430.106
 30
-1699.959
 70
    32
  0
VERTEX
  8
W71LXLIFT
 62
6
 10
2198.665
 20
-8422.905
 30
-1701.059
 70
    32
  0
VERTEX
  8
W71LXLIFT
 62
6
 10
2198.490
 20
-8413.504
 30
-1701.059
 70
    32
  0
VERTEX
  8
W71LXLIFT
 62
6
 10
2198.471
 20
-8412.459
 30
-1701.059
 70
    32
  0
VERTEX
  8
W71LXLIFT
 62
6
 10
2190.535
 20
-8413.469
 30
-1701.059
 70
    32
  0
VERTEX
  8
W71LXLIFT
 62
6
 10
2190.142
 20
-8417.952
 30
-1701.059
 70
    32
  0
VERTEX
  8
W71LXLIFT
 62
6
 10
2189.733
 20
-8422.621
 30
-1701.059
 70
    32
  0
VERTEX
  8
W71LXLIFT
 62
6
 10
2189.707
 20
-8422.923
 30
-1701.013
 70
    32
  0
VERTEX
  8
W71LXLIFT
 62
6
 10
2188.953
 20
-8425.613
 30
-1700.598
 70
    32
  0
VERTEX
  8
W71LXLIFT
 62
6
 10
2186.703
 20
-8433.634
 30
-1699.392
 70
    32
  0
VERTEX
  8
W71LXLIFT
 62
6
 10
2185.503
 20
-8437.911
 30
-1699.825
 70
    32
  0
VERTEX
  8
W71LXLIFT
 62
6
 10
2180.062
 20
-8444.759
 30
-1700.506
 70
    32
  0
VERTEX
  8
W71LXLIFT
 62
6
 10
2181.082
 20
-8452.708
 30
-1701.323
 70
    32
  0
VERTEX
  8
W71LXLIFT
 62
6
 10
2182.133
 20
-8460.894
 30
-1702.118
 70
    32
  0
VERTEX
  8
W71LXLIFT
 62
6
 10
2182.135
 20
-8460.909
 30
-1702.117
 70
    32
  0
VERTEX
  8
W71LXLIFT
 62
6
 10
2179.921
 20
-8467.076
 30
-1702.023
 70
    32
  0
VERTEX
  8
W71LXLIFT
 62
6
 10
2184.348
 20
-8481.986
 30
-1701.822
 70
    32
  0
VERTEX
  8
W71LXLIFT
 62
6
 10
2184.715
 20
-8483.222
 30
-1701.766
 70
    32
  0
VERTEX
  8
W71LXLIFT
 62
6
 10
2185.144
 20
-8484.668
 30
-1701.675
 70
    32
  0
VERTEX
  8
W71LXLIFT
 62
6
 10
2185.214
 20
-8484.902
 30
-1701.667
 70
    32
  0
VERTEX
  8
W71LXLIFT
 62
6
 10
2188.281
 20
-8493.650
 30
-1701.336
 70
    32
  0
SEQEND
  8
W71LXLIFT
  0
TEXT
  8
W71LXLIFT
 62
13
 10
2194.236
 20
-8460.198
 30
-1702.138
 40
2.000
  1
BK-1702.1
 41
 1.0 
  0
TEXT
  8
W71LXLIFT
 62
13
 10
2196.006
 20
-8482.038
 30
-1701.734
 40
2.000
  1
BK-1701.7
 41
 1.0 
  0
TEXT
  8
W71LXLIFT
 62
13
 10
2207.104
 20
-8491.777
 30
-1700.893
 40
2.000
  1
BK-1700.8
 41
 1.0 
  0
TEXT
  8
W71LXLIFT
 62
13
 10
2178.091
 20
-8494.991
 30
-1134.139
 40
2.000
  1
-1701.12
 41
 1.0 
  0
POLYLINE
  8
W71LXLIFT
 62
6
 66
     1
 70
     9
  0
VERTEX
  8
W71LXLIFT
 62
6
 10
1805.521
 20
-7244.776
 30
-1787.110
 70
    32
  0
VERTEX
  8
W71LXLIFT
 62
6
 10
1808.252
 20
-7252.881
 30
-1787.067
 70
    32
  0
VERTEX
  8
W71LXLIFT
 62
6
 10
1811.819
 20
-7258.565
 30
-1787.033
 70
    32
  0
VERTEX
  8
W71LXLIFT
 62
6
 10
1814.237
 20
-7260.760
 30
-1787.018
 70
    32
  0
VERTEX
  8
W71LXLIFT
 62
6
 10
1818.807
 20
-7264.908
 30
-1788.108
 70
    32
  0
VERTEX
  8
W71LXLIFT
 62
6
 10
1822.193
 20
-7267.981
 30
-1788.238
 70
    32
  0
VERTEX
  8
W71LXLIFT
 62
6
 10
1828.164
 20
-7286.781
 30
-1788.271
 70
    32
  0
VERTEX
  8
W71LXLIFT
 62
6
 10
1837.106
 20
-7302.054
 30
-1788.000
 70
    32
  0
VERTEX
  8
W71LXLIFT
 62
6
 10
1825.746
 20
-7306.168
 30
-1788.000
 70
    32
  0
VERTEX
  8
W71LXLIFT
 62
6
 10
1823.497
 20
-7300.493
 30
-1788.000
 70
    32
  0
VERTEX
  8
W71LXLIFT
 62
6
 10
1819.663
 20
-7295.631
 30
-1788.000
 70
    32
  0
VERTEX
  8
W71LXLIFT
 62
6
 10
1811.871
 20
-7293.633
 30
-1788.286
 70
    32
  0
VERTEX
  8
W71LXLIFT
 62
6
 10
1809.419
 20
-7283.096
 30
-1788.292
 70
    32
  0
VERTEX
  8
W71LXLIFT
 62
6
 10
1803.800
 20
-7272.847
 30
-1788.313
 70
    32
  0
VERTEX
  8
W71LXLIFT
 62
6
 10
1800.433
 20
-7266.706
 30
-1787.018
 70
    32
  0
VERTEX
  8
W71LXLIFT
 62
6
 10
1798.760
 20
-7263.654
 30
-1787.036
 70
    32
  0
VERTEX
  8
W71LXLIFT
 62
6
 10
1787.227
 20
-7253.425
 30
-1787.049
 70
    32
  0
VERTEX
  8
W71LXLIFT
 62
6
 10
1782.958
 20
-7246.860
 30
-1787.062
 70
    32
  0
VERTEX
  8
W71LXLIFT
 62
6
 10
1778.688
 20
-7235.525
 30
-1788.232
 70
    32
  0
VERTEX
  8
W71LXLIFT
 62
6
 10
1779.062
 20
-7222.961
 30
-1789.399
 70
    32
  0
VERTEX
  8
W71LXLIFT
 62
6
 10
1779.163
 20
-7219.553
 30
-1789.457
 70
    32
  0
VERTEX
  8
W71LXLIFT
 62
6
 10
1776.091
 20
-7213.012
 30
-1789.460
 70
    32
  0
VERTEX
  8
W71LXLIFT
 62
6
 10
1780.082
 20
-7206.650
 30
-1789.428
 70
    32
  0
VERTEX
  8
W71LXLIFT
 62
6
 10
1780.082
 20
-7206.650
 30
-1788.345
 70
    32
  0
VERTEX
  8
W71LXLIFT
 62
6
 10
1779.755
 20
-7198.713
 30
-1787.780
 70
    32
  0
VERTEX
  8
W71LXLIFT
 62
6
 10
1779.497
 20
-7192.436
 30
-1787.348
 70
    32
  0
VERTEX
  8
W71LXLIFT
 62
6
 10
1775.072
 20
-7180.581
 30
-1786.506
 70
    32
  0
VERTEX
  8
W71LXLIFT
 62
6
 10
1776.746
 20
-7176.157
 30
-1786.213
 70
    32
  0
VERTEX
  8
W71LXLIFT
 62
6
 10
1775.923
 20
-7169.324
 30
-1785.739
 70
    32
  0
VERTEX
  8
W71LXLIFT
 62
6
 10
1774.394
 20
-7156.633
 30
-1785.757
 70
    32
  0
VERTEX
  8
W71LXLIFT
 62
6
 10
1774.394
 20
-7156.633
 30
-1786.000
 70
    32
  0
VERTEX
  8
W71LXLIFT
 62
6
 10
1768.687
 20
-7149.528
 30
-1786.000
 70
    32
  0
VERTEX
  8
W71LXLIFT
 62
6
 10
1762.534
 20
-7145.058
 30
-1786.000
 70
    32
  0
VERTEX
  8
W71LXLIFT
 62
6
 10
1754.006
 20
-7141.709
 30
-1786.000
 70
    32
  0
VERTEX
  8
W71LXLIFT
 62
6
 10
1746.396
 20
-7137.804
 30
-1786.000
 70
    32
  0
VERTEX
  8
W71LXLIFT
 62
6
 10
1747.205
 20
-7129.147
 30
-1786.000
 70
    32
  0
VERTEX
  8
W71LXLIFT
 62
6
 10
1742.741
 20
-7119.438
 30
-1786.000
 70
    32
  0
VERTEX
  8
W71LXLIFT
 62
6
 10
1729.486
 20
-7104.449
 30
-1786.000
 70
    32
  0
VERTEX
  8
W71LXLIFT
 62
6
 10
1737.928
 20
-7095.807
 30
-1786.000
 70
    32
  0
VERTEX
  8
W71LXLIFT
 62
6
 10
1743.246
 20
-7100.930
 30
-1786.000
 70
    32
  0
VERTEX
  8
W71LXLIFT
 62
6
 10
1744.884
 20
-7099.783
 30
-1786.000
 70
    32
  0
VERTEX
  8
W71LXLIFT
 62
6
 10
1759.990
 20
-7123.101
 30
-1786.000
 70
    32
  0
VERTEX
  8
W71LXLIFT
 62
6
 10
1763.868
 20
-7123.016
 30
-1786.000
 70
    32
  0
VERTEX
  8
W71LXLIFT
 62
6
 10
1771.046
 20
-7128.717
 30
-1786.000
 70
    32
  0
VERTEX
  8
W71LXLIFT
 62
6
 10
1776.259
 20
-7128.920
 30
-1786.000
 70
    32
  0
VERTEX
  8
W71LXLIFT
 62
6
 10
1787.109
 20
-7145.429
 30
-1786.000
 70
    32
  0
VERTEX
  8
W71LXLIFT
 62
6
 10
1793.963
 20
-7147.048
 30
-1786.000
 70
    32
  0
VERTEX
  8
W71LXLIFT
 62
6
 10
1793.963
 20
-7147.048
 30
-1785.761
 70
    32
  0
VERTEX
  8
W71LXLIFT
 62
6
 10
1796.369
 20
-7152.897
 30
-1785.775
 70
    32
  0
VERTEX
  8
W71LXLIFT
 62
6
 10
1797.266
 20
-7159.720
 30
-1785.791
 70
    32
  0
VERTEX
  8
W71LXLIFT
 62
6
 10
1792.822
 20
-7169.833
 30
-1785.880
 70
    32
  0
VERTEX
  8
W71LXLIFT
 62
6
 10
1793.284
 20
-7178.912
 30
-1786.507
 70
    32
  0
VERTEX
  8
W71LXLIFT
 62
6
 10
1794.025
 20
-7193.485
 30
-1787.544
 70
    32
  0
VERTEX
  8
W71LXLIFT
 62
6
 10
1792.434
 20
-7197.557
 30
-1787.817
 70
    32
  0
VERTEX
  8
W71LXLIFT
 62
6
 10
1792.434
 20
-7197.557
 30
-1789.413
 70
    32
  0
VERTEX
  8
W71LXLIFT
 62
6
 10
1792.567
 20
-7209.146
 30
-1789.371
 70
    32
  0
VERTEX
  8
W71LXLIFT
 62
6
 10
1792.599
 20
-7211.952
 30
-1789.376
 70
    32
  0
VERTEX
  8
W71LXLIFT
 62
6
 10
1795.958
 20
-7222.740
 30
-1789.050
 70
    32
  0
VERTEX
  8
W71LXLIFT
 62
6
 10
1796.561
 20
-7224.677
 30
-1788.891
 70
    32
  0
SEQEND
  8
W71LXLIFT
  0
POINT
  8
W71LXLIFT
 62
6
 10
1788.450
 20
-7209.085
 30
-1788.595
  0
POLYLINE
  8
W71LXLIFT
 62
6
 66
     1
 70
     9
  0
VERTEX
  8
W71LXLIFT
 62
6
 10
1788.450
 20
-7206.875
 30
-1788.595
 70
    32
  0
VERTEX
  8
W71LXLIFT
 62
6
 10
1790.199
 20
-7210.055
 30
-1788.595
 70
    32
  0
VERTEX
  8
W71LXLIFT
 62
6
 10
1786.700
 20
-7210.053
 30
-1788.595
 70
    32
  0
SEQEND
  8
W71LXLIFT
  0
TEXT
  8
W71LXLIFT
 62
6
 10
1783.158
 20
-7203.716
 30
-1192.456
 40
2.000
  1
ST-56R
 41
 1.0 
  0
TEXT
  8
W71LXLIFT
 62
6
 10
1782.324
 20
-7205.883
 30
-1192.456
 40
2.000
  1
-1788.60
 41
 1.0 
  0
POINT
  8
W71LXLIFT
 62
6
 10
1792.782
 20
-7227.951
 30
-1788.769
  0
POLYLINE
  8
W71LXLIFT
 62
6
 66
     1
 70
     9
  0
VERTEX
  8
W71LXLIFT
 62
6
 10
1792.782
 20
-7225.741
 30
-1788.769
 70
    32
  0
VERTEX
  8
W71LXLIFT
 62
6
 10
1794.531
 20
-7228.921
 30
-1788.769
 70
    32
  0
VERTEX
  8
W71LXLIFT
 62
6
 10
1791.032
 20
-7228.919
 30
-1788.769
 70
    32
  0
SEQEND
  8
W71LXLIFT
  0
TEXT
  8
W71LXLIFT
 62
6
 10
1795.653
 20
-7229.917
 30
-1192.572
 40
2.000
  1
ST-63Q
 41
 1.0 
  0
TEXT
  8
W71LXLIFT
 62
6
 10
1794.415
 20
-7232.584
 30
-1192.572
 40
2.000
  1
-1788.77
 41
 1.0 
  0
TEXT
  8
W71LXLIFT
 62
6
 10
1799.220
 20
-7238.478
 30
-1191.462
 40
2.000
  1
ST-63R
 41
 1.0 
  0
TEXT
  8
W71LXLIFT
 62
6
 10
1798.077
 20
-7241.145
 30
-1191.462
 40
2.000
  1
-1787.10
 41
 1.0 
  0
POLYLINE
  8
W71LXLIFT
 62
6
 66
     1
 70
     9
  0
VERTEX
  8
W71LXLIFT
 62
6
 10
1795.320
 20
-7233.756
 30
-1787.104
 70
    32
  0
VERTEX
  8
W71LXLIFT
 62
6
 10
1797.069
 20
-7236.936
 30
-1787.104
 70
    32
  0
VERTEX
  8
W71LXLIFT
 62
6
 10
1793.570
 20
-7236.934
 30
-1787.104
 70
    32
  0
SEQEND
  8
W71LXLIFT
  0
POINT
  8
W71LXLIFT
 62
6
 10
1795.320
 20
-7235.966
 30
-1787.104
  0
TEXT
  8
W71LXLIFT
 62
6
 10
1782.572
 20
-7226.876
 30
-1192.258
 40
2.000
  1
ST-39R
 41
 1.0 
  0
TEXT
  8
W71LXLIFT
 62
6
 10
1781.961
 20
-7228.673
 30
-1192.258
 40
2.000
  1
-1788.30
 41
 1.0 
  0
POINT
  8
W71LXLIFT
 62
6
 10
1786.943
 20
-7231.528
 30
-1788.297
  0
POLYLINE
  8
W71LXLIFT
 62
6
 66
     1
 70
     9
  0
VERTEX
  8
W71LXLIFT
 62
6
 10
1786.943
 20
-7229.318
 30
-1788.297
 70
    32
  0
VERTEX
  8
W71LXLIFT
 62
6
 10
1788.692
 20
-7232.498
 30
-1788.297
 70
    32
  0
VERTEX
  8
W71LXLIFT
 62
6
 10
1785.193
 20
-7232.496
 30
-1788.297
 70
    32
  0
SEQEND
  8
W71LXLIFT
  0
POLYLINE
  8
W71LXLIFT
 62
6
 66
     1
 70
     9
  0
VERTEX
  8
W71LXLIFT
 62
6
 10
1791.905
 20
-7244.488
 30
-1788.836
 70
    32
  0
VERTEX
  8
W71LXLIFT
 62
6
 10
1793.654
 20
-7247.668
 30
-1788.836
 70
    32
  0
VERTEX
  8
W71LXLIFT
 62
6
 10
1790.155
 20
-7247.666
 30
-1788.836
 70
    32
  0
SEQEND
  8
W71LXLIFT
  0
POINT
  8
W71LXLIFT
 62
6
 10
1791.905
 20
-7246.698
 30
-1788.836
  0
TEXT
  8
W71LXLIFT
 62
6
 10
1786.236
 20
-7243.817
 30
-1192.617
 40
2.000
  1
-1788.84
 41
 1.0 
  0
TEXT
  8
W71LXLIFT
 62
6
 10
1786.944
 20
-7242.020
 30
-1192.617
 40
2.000
  1
ST-39Q
 41
 1.0 
  0
TEXT
  8
W71LXLIFT
 62
2
 10
2214.672
 20
-8100.429
 30
-1768.774
 40
1.969
  1
-1768.7742
 41
 1.0 
  0
TEXT
  8
W71LXLIFT
 62
2
 10
2216.651
 20
-8104.017
 30
-1768.774
 40
1.969
  1
ST-714S
 41
 1.0 
  0
POINT
  8
W71LXLIFT
 62
2
 10
2213.858
 20
-8103.659
 30
-1768.774
  0
POLYLINE
  8
W71LXLIFT
 62
2
 66
     1
 70
     9
  0
VERTEX
  8
W71LXLIFT
 62
2
 10
2213.858
 20
-8101.926
 30
-1768.774
 70
    32
  0
VERTEX
  8
W71LXLIFT
 62
2
 10
2211.858
 20
-8105.392
 30
-1768.774
 70
    32
  0
VERTEX
  8
W71LXLIFT
 62
2
 10
2215.858
 20
-8105.392
 30
-1768.774
 70
    32
  0
SEQEND
  8
W71LXLIFT
  0
POINT
  8
W71LXLIFT
 62
2
 10
2211.918
 20
-8108.638
 30
-1767.541
  0
POLYLINE
  8
W71LXLIFT
 62
2
 66
     1
 70
     9
  0
VERTEX
  8
W71LXLIFT
 62
2
 10
2211.918
 20
-8106.905
 30
-1767.541
 70
    32
  0
VERTEX
  8
W71LXLIFT
 62
2
 10
2209.918
 20
-8110.372
 30
-1767.541
 70
    32
  0
VERTEX
  8
W71LXLIFT
 62
2
 10
2213.918
 20
-8110.372
 30
-1767.541
 70
    32
  0
SEQEND
  8
W71LXLIFT
  0
TEXT
  8
W71LXLIFT
 62
2
 10
2214.352
 20
-8110.792
 30
-1767.541
 40
1.969
  1
ST-714T
 41
 1.0 
  0
TEXT
  8
W71LXLIFT
 62
2
 10
2214.704
 20
-8113.124
 30
-1767.541
 40
1.969
  1
-1767.541
 41
 1.0 
  0
TEXT
  8
W71LXLIFT
 62
2
 10
2209.031
 20
-8145.065
 30
-1770.002
 40
1.969
  1
-1770.0021
 41
 1.0 
  0
TEXT
  8
W71LXLIFT
 62
2
 10
2209.841
 20
-8148.281
 30
-1770.002
 40
1.969
  1
ST-730SC
 41
 1.0 
  0
POINT
  8
W71LXLIFT
 62
2
 10
2203.774
 20
-8148.903
 30
-1770.002
  0
POLYLINE
  8
W71LXLIFT
 62
2
 66
     1
 70
     9
  0
VERTEX
  8
W71LXLIFT
 62
2
 10
2203.774
 20
-8147.170
 30
-1770.002
 70
    32
  0
VERTEX
  8
W71LXLIFT
 62
2
 10
2201.774
 20
-8150.636
 30
-1770.002
 70
    32
  0
VERTEX
  8
W71LXLIFT
 62
2
 10
2205.774
 20
-8150.636
 30
-1770.002
 70
    32
  0
SEQEND
  8
W71LXLIFT
  0
POLYLINE
  8
W71LXLIFT
 62
2
 66
     1
 70
     9
  0
VERTEX
  8
W71LXLIFT
 62
2
 10
2204.022
 20
-8152.718
 30
-1769.633
 70
    32
  0
VERTEX
  8
W71LXLIFT
 62
2
 10
2202.022
 20
-8156.185
 30
-1769.633
 70
    32
  0
VERTEX
  8
W71LXLIFT
 62
2
 10
2206.022
 20
-8156.185
 30
-1769.633
 70
    32
  0
SEQEND
  8
W71LXLIFT
  0
POINT
  8
W71LXLIFT
 62
2
 10
2204.022
 20
-8154.452
 30
-1769.633
  0
TEXT
  8
W71LXLIFT
 62
2
 10
2210.296
 20
-8156.111
 30
-1769.633
 40
1.969
  1
ST-730TC
 41
 1.0 
  0
TEXT
  8
W71LXLIFT
 62
2
 10
2208.555
 20
-8159.016
 30
-1769.633
 40
1.969
  1
-1769.6327
 41
 1.0 
  0
POLYLINE
  8
W71LXLIFT
 62
18
 66
     1
 70
     8
  0
VERTEX
  8
W71LXLIFT
 62
18
 10
2147.793
 20
-8086.744
 30
-1782.385
 70
    32
  0
VERTEX
  8
W71LXLIFT
 62
18
 10
2156.161
 20
-8084.861
 30
-1779.855
 70
    32
  0
VERTEX
  8
W71LXLIFT
 62
18
 10
2164.229
 20
-8083.784
 30
-1776.126
 70
    32
  0
VERTEX
  8
W71LXLIFT
 62
18
 10
2175.705
 20
-8083.066
 30
-1772.557
 70
    32
  0
VERTEX
  8
W71LXLIFT
 62
18
 10
2186.464
 20
-8085.937
 30
-1768.551
 70
    32
  0
VERTEX
  8
W71LXLIFT
 62
18
 10
2199.553
 20
-8089.167
 30
-1767.898
 70
    32
  0
VERTEX
  8
W71LXLIFT
 62
18
 10
2205.291
 20
-8093.115
 30
-1770.883
 70
    32
  0
VERTEX
  8
W71LXLIFT
 62
18
 10
2211.925
 20
-8096.883
 30
-1769.043
 70
    32
  0
VERTEX
  8
W71LXLIFT
 62
18
 10
2213.740
 20
-8100.994
 30
-1768.210
 70
    32
  0
VERTEX
  8
W71LXLIFT
 62
18
 10
2219.189
 20
-8104.704
 30
-1767.385
 70
    32
  0
VERTEX
  8
W71LXLIFT
 62
18
 10
2218.022
 20
-8115.185
 30
-1766.709
 70
    32
  0
VERTEX
  8
W71LXLIFT
 62
18
 10
2217.125
 20
-8120.209
 30
-1766.934
 70
    32
  0
VERTEX
  8
W71LXLIFT
 62
18
 10
2211.078
 20
-8127.501
 30
-1767.434
 70
    32
  0
VERTEX
  8
W71LXLIFT
 62
18
 10
2208.942
 20
-8130.379
 30
-1768.964
 70
    32
  0
VERTEX
  8
W71LXLIFT
 62
18
 10
2208.864
 20
-8130.680
 30
-1768.230
 70
    32
  0
VERTEX
  8
W71LXLIFT
 62
18
 10
2208.082
 20
-8141.076
 30
-1769.544
 70
    32
  0
VERTEX
  8
W71LXLIFT
 62
18
 10
2209.519
 20
-8149.779
 30
-1770.745
 70
    32
  0
VERTEX
  8
W71LXLIFT
 62
18
 10
2212.192
 20
-8168.297
 30
-1770.444
 70
    32
  0
VERTEX
  8
W71LXLIFT
 62
18
 10
2214.707
 20
-8204.380
 30
-1768.042
 70
    32
  0
VERTEX
  8
W71LXLIFT
 62
18
 10
2216.706
 20
-8213.601
 30
-1771.670
 70
    32
  0
VERTEX
  8
W71LXLIFT
 62
18
 10
2214.527
 20
-8226.501
 30
-1767.513
 70
    32
  0
VERTEX
  8
W71LXLIFT
 62
18
 10
2216.324
 20
-8233.392
 30
-1767.879
 70
    32
  0
VERTEX
  8
W71LXLIFT
 62
18
 10
2217.216
 20
-8245.461
 30
-1767.246
 70
    32
  0
VERTEX
  8
W71LXLIFT
 62
18
 10
2221.383
 20
-8251.916
 30
-1766.434
 70
    32
  0
VERTEX
  8
W71LXLIFT
 62
18
 10
2224.651
 20
-8257.822
 30
-1763.295
 70
    32
  0
VERTEX
  8
W71LXLIFT
 62
18
 10
2226.162
 20
-8270.179
 30
-1760.170
 70
    32
  0
VERTEX
  8
W71LXLIFT
 62
18
 10
2221.395
 20
-8275.969
 30
-1760.409
 70
    32
  0
VERTEX
  8
W71LXLIFT
 62
18
 10
2211.547
 20
-8277.431
 30
-1764.022
 70
    32
  0
VERTEX
  8
W71LXLIFT
 62
18
 10
2206.782
 20
-8271.814
 30
-1766.530
 70
    32
  0
VERTEX
  8
W71LXLIFT
 62
18
 10
2198.672
 20
-8258.101
 30
-1767.843
 70
    32
  0
VERTEX
  8
W71LXLIFT
 62
18
 10
2197.557
 20
-8255.019
 30
-1769.389
 70
    32
  0
VERTEX
  8
W71LXLIFT
 62
18
 10
2199.614
 20
-8247.994
 30
-1768.408
 70
    32
  0
VERTEX
  8
W71LXLIFT
 62
18
 10
2201.672
 20
-8228.140
 30
-1770.555
 70
    32
  0
VERTEX
  8
W71LXLIFT
 62
18
 10
2201.020
 20
-8219.536
 30
-1770.313
 70
    32
  0
VERTEX
  8
W71LXLIFT
 62
18
 10
2200.449
 20
-8211.270
 30
-1769.441
 70
    32
  0
VERTEX
  8
W71LXLIFT
 62
18
 10
2195.538
 20
-8191.693
 30
-1768.904
 70
    32
  0
VERTEX
  8
W71LXLIFT
 62
18
 10
2193.708
 20
-8178.839
 30
-1768.805
 70
    32
  0
VERTEX
  8
W71LXLIFT
 62
18
 10
2193.566
 20
-8175.443
 30
-1768.133
 70
    32
  0
VERTEX
  8
W71LXLIFT
 62
18
 10
2196.248
 20
-8161.778
 30
-1770.735
 70
    32
  0
VERTEX
  8
W71LXLIFT
 62
18
 10
2196.051
 20
-8155.607
 30
-1769.190
 70
    32
  0
VERTEX
  8
W71LXLIFT
 62
18
 10
2194.156
 20
-8140.699
 30
-1768.861
 70
    32
  0
VERTEX
  8
W71LXLIFT
 62
18
 10
2196.238
 20
-8129.769
 30
-1769.338
 70
    32
  0
VERTEX
  8
W71LXLIFT
 62
18
 10
2198.337
 20
-8124.088
 30
-1770.079
 70
    32
  0
VERTEX
  8
W71LXLIFT
 62
18
 10
2200.827
 20
-8115.081
 30
-1770.906
 70
    32
  0
VERTEX
  8
W71LXLIFT
 62
18
 10
2197.991
 20
-8104.588
 30
-1770.526
 70
    32
  0
VERTEX
  8
W71LXLIFT
 62
18
 10
2194.124
 20
-8100.692
 30
-1768.622
 70
    32
  0
VERTEX
  8
W71LXLIFT
 62
18
 10
2186.588
 20
-8096.794
 30
-1770.024
 70
    32
  0
VERTEX
  8
W71LXLIFT
 62
18
 10
2176.807
 20
-8094.400
 30
-1772.539
 70
    32
  0
VERTEX
  8
W71LXLIFT
 62
18
 10
2164.385
 20
-8093.823
 30
-1775.508
 70
    32
  0
VERTEX
  8
W71LXLIFT
 62
18
 10
2159.505
 20
-8094.193
 30
-1778.060
 70
    32
  0
VERTEX
  8
W71LXLIFT
 62
18
 10
2153.322
 20
-8095.525
 30
-1781.182
 70
    32
  0
VERTEX
  8
W71LXLIFT
 62
18
 10
2147.076
 20
-8096.245
 30
-1783.579
 70
    32
  0
SEQEND
  8
W71LXLIFT
  0
POLYLINE
  8
W71LXLIFT
 62
8
 66
     1
 70
     8
  0
VERTEX
  8
W71LXLIFT
 62
8
 10
1876.481
 20
-7040.104
 30
-1734.409
 70
    32
  0
VERTEX
  8
W71LXLIFT
 62
8
 10
1877.766
 20
-7046.128
 30
-1733.680
 70
    32
  0
VERTEX
  8
W71LXLIFT
 62
8
 10
1881.129
 20
-7055.978
 30
-1730.749
 70
    32
  0
VERTEX
  8
W71LXLIFT
 62
8
 10
1881.662
 20
-7060.618
 30
-1730.768
 70
    32
  0
VERTEX
  8
W71LXLIFT
 62
8
 10
1885.790
 20
-7083.349
 30
-1724.964
 70
    32
  0
VERTEX
  8
W71LXLIFT
 62
8
 10
1887.241
 20
-7086.417
 30
-1721.100
 70
    32
  0
VERTEX
  8
W71LXLIFT
 62
8
 10
1881.992
 20
-7090.425
 30
-1720.805
 70
    32
  0
VERTEX
  8
W71LXLIFT
 62
8
 10
1878.378
 20
-7099.611
 30
-1722.181
 70
    32
  0
VERTEX
  8
W71LXLIFT
 62
8
 10
1876.087
 20
-7103.765
 30
-1721.517
 70
    32
  0
VERTEX
  8
W71LXLIFT
 62
8
 10
1876.953
 20
-7108.233
 30
-1720.172
 70
    32
  0
VERTEX
  8
W71LXLIFT
 62
8
 10
1879.651
 20
-7114.749
 30
-1719.999
 70
    32
  0
VERTEX
  8
W71LXLIFT
 62
8
 10
1883.807
 20
-7126.318
 30
-1721.785
 70
    32
  0
VERTEX
  8
W71LXLIFT
 62
8
 10
1891.408
 20
-7132.799
 30
-1721.333
 70
    32
  0
VERTEX
  8
W71LXLIFT
 62
8
 10
1895.094
 20
-7145.346
 30
-1718.273
 70
    32
  0
VERTEX
  8
W71LXLIFT
 62
8
 10
1900.283
 20
-7157.054
 30
-1718.235
 70
    32
  0
VERTEX
  8
W71LXLIFT
 62
8
 10
1899.005
 20
-7160.557
 30
-1717.001
 70
    32
  0
VERTEX
  8
W71LXLIFT
 62
8
 10
1904.941
 20
-7181.402
 30
-1717.798
 70
    32
  0
VERTEX
  8
W71LXLIFT
 62
8
 10
1888.642
 20
-7177.795
 30
-1717.180
 70
    32
  0
VERTEX
  8
W71LXLIFT
 62
8
 10
1882.904
 20
-7171.654
 30
-1719.052
 70
    32
  0
VERTEX
  8
W71LXLIFT
 62
8
 10
1878.369
 20
-7157.767
 30
-1719.678
 70
    32
  0
VERTEX
  8
W71LXLIFT
 62
8
 10
1874.456
 20
-7153.048
 30
-1720.757
 70
    32
  0
VERTEX
  8
W71LXLIFT
 62
8
 10
1873.257
 20
-7149.313
 30
-1719.679
 70
    32
  0
VERTEX
  8
W71LXLIFT
 62
8
 10
1872.104
 20
-7134.135
 30
-1720.786
 70
    32
  0
VERTEX
  8
W71LXLIFT
 62
8
 10
1868.872
 20
-7120.987
 30
-1720.507
 70
    32
  0
VERTEX
  8
W71LXLIFT
 62
8
 10
1863.655
 20
-7116.856
 30
-1718.564
 70
    32
  0
VERTEX
  8
W71LXLIFT
 62
8
 10
1860.265
 20
-7111.623
 30
-1720.929
 70
    32
  0
VERTEX
  8
W71LXLIFT
 62
8
 10
1860.718
 20
-7108.144
 30
-1722.602
 70
    32
  0
VERTEX
  8
W71LXLIFT
 62
8
 10
1857.539
 20
-7098.011
 30
-1723.500
 70
    32
  0
VERTEX
  8
W71LXLIFT
 62
8
 10
1858.142
 20
-7095.019
 30
-1724.547
 70
    32
  0
VERTEX
  8
W71LXLIFT
 62
8
 10
1850.723
 20
-7084.805
 30
-1727.253
 70
    32
  0
VERTEX
  8
W71LXLIFT
 62
8
 10
1839.194
 20
-7070.764
 30
-1728.673
 70
    32
  0
VERTEX
  8
W71LXLIFT
 62
8
 10
1834.500
 20
-7062.337
 30
-1729.702
 70
    32
  0
VERTEX
  8
W71LXLIFT
 62
8
 10
1837.430
 20
-7057.377
 30
-1729.648
 70
    32
  0
VERTEX
  8
W71LXLIFT
 62
8
 10
1844.226
 20
-7052.521
 30
-1730.518
 70
    32
  0
VERTEX
  8
W71LXLIFT
 62
8
 10
1849.818
 20
-7061.252
 30
-1728.816
 70
    32
  0
VERTEX
  8
W71LXLIFT
 62
8
 10
1856.721
 20
-7074.067
 30
-1726.431
 70
    32
  0
VERTEX
  8
W71LXLIFT
 62
8
 10
1864.948
 20
-7085.481
 30
-1725.241
 70
    32
  0
VERTEX
  8
W71LXLIFT
 62
8
 10
1872.004
 20
-7078.899
 30
-1724.549
 70
    32
  0
VERTEX
  8
W71LXLIFT
 62
8
 10
1872.276
 20
-7060.550
 30
-1730.853
 70
    32
  0
VERTEX
  8
W71LXLIFT
 62
8
 10
1868.966
 20
-7045.822
 30
-1734.137
 70
    32
  0
SEQEND
  8
W71LXLIFT
  0
TEXT
  8
W71LXLIFT
 62
8
 10
1852.002
 20
-7103.303
 30
-1714.751
 40
1.969
  1
ST-569S
 50
0.055
 41
 1.0 
  0
TEXT
  8
W71LXLIFT
 62
8
 10
1851.318
 20
-7106.067
 30
-1699.257
 40
1.969
  1
-1722.3129
 41
 1.0 
  0
TEXT
  8
W71LXLIFT
 62
8
 10
1852.992
 20
-7110.042
 30
-1714.984
 40
1.969
  1
ST-569T
 41
 1.0 
  0
TEXT
  8
W71LXLIFT
 62
8
 10
1851.833
 20
-7112.368
 30
-1699.329
 40
1.969
  1
-1722.3848
 41
 1.0 
  0
POINT
  8
W71LXLIFT
 62
8
 10
1873.814
 20
-7105.024
 30
-1722.385
  0
POINT
  8
W71LXLIFT
 62
8
 10
1873.300
 20
-7102.794
 30
-1722.313
  0
POLYLINE
  8
W71LXLIFT
 62
8
 66
     1
 70
     9
  0
VERTEX
  8
W71LXLIFT
 62
8
 10
1873.300
 20
-7101.061
 30
-1722.313
 70
    32
  0
VERTEX
  8
W71LXLIFT
 62
8
 10
1871.300
 20
-7104.527
 30
-1722.313
 70
    32
  0
VERTEX
  8
W71LXLIFT
 62
8
 10
1875.300
 20
-7104.527
 30
-1722.313
 70
    32
  0
SEQEND
  8
W71LXLIFT
  0
POLYLINE
  8
W71LXLIFT
 62
8
 66
     1
 70
     9
  0
VERTEX
  8
W71LXLIFT
 62
8
 10
1873.814
 20
-7103.291
 30
-1722.385
 70
    32
  0
VERTEX
  8
W71LXLIFT
 62
8
 10
1871.814
 20
-7106.757
 30
-1722.385
 70
    32
  0
VERTEX
  8
W71LXLIFT
 62
8
 10
1875.814
 20
-7106.757
 30
-1722.385
 70
    32
  0
SEQEND
  8
W71LXLIFT
  0
TEXT
  8
W71LXLIFT
 62
7
 10
2421.049
 20
-9269.026
 30
-1746.675
 40
1.969
  1
-1746.6751
 50
28.515
 41
 1.0 
  0
TEXT
  8
W71LXLIFT
 62
7
 10
2423.122
 20
-9272.063
 30
-1746.675
 40
1.969
  1
ST-785S
 50
28.515
 41
 1.0 
  0
TEXT
  8
W71LXLIFT
 62
7
 10
2425.528
 20
-9284.964
 30
-1746.159
 40
1.969
  1
ST-785T
 50
28.515
 41
 1.0 
  0
TEXT
  8
W71LXLIFT
 62
7
 10
2425.912
 20
-9289.520
 30
-1746.159
 40
1.969
  1
-1746.1588
 50
28.515
 41
 1.0 
  0
POINT
  8
W71LXLIFT
 62
7
 10
2415.128
 20
-9275.100
 30
-1746.675
  0
POLYLINE
  8
W71LXLIFT
 62
7
 66
     1
 70
     9
  0
VERTEX
  8
W71LXLIFT
 62
7
 10
2415.128
 20
-9273.367
 30
-1746.675
 70
    32
  0
VERTEX
  8
W71LXLIFT
 62
7
 10
2413.128
 20
-9276.833
 30
-1746.675
 70
    32
  0
VERTEX
  8
W71LXLIFT
 62
7
 10
2417.128
 20
-9276.833
 30
-1746.675
 70
    32
  0
SEQEND
  8
W71LXLIFT
  0
POLYLINE
  8
W71LXLIFT
 62
7
 66
     1
 70
     9
  0
VERTEX
  8
W71LXLIFT
 62
7
 10
2417.722
 20
-9285.129
 30
-1746.159
 70
    32
  0
VERTEX
  8
W71LXLIFT
 62
7
 10
2415.722
 20
-9288.595
 30
-1746.159
 70
    32
  0
VERTEX
  8
W71LXLIFT
 62
7
 10
2419.722
 20
-9288.595
 30
-1746.159
 70
    32
  0
SEQEND
  8
W71LXLIFT
  0
POINT
  8
W71LXLIFT
 62
7
 10
2417.722
 20
-9286.862
 30
-1746.159
  0
POLYLINE
  8
W71LXLIFT
 62
6
 66
     1
 70
     8
  0
VERTEX
  8
W71LXLIFT
 62
6
 10
2398.844
 20
-9199.670
 30
-1737.016
 70
    32
  0
VERTEX
  8
W71LXLIFT
 62
6
 10
2401.818
 20
-9212.410
 30
-1737.917
 70
    32
  0
VERTEX
  8
W71LXLIFT
 62
6
 10
2403.736
 20
-9219.174
 30
-1736.042
 70
    32
  0
VERTEX
  8
W71LXLIFT
 62
6
 10
2407.597
 20
-9228.576
 30
-1734.664
 70
    32
  0
VERTEX
  8
W71LXLIFT
 62
6
 10
2410.947
 20
-9234.192
 30
-1733.753
 70
    32
  0
VERTEX
  8
W71LXLIFT
 62
6
 10
2416.797
 20
-9237.711
 30
-1735.488
 70
    32
  0
VERTEX
  8
W71LXLIFT
 62
6
 10
2422.104
 20
-9256.349
 30
-1735.580
 70
    32
  0
VERTEX
  8
W71LXLIFT
 62
6
 10
2412.059
 20
-9266.487
 30
-1733.733
 70
    32
  0
VERTEX
  8
W71LXLIFT
 62
6
 10
2411.115
 20
-9279.052
 30
-1732.673
 70
    32
  0
VERTEX
  8
W71LXLIFT
 62
6
 10
2411.364
 20
-9290.797
 30
-1732.696
 70
    32
  0
VERTEX
  8
W71LXLIFT
 62
6
 10
2413.675
 20
-9302.277
 30
-1732.574
 70
    32
  0
VERTEX
  8
W71LXLIFT
 62
6
 10
2413.819
 20
-9303.482
 30
-1732.543
 70
    32
  0
VERTEX
  8
W71LXLIFT
 62
6
 10
2416.568
 20
-9318.197
 30
-1731.924
 70
    32
  0
VERTEX
  8
W71LXLIFT
 62
6
 10
2422.401
 20
-9331.151
 30
-1733.491
 70
    32
  0
VERTEX
  8
W71LXLIFT
 62
6
 10
2427.513
 20
-9342.639
 30
-1732.818
 70
    32
  0
VERTEX
  8
W71LXLIFT
 62
6
 10
2432.552
 20
-9351.834
 30
-1732.038
 70
    32
  0
VERTEX
  8
W71LXLIFT
 62
6
 10
2438.331
 20
-9361.249
 30
-1731.242
 70
    32
  0
VERTEX
  8
W71LXLIFT
 62
6
 10
2446.621
 20
-9373.044
 30
-1731.792
 70
    32
  0
VERTEX
  8
W71LXLIFT
 62
6
 10
2452.858
 20
-9379.228
 30
-1731.879
 70
    32
  0
VERTEX
  8
W71LXLIFT
 62
6
 10
2456.848
 20
-9388.284
 30
-1731.193
 70
    32
  0
VERTEX
  8
W71LXLIFT
 62
6
 10
2462.706
 20
-9397.414
 30
-1731.602
 70
    32
  0
VERTEX
  8
W71LXLIFT
 62
6
 10
2469.567
 20
-9412.022
 30
-1731.943
 70
    32
  0
VERTEX
  8
W71LXLIFT
 62
6
 10
2473.844
 20
-9422.141
 30
-1731.317
 70
    32
  0
VERTEX
  8
W71LXLIFT
 62
6
 10
2478.567
 20
-9431.044
 30
-1733.014
 70
    32
  0
VERTEX
  8
W71LXLIFT
 62
6
 10
2483.112
 20
-9440.298
 30
-1733.971
 70
    32
  0
VERTEX
  8
W71LXLIFT
 62
6
 10
2476.254
 20
-9440.940
 30
-1735.363
 70
    32
  0
VERTEX
  8
W71LXLIFT
 62
6
 10
2472.726
 20
-9433.830
 30
-1732.836
 70
    32
  0
VERTEX
  8
W71LXLIFT
 62
6
 10
2467.364
 20
-9421.577
 30
-1732.043
 70
    32
  0
VERTEX
  8
W71LXLIFT
 62
6
 10
2464.633
 20
-9422.406
 30
-1732.099
 70
    32
  0
VERTEX
  8
W71LXLIFT
 62
6
 10
2462.145
 20
-9423.111
 30
-1731.862
 70
    32
  0
VERTEX
  8
W71LXLIFT
 62
6
 10
2457.532
 20
-9411.724
 30
-1732.973
 70
    32
  0
VERTEX
  8
W71LXLIFT
 62
6
 10
2452.388
 20
-9403.653
 30
-1733.473
 70
    32
  0
VERTEX
  8
W71LXLIFT
 62
6
 10
2447.269
 20
-9395.308
 30
-1732.213
 70
    32
  0
VERTEX
  8
W71LXLIFT
 62
6
 10
2441.067
 20
-9395.057
 30
-1732.765
 70
    32
  0
VERTEX
  8
W71LXLIFT
 62
6
 10
2434.125
 20
-9388.468
 30
-1733.172
 70
    32
  0
VERTEX
  8
W71LXLIFT
 62
6
 10
2424.724
 20
-9387.895
 30
-1733.146
 70
    32
  0
VERTEX
  8
W71LXLIFT
 62
6
 10
2420.445
 20
-9377.317
 30
-1733.586
 70
    32
  0
VERTEX
  8
W71LXLIFT
 62
6
 10
2415.229
 20
-9369.877
 30
-1732.362
 70
    32
  0
VERTEX
  8
W71LXLIFT
 62
6
 10
2413.581
 20
-9369.318
 30
-1732.824
 70
    32
  0
VERTEX
  8
W71LXLIFT
 62
6
 10
2409.724
 20
-9366.738
 30
-1732.040
 70
    32
  0
VERTEX
  8
W71LXLIFT
 62
6
 10
2407.220
 20
-9362.902
 30
-1731.807
 70
    32
  0
VERTEX
  8
W71LXLIFT
 62
6
 10
2401.597
 20
-9338.803
 30
-1733.722
 70
    32
  0
VERTEX
  8
W71LXLIFT
 62
6
 10
2394.779
 20
-9339.254
 30
-1732.054
 70
    32
  0
VERTEX
  8
W71LXLIFT
 62
6
 10
2386.564
 20
-9325.525
 30
-1732.354
 70
    32
  0
VERTEX
  8
W71LXLIFT
 62
6
 10
2382.225
 20
-9314.951
 30
-1733.878
 70
    32
  0
VERTEX
  8
W71LXLIFT
 62
6
 10
2380.314
 20
-9309.319
 30
-1733.888
 70
    32
  0
VERTEX
  8
W71LXLIFT
 62
6
 10
2393.553
 20
-9301.401
 30
-1734.842
 70
    32
  0
VERTEX
  8
W71LXLIFT
 62
6
 10
2394.612
 20
-9297.209
 30
-1734.887
 70
    32
  0
VERTEX
  8
W71LXLIFT
 62
6
 10
2395.750
 20
-9286.690
 30
-1733.341
 70
    32
  0
VERTEX
  8
W71LXLIFT
 62
6
 10
2399.154
 20
-9277.315
 30
-1732.799
 70
    32
  0
VERTEX
  8
W71LXLIFT
 62
6
 10
2399.421
 20
-9269.096
 30
-1733.653
 70
    32
  0
VERTEX
  8
W71LXLIFT
 62
6
 10
2399.079
 20
-9263.591
 30
-1733.666
 70
    32
  0
VERTEX
  8
W71LXLIFT
 62
6
 10
2400.939
 20
-9258.267
 30
-1733.912
 70
    32
  0
VERTEX
  8
W71LXLIFT
 62
6
 10
2394.982
 20
-9248.556
 30
-1732.697
 70
    32
  0
VERTEX
  8
W71LXLIFT
 62
6
 10
2398.053
 20
-9238.761
 30
-1733.352
 70
    32
  0
VERTEX
  8
W71LXLIFT
 62
6
 10
2396.034
 20
-9231.317
 30
-1734.527
 70
    32
  0
VERTEX
  8
W71LXLIFT
 62
6
 10
2391.621
 20
-9221.100
 30
-1736.750
 70
    32
  0
VERTEX
  8
W71LXLIFT
 62
6
 10
2390.008
 20
-9211.709
 30
-1737.241
 70
    32
  0
VERTEX
  8
W71LXLIFT
 62
6
 10
2385.619
 20
-9207.682
 30
-1737.793
 70
    32
  0
SEQEND
  8
W71LXLIFT
  0
POINT
  8
W71LXLIFT
 62
6
 10
2402.796
 20
-9232.907
 30
-1733.670
  0
POLYLINE
  8
W71LXLIFT
 62
6
 66
     1
 70
     9
  0
VERTEX
  8
W71LXLIFT
 62
6
 10
2402.796
 20
-9231.174
 30
-1733.670
 70
    32
  0
VERTEX
  8
W71LXLIFT
 62
6
 10
2400.796
 20
-9234.640
 30
-1733.670
 70
    32
  0
VERTEX
  8
W71LXLIFT
 62
6
 10
2404.796
 20
-9234.640
 30
-1733.670
 70
    32
  0
SEQEND
  8
W71LXLIFT
  0
POINT
  8
W71LXLIFT
 62
6
 10
2401.867
 20
-9229.426
 30
-1734.293
  0
POLYLINE
  8
W71LXLIFT
 62
6
 66
     1
 70
     9
  0
VERTEX
  8
W71LXLIFT
 62
6
 10
2401.867
 20
-9227.692
 30
-1734.293
 70
    32
  0
VERTEX
  8
W71LXLIFT
 62
6
 10
2399.867
 20
-9231.159
 30
-1734.293
 70
    32
  0
VERTEX
  8
W71LXLIFT
 62
6
 10
2403.867
 20
-9231.159
 30
-1734.293
 70
    32
  0
SEQEND
  8
W71LXLIFT
  0
POLYLINE
  8
W71LXLIFT
 62
6
 66
     1
 70
     9
  0
VERTEX
  8
W71LXLIFT
 62
6
 10
2383.759
 20
-9201.102
 30
-1789.788
 70
    32
  0
VERTEX
  8
W71LXLIFT
 62
6
 10
2381.759
 20
-9204.568
 30
-1789.788
 70
    32
  0
VERTEX
  8
W71LXLIFT
 62
6
 10
2385.759
 20
-9204.568
 30
-1789.788
 70
    32
  0
SEQEND
  8
W71LXLIFT
  0
POINT
  8
W71LXLIFT
 62
6
 10
2383.759
 20
-9202.835
 30
-1789.788
  0
TEXT
  8
W71LXLIFT
 62
6
 10
2366.649
 20
-9216.957
 30
-1789.788
 40
2.362
  1
ST-537T
 50
38.990
 41
 1.0 
  0
TEXT
  8
W71LXLIFT
 62
6
 10
2363.209
 20
-9223.956
 30
-1789.788
 40
2.362
  1
-1789.7883
 50
38.990
 41
 1.0 
  0
TEXT
  8
W71LXLIFT
 62
6
 10
2408.640
 20
-9211.717
 30
-1742.121
 40
1.969
  1
-1742.1206
 50
26.030
 41
 1.0 
  0
TEXT
  8
W71LXLIFT
 62
6
 10
2411.024
 20
-9213.627
 30
-1742.121
 40
1.969
  1
ST-13BELE
 50
26.033
 41
 1.0 
  0
POINT
  8
W71LXLIFT
 62
6
 10
2406.224
 20
-9216.210
 30
-1742.121
  0
POLYLINE
  8
W71LXLIFT
 62
6
 66
     1
 70
     9
  0
VERTEX
  8
W71LXLIFT
 62
6
 10
2406.224
 20
-9214.477
 30
-1742.121
 70
    32
  0
VERTEX
  8
W71LXLIFT
 62
6
 10
2404.224
 20
-9217.943
 30
-1742.121
 70
    32
  0
VERTEX
  8
W71LXLIFT
 62
6
 10
2408.224
 20
-9217.943
 30
-1742.121
 70
    32
  0
SEQEND
  8
W71LXLIFT
  0
TEXT
  8
W71LXLIFT
 62
6
 10
2409.200
 20
-9225.718
 30
-1734.293
 40
1.969
  1
-1734.2926
 50
26.033
 41
 1.0 
  0
TEXT
  8
W71LXLIFT
 62
6
 10
2411.920
 20
-9227.179
 30
-1734.293
 40
1.969
  1
ST-921T
 50
26.033
 41
 1.0 
  0
TEXT
  8
W71LXLIFT
 62
6
 10
2414.190
 20
-9230.211
 30
-1733.670
 40
1.969
  1
ST-921S
 50
26.033
 41
 1.0 
  0
TEXT
  8
W71LXLIFT
 62
6
 10
2414.934
 20
-9233.019
 30
-1733.670
 40
1.969
  1
-1733.6702
 50
26.033
 41
 1.0 
  0
TEXT
  8
W71LXLIFT
 62
6
 10
2412.443
 20
-9280.920
 30
-1733.457
 40
1.969
  1
-1733.4574
 41
 1.0 
  0
TEXT
  8
W71LXLIFT
 62
6
 10
2414.069
 20
-9283.793
 30
-1733.457
 40
1.969
  1
ST-926T
 41
 1.0 
  0
TEXT
  8
W71LXLIFT
 62
6
 10
2414.040
 20
-9289.905
 30
-1733.538
 40
1.969
  1
ST-926S
 41
 1.0 
  0
TEXT
  8
W71LXLIFT
 62
6
 10
2413.162
 20
-9293.277
 30
-1733.538
 40
1.969
  1
-1733.5381
 41
 1.0 
  0
POINT
  8
W71LXLIFT
 62
6
 10
2404.686
 20
-9287.407
 30
-1733.538
  0
POLYLINE
  8
W71LXLIFT
 62
6
 66
     1
 70
     9
  0
VERTEX
  8
W71LXLIFT
 62
6
 10
2404.466
 20
-9284.182
 30
-1733.457
 70
    32
  0
VERTEX
  8
W71LXLIFT
 62
6
 10
2402.466
 20
-9287.648
 30
-1733.457
 70
    32
  0
VERTEX
  8
W71LXLIFT
 62
6
 10
2406.466
 20
-9287.648
 30
-1733.457
 70
    32
  0
SEQEND
  8
W71LXLIFT
  0
POLYLINE
  8
W71LXLIFT
 62
6
 66
     1
 70
     9
  0
VERTEX
  8
W71LXLIFT
 62
6
 10
2404.686
 20
-9285.674
 30
-1733.538
 70
    32
  0
VERTEX
  8
W71LXLIFT
 62
6
 10
2402.686
 20
-9289.141
 30
-1733.538
 70
    32
  0
VERTEX
  8
W71LXLIFT
 62
6
 10
2406.686
 20
-9289.141
 30
-1733.538
 70
    32
  0
SEQEND
  8
W71LXLIFT
  0
POINT
  8
W71LXLIFT
 62
6
 10
2404.466
 20
-9285.915
 30
-1733.457
  0
POLYLINE
  8
W71LXLIFT
 62
6
 66
     1
 70
     9
  0
VERTEX
  8
W71LXLIFT
 62
6
 10
2379.309
 20
-9184.623
 30
-1795.634
 70
    32
  0
VERTEX
  8
W71LXLIFT
 62
6
 10
2377.309
 20
-9188.090
 30
-1795.634
 70
    32
  0
VERTEX
  8
W71LXLIFT
 62
6
 10
2381.309
 20
-9188.090
 30
-1795.634
 70
    32
  0
SEQEND
  8
W71LXLIFT
  0
POINT
  8
W71LXLIFT
 62
6
 10
2379.309
 20
-9186.357
 30
-1795.634
  0
TEXT
  8
W71LXLIFT
 62
6
 10
2352.014
 20
-9204.284
 30
-1795.634
 40
2.362
  1
-1795.6341
 50
38.990
 41
 1.0 
  0
TEXT
  8
W71LXLIFT
 62
6
 10
2359.460
 20
-9203.744
 30
-1795.634
 40
2.362
  1
ST-537S
 50
38.990
 41
 1.0 
  0
POLYLINE
  8
W71LXLIFT
 62
5
 66
     1
 70
     9
  0
VERTEX
  8
W71LXLIFT
 62
5
 10
2059.387
 20
-7898.119
 30
-1715.000
 70
    32
  0
VERTEX
  8
W71LXLIFT
 62
5
 10
2074.577
 20
-7900.426
 30
-1715.000
 70
    32
  0
VERTEX
  8
W71LXLIFT
 62
5
 10
2080.228
 20
-7904.076
 30
-1715.000
 70
    32
  0
VERTEX
  8
W71LXLIFT
 62
5
 10
2102.155
 20
-7930.656
 30
-1715.000
 70
    32
  0
VERTEX
  8
W71LXLIFT
 62
5
 10
2111.799
 20
-7925.994
 30
-1715.000
 70
    32
  0
VERTEX
  8
W71LXLIFT
 62
5
 10
2116.446
 20
-7922.012
 30
-1715.000
 70
    32
  0
VERTEX
  8
W71LXLIFT
 62
5
 10
2095.522
 20
-7898.751
 30
-1715.000
 70
    32
  0
VERTEX
  8
W71LXLIFT
 62
5
 10
2098.162
 20
-7887.469
 30
-1715.000
 70
    32
  0
VERTEX
  8
W71LXLIFT
 62
5
 10
2092.184
 20
-7883.139
 30
-1715.000
 70
    32
  0
VERTEX
  8
W71LXLIFT
 62
5
 10
2088.213
 20
-7882.807
 30
-1715.000
 70
    32
  0
VERTEX
  8
W71LXLIFT
 62
5
 10
2083.566
 20
-7875.506
 30
-1715.000
 70
    32
  0
VERTEX
  8
W71LXLIFT
 62
5
 10
2064.279
 20
-7875.506
 30
-1715.000
 70
    32
  0
VERTEX
  8
W71LXLIFT
 62
5
 10
2051.995
 20
-7876.170
 30
-1715.000
 70
    32
  0
VERTEX
  8
W71LXLIFT
 62
5
 10
2042.024
 20
-7874.179
 30
-1715.000
 70
    32
  0
VERTEX
  8
W71LXLIFT
 62
5
 10
2039.384
 20
-7869.865
 30
-1715.000
 70
    32
  0
VERTEX
  8
W71LXLIFT
 62
5
 10
2031.399
 20
-7867.526
 30
-1715.000
 70
    32
  0
VERTEX
  8
W71LXLIFT
 62
5
 10
2024.090
 20
-7854.584
 30
-1715.000
 70
    32
  0
VERTEX
  8
W71LXLIFT
 62
5
 10
2023.435
 20
-7841.959
 30
-1715.000
 70
    32
  0
VERTEX
  8
W71LXLIFT
 62
5
 10
2018.685
 20
-7833.486
 30
-1715.000
 70
    32
  0
VERTEX
  8
W71LXLIFT
 62
5
 10
2012.501
 20
-7820.797
 30
-1715.000
 70
    32
  0
VERTEX
  8
W71LXLIFT
 62
5
 10
2006.139
 20
-7820.205
 30
-1715.000
 70
    32
  0
VERTEX
  8
W71LXLIFT
 62
5
 10
2002.929
 20
-7811.613
 30
-1715.000
 70
    32
  0
VERTEX
  8
W71LXLIFT
 62
5
 10
2001.306
 20
-7805.961
 30
-1715.000
 70
    32
  0
VERTEX
  8
W71LXLIFT
 62
5
 10
2004.240
 20
-7791.944
 30
-1715.000
 70
    32
  0
VERTEX
  8
W71LXLIFT
 62
5
 10
1993.703
 20
-7788.785
 30
-1715.000
 70
    32
  0
VERTEX
  8
W71LXLIFT
 62
5
 10
1991.664
 20
-7796.247
 30
-1715.000
 70
    32
  0
VERTEX
  8
W71LXLIFT
 62
5
 10
1980.033
 20
-7795.067
 30
-1715.000
 70
    32
  0
VERTEX
  8
W71LXLIFT
 62
5
 10
1971.685
 20
-7784.719
 30
-1715.000
 70
    32
  0
VERTEX
  8
W71LXLIFT
 62
5
 10
1966.871
 20
-7776.679
 30
-1715.000
 70
    32
  0
VERTEX
  8
W71LXLIFT
 62
5
 10
1967.793
 20
-7766.009
 30
-1715.000
 70
    32
  0
VERTEX
  8
W71LXLIFT
 62
5
 10
1973.783
 20
-7753.433
 30
-1715.000
 70
    32
  0
VERTEX
  8
W71LXLIFT
 62
5
 10
1970.066
 20
-7742.982
 30
-1715.000
 70
    32
  0
VERTEX
  8
W71LXLIFT
 62
5
 10
1970.365
 20
-7729.130
 30
-1715.000
 70
    32
  0
VERTEX
  8
W71LXLIFT
 62
5
 10
1964.290
 20
-7722.244
 30
-1715.000
 70
    32
  0
VERTEX
  8
W71LXLIFT
 62
5
 10
1963.442
 20
-7718.978
 30
-1715.000
 70
    32
  0
VERTEX
  8
W71LXLIFT
 62
5
 10
1972.563
 20
-7708.949
 30
-1715.000
 70
    32
  0
VERTEX
  8
W71LXLIFT
 62
5
 10
1972.380
 20
-7698.744
 30
-1715.000
 70
    32
  0
VERTEX
  8
W71LXLIFT
 62
5
 10
1971.027
 20
-7685.360
 30
-1715.000
 70
    32
  0
VERTEX
  8
W71LXLIFT
 62
5
 10
1969.397
 20
-7670.139
 30
-1715.000
 70
    32
  0
VERTEX
  8
W71LXLIFT
 62
5
 10
1945.965
 20
-7654.169
 30
-1715.000
 70
    32
  0
VERTEX
  8
W71LXLIFT
 62
5
 10
1935.721
 20
-7645.522
 30
-1715.000
 70
    32
  0
VERTEX
  8
W71LXLIFT
 62
5
 10
1925.693
 20
-7651.240
 30
-1715.000
 70
    32
  0
VERTEX
  8
W71LXLIFT
 62
5
 10
1928.940
 20
-7658.666
 30
-1715.000
 70
    32
  0
VERTEX
  8
W71LXLIFT
 62
5
 10
1932.912
 20
-7666.972
 30
-1715.000
 70
    32
  0
VERTEX
  8
W71LXLIFT
 62
5
 10
1938.449
 20
-7681.793
 30
-1715.000
 70
    32
  0
VERTEX
  8
W71LXLIFT
 62
5
 10
1938.597
 20
-7690.329
 30
-1715.000
 70
    32
  0
VERTEX
  8
W71LXLIFT
 62
5
 10
1941.907
 20
-7710.004
 30
-1715.000
 70
    32
  0
VERTEX
  8
W71LXLIFT
 62
5
 10
1948.940
 20
-7722.029
 30
-1715.000
 70
    32
  0
VERTEX
  8
W71LXLIFT
 62
5
 10
1954.378
 20
-7735.036
 30
-1715.000
 70
    32
  0
VERTEX
  8
W71LXLIFT
 62
5
 10
1953.327
 20
-7747.318
 30
-1715.000
 70
    32
  0
VERTEX
  8
W71LXLIFT
 62
5
 10
1942.741
 20
-7767.655
 30
-1715.000
 70
    32
  0
VERTEX
  8
W71LXLIFT
 62
5
 10
1941.588
 20
-7776.771
 30
-1715.000
 70
    32
  0
VERTEX
  8
W71LXLIFT
 62
5
 10
1951.773
 20
-7798.372
 30
-1715.000
 70
    32
  0
VERTEX
  8
W71LXLIFT
 62
5
 10
1959.987
 20
-7802.666
 30
-1715.000
 70
    32
  0
VERTEX
  8
W71LXLIFT
 62
5
 10
1967.248
 20
-7812.097
 30
-1715.000
 70
    32
  0
VERTEX
  8
W71LXLIFT
 62
5
 10
1977.125
 20
-7828.180
 30
-1715.000
 70
    32
  0
VERTEX
  8
W71LXLIFT
 62
5
 10
1995.411
 20
-7853.248
 30
-1715.000
 70
    32
  0
VERTEX
  8
W71LXLIFT
 62
5
 10
1999.052
 20
-7853.276
 30
-1715.000
 70
    32
  0
VERTEX
  8
W71LXLIFT
 62
5
 10
2007.119
 20
-7858.651
 30
-1715.000
 70
    32
  0
VERTEX
  8
W71LXLIFT
 62
5
 10
2018.749
 20
-7873.081
 30
-1715.000
 70
    32
  0
VERTEX
  8
W71LXLIFT
 62
5
 10
2021.428
 20
-7874.511
 30
-1715.000
 70
    32
  0
VERTEX
  8
W71LXLIFT
 62
5
 10
2026.097
 20
-7877.829
 30
-1715.000
 70
    32
  0
VERTEX
  8
W71LXLIFT
 62
5
 10
2026.097
 20
-7882.143
 30
-1715.000
 70
    32
  0
VERTEX
  8
W71LXLIFT
 62
5
 10
2032.730
 20
-7888.132
 30
-1715.000
 70
    32
  0
VERTEX
  8
W71LXLIFT
 62
5
 10
2033.406
 20
-7896.760
 30
-1715.000
 70
    32
  0
VERTEX
  8
W71LXLIFT
 62
5
 10
2039.711
 20
-7907.063
 30
-1715.000
 70
    32
  0
VERTEX
  8
W71LXLIFT
 62
5
 10
2041.697
 20
-7911.377
 30
-1715.000
 70
    32
  0
VERTEX
  8
W71LXLIFT
 62
5
 10
2045.724
 20
-7934.982
 30
-1715.000
 70
    32
  0
VERTEX
  8
W71LXLIFT
 62
5
 10
2063.384
 20
-7947.589
 30
-1715.000
 70
    32
  0
VERTEX
  8
W71LXLIFT
 62
5
 10
2059.969
 20
-7931.810
 30
-1715.000
 70
    32
  0
VERTEX
  8
W71LXLIFT
 62
5
 10
2059.668
 20
-7917.819
 30
-1715.000
 70
    32
  0
VERTEX
  8
W71LXLIFT
 62
5
 10
2058.083
 20
-7909.393
 30
-1715.000
 70
    32
  0
VERTEX
  8
W71LXLIFT
 62
5
 10
2057.786
 20
-7900.810
 30
-1715.000
 70
    32
  0
SEQEND
  8
W71LXLIFT
  0
POLYLINE
  8
W71LXLIFT
 62
5
 66
     1
 70
     8
  0
VERTEX
  8
W71LXLIFT
 62
5
 10
2028.792
 20
-7880.953
 30
-1707.000
 70
    32
  0
VERTEX
  8
W71LXLIFT
 62
5
 10
2014.772
 20
-7867.626
 30
-1707.000
 70
    32
  0
VERTEX
  8
W71LXLIFT
 62
5
 10
2007.932
 20
-7862.329
 30
-1707.000
 70
    32
  0
VERTEX
  8
W71LXLIFT
 62
5
 10
2006.407
 20
-7857.909
 30
-1707.000
 70
    32
  0
VERTEX
  8
W71LXLIFT
 62
5
 10
1995.651
 20
-7852.598
 30
-1707.000
 70
    32
  0
VERTEX
  8
W71LXLIFT
 62
5
 10
1990.893
 20
-7842.058
 30
-1705.000
 70
    32
  0
VERTEX
  8
W71LXLIFT
 62
5
 10
1980.904
 20
-7832.327
 30
-1705.000
 70
    32
  0
VERTEX
  8
W71LXLIFT
 62
5
 10
1967.112
 20
-7815.609
 30
-1705.000
 70
    32
  0
VERTEX
  8
W71LXLIFT
 62
5
 10
1961.405
 20
-7807.039
 30
-1705.000
 70
    32
  0
VERTEX
  8
W71LXLIFT
 62
5
 10
1952.535
 20
-7805.187
 30
-1705.000
 70
    32
  0
VERTEX
  8
W71LXLIFT
 62
5
 10
1947.971
 20
-7809.208
 30
-1705.000
 70
    32
  0
VERTEX
  8
W71LXLIFT
 62
5
 10
1940.649
 20
-7803.051
 30
-1705.000
 70
    32
  0
VERTEX
  8
W71LXLIFT
 62
5
 10
1941.673
 20
-7786.970
 30
-1705.000
 70
    32
  0
VERTEX
  8
W71LXLIFT
 62
5
 10
1934.825
 20
-7776.374
 30
-1705.000
 70
    32
  0
VERTEX
  8
W71LXLIFT
 62
5
 10
1938.564
 20
-7768.634
 30
-1703.000
 70
    32
  0
VERTEX
  8
W71LXLIFT
 62
5
 10
1935.007
 20
-7755.961
 30
-1707.200
 70
    32
  0
VERTEX
  8
W71LXLIFT
 62
5
 10
1930.965
 20
-7747.388
 30
-1707.200
 70
    32
  0
VERTEX
  8
W71LXLIFT
 62
5
 10
1922.456
 20
-7734.970
 30
-1708.700
 70
    32
  0
VERTEX
  8
W71LXLIFT
 62
5
 10
1918.766
 20
-7726.609
 30
-1708.700
 70
    32
  0
VERTEX
  8
W71LXLIFT
 62
5
 10
1926.961
 20
-7721.514
 30
-1705.000
 70
    32
  0
VERTEX
  8
W71LXLIFT
 62
5
 10
1929.542
 20
-7724.949
 30
-1708.700
 70
    32
  0
VERTEX
  8
W71LXLIFT
 62
5
 10
1935.611
 20
-7731.420
 30
-1708.700
 70
    32
  0
VERTEX
  8
W71LXLIFT
 62
5
 10
1938.946
 20
-7728.746
 30
-1706.000
 70
    32
  0
VERTEX
  8
W71LXLIFT
 62
5
 10
1941.025
 20
-7718.060
 30
-1704.000
 70
    32
  0
VERTEX
  8
W71LXLIFT
 62
5
 10
1937.227
 20
-7706.978
 30
-1701.000
 70
    32
  0
VERTEX
  8
W71LXLIFT
 62
5
 10
1930.108
 20
-7695.704
 30
-1703.000
 70
    32
  0
VERTEX
  8
W71LXLIFT
 62
5
 10
1936.469
 20
-7690.309
 30
-1704.000
 70
    32
  0
VERTEX
  8
W71LXLIFT
 62
5
 10
1930.776
 20
-7664.322
 30
-1703.000
 70
    32
  0
VERTEX
  8
W71LXLIFT
 62
5
 10
1940.824
 20
-7657.190
 30
-1703.000
 70
    32
  0
VERTEX
  8
W71LXLIFT
 62
5
 10
1951.367
 20
-7665.297
 30
-1705.000
 70
    32
  0
VERTEX
  8
W71LXLIFT
 62
5
 10
1957.658
 20
-7676.257
 30
-1705.900
 70
    32
  0
VERTEX
  8
W71LXLIFT
 62
5
 10
1960.675
 20
-7688.213
 30
-1704.000
 70
    32
  0
VERTEX
  8
W71LXLIFT
 62
5
 10
1963.852
 20
-7699.011
 30
-1705.000
 70
    32
  0
VERTEX
  8
W71LXLIFT
 62
5
 10
1960.372
 20
-7714.077
 30
-1703.700
 70
    32
  0
VERTEX
  8
W71LXLIFT
 62
5
 10
1958.256
 20
-7724.426
 30
-1705.900
 70
    32
  0
VERTEX
  8
W71LXLIFT
 62
5
 10
1963.177
 20
-7739.573
 30
-1706.000
 70
    32
  0
VERTEX
  8
W71LXLIFT
 62
5
 10
1963.515
 20
-7748.811
 30
-1707.200
 70
    32
  0
VERTEX
  8
W71LXLIFT
 62
5
 10
1963.882
 20
-7765.335
 30
-1703.000
 70
    32
  0
VERTEX
  8
W71LXLIFT
 62
5
 10
1964.306
 20
-7780.426
 30
-1705.000
 70
    32
  0
VERTEX
  8
W71LXLIFT
 62
5
 10
1973.101
 20
-7794.805
 30
-1705.000
 70
    32
  0
VERTEX
  8
W71LXLIFT
 62
5
 10
1979.339
 20
-7797.967
 30
-1705.000
 70
    32
  0
VERTEX
  8
W71LXLIFT
 62
5
 10
1985.076
 20
-7797.620
 30
-1705.000
 70
    32
  0
VERTEX
  8
W71LXLIFT
 62
5
 10
1987.410
 20
-7791.340
 30
-1705.000
 70
    32
  0
VERTEX
  8
W71LXLIFT
 62
5
 10
2001.130
 20
-7790.743
 30
-1705.000
 70
    32
  0
VERTEX
  8
W71LXLIFT
 62
5
 10
2001.169
 20
-7805.411
 30
-1705.000
 70
    32
  0
VERTEX
  8
W71LXLIFT
 62
5
 10
2005.308
 20
-7819.116
 30
-1705.000
 70
    32
  0
VERTEX
  8
W71LXLIFT
 62
5
 10
2011.661
 20
-7821.745
 30
-1705.000
 70
    32
  0
VERTEX
  8
W71LXLIFT
 62
5
 10
2024.133
 20
-7846.300
 30
-1707.000
 70
    32
  0
VERTEX
  8
W71LXLIFT
 62
5
 10
2024.347
 20
-7854.298
 30
-1707.000
 70
    32
  0
VERTEX
  8
W71LXLIFT
 62
5
 10
2031.357
 20
-7867.626
 30
-1707.000
 70
    32
  0
VERTEX
  8
W71LXLIFT
 62
5
 10
2041.445
 20
-7876.169
 30
-1707.000
 70
    32
  0
SEQEND
  8
W71LXLIFT
  0
POLYLINE
  8
W71LXLIFT
 62
4
 66
     1
 70
     9
  0
VERTEX
  8
W71LXLIFT
 62
4
 10
1797.333
 20
-7101.438
 30
-1660.000
 70
    32
  0
VERTEX
  8
W71LXLIFT
 62
4
 10
1790.385
 20
-7086.633
 30
-1660.000
 70
    32
  0
VERTEX
  8
W71LXLIFT
 62
4
 10
1777.180
 20
-7060.851
 30
-1660.000
 70
    32
  0
VERTEX
  8
W71LXLIFT
 62
4
 10
1756.297
 20
-7022.411
 30
-1660.000
 70
    32
  0
VERTEX
  8
W71LXLIFT
 62
4
 10
1751.186
 20
-7002.934
 30
-1660.000
 70
    32
  0
VERTEX
  8
W71LXLIFT
 62
4
 10
1753.332
 20
-6989.497
 30
-1660.000
 70
    32
  0
VERTEX
  8
W71LXLIFT
 62
4
 10
1748.753
 20
-6974.830
 30
-1660.000
 70
    32
  0
VERTEX
  8
W71LXLIFT
 62
4
 10
1742.360
 20
-6952.812
 30
-1660.000
 70
    32
  0
VERTEX
  8
W71LXLIFT
 62
4
 10
1737.618
 20
-6919.984
 30
-1660.000
 70
    32
  0
VERTEX
  8
W71LXLIFT
 62
4
 10
1747.227
 20
-6914.385
 30
-1660.000
 70
    32
  0
VERTEX
  8
W71LXLIFT
 62
4
 10
1756.393
 20
-6956.692
 30
-1660.000
 70
    32
  0
VERTEX
  8
W71LXLIFT
 62
4
 10
1760.422
 20
-6963.210
 30
-1660.000
 70
    32
  0
VERTEX
  8
W71LXLIFT
 62
4
 10
1766.835
 20
-6998.517
 30
-1660.000
 70
    32
  0
VERTEX
  8
W71LXLIFT
 62
4
 10
1772.583
 20
-7015.265
 30
-1660.000
 70
    32
  0
VERTEX
  8
W71LXLIFT
 62
4
 10
1783.399
 20
-7037.569
 30
-1660.000
 70
    32
  0
VERTEX
  8
W71LXLIFT
 62
4
 10
1804.568
 20
-7098.408
 30
-1660.000
 70
    32
  0
SEQEND
  8
W71LXLIFT
  0
POLYLINE
  8
W71LXLIFT
 62
15
 66
     1
 70
     9
  0
VERTEX
  8
W71LXLIFT
 62
15
 10
1803.896
 20
-7122.862
 30
-1673.417
 70
    32
  0
VERTEX
  8
W71LXLIFT
 62
15
 10
1795.743
 20
-7091.861
 30
-1673.417
 70
    32
  0
VERTEX
  8
W71LXLIFT
 62
15
 10
1787.903
 20
-7073.202
 30
-1673.417
 70
    32
  0
VERTEX
  8
W71LXLIFT
 62
15
 10
1780.836
 20
-7062.865
 30
-1673.417
 70
    32
  0
VERTEX
  8
W71LXLIFT
 62
15
 10
1780.485
 20
-7062.397
 30
-1673.417
 70
    32
  0
VERTEX
  8
W71LXLIFT
 62
15
 10
1773.242
 20
-7046.724
 30
-1672.417
 70
    32
  0
VERTEX
  8
W71LXLIFT
 62
15
 10
1765.924
 20
-7024.957
 30
-1671.000
 70
    32
  0
VERTEX
  8
W71LXLIFT
 62
15
 10
1759.514
 20
-7006.534
 30
-1673.417
 70
    32
  0
VERTEX
  8
W71LXLIFT
 62
15
 10
1757.876
 20
-7001.139
 30
-1673.407
 70
    32
  0
VERTEX
  8
W71LXLIFT
 62
15
 10
1757.620
 20
-7000.632
 30
-1673.406
 70
    32
  0
VERTEX
  8
W71LXLIFT
 62
15
 10
1754.448
 20
-6992.197
 30
-1673.406
 70
    32
  0
VERTEX
  8
W71LXLIFT
 62
15
 10
1751.098
 20
-6967.245
 30
-1672.844
 70
    32
  0
VERTEX
  8
W71LXLIFT
 62
15
 10
1750.816
 20
-6944.887
 30
-1670.367
 70
    32
  0
VERTEX
  8
W71LXLIFT
 62
15
 10
1748.057
 20
-6926.845
 30
-1670.367
 70
    32
  0
VERTEX
  8
W71LXLIFT
 62
15
 10
1745.451
 20
-6904.652
 30
-1669.726
 70
    32
  0
VERTEX
  8
W71LXLIFT
 62
15
 10
1756.143
 20
-6902.783
 30
-1669.726
 70
    32
  0
VERTEX
  8
W71LXLIFT
 62
15
 10
1758.751
 20
-6916.661
 30
-1670.367
 70
    32
  0
VERTEX
  8
W71LXLIFT
 62
15
 10
1761.980
 20
-6948.862
 30
-1670.367
 70
    32
  0
VERTEX
  8
W71LXLIFT
 62
15
 10
1766.096
 20
-6970.525
 30
-1672.844
 70
    32
  0
VERTEX
  8
W71LXLIFT
 62
15
 10
1770.491
 20
-6984.209
 30
-1673.367
 70
    32
  0
VERTEX
  8
W71LXLIFT
 62
15
 10
1770.519
 20
-6984.871
 30
-1673.417
 70
    32
  0
VERTEX
  8
W71LXLIFT
 62
15
 10
1777.358
 20
-7002.873
 30
-1673.000
 70
    32
  0
VERTEX
  8
W71LXLIFT
 62
15
 10
1777.677
 20
-7003.713
 30
-1673.000
 70
    32
  0
VERTEX
  8
W71LXLIFT
 62
15
 10
1780.559
 20
-7019.467
 30
-1671.000
 70
    32
  0
VERTEX
  8
W71LXLIFT
 62
15
 10
1785.514
 20
-7039.875
 30
-1672.417
 70
    32
  0
VERTEX
  8
W71LXLIFT
 62
15
 10
1793.787
 20
-7056.082
 30
-1673.417
 70
    32
  0
VERTEX
  8
W71LXLIFT
 62
15
 10
1793.953
 20
-7056.284
 30
-1673.417
 70
    32
  0
VERTEX
  8
W71LXLIFT
 62
15
 10
1800.720
 20
-7073.832
 30
-1673.417
 70
    32
  0
VERTEX
  8
W71LXLIFT
 62
15
 10
1805.902
 20
-7090.548
 30
-1673.417
 70
    32
  0
VERTEX
  8
W71LXLIFT
 62
15
 10
1810.747
 20
-7107.050
 30
-1673.417
 70
    32
  0
SEQEND
  8
W71LXLIFT
  0
POLYLINE
  8
W71LXLIFT
 62
2
 66
     1
 70
     9
  0
VERTEX
  8
W71LXLIFT
 62
2
 10
1803.896
 20
-7122.862
 30
-1687.691
 70
    32
  0
VERTEX
  8
W71LXLIFT
 62
2
 10
1795.743
 20
-7091.861
 30
-1687.691
 70
    32
  0
VERTEX
  8
W71LXLIFT
 62
2
 10
1787.903
 20
-7073.202
 30
-1687.691
 70
    32
  0
VERTEX
  8
W71LXLIFT
 62
2
 10
1780.836
 20
-7062.865
 30
-1687.691
 70
    32
  0
VERTEX
  8
W71LXLIFT
 62
2
 10
1780.485
 20
-7062.397
 30
-1687.691
 70
    32
  0
VERTEX
  8
W71LXLIFT
 62
2
 10
1773.242
 20
-7046.724
 30
-1686.691
 70
    32
  0
VERTEX
  8
W71LXLIFT
 62
2
 10
1765.924
 20
-7024.957
 30
-1685.274
 70
    32
  0
VERTEX
  8
W71LXLIFT
 62
2
 10
1759.514
 20
-7006.534
 30
-1687.691
 70
    32
  0
VERTEX
  8
W71LXLIFT
 62
2
 10
1757.876
 20
-7001.139
 30
-1687.681
 70
    32
  0
VERTEX
  8
W71LXLIFT
 62
2
 10
1757.620
 20
-7000.632
 30
-1687.680
 70
    32
  0
VERTEX
  8
W71LXLIFT
 62
2
 10
1754.448
 20
-6992.197
 30
-1687.680
 70
    32
  0
VERTEX
  8
W71LXLIFT
 62
2
 10
1751.098
 20
-6967.245
 30
-1687.118
 70
    32
  0
VERTEX
  8
W71LXLIFT
 62
2
 10
1750.816
 20
-6944.887
 30
-1684.641
 70
    32
  0
VERTEX
  8
W71LXLIFT
 62
2
 10
1748.057
 20
-6926.845
 30
-1684.641
 70
    32
  0
VERTEX
  8
W71LXLIFT
 62
2
 10
1745.451
 20
-6904.652
 30
-1684.000
 70
    32
  0
VERTEX
  8
W71LXLIFT
 62
2
 10
1756.143
 20
-6902.783
 30
-1684.000
 70
    32
  0
VERTEX
  8
W71LXLIFT
 62
2
 10
1758.751
 20
-6916.661
 30
-1684.641
 70
    32
  0
VERTEX
  8
W71LXLIFT
 62
2
 10
1761.980
 20
-6948.862
 30
-1684.641
 70
    32
  0
VERTEX
  8
W71LXLIFT
 62
2
 10
1766.096
 20
-6970.525
 30
-1687.118
 70
    32
  0
VERTEX
  8
W71LXLIFT
 62
2
 10
1770.491
 20
-6984.209
 30
-1687.641
 70
    32
  0
VERTEX
  8
W71LXLIFT
 62
2
 10
1770.519
 20
-6984.871
 30
-1687.691
 70
    32
  0
VERTEX
  8
W71LXLIFT
 62
2
 10
1777.358
 20
-7002.873
 30
-1687.274
 70
    32
  0
VERTEX
  8
W71LXLIFT
 62
2
 10
1777.677
 20
-7003.713
 30
-1687.274
 70
    32
  0
VERTEX
  8
W71LXLIFT
 62
2
 10
1780.559
 20
-7019.467
 30
-1685.274
 70
    32
  0
VERTEX
  8
W71LXLIFT
 62
2
 10
1785.514
 20
-7039.875
 30
-1686.691
 70
    32
  0
VERTEX
  8
W71LXLIFT
 62
2
 10
1793.787
 20
-7056.082
 30
-1687.691
 70
    32
  0
VERTEX
  8
W71LXLIFT
 62
2
 10
1793.953
 20
-7056.284
 30
-1687.691
 70
    32
  0
VERTEX
  8
W71LXLIFT
 62
2
 10
1800.720
 20
-7073.832
 30
-1687.691
 70
    32
  0
VERTEX
  8
W71LXLIFT
 62
2
 10
1805.902
 20
-7090.548
 30
-1687.691
 70
    32
  0
VERTEX
  8
W71LXLIFT
 62
2
 10
1810.747
 20
-7107.050
 30
-1687.691
 70
    32
  0
SEQEND
  8
W71LXLIFT
  0
POLYLINE
  8
W71LXLIFT
 62
1
 66
     1
 70
     9
  0
VERTEX
  8
W71LXLIFT
 62
1
 10
1703.857
 20
-7128.653
 30
-1709.136
 70
    32
  0
VERTEX
  8
W71LXLIFT
 62
1
 10
1703.811
 20
-7122.045
 30
-1709.136
 70
    32
  0
VERTEX
  8
W71LXLIFT
 62
1
 10
1699.518
 20
-7111.277
 30
-1709.136
 70
    32
  0
VERTEX
  8
W71LXLIFT
 62
1
 10
1701.795
 20
-7100.878
 30
-1709.136
 70
    32
  0
VERTEX
  8
W71LXLIFT
 62
1
 10
1703.961
 20
-7094.331
 30
-1709.136
 70
    32
  0
VERTEX
  8
W71LXLIFT
 62
1
 10
1707.052
 20
-7088.994
 30
-1709.136
 70
    32
  0
VERTEX
  8
W71LXLIFT
 62
1
 10
1706.603
 20
-7081.007
 30
-1709.136
 70
    32
  0
VERTEX
  8
W71LXLIFT
 62
1
 10
1707.095
 20
-7078.980
 30
-1709.136
 70
    32
  0
VERTEX
  8
W71LXLIFT
 62
1
 10
1712.531
 20
-7071.009
 30
-1709.136
 70
    32
  0
VERTEX
  8
W71LXLIFT
 62
1
 10
1726.989
 20
-7079.870
 30
-1709.136
 70
    32
  0
VERTEX
  8
W71LXLIFT
 62
1
 10
1740.272
 20
-7091.590
 30
-1709.136
 70
    32
  0
VERTEX
  8
W71LXLIFT
 62
1
 10
1743.545
 20
-7108.219
 30
-1709.136
 70
    32
  0
VERTEX
  8
W71LXLIFT
 62
1
 10
1748.671
 20
-7111.066
 30
-1709.136
 70
    32
  0
VERTEX
  8
W71LXLIFT
 62
1
 10
1743.388
 20
-7124.808
 30
-1709.136
 70
    32
  0
VERTEX
  8
W71LXLIFT
 62
1
 10
1739.010
 20
-7131.801
 30
-1709.136
 70
    32
  0
VERTEX
  8
W71LXLIFT
 62
1
 10
1730.490
 20
-7136.978
 30
-1709.136
 70
    32
  0
VERTEX
  8
W71LXLIFT
 62
1
 10
1725.405
 20
-7130.588
 30
-1709.136
 70
    32
  0
SEQEND
  8
W71LXLIFT
  0
POLYLINE
  8
W71LXLIFT
 62
2
 66
     1
 70
     9
  0
VERTEX
  8
W71LXLIFT
 62
2
 10
1708.902
 20
-7155.675
 30
-1703.000
 70
    32
  0
VERTEX
  8
W71LXLIFT
 62
2
 10
1703.346
 20
-7144.057
 30
-1703.000
 70
    32
  0
VERTEX
  8
W71LXLIFT
 62
2
 10
1701.702
 20
-7134.714
 30
-1703.000
 70
    32
  0
VERTEX
  8
W71LXLIFT
 62
2
 10
1704.785
 20
-7128.087
 30
-1703.000
 70
    32
  0
VERTEX
  8
W71LXLIFT
 62
2
 10
1699.799
 20
-7111.254
 30
-1703.000
 70
    32
  0
VERTEX
  8
W71LXLIFT
 62
2
 10
1702.315
 20
-7100.384
 30
-1703.000
 70
    32
  0
VERTEX
  8
W71LXLIFT
 62
2
 10
1701.232
 20
-7092.380
 30
-1703.000
 70
    32
  0
VERTEX
  8
W71LXLIFT
 62
2
 10
1701.753
 20
-7073.321
 30
-1703.000
 70
    32
  0
VERTEX
  8
W71LXLIFT
 62
2
 10
1699.797
 20
-7072.907
 30
-1703.000
 70
    32
  0
VERTEX
  8
W71LXLIFT
 62
2
 10
1682.071
 20
-7062.820
 30
-1703.000
 70
    32
  0
VERTEX
  8
W71LXLIFT
 62
2
 10
1670.900
 20
-7053.675
 30
-1703.000
 70
    32
  0
VERTEX
  8
W71LXLIFT
 62
2
 10
1677.519
 20
-7044.028
 30
-1703.000
 70
    32
  0
VERTEX
  8
W71LXLIFT
 62
2
 10
1692.835
 20
-7056.906
 30
-1703.000
 70
    32
  0
VERTEX
  8
W71LXLIFT
 62
2
 10
1703.981
 20
-7059.360
 30
-1703.000
 70
    32
  0
VERTEX
  8
W71LXLIFT
 62
2
 10
1715.241
 20
-7071.122
 30
-1703.000
 70
    32
  0
VERTEX
  8
W71LXLIFT
 62
2
 10
1728.194
 20
-7078.786
 30
-1703.000
 70
    32
  0
VERTEX
  8
W71LXLIFT
 62
2
 10
1742.812
 20
-7085.878
 30
-1703.000
 70
    32
  0
VERTEX
  8
W71LXLIFT
 62
2
 10
1747.415
 20
-7122.853
 30
-1703.000
 70
    32
  0
VERTEX
  8
W71LXLIFT
 62
2
 10
1746.235
 20
-7128.457
 30
-1703.000
 70
    32
  0
VERTEX
  8
W71LXLIFT
 62
2
 10
1746.403
 20
-7137.589
 30
-1703.000
 70
    32
  0
VERTEX
  8
W71LXLIFT
 62
2
 10
1731.447
 20
-7140.357
 30
-1703.000
 70
    32
  0
VERTEX
  8
W71LXLIFT
 62
2
 10
1729.759
 20
-7135.635
 30
-1703.000
 70
    32
  0
VERTEX
  8
W71LXLIFT
 62
2
 10
1721.763
 20
-7138.262
 30
-1703.000
 70
    32
  0
VERTEX
  8
W71LXLIFT
 62
2
 10
1720.641
 20
-7149.461
 30
-1703.000
 70
    32
  0
SEQEND
  8
W71LXLIFT
  0
POLYLINE
  8
W71LXLIFT
 62
3
 66
     1
 70
     9
  0
VERTEX
  8
W71LXLIFT
 62
3
 10
1738.819
 20
-7167.524
 30
-1680.000
 70
    32
  0
VERTEX
  8
W71LXLIFT
 62
3
 10
1720.636
 20
-7146.389
 30
-1678.000
 70
    32
  0
VERTEX
  8
W71LXLIFT
 62
3
 10
1736.518
 20
-7132.586
 30
-1677.000
 70
    32
  0
VERTEX
  8
W71LXLIFT
 62
3
 10
1729.675
 20
-7111.951
 30
-1676.000
 70
    32
  0
VERTEX
  8
W71LXLIFT
 62
3
 10
1722.486
 20
-7081.960
 30
-1675.000
 70
    32
  0
VERTEX
  8
W71LXLIFT
 62
3
 10
1698.353
 20
-7030.289
 30
-1672.000
 70
    32
  0
VERTEX
  8
W71LXLIFT
 62
3
 10
1682.274
 20
-7009.137
 30
-1672.000
 70
    32
  0
VERTEX
  8
W71LXLIFT
 62
3
 10
1681.273
 20
-7005.264
 30
-1672.000
 70
    32
  0
VERTEX
  8
W71LXLIFT
 62
3
 10
1694.004
 20
-6986.171
 30
-1672.000
 70
    32
  0
VERTEX
  8
W71LXLIFT
 62
3
 10
1688.244
 20
-6977.462
 30
-1672.000
 70
    32
  0
VERTEX
  8
W71LXLIFT
 62
3
 10
1679.217
 20
-6986.494
 30
-1672.000
 70
    32
  0
VERTEX
  8
W71LXLIFT
 62
3
 10
1671.546
 20
-6988.766
 30
-1672.000
 70
    32
  0
VERTEX
  8
W71LXLIFT
 62
3
 10
1659.365
 20
-6969.019
 30
-1672.000
 70
    32
  0
VERTEX
  8
W71LXLIFT
 62
3
 10
1638.625
 20
-6982.349
 30
-1672.000
 70
    32
  0
VERTEX
  8
W71LXLIFT
 62
3
 10
1655.656
 20
-6997.962
 30
-1672.000
 70
    32
  0
VERTEX
  8
W71LXLIFT
 62
3
 10
1665.138
 20
-7004.115
 30
-1672.000
 70
    32
  0
VERTEX
  8
W71LXLIFT
 62
3
 10
1671.139
 20
-7026.391
 30
-1672.000
 70
    32
  0
VERTEX
  8
W71LXLIFT
 62
3
 10
1676.466
 20
-7046.798
 30
-1672.000
 70
    32
  0
VERTEX
  8
W71LXLIFT
 62
3
 10
1703.399
 20
-7111.347
 30
-1676.000
 70
    32
  0
VERTEX
  8
W71LXLIFT
 62
3
 10
1701.980
 20
-7128.177
 30
-1676.000
 70
    32
  0
VERTEX
  8
W71LXLIFT
 62
3
 10
1698.265
 20
-7133.651
 30
-1676.000
 70
    32
  0
VERTEX
  8
W71LXLIFT
 62
3
 10
1704.502
 20
-7149.743
 30
-1677.000
 70
    32
  0
VERTEX
  8
W71LXLIFT
 62
3
 10
1710.759
 20
-7154.455
 30
-1678.000
 70
    32
  0
VERTEX
  8
W71LXLIFT
 62
3
 10
1722.419
 20
-7169.159
 30
-1679.000
 70
    32
  0
VERTEX
  8
W71LXLIFT
 62
3
 10
1731.298
 20
-7175.475
 30
-1680.000
 70
    32
  0
SEQEND
  8
W71LXLIFT
  0
POLYLINE
  8
W71LXLIFT
 62
7
 66
     1
 70
     9
  0
VERTEX
  8
W71LXLIFT
 62
7
 10
1708.902
 20
-7155.675
 30
-1692.641
 70
    32
  0
VERTEX
  8
W71LXLIFT
 62
7
 10
1703.346
 20
-7144.057
 30
-1692.874
 70
    32
  0
VERTEX
  8
W71LXLIFT
 62
7
 10
1701.702
 20
-7134.714
 30
-1692.200
 70
    32
  0
VERTEX
  8
W71LXLIFT
 62
7
 10
1704.785
 20
-7128.087
 30
-1692.195
 70
    32
  0
VERTEX
  8
W71LXLIFT
 62
7
 10
1699.799
 20
-7111.254
 30
-1689.786
 70
    32
  0
VERTEX
  8
W71LXLIFT
 62
7
 10
1702.315
 20
-7100.384
 30
-1690.580
 70
    32
  0
VERTEX
  8
W71LXLIFT
 62
7
 10
1701.232
 20
-7092.380
 30
-1690.244
 70
    32
  0
VERTEX
  8
W71LXLIFT
 62
7
 10
1701.753
 20
-7073.321
 30
-1690.745
 70
    32
  0
VERTEX
  8
W71LXLIFT
 62
7
 10
1699.797
 20
-7072.907
 30
-1690.800
 70
    32
  0
VERTEX
  8
W71LXLIFT
 62
7
 10
1682.071
 20
-7062.820
 30
-1689.641
 70
    32
  0
VERTEX
  8
W71LXLIFT
 62
7
 10
1670.900
 20
-7053.675
 30
-1689.676
 70
    32
  0
VERTEX
  8
W71LXLIFT
 62
7
 10
1677.519
 20
-7044.028
 30
-1688.937
 70
    32
  0
VERTEX
  8
W71LXLIFT
 62
7
 10
1692.835
 20
-7056.906
 30
-1688.906
 70
    32
  0
VERTEX
  8
W71LXLIFT
 62
7
 10
1703.981
 20
-7059.360
 30
-1691.065
 70
    32
  0
VERTEX
  8
W71LXLIFT
 62
7
 10
1715.241
 20
-7071.122
 30
-1690.503
 70
    32
  0
VERTEX
  8
W71LXLIFT
 62
7
 10
1728.194
 20
-7078.786
 30
-1690.012
 70
    32
  0
VERTEX
  8
W71LXLIFT
 62
7
 10
1742.812
 20
-7085.878
 30
-1689.499
 70
    32
  0
VERTEX
  8
W71LXLIFT
 62
7
 10
1747.415
 20
-7122.853
 30
-1692.367
 70
    32
  0
VERTEX
  8
W71LXLIFT
 62
7
 10
1746.235
 20
-7128.457
 30
-1693.520
 70
    32
  0
VERTEX
  8
W71LXLIFT
 62
7
 10
1746.403
 20
-7137.589
 30
-1692.497
 70
    32
  0
VERTEX
  8
W71LXLIFT
 62
7
 10
1731.447
 20
-7140.357
 30
-1694.140
 70
    32
  0
VERTEX
  8
W71LXLIFT
 62
7
 10
1729.759
 20
-7135.635
 30
-1694.569
 70
    32
  0
VERTEX
  8
W71LXLIFT
 62
7
 10
1721.763
 20
-7138.262
 30
-1694.048
 70
    32
  0
VERTEX
  8
W71LXLIFT
 62
7
 10
1720.641
 20
-7149.461
 30
-1692.868
 70
    32
  0
SEQEND
  8
W71LXLIFT
  0
ENDSEC
  0
EOF
