999
********************************
999
*   DXF File - Entities Only   *
999
*        3D Data Format        *
999
*     Output from ENVISAGE     *
999
*     02-Jan-2008 11:27:17     *
999
********************************
  0
SECTION 
  2
HEADER
  9
$ACADVER
  1
AC1009
  9
$EXTMIN
 10
-290000.000
 20
-250000.000
 30
-4000.000
  9
$EXTMAX
 10
320000.000
 20
160000.000
 30
6000.000
  0
ENDSEC
  0
SECTION
  2
ENTITIES
  0
POLYLINE
  8
W71RSURC
 62
6
 66
     1
 70
     9
  0
VERTEX
  8
W71RSURC
 62
6
 10
1921.919
 20
-6955.225
 30
-1725.200
 70
    32
  0
VERTEX
  8
W71RSURC
 62
6
 10
1931.189
 20
-6958.211
 30
-1725.200
 70
    32
  0
VERTEX
  8
W71RSURC
 62
6
 10
1928.925
 20
-6968.098
 30
-1725.200
 70
    32
  0
VERTEX
  8
W71RSURC
 62
6
 10
1919.355
 20
-6964.852
 30
-1725.200
 70
    32
  0
SEQEND
  8
W71RSURC
  0
POLYLINE
  8
W71RSURC
 62
6
 66
     1
 70
     9
  0
VERTEX
  8
W71RSURC
 62
6
 10
1851.493
 20
-6952.346
 30
-1721.646
 70
    32
  0
VERTEX
  8
W71RSURC
 62
6
 10
1855.209
 20
-6969.217
 30
-1724.165
 70
    32
  0
VERTEX
  8
W71RSURC
 62
6
 10
1854.637
 20
-6979.899
 30
-1726.141
 70
    32
  0
VERTEX
  8
W71RSURC
 62
6
 10
1856.134
 20
-6982.703
 30
-1726.705
 70
    32
  0
VERTEX
  8
W71RSURC
 62
6
 10
1861.212
 20
-7009.899
 30
-1731.441
 70
    32
  0
VERTEX
  8
W71RSURC
 62
6
 10
1869.875
 20
-7048.771
 30
-1737.902
 70
    32
  0
VERTEX
  8
W71RSURC
 62
6
 10
1879.789
 20
-7064.614
 30
-1741.384
 70
    32
  0
VERTEX
  8
W71RSURC
 62
6
 10
1897.603
 20
-7110.080
 30
-1750.606
 70
    32
  0
VERTEX
  8
W71RSURC
 62
6
 10
1897.938
 20
-7129.894
 30
-1754.087
 70
    32
  0
VERTEX
  8
W71RSURC
 62
6
 10
1900.856
 20
-7141.658
 30
-1756.351
 70
    32
  0
VERTEX
  8
W71RSURC
 62
6
 10
1906.527
 20
-7142.232
 30
-1756.861
 70
    32
  0
VERTEX
  8
W71RSURC
 62
6
 10
1911.213
 20
-7139.933
 30
-1756.800
 70
    32
  0
VERTEX
  8
W71RSURC
 62
6
 10
1908.380
 20
-7131.334
 30
-1755.094
 70
    32
  0
VERTEX
  8
W71RSURC
 62
6
 10
1909.782
 20
-7130.800
 30
-1755.103
 70
    32
  0
VERTEX
  8
W71RSURC
 62
6
 10
1907.854
 20
-7119.939
 30
-1753.068
 70
    32
  0
VERTEX
  8
W71RSURC
 62
6
 10
1908.071
 20
-7107.396
 30
-1750.896
 70
    32
  0
VERTEX
  8
W71RSURC
 62
6
 10
1891.014
 20
-7063.583
 30
-1742.017
 70
    32
  0
VERTEX
  8
W71RSURC
 62
6
 10
1880.446
 20
-7042.132
 30
-1737.509
 70
    32
  0
VERTEX
  8
W71RSURC
 62
6
 10
1877.296
 20
-7034.926
 30
-1736.172
 70
    32
  0
VERTEX
  8
W71RSURC
 62
6
 10
1870.787
 20
-6997.316
 30
-1729.691
 70
    32
  0
VERTEX
  8
W71RSURC
 62
6
 10
1866.089
 20
-6978.068
 30
-1726.115
 70
    32
  0
VERTEX
  8
W71RSURC
 62
6
 10
1863.832
 20
-6960.259
 30
-1722.733
 70
    32
  0
VERTEX
  8
W71RSURC
 62
6
 10
1864.874
 20
-6957.090
 30
-1721.439
 70
    32
  0
SEQEND
  8
W71RSURC
  0
POLYLINE
  8
W71RSURC
 62
1
 66
     1
 70
     9
  0
VERTEX
  8
W71RSURC
 62
1
 10
1889.414
 20
-7084.062
 30
-1745.400
 70
    32
  0
VERTEX
  8
W71RSURC
 62
1
 10
1887.774
 20
-7084.823
 30
-1745.400
 70
    32
  0
VERTEX
  8
W71RSURC
 62
1
 10
1897.321
 20
-7109.710
 30
-1742.800
 70
    32
  0
VERTEX
  8
W71RSURC
 62
1
 10
1900.832
 20
-7128.761
 30
-1742.100
 70
    32
  0
VERTEX
  8
W71RSURC
 62
1
 10
1911.818
 20
-7125.190
 30
-1742.100
 70
    32
  0
VERTEX
  8
W71RSURC
 62
1
 10
1908.136
 20
-7107.187
 30
-1742.800
 70
    32
  0
VERTEX
  8
W71RSURC
 62
1
 10
1897.478
 20
-7080.323
 30
-1745.400
 70
    32
  0
VERTEX
  8
W71RSURC
 62
1
 10
1895.423
 20
-7081.276
 30
-1745.400
 70
    32
  0
SEQEND
  8
W71RSURC
  0
POLYLINE
  8
W71RSURC
 62
1
 66
     1
 70
     9
  0
VERTEX
  8
W71RSURC
 62
1
 10
1836.904
 20
-6890.125
 30
-1696.862
 70
    32
  0
VERTEX
  8
W71RSURC
 62
1
 10
1836.928
 20
-6892.338
 30
-1696.723
 70
    32
  0
VERTEX
  8
W71RSURC
 62
1
 10
1835.115
 20
-6902.777
 30
-1698.854
 70
    32
  0
VERTEX
  8
W71RSURC
 62
1
 10
1835.194
 20
-6907.574
 30
-1698.917
 70
    32
  0
VERTEX
  8
W71RSURC
 62
1
 10
1837.821
 20
-6917.313
 30
-1696.805
 70
    32
  0
VERTEX
  8
W71RSURC
 62
1
 10
1842.234
 20
-6925.512
 30
-1697.295
 70
    32
  0
VERTEX
  8
W71RSURC
 62
1
 10
1848.496
 20
-6933.111
 30
-1696.083
 70
    32
  0
VERTEX
  8
W71RSURC
 62
1
 10
1845.065
 20
-6934.875
 30
-1696.082
 70
    32
  0
VERTEX
  8
W71RSURC
 62
1
 10
1839.378
 20
-6936.851
 30
-1696.297
 70
    32
  0
VERTEX
  8
W71RSURC
 62
1
 10
1831.588
 20
-6939.347
 30
-1695.583
 70
    32
  0
VERTEX
  8
W71RSURC
 62
1
 10
1829.121
 20
-6938.833
 30
-1696.784
 70
    32
  0
VERTEX
  8
W71RSURC
 62
1
 10
1824.947
 20
-6936.805
 30
-1697.325
 70
    32
  0
VERTEX
  8
W71RSURC
 62
1
 10
1820.949
 20
-6935.408
 30
-1696.215
 70
    32
  0
VERTEX
  8
W71RSURC
 62
1
 10
1818.549
 20
-6934.059
 30
-1697.085
 70
    32
  0
VERTEX
  8
W71RSURC
 62
1
 10
1820.613
 20
-6923.315
 30
-1699.073
 70
    32
  0
VERTEX
  8
W71RSURC
 62
1
 10
1823.508
 20
-6914.873
 30
-1699.893
 70
    32
  0
VERTEX
  8
W71RSURC
 62
1
 10
1823.615
 20
-6908.957
 30
-1699.844
 70
    32
  0
VERTEX
  8
W71RSURC
 62
1
 10
1824.769
 20
-6903.806
 30
-1700.129
 70
    32
  0
VERTEX
  8
W71RSURC
 62
1
 10
1819.210
 20
-6900.968
 30
-1700.507
 70
    32
  0
SEQEND
  8
W71RSURC
  0
POLYLINE
  8
W71RSURC
 62
1
 66
     1
 70
     9
  0
VERTEX
  8
W71RSURC
 62
1
 10
1920.646
 20
-6696.283
 30
-1791.933
 70
    32
  0
VERTEX
  8
W71RSURC
 62
1
 10
1918.839
 20
-6694.005
 30
-1790.739
 70
    32
  0
VERTEX
  8
W71RSURC
 62
1
 10
1905.274
 20
-6679.764
 30
-1787.180
 70
    32
  0
VERTEX
  8
W71RSURC
 62
1
 10
1897.555
 20
-6671.652
 30
-1785.813
 70
    32
  0
VERTEX
  8
W71RSURC
 62
1
 10
1894.282
 20
-6666.592
 30
-1784.336
 70
    32
  0
VERTEX
  8
W71RSURC
 62
1
 10
1882.835
 20
-6654.396
 30
-1782.648
 70
    32
  0
VERTEX
  8
W71RSURC
 62
1
 10
1864.472
 20
-6633.482
 30
-1779.743
 70
    32
  0
VERTEX
  8
W71RSURC
 62
1
 10
1871.146
 20
-6623.880
 30
-1779.030
 70
    32
  0
VERTEX
  8
W71RSURC
 62
1
 10
1878.360
 20
-6630.677
 30
-1779.575
 70
    32
  0
VERTEX
  8
W71RSURC
 62
1
 10
1890.525
 20
-6643.515
 30
-1783.174
 70
    32
  0
VERTEX
  8
W71RSURC
 62
1
 10
1897.993
 20
-6645.945
 30
-1783.224
 70
    32
  0
VERTEX
  8
W71RSURC
 62
1
 10
1913.700
 20
-6631.411
 30
-1783.606
 70
    32
  0
VERTEX
  8
W71RSURC
 62
1
 10
1934.031
 20
-6608.320
 30
-1780.685
 70
    32
  0
VERTEX
  8
W71RSURC
 62
1
 10
1945.758
 20
-6620.993
 30
-1780.572
 70
    32
  0
VERTEX
  8
W71RSURC
 62
1
 10
1926.394
 20
-6635.820
 30
-1783.247
 70
    32
  0
VERTEX
  8
W71RSURC
 62
1
 10
1911.149
 20
-6655.567
 30
-1784.501
 70
    32
  0
VERTEX
  8
W71RSURC
 62
1
 10
1910.139
 20
-6658.476
 30
-1786.713
 70
    32
  0
VERTEX
  8
W71RSURC
 62
1
 10
1913.162
 20
-6668.265
 30
-1787.748
 70
    32
  0
VERTEX
  8
W71RSURC
 62
1
 10
1922.930
 20
-6678.686
 30
-1788.866
 70
    32
  0
VERTEX
  8
W71RSURC
 62
1
 10
1931.528
 20
-6689.980
 30
-1792.435
 70
    32
  0
SEQEND
  8
W71RSURC
  0
POLYLINE
  8
W71RSURC
 62
1
 66
     1
 70
     9
  0
VERTEX
  8
W71RSURC
 62
1
 10
2374.548
 20
-9176.985
 30
-1733.759
 70
    32
  0
VERTEX
  8
W71RSURC
 62
1
 10
2374.927
 20
-9176.930
 30
-1734.306
 70
    32
  0
VERTEX
  8
W71RSURC
 62
1
 10
2368.033
 20
-9165.391
 30
-1734.708
 70
    32
  0
VERTEX
  8
W71RSURC
 62
1
 10
2364.441
 20
-9148.746
 30
-1733.751
 70
    32
  0
VERTEX
  8
W71RSURC
 62
1
 10
2363.304
 20
-9137.458
 30
-1732.929
 70
    32
  0
VERTEX
  8
W71RSURC
 62
1
 10
2359.983
 20
-9138.283
 30
-1732.929
 70
    32
  0
VERTEX
  8
W71RSURC
 62
1
 10
2356.389
 20
-9135.058
 30
-1732.426
 70
    32
  0
VERTEX
  8
W71RSURC
 62
1
 10
2346.948
 20
-9142.288
 30
-1734.094
 70
    32
  0
VERTEX
  8
W71RSURC
 62
1
 10
2344.929
 20
-9144.409
 30
-1733.826
 70
    32
  0
VERTEX
  8
W71RSURC
 62
1
 10
2343.120
 20
-9144.438
 30
-1733.964
 70
    32
  0
VERTEX
  8
W71RSURC
 62
1
 10
2349.085
 20
-9158.705
 30
-1734.422
 70
    32
  0
VERTEX
  8
W71RSURC
 62
1
 10
2350.445
 20
-9162.785
 30
-1733.730
 70
    32
  0
VERTEX
  8
W71RSURC
 62
1
 10
2352.927
 20
-9177.723
 30
-1734.330
 70
    32
  0
VERTEX
  8
W71RSURC
 62
1
 10
2360.838
 20
-9185.609
 30
-1734.630
 70
    32
  0
VERTEX
  8
W71RSURC
 62
1
 10
2365.184
 20
-9192.404
 30
-1736.255
 70
    32
  0
VERTEX
  8
W71RSURC
 62
1
 10
2371.114
 20
-9199.840
 30
-1737.995
 70
    32
  0
VERTEX
  8
W71RSURC
 62
1
 10
2369.002
 20
-9208.248
 30
-1737.287
 70
    32
  0
VERTEX
  8
W71RSURC
 62
1
 10
2370.449
 20
-9219.830
 30
-1740.813
 70
    32
  0
VERTEX
  8
W71RSURC
 62
1
 10
2373.909
 20
-9230.181
 30
-1742.326
 70
    32
  0
VERTEX
  8
W71RSURC
 62
1
 10
2385.281
 20
-9231.284
 30
-1741.964
 70
    32
  0
VERTEX
  8
W71RSURC
 62
1
 10
2380.535
 20
-9210.820
 30
-1737.540
 70
    32
  0
VERTEX
  8
W71RSURC
 62
1
 10
2381.432
 20
-9204.977
 30
-1738.479
 70
    32
  0
VERTEX
  8
W71RSURC
 62
1
 10
2385.385
 20
-9206.531
 30
-1738.296
 70
    32
  0
VERTEX
  8
W71RSURC
 62
1
 10
2390.371
 20
-9214.169
 30
-1738.950
 70
    32
  0
VERTEX
  8
W71RSURC
 62
1
 10
2392.931
 20
-9221.509
 30
-1740.106
 70
    32
  0
VERTEX
  8
W71RSURC
 62
1
 10
2397.964
 20
-9230.462
 30
-1742.360
 70
    32
  0
VERTEX
  8
W71RSURC
 62
1
 10
2398.509
 20
-9230.930
 30
-1742.233
 70
    32
  0
VERTEX
  8
W71RSURC
 62
1
 10
2402.295
 20
-9240.143
 30
-1744.078
 70
    32
  0
VERTEX
  8
W71RSURC
 62
1
 10
2413.718
 20
-9267.702
 30
-1745.902
 70
    32
  0
VERTEX
  8
W71RSURC
 62
1
 10
2425.755
 20
-9260.912
 30
-1745.936
 70
    32
  0
VERTEX
  8
W71RSURC
 62
1
 10
2412.620
 20
-9230.383
 30
-1743.810
 70
    32
  0
VERTEX
  8
W71RSURC
 62
1
 10
2407.550
 20
-9225.062
 30
-1741.936
 70
    32
  0
VERTEX
  8
W71RSURC
 62
1
 10
2399.097
 20
-9203.875
 30
-1737.516
 70
    32
  0
VERTEX
  8
W71RSURC
 62
1
 10
2400.421
 20
-9203.549
 30
-1737.511
 70
    32
  0
VERTEX
  8
W71RSURC
 62
1
 10
2397.757
 20
-9193.485
 30
-1734.837
 70
    32
  0
VERTEX
  8
W71RSURC
 62
1
 10
2395.279
 20
-9180.753
 30
-1732.304
 70
    32
  0
VERTEX
  8
W71RSURC
 62
1
 10
2396.801
 20
-9173.095
 30
-1730.596
 70
    32
  0
VERTEX
  8
W71RSURC
 62
1
 10
2381.261
 20
-9185.621
 30
-1731.229
 70
    32
  0
VERTEX
  8
W71RSURC
 62
1
 10
2378.210
 20
-9190.556
 30
-1731.861
 70
    32
  0
VERTEX
  8
W71RSURC
 62
1
 10
2370.073
 20
-9183.565
 30
-1732.494
 70
    32
  0
VERTEX
  8
W71RSURC
 62
1
 10
2373.531
 20
-9179.247
 30
-1733.127
 70
    32
  0
SEQEND
  8
W71RSURC
  0
POLYLINE
  8
W71RSURC
 62
1
 66
     1
 70
     9
  0
VERTEX
  8
W71RSURC
 62
1
 10
1307.472
 20
-6536.016
 30
-1812.904
 70
    32
  0
VERTEX
  8
W71RSURC
 62
1
 10
1297.528
 20
-6520.894
 30
-1813.680
 70
    32
  0
VERTEX
  8
W71RSURC
 62
1
 10
1291.754
 20
-6512.511
 30
-1810.763
 70
    32
  0
VERTEX
  8
W71RSURC
 62
1
 10
1281.242
 20
-6495.331
 30
-1807.380
 70
    32
  0
VERTEX
  8
W71RSURC
 62
1
 10
1272.497
 20
-6483.861
 30
-1803.946
 70
    32
  0
VERTEX
  8
W71RSURC
 62
1
 10
1271.458
 20
-6480.608
 30
-1802.734
 70
    32
  0
VERTEX
  8
W71RSURC
 62
1
 10
1262.737
 20
-6475.920
 30
-1800.925
 70
    32
  0
VERTEX
  8
W71RSURC
 62
1
 10
1259.292
 20
-6468.213
 30
-1796.982
 70
    32
  0
VERTEX
  8
W71RSURC
 62
1
 10
1253.610
 20
-6458.891
 30
-1795.031
 70
    32
  0
VERTEX
  8
W71RSURC
 62
1
 10
1248.353
 20
-6455.829
 30
-1795.010
 70
    32
  0
VERTEX
  8
W71RSURC
 62
1
 10
1239.636
 20
-6440.461
 30
-1790.182
 70
    32
  0
VERTEX
  8
W71RSURC
 62
1
 10
1237.913
 20
-6435.581
 30
-1786.576
 70
    32
  0
VERTEX
  8
W71RSURC
 62
1
 10
1234.285
 20
-6422.559
 30
-1784.920
 70
    32
  0
VERTEX
  8
W71RSURC
 62
1
 10
1231.074
 20
-6411.061
 30
-1781.837
 70
    32
  0
VERTEX
  8
W71RSURC
 62
1
 10
1230.023
 20
-6399.220
 30
-1779.791
 70
    32
  0
VERTEX
  8
W71RSURC
 62
1
 10
1218.454
 20
-6403.911
 30
-1779.791
 70
    32
  0
VERTEX
  8
W71RSURC
 62
1
 10
1218.292
 20
-6411.308
 30
-1782.512
 70
    32
  0
VERTEX
  8
W71RSURC
 62
1
 10
1220.377
 20
-6423.186
 30
-1785.258
 70
    32
  0
VERTEX
  8
W71RSURC
 62
1
 10
1220.803
 20
-6430.344
 30
-1784.533
 70
    32
  0
VERTEX
  8
W71RSURC
 62
1
 10
1224.141
 20
-6437.928
 30
-1786.915
 70
    32
  0
VERTEX
  8
W71RSURC
 62
1
 10
1232.866
 20
-6454.410
 30
-1790.924
 70
    32
  0
VERTEX
  8
W71RSURC
 62
1
 10
1249.019
 20
-6479.162
 30
-1800.932
 70
    32
  0
VERTEX
  8
W71RSURC
 62
1
 10
1259.298
 20
-6490.312
 30
-1803.798
 70
    32
  0
VERTEX
  8
W71RSURC
 62
1
 10
1271.863
 20
-6501.330
 30
-1808.429
 70
    32
  0
VERTEX
  8
W71RSURC
 62
1
 10
1281.344
 20
-6518.319
 30
-1811.094
 70
    32
  0
VERTEX
  8
W71RSURC
 62
1
 10
1287.350
 20
-6529.640
 30
-1813.595
 70
    32
  0
VERTEX
  8
W71RSURC
 62
1
 10
1295.550
 20
-6543.441
 30
-1814.330
 70
    32
  0
SEQEND
  8
W71RSURC
  0
POLYLINE
  8
W71RSURC
 62
1
 66
     1
 70
     9
  0
VERTEX
  8
W71RSURC
 62
1
 10
1276.195
 20
-6488.517
 30
-1803.048
 70
    32
  0
VERTEX
  8
W71RSURC
 62
1
 10
1271.881
 20
-6480.393
 30
-1802.350
 70
    32
  0
VERTEX
  8
W71RSURC
 62
1
 10
1273.631
 20
-6474.961
 30
-1801.773
 70
    32
  0
VERTEX
  8
W71RSURC
 62
1
 10
1270.946
 20
-6472.297
 30
-1800.630
 70
    32
  0
VERTEX
  8
W71RSURC
 62
1
 10
1269.591
 20
-6458.804
 30
-1799.487
 70
    32
  0
VERTEX
  8
W71RSURC
 62
1
 10
1265.948
 20
-6456.510
 30
-1798.343
 70
    32
  0
VERTEX
  8
W71RSURC
 62
1
 10
1260.483
 20
-6453.527
 30
-1797.200
 70
    32
  0
VERTEX
  8
W71RSURC
 62
1
 10
1258.528
 20
-6460.432
 30
-1795.061
 70
    32
  0
VERTEX
  8
W71RSURC
 62
1
 10
1252.667
 20
-6456.242
 30
-1792.860
 70
    32
  0
VERTEX
  8
W71RSURC
 62
1
 10
1250.761
 20
-6455.958
 30
-1794.880
 70
    32
  0
VERTEX
  8
W71RSURC
 62
1
 10
1245.681
 20
-6450.889
 30
-1793.750
 70
    32
  0
VERTEX
  8
W71RSURC
 62
1
 10
1248.414
 20
-6456.166
 30
-1795.078
 70
    32
  0
VERTEX
  8
W71RSURC
 62
1
 10
1253.423
 20
-6459.034
 30
-1796.406
 70
    32
  0
VERTEX
  8
W71RSURC
 62
1
 10
1256.725
 20
-6464.311
 30
-1797.735
 70
    32
  0
VERTEX
  8
W71RSURC
 62
1
 10
1258.661
 20
-6467.409
 30
-1799.063
 70
    32
  0
VERTEX
  8
W71RSURC
 62
1
 10
1262.760
 20
-6476.128
 30
-1800.391
 70
    32
  0
VERTEX
  8
W71RSURC
 62
1
 10
1271.300
 20
-6480.717
 30
-1801.720
 70
    32
  0
SEQEND
  8
W71RSURC
  0
POLYLINE
  8
W71RSURC
 62
3
 66
     1
 70
     9
  0
VERTEX
  8
W71RSURC
 62
3
 10
2379.265
 20
-9215.109
 30
1000.000
 70
    32
  0
VERTEX
  8
W71RSURC
 62
3
 10
2394.588
 20
-9211.712
 30
1000.000
 70
    32
  0
VERTEX
  8
W71RSURC
 62
3
 10
2394.301
 20
-9289.865
 30
1000.000
 70
    32
  0
VERTEX
  8
W71RSURC
 62
3
 10
2383.522
 20
-9291.280
 30
1000.000
 70
    32
  0
VERTEX
  8
W71RSURC
 62
3
 10
2386.359
 20
-9276.274
 30
1000.000
 70
    32
  0
VERTEX
  8
W71RSURC
 62
3
 10
2383.803
 20
-9258.999
 30
1000.000
 70
    32
  0
VERTEX
  8
W71RSURC
 62
3
 10
2385.792
 20
-9246.256
 30
1000.000
 70
    32
  0
VERTEX
  8
W71RSURC
 62
3
 10
2382.955
 20
-9230.969
 30
1000.000
 70
    32
  0
VERTEX
  8
W71RSURC
 62
3
 10
2380.399
 20
-9216.525
 30
1000.000
 70
    32
  0
SEQEND
  8
W71RSURC
  0
POLYLINE
  8
W71RSURC
 62
3
 66
     1
 70
     9
  0
VERTEX
  8
W71RSURC
 62
3
 10
2394.021
 20
-9290.152
 30
1000.000
 70
    32
  0
VERTEX
  8
W71RSURC
 62
3
 10
2397.424
 20
-9297.508
 30
1000.000
 70
    32
  0
VERTEX
  8
W71RSURC
 62
3
 10
2398.272
 20
-9307.140
 30
1000.000
 70
    32
  0
VERTEX
  8
W71RSURC
 62
3
 10
2400.541
 20
-9319.029
 30
1000.000
 70
    32
  0
VERTEX
  8
W71RSURC
 62
3
 10
2408.770
 20
-9343.100
 30
1000.000
 70
    32
  0
VERTEX
  8
W71RSURC
 62
3
 10
2433.164
 20
-9379.626
 30
1000.000
 70
    32
  0
VERTEX
  8
W71RSURC
 62
3
 10
2444.224
 20
-9390.673
 30
1000.000
 70
    32
  0
VERTEX
  8
W71RSURC
 62
3
 10
2437.416
 20
-9403.978
 30
1000.000
 70
    32
  0
VERTEX
  8
W71RSURC
 62
3
 10
2425.503
 20
-9399.451
 30
1000.000
 70
    32
  0
VERTEX
  8
W71RSURC
 62
3
 10
2410.753
 20
-9388.691
 30
1000.000
 70
    32
  0
VERTEX
  8
W71RSURC
 62
3
 10
2399.974
 20
-9371.696
 30
1000.000
 70
    32
  0
VERTEX
  8
W71RSURC
 62
3
 10
2390.897
 20
-9364.620
 30
1000.000
 70
    32
  0
VERTEX
  8
W71RSURC
 62
3
 10
2388.628
 20
-9361.223
 30
1000.000
 70
    32
  0
VERTEX
  8
W71RSURC
 62
3
 10
2382.101
 20
-9343.667
 30
1000.000
 70
    32
  0
VERTEX
  8
W71RSURC
 62
3
 10
2377.850
 20
-9333.474
 30
1000.000
 70
    32
  0
VERTEX
  8
W71RSURC
 62
3
 10
2376.715
 20
-9319.596
 30
1000.000
 70
    32
  0
VERTEX
  8
W71RSURC
 62
3
 10
2375.861
 20
-9314.216
 30
1000.000
 70
    32
  0
VERTEX
  8
W71RSURC
 62
3
 10
2381.534
 20
-9301.760
 30
1000.000
 70
    32
  0
VERTEX
  8
W71RSURC
 62
3
 10
2384.090
 20
-9291.567
 30
1000.000
 70
    32
  0
VERTEX
  8
W71RSURC
 62
3
 10
2392.599
 20
-9290.999
 30
1000.000
 70
    32
  0
SEQEND
  8
W71RSURC
  0
TEXT
  8
W71RSURC
 62
1
 10
2425.503
 20
-9291.280
 30
1000.000
 40
1.575
  1
13A 19L 7100
 50
-0.658
 41
 1.0 
  0
TEXT
  8
W71RSURC
 62
1
 10
2425.789
 20
-9295.245
 30
1000.000
 40
1.575
  1
804 SQ' ACCESS
 50
-0.872
 41
 1.0 
  0
TEXT
  8
W71RSURC
 62
1
 10
2425.789
 20
-9298.075
 30
1000.000
 40
1.575
  1
X 6' BACK
 50
-0.793
 41
 1.0 
  0
TEXT
  8
W71RSURC
 62
1
 10
2424.655
 20
-9300.625
 30
1000.000
 40
1.575
  1
4824 CU' ACCESS
 50
-0.736
 41
 1.0 
  0
TEXT
  8
W71RSURC
 62
1
 10
2425.789
 20
-9304.871
 30
1000.000
 40
1.575
  1
2784 SQ'
 50
-0.666
 41
 1.0 
  0
TEXT
  8
W71RSURC
 62
1
 10
2425.789
 20
-9308.555
 30
1000.000
 40
1.575
  1
X 11' BACK
 50
-0.929
 41
 1.0 
  0
TEXT
  8
W71RSURC
 62
1
 10
2425.222
 20
-9310.251
 30
1000.000
 40
1.575
  1
-------
 50
-0.905
 41
 1.0 
  0
TEXT
  8
W71RSURC
 62
1
 10
2424.368
 20
-9313.368
 30
1000.000
 40
1.575
  1
30624 CU' ORE
 50
-1.613
 41
 1.0 
  0
ENDSEC
  0
EOF
