999
********************************
999
*   DXF File - Entities Only   *
999
*        3D Data Format        *
999
*     Output from ENVISAGE     *
999
*     02-Jan-2008 11:27:43     *
999
********************************
  0
SECTION 
  2
HEADER
  9
$ACADVER
  1
AC1009
  9
$EXTMIN
 10
-290000.000
 20
-250000.000
 30
-4000.000
  9
$EXTMAX
 10
320000.000
 20
160000.000
 30
6000.000
  0
ENDSEC
  0
SECTION
  2
ENTITIES
  0
POLYLINE
  8
W71XLIFTS
 62
3
 66
     1
 70
     9
  0
VERTEX
  8
W71XLIFTS
 62
3
 10
2070.065
 20
-7995.999
 30
-1712.469
 70
    32
  0
VERTEX
  8
W71XLIFTS
 62
3
 10
2066.375
 20
-8000.406
 30
-1712.473
 70
    32
  0
VERTEX
  8
W71XLIFTS
 62
3
 10
2060.240
 20
-8000.632
 30
-1712.246
 70
    32
  0
VERTEX
  8
W71XLIFTS
 62
3
 10
2055.942
 20
-7987.905
 30
-1711.585
 70
    32
  0
VERTEX
  8
W71XLIFTS
 62
3
 10
2050.660
 20
-7978.995
 30
-1711.094
 70
    32
  0
VERTEX
  8
W71XLIFTS
 62
3
 10
2051.274
 20
-7964.602
 30
-1710.618
 70
    32
  0
VERTEX
  8
W71XLIFTS
 62
3
 10
2041.697
 20
-7911.377
 30
-1709.854
 70
    32
  0
VERTEX
  8
W71XLIFTS
 62
3
 10
2033.406
 20
-7896.760
 30
-1709.641
 70
    32
  0
VERTEX
  8
W71XLIFTS
 62
3
 10
2032.730
 20
-7888.132
 30
-1709.520
 70
    32
  0
VERTEX
  8
W71XLIFTS
 62
3
 10
2026.097
 20
-7882.143
 30
-1709.520
 70
    32
  0
VERTEX
  8
W71XLIFTS
 62
3
 10
2026.097
 20
-7877.829
 30
-1709.520
 70
    32
  0
VERTEX
  8
W71XLIFTS
 62
3
 10
2016.453
 20
-7871.856
 30
-1709.520
 70
    32
  0
VERTEX
  8
W71XLIFTS
 62
3
 10
2014.795
 20
-7868.190
 30
-1709.520
 70
    32
  0
VERTEX
  8
W71XLIFTS
 62
3
 10
2006.831
 20
-7862.549
 30
-1709.520
 70
    32
  0
VERTEX
  8
W71XLIFTS
 62
3
 10
2005.500
 20
-7856.907
 30
-1709.520
 70
    32
  0
VERTEX
  8
W71XLIFTS
 62
3
 10
1995.202
 20
-7852.909
 30
-1709.520
 70
    32
  0
VERTEX
  8
W71XLIFTS
 62
3
 10
1994.199
 20
-7844.945
 30
-1709.520
 70
    32
  0
VERTEX
  8
W71XLIFTS
 62
3
 10
1996.860
 20
-7840.631
 30
-1709.520
 70
    32
  0
VERTEX
  8
W71XLIFTS
 62
3
 10
1998.846
 20
-7830.328
 30
-1709.520
 70
    32
  0
VERTEX
  8
W71XLIFTS
 62
3
 10
2006.155
 20
-7827.010
 30
-1709.520
 70
    32
  0
VERTEX
  8
W71XLIFTS
 62
3
 10
2010.148
 20
-7829.665
 30
-1709.520
 70
    32
  0
VERTEX
  8
W71XLIFTS
 62
3
 10
2015.799
 20
-7828.337
 30
-1709.520
 70
    32
  0
VERTEX
  8
W71XLIFTS
 62
3
 10
2023.435
 20
-7841.959
 30
-1709.520
 70
    32
  0
VERTEX
  8
W71XLIFTS
 62
3
 10
2024.090
 20
-7854.584
 30
-1709.520
 70
    32
  0
VERTEX
  8
W71XLIFTS
 62
3
 10
2031.399
 20
-7867.526
 30
-1709.520
 70
    32
  0
VERTEX
  8
W71XLIFTS
 62
3
 10
2039.384
 20
-7869.865
 30
-1709.520
 70
    32
  0
VERTEX
  8
W71XLIFTS
 62
3
 10
2042.024
 20
-7874.179
 30
-1709.520
 70
    32
  0
VERTEX
  8
W71XLIFTS
 62
3
 10
2051.995
 20
-7876.170
 30
-1709.520
 70
    32
  0
VERTEX
  8
W71XLIFTS
 62
3
 10
2083.566
 20
-7875.506
 30
-1709.520
 70
    32
  0
VERTEX
  8
W71XLIFTS
 62
3
 10
2088.213
 20
-7882.807
 30
-1709.520
 70
    32
  0
VERTEX
  8
W71XLIFTS
 62
3
 10
2092.184
 20
-7883.139
 30
-1709.520
 70
    32
  0
VERTEX
  8
W71XLIFTS
 62
3
 10
2098.162
 20
-7887.469
 30
-1709.520
 70
    32
  0
VERTEX
  8
W71XLIFTS
 62
3
 10
2095.522
 20
-7898.751
 30
-1709.520
 70
    32
  0
VERTEX
  8
W71XLIFTS
 62
3
 10
2116.446
 20
-7922.012
 30
-1709.520
 70
    32
  0
VERTEX
  8
W71XLIFTS
 62
3
 10
2111.799
 20
-7925.994
 30
-1709.520
 70
    32
  0
VERTEX
  8
W71XLIFTS
 62
3
 10
2102.155
 20
-7930.656
 30
-1709.520
 70
    32
  0
VERTEX
  8
W71XLIFTS
 62
3
 10
2080.228
 20
-7904.076
 30
-1709.520
 70
    32
  0
VERTEX
  8
W71XLIFTS
 62
3
 10
2074.577
 20
-7900.426
 30
-1709.520
 70
    32
  0
VERTEX
  8
W71XLIFTS
 62
3
 10
2059.387
 20
-7898.119
 30
-1709.520
 70
    32
  0
VERTEX
  8
W71XLIFTS
 62
3
 10
2057.786
 20
-7900.810
 30
-1709.520
 70
    32
  0
VERTEX
  8
W71XLIFTS
 62
3
 10
2059.969
 20
-7931.810
 30
-1710.172
 70
    32
  0
VERTEX
  8
W71XLIFTS
 62
3
 10
2063.384
 20
-7947.589
 30
-1710.493
 70
    32
  0
VERTEX
  8
W71XLIFTS
 62
3
 10
2073.215
 20
-7950.063
 30
-1710.670
 70
    32
  0
VERTEX
  8
W71XLIFTS
 62
3
 10
2081.623
 20
-7962.995
 30
-1711.419
 70
    32
  0
VERTEX
  8
W71XLIFTS
 62
3
 10
2078.713
 20
-7968.571
 30
-1711.625
 70
    32
  0
VERTEX
  8
W71XLIFTS
 62
3
 10
2079.640
 20
-7986.443
 30
-1712.518
 70
    32
  0
VERTEX
  8
W71XLIFTS
 62
3
 10
2080.818
 20
-7988.473
 30
-1712.626
 70
    32
  0
SEQEND
  8
W71XLIFTS
  0
POLYLINE
  8
W71XLIFTS
 62
6
 66
     1
 70
     9
  0
VERTEX
  8
W71XLIFTS
 62
6
 10
1813.672
 20
-7096.887
 30
-1780.621
 70
    32
  0
VERTEX
  8
W71XLIFTS
 62
6
 10
1815.037
 20
-7096.594
 30
-1780.548
 70
    32
  0
VERTEX
  8
W71XLIFTS
 62
6
 10
1824.378
 20
-7115.867
 30
-1781.564
 70
    32
  0
VERTEX
  8
W71XLIFTS
 62
6
 10
1833.428
 20
-7130.354
 30
-1781.332
 70
    32
  0
VERTEX
  8
W71XLIFTS
 62
6
 10
1839.012
 20
-7137.509
 30
-1781.065
 70
    32
  0
VERTEX
  8
W71XLIFTS
 62
6
 10
1846.128
 20
-7136.171
 30
-1780.586
 70
    32
  0
VERTEX
  8
W71XLIFTS
 62
6
 10
1857.147
 20
-7131.029
 30
-1779.911
 70
    32
  0
VERTEX
  8
W71XLIFTS
 62
6
 10
1870.131
 20
-7120.213
 30
-1779.295
 70
    32
  0
VERTEX
  8
W71XLIFTS
 62
6
 10
1861.819
 20
-7094.150
 30
-1778.080
 70
    32
  0
VERTEX
  8
W71XLIFTS
 62
6
 10
1848.865
 20
-7075.787
 30
-1777.040
 70
    32
  0
VERTEX
  8
W71XLIFTS
 62
6
 10
1841.603
 20
-7062.642
 30
-1777.040
 70
    32
  0
VERTEX
  8
W71XLIFTS
 62
6
 10
1830.847
 20
-7051.819
 30
-1777.040
 70
    32
  0
VERTEX
  8
W71XLIFTS
 62
6
 10
1815.569
 20
-7048.000
 30
-1777.040
 70
    32
  0
VERTEX
  8
W71XLIFTS
 62
6
 10
1807.393
 20
-7043.708
 30
-1777.040
 70
    32
  0
VERTEX
  8
W71XLIFTS
 62
6
 10
1795.513
 20
-7047.576
 30
-1777.040
 70
    32
  0
VERTEX
  8
W71XLIFTS
 62
6
 10
1788.282
 20
-7057.486
 30
-1777.040
 70
    32
  0
VERTEX
  8
W71XLIFTS
 62
6
 10
1801.393
 20
-7072.409
 30
-1777.364
 70
    32
  0
VERTEX
  8
W71XLIFTS
 62
6
 10
1800.544
 20
-7075.543
 30
-1777.818
 70
    32
  0
SEQEND
  8
W71XLIFTS
  0
POLYLINE
  8
W71XLIFTS
 62
4
 66
     1
 70
     9
  0
VERTEX
  8
W71XLIFTS
 62
4
 10
1939.280
 20
-6863.507
 30
-1680.275
 70
    32
  0
VERTEX
  8
W71XLIFTS
 62
4
 10
1949.411
 20
-6876.985
 30
-1676.807
 70
    32
  0
VERTEX
  8
W71XLIFTS
 62
4
 10
1958.256
 20
-6907.064
 30
-1672.181
 70
    32
  0
VERTEX
  8
W71XLIFTS
 62
4
 10
1957.306
 20
-6925.703
 30
-1668.318
 70
    32
  0
VERTEX
  8
W71XLIFTS
 62
4
 10
1970.946
 20
-6917.969
 30
-1668.504
 70
    32
  0
VERTEX
  8
W71XLIFTS
 62
4
 10
1971.603
 20
-6905.559
 30
-1671.781
 70
    32
  0
VERTEX
  8
W71XLIFTS
 62
4
 10
1967.427
 20
-6886.038
 30
-1674.777
 70
    32
  0
VERTEX
  8
W71XLIFTS
 62
4
 10
1962.867
 20
-6874.213
 30
-1676.096
 70
    32
  0
VERTEX
  8
W71XLIFTS
 62
4
 10
1959.386
 20
-6858.464
 30
-1678.381
 70
    32
  0
VERTEX
  8
W71XLIFTS
 62
4
 10
1959.733
 20
-6844.431
 30
-1679.860
 70
    32
  0
VERTEX
  8
W71XLIFTS
 62
4
 10
1944.485
 20
-6848.969
 30
-1680.526
 70
    32
  0
SEQEND
  8
W71XLIFTS
  0
POLYLINE
  8
W71XLIFTS
 62
4
 66
     1
 70
     9
  0
VERTEX
  8
W71XLIFTS
 62
4
 10
1904.969
 20
-6964.749
 30
-1745.620
 70
    32
  0
VERTEX
  8
W71XLIFTS
 62
4
 10
1912.187
 20
-6963.767
 30
-1745.620
 70
    32
  0
VERTEX
  8
W71XLIFTS
 62
4
 10
1920.326
 20
-6966.954
 30
-1745.620
 70
    32
  0
VERTEX
  8
W71XLIFTS
 62
4
 10
1920.063
 20
-6976.258
 30
-1745.620
 70
    32
  0
VERTEX
  8
W71XLIFTS
 62
4
 10
1927.899
 20
-6977.236
 30
-1745.620
 70
    32
  0
VERTEX
  8
W71XLIFTS
 62
4
 10
1931.983
 20
-6974.811
 30
-1745.620
 70
    32
  0
VERTEX
  8
W71XLIFTS
 62
4
 10
1933.054
 20
-6958.128
 30
-1745.620
 70
    32
  0
VERTEX
  8
W71XLIFTS
 62
4
 10
1939.311
 20
-6951.716
 30
-1745.620
 70
    32
  0
VERTEX
  8
W71XLIFTS
 62
4
 10
1941.056
 20
-6951.836
 30
-1745.620
 70
    32
  0
VERTEX
  8
W71XLIFTS
 62
4
 10
1944.849
 20
-6954.960
 30
-1745.620
 70
    32
  0
VERTEX
  8
W71XLIFTS
 62
4
 10
1945.689
 20
-7007.878
 30
-1745.620
 70
    32
  0
VERTEX
  8
W71XLIFTS
 62
4
 10
1954.547
 20
-7008.612
 30
-1745.620
 70
    32
  0
VERTEX
  8
W71XLIFTS
 62
4
 10
1957.495
 20
-7004.628
 30
-1745.620
 70
    32
  0
VERTEX
  8
W71XLIFTS
 62
4
 10
1956.914
 20
-6987.175
 30
-1745.620
 70
    32
  0
VERTEX
  8
W71XLIFTS
 62
4
 10
1957.632
 20
-6976.243
 30
-1745.620
 70
    32
  0
VERTEX
  8
W71XLIFTS
 62
4
 10
1958.930
 20
-6969.799
 30
-1745.620
 70
    32
  0
VERTEX
  8
W71XLIFTS
 62
4
 10
1964.855
 20
-6963.590
 30
-1745.620
 70
    32
  0
VERTEX
  8
W71XLIFTS
 62
4
 10
1971.517
 20
-6966.373
 30
-1745.620
 70
    32
  0
VERTEX
  8
W71XLIFTS
 62
4
 10
1973.329
 20
-6964.272
 30
-1745.620
 70
    32
  0
VERTEX
  8
W71XLIFTS
 62
4
 10
1976.274
 20
-6954.667
 30
-1745.620
 70
    32
  0
VERTEX
  8
W71XLIFTS
 62
4
 10
1957.670
 20
-6945.504
 30
-1745.620
 70
    32
  0
VERTEX
  8
W71XLIFTS
 62
4
 10
1955.169
 20
-6936.100
 30
-1745.620
 70
    32
  0
VERTEX
  8
W71XLIFTS
 62
4
 10
1953.733
 20
-6933.739
 30
-1745.620
 70
    32
  0
VERTEX
  8
W71XLIFTS
 62
4
 10
1952.300
 20
-6926.075
 30
-1745.620
 70
    32
  0
VERTEX
  8
W71XLIFTS
 62
4
 10
1940.142
 20
-6920.925
 30
-1745.620
 70
    32
  0
VERTEX
  8
W71XLIFTS
 62
4
 10
1922.172
 20
-6928.432
 30
-1745.620
 70
    32
  0
VERTEX
  8
W71XLIFTS
 62
4
 10
1916.028
 20
-6935.685
 30
-1745.620
 70
    32
  0
VERTEX
  8
W71XLIFTS
 62
4
 10
1919.676
 20
-6939.196
 30
-1745.620
 70
    32
  0
VERTEX
  8
W71XLIFTS
 62
4
 10
1918.398
 20
-6942.885
 30
-1745.620
 70
    32
  0
VERTEX
  8
W71XLIFTS
 62
4
 10
1909.347
 20
-6949.675
 30
-1745.620
 70
    32
  0
VERTEX
  8
W71XLIFTS
 62
4
 10
1902.623
 20
-6941.750
 30
-1745.620
 70
    32
  0
VERTEX
  8
W71XLIFTS
 62
4
 10
1907.632
 20
-6922.474
 30
-1745.620
 70
    32
  0
VERTEX
  8
W71XLIFTS
 62
4
 10
1899.491
 20
-6918.586
 30
-1745.620
 70
    32
  0
VERTEX
  8
W71XLIFTS
 62
4
 10
1888.531
 20
-6917.607
 30
-1745.620
 70
    32
  0
VERTEX
  8
W71XLIFTS
 62
4
 10
1886.721
 20
-6911.417
 30
-1745.620
 70
    32
  0
VERTEX
  8
W71XLIFTS
 62
4
 10
1881.417
 20
-6910.805
 30
-1745.620
 70
    32
  0
VERTEX
  8
W71XLIFTS
 62
4
 10
1877.507
 20
-6914.554
 30
-1745.620
 70
    32
  0
VERTEX
  8
W71XLIFTS
 62
4
 10
1885.038
 20
-6935.095
 30
-1745.620
 70
    32
  0
VERTEX
  8
W71XLIFTS
 62
4
 10
1887.885
 20
-6947.506
 30
-1745.620
 70
    32
  0
VERTEX
  8
W71XLIFTS
 62
4
 10
1878.984
 20
-6969.800
 30
-1745.620
 70
    32
  0
SEQEND
  8
W71XLIFTS
  0
POLYLINE
  8
W71XLIFTS
 62
4
 66
     1
 70
     9
  0
VERTEX
  8
W71XLIFTS
 62
4
 10
1677.722
 20
-6767.176
 30
-1731.720
 70
    32
  0
VERTEX
  8
W71XLIFTS
 62
4
 10
1685.455
 20
-6766.368
 30
-1731.720
 70
    32
  0
VERTEX
  8
W71XLIFTS
 62
4
 10
1695.761
 20
-6775.794
 30
-1731.720
 70
    32
  0
VERTEX
  8
W71XLIFTS
 62
4
 10
1700.076
 20
-6773.060
 30
-1731.720
 70
    32
  0
VERTEX
  8
W71XLIFTS
 62
4
 10
1723.841
 20
-6786.502
 30
-1731.720
 70
    32
  0
VERTEX
  8
W71XLIFTS
 62
4
 10
1728.764
 20
-6777.798
 30
-1731.720
 70
    32
  0
VERTEX
  8
W71XLIFTS
 62
4
 10
1700.778
 20
-6761.968
 30
-1731.720
 70
    32
  0
VERTEX
  8
W71XLIFTS
 62
4
 10
1700.117
 20
-6754.753
 30
-1731.720
 70
    32
  0
VERTEX
  8
W71XLIFTS
 62
4
 10
1689.365
 20
-6743.025
 30
-1731.720
 70
    32
  0
VERTEX
  8
W71XLIFTS
 62
4
 10
1676.436
 20
-6735.616
 30
-1731.720
 70
    32
  0
VERTEX
  8
W71XLIFTS
 62
4
 10
1673.672
 20
-6731.736
 30
-1731.720
 70
    32
  0
VERTEX
  8
W71XLIFTS
 62
4
 10
1672.268
 20
-6719.285
 30
-1731.720
 70
    32
  0
VERTEX
  8
W71XLIFTS
 62
4
 10
1662.477
 20
-6720.079
 30
-1731.720
 70
    32
  0
VERTEX
  8
W71XLIFTS
 62
4
 10
1644.022
 20
-6688.558
 30
-1731.720
 70
    32
  0
VERTEX
  8
W71XLIFTS
 62
4
 10
1631.313
 20
-6694.534
 30
-1731.720
 70
    32
  0
VERTEX
  8
W71XLIFTS
 62
4
 10
1653.767
 20
-6732.522
 30
-1731.720
 70
    32
  0
VERTEX
  8
W71XLIFTS
 62
4
 10
1648.513
 20
-6746.671
 30
-1731.720
 70
    32
  0
VERTEX
  8
W71XLIFTS
 62
4
 10
1666.778
 20
-6771.192
 30
-1731.796
 70
    32
  0
SEQEND
  8
W71XLIFTS
  0
POLYLINE
  8
W71XLIFTS
 62
5
 66
     1
 70
     9
  0
VERTEX
  8
W71XLIFTS
 62
5
 10
1581.187
 20
-6788.747
 30
-1720.157
 70
    32
  0
VERTEX
  8
W71XLIFTS
 62
5
 10
1583.766
 20
-6785.883
 30
-1720.157
 70
    32
  0
VERTEX
  8
W71XLIFTS
 62
5
 10
1590.578
 20
-6776.305
 30
-1720.157
 70
    32
  0
VERTEX
  8
W71XLIFTS
 62
5
 10
1595.257
 20
-6769.727
 30
-1720.157
 70
    32
  0
VERTEX
  8
W71XLIFTS
 62
5
 10
1588.377
 20
-6764.834
 30
-1720.157
 70
    32
  0
VERTEX
  8
W71XLIFTS
 62
5
 10
1581.107
 20
-6762.117
 30
-1720.157
 70
    32
  0
VERTEX
  8
W71XLIFTS
 62
5
 10
1579.506
 20
-6761.518
 30
-1720.157
 70
    32
  0
VERTEX
  8
W71XLIFTS
 62
5
 10
1578.609
 20
-6756.675
 30
-1720.157
 70
    32
  0
VERTEX
  8
W71XLIFTS
 62
5
 10
1577.874
 20
-6752.705
 30
-1720.157
 70
    32
  0
VERTEX
  8
W71XLIFTS
 62
5
 10
1577.633
 20
-6751.401
 30
-1720.157
 70
    32
  0
VERTEX
  8
W71XLIFTS
 62
5
 10
1568.273
 20
-6749.894
 30
-1720.157
 70
    32
  0
VERTEX
  8
W71XLIFTS
 62
5
 10
1563.292
 20
-6744.017
 30
-1720.157
 70
    32
  0
VERTEX
  8
W71XLIFTS
 62
5
 10
1562.638
 20
-6744.460
 30
-1720.157
 70
    32
  0
VERTEX
  8
W71XLIFTS
 62
5
 10
1553.164
 20
-6750.879
 30
-1720.157
 70
    32
  0
VERTEX
  8
W71XLIFTS
 62
5
 10
1556.287
 20
-6755.984
 30
-1720.157
 70
    32
  0
VERTEX
  8
W71XLIFTS
 62
5
 10
1557.321
 20
-6757.673
 30
-1720.157
 70
    32
  0
VERTEX
  8
W71XLIFTS
 62
5
 10
1561.346
 20
-6764.252
 30
-1720.157
 70
    32
  0
VERTEX
  8
W71XLIFTS
 62
5
 10
1564.521
 20
-6772.526
 30
-1720.157
 70
    32
  0
VERTEX
  8
W71XLIFTS
 62
5
 10
1564.998
 20
-6773.768
 30
-1720.157
 70
    32
  0
VERTEX
  8
W71XLIFTS
 62
5
 10
1565.706
 20
-6776.416
 30
-1720.157
 70
    32
  0
VERTEX
  8
W71XLIFTS
 62
5
 10
1568.206
 20
-6785.762
 30
-1719.613
 70
    32
  0
SEQEND
  8
W71XLIFTS
  0
POLYLINE
  8
W71XLIFTS
 62
4
 66
     1
 70
     9
  0
VERTEX
  8
W71XLIFTS
 62
4
 10
1396.008
 20
-6524.638
 30
-1805.587
 70
    32
  0
VERTEX
  8
W71XLIFTS
 62
4
 10
1396.310
 20
-6518.640
 30
-1805.593
 70
    32
  0
VERTEX
  8
W71XLIFTS
 62
4
 10
1397.380
 20
-6514.938
 30
-1805.599
 70
    32
  0
VERTEX
  8
W71XLIFTS
 62
4
 10
1397.207
 20
-6509.085
 30
-1805.605
 70
    32
  0
VERTEX
  8
W71XLIFTS
 62
4
 10
1398.238
 20
-6505.278
 30
-1805.614
 70
    32
  0
VERTEX
  8
W71XLIFTS
 62
4
 10
1383.325
 20
-6500.431
 30
-1805.596
 70
    32
  0
VERTEX
  8
W71XLIFTS
 62
4
 10
1377.578
 20
-6494.602
 30
-1805.590
 70
    32
  0
VERTEX
  8
W71XLIFTS
 62
4
 10
1370.361
 20
-6484.616
 30
-1805.585
 70
    32
  0
VERTEX
  8
W71XLIFTS
 62
4
 10
1360.349
 20
-6491.322
 30
-1805.585
 70
    32
  0
VERTEX
  8
W71XLIFTS
 62
4
 10
1366.381
 20
-6499.984
 30
-1805.577
 70
    32
  0
VERTEX
  8
W71XLIFTS
 62
4
 10
1371.864
 20
-6510.242
 30
-1805.574
 70
    32
  0
VERTEX
  8
W71XLIFTS
 62
4
 10
1358.536
 20
-6533.719
 30
-1805.559
 70
    32
  0
VERTEX
  8
W71XLIFTS
 62
4
 10
1362.540
 20
-6533.998
 30
-1805.556
 70
    32
  0
VERTEX
  8
W71XLIFTS
 62
4
 10
1369.717
 20
-6537.507
 30
-1805.551
 70
    32
  0
VERTEX
  8
W71XLIFTS
 62
4
 10
1382.364
 20
-6532.199
 30
-1805.548
 70
    32
  0
VERTEX
  8
W71XLIFTS
 62
4
 10
1388.095
 20
-6530.570
 30
-1805.556
 70
    32
  0
VERTEX
  8
W71XLIFTS
 62
4
 10
1389.986
 20
-6531.872
 30
-1805.561
 70
    32
  0
SEQEND
  8
W71XLIFTS
  0
POLYLINE
  8
W71XLIFTS
 62
4
 66
     1
 70
     9
  0
VERTEX
  8
W71XLIFTS
 62
4
 10
1450.827
 20
-6287.786
 30
-1762.820
 70
    32
  0
VERTEX
  8
W71XLIFTS
 62
4
 10
1459.233
 20
-6286.644
 30
-1762.820
 70
    32
  0
VERTEX
  8
W71XLIFTS
 62
4
 10
1460.917
 20
-6280.691
 30
-1762.820
 70
    32
  0
VERTEX
  8
W71XLIFTS
 62
4
 10
1465.337
 20
-6273.201
 30
-1762.820
 70
    32
  0
VERTEX
  8
W71XLIFTS
 62
4
 10
1464.919
 20
-6266.649
 30
-1762.820
 70
    32
  0
VERTEX
  8
W71XLIFTS
 62
4
 10
1459.778
 20
-6256.499
 30
-1762.820
 70
    32
  0
VERTEX
  8
W71XLIFTS
 62
4
 10
1449.000
 20
-6223.370
 30
-1762.820
 70
    32
  0
VERTEX
  8
W71XLIFTS
 62
4
 10
1450.491
 20
-6214.843
 30
-1762.820
 70
    32
  0
VERTEX
  8
W71XLIFTS
 62
4
 10
1445.768
 20
-6199.922
 30
-1762.820
 70
    32
  0
VERTEX
  8
W71XLIFTS
 62
4
 10
1425.568
 20
-6171.105
 30
-1762.820
 70
    32
  0
VERTEX
  8
W71XLIFTS
 62
4
 10
1415.017
 20
-6173.395
 30
-1762.820
 70
    32
  0
VERTEX
  8
W71XLIFTS
 62
4
 10
1411.009
 20
-6179.904
 30
-1762.820
 70
    32
  0
VERTEX
  8
W71XLIFTS
 62
4
 10
1413.287
 20
-6186.521
 30
-1762.820
 70
    32
  0
VERTEX
  8
W71XLIFTS
 62
4
 10
1420.804
 20
-6198.368
 30
-1762.820
 70
    32
  0
VERTEX
  8
W71XLIFTS
 62
4
 10
1423.912
 20
-6213.139
 30
-1762.820
 70
    32
  0
VERTEX
  8
W71XLIFTS
 62
4
 10
1423.250
 20
-6229.889
 30
-1762.820
 70
    32
  0
VERTEX
  8
W71XLIFTS
 62
4
 10
1433.166
 20
-6244.890
 30
-1762.820
 70
    32
  0
VERTEX
  8
W71XLIFTS
 62
4
 10
1437.175
 20
-6246.863
 30
-1762.820
 70
    32
  0
VERTEX
  8
W71XLIFTS
 62
4
 10
1440.785
 20
-6270.604
 30
-1762.820
 70
    32
  0
VERTEX
  8
W71XLIFTS
 62
4
 10
1438.888
 20
-6278.771
 30
-1762.820
 70
    32
  0
VERTEX
  8
W71XLIFTS
 62
4
 10
1441.388
 20
-6287.367
 30
-1762.820
 70
    32
  0
SEQEND
  8
W71XLIFTS
  0
POLYLINE
  8
W71XLIFTS
 62
2
 66
     1
 70
     9
  0
VERTEX
  8
W71XLIFTS
 62
2
 10
1639.793
 20
-6558.890
 30
-1693.144
 70
    32
  0
VERTEX
  8
W71XLIFTS
 62
2
 10
1614.862
 20
-6545.453
 30
-1692.951
 70
    32
  0
VERTEX
  8
W71XLIFTS
 62
2
 10
1586.420
 20
-6533.765
 30
-1693.094
 70
    32
  0
VERTEX
  8
W71XLIFTS
 62
2
 10
1577.892
 20
-6525.424
 30
-1693.165
 70
    32
  0
VERTEX
  8
W71XLIFTS
 62
2
 10
1558.403
 20
-6521.402
 30
-1693.268
 70
    32
  0
VERTEX
  8
W71XLIFTS
 62
2
 10
1553.954
 20
-6518.693
 30
-1693.290
 70
    32
  0
VERTEX
  8
W71XLIFTS
 62
2
 10
1552.993
 20
-6498.475
 30
-1693.340
 70
    32
  0
VERTEX
  8
W71XLIFTS
 62
2
 10
1550.629
 20
-6482.449
 30
-1693.476
 70
    32
  0
VERTEX
  8
W71XLIFTS
 62
2
 10
1546.141
 20
-6474.498
 30
-1693.882
 70
    32
  0
VERTEX
  8
W71XLIFTS
 62
2
 10
1537.459
 20
-6454.961
 30
-1695.221
 70
    32
  0
VERTEX
  8
W71XLIFTS
 62
2
 10
1545.250
 20
-6452.439
 30
-1694.828
 70
    32
  0
VERTEX
  8
W71XLIFTS
 62
2
 10
1559.897
 20
-6445.952
 30
-1692.452
 70
    32
  0
VERTEX
  8
W71XLIFTS
 62
2
 10
1572.348
 20
-6435.451
 30
-1690.010
 70
    32
  0
VERTEX
  8
W71XLIFTS
 62
2
 10
1579.721
 20
-6430.418
 30
-1690.010
 70
    32
  0
VERTEX
  8
W71XLIFTS
 62
2
 10
1588.949
 20
-6441.421
 30
-1690.010
 70
    32
  0
VERTEX
  8
W71XLIFTS
 62
2
 10
1595.030
 20
-6456.007
 30
-1690.010
 70
    32
  0
VERTEX
  8
W71XLIFTS
 62
2
 10
1586.061
 20
-6462.102
 30
-1691.061
 70
    32
  0
VERTEX
  8
W71XLIFTS
 62
2
 10
1579.593
 20
-6479.025
 30
-1692.871
 70
    32
  0
VERTEX
  8
W71XLIFTS
 62
2
 10
1590.787
 20
-6498.270
 30
-1692.973
 70
    32
  0
VERTEX
  8
W71XLIFTS
 62
2
 10
1603.617
 20
-6525.300
 30
-1693.059
 70
    32
  0
VERTEX
  8
W71XLIFTS
 62
2
 10
1608.868
 20
-6519.945
 30
-1693.056
 70
    32
  0
VERTEX
  8
W71XLIFTS
 62
2
 10
1619.805
 20
-6521.447
 30
-1693.007
 70
    32
  0
VERTEX
  8
W71XLIFTS
 62
2
 10
1620.314
 20
-6535.196
 30
-1692.967
 70
    32
  0
VERTEX
  8
W71XLIFTS
 62
2
 10
1640.606
 20
-6543.457
 30
-1692.944
 70
    32
  0
VERTEX
  8
W71XLIFTS
 62
2
 10
1642.498
 20
-6542.046
 30
-1692.965
 70
    32
  0
VERTEX
  8
W71XLIFTS
 62
2
 10
1634.954
 20
-6529.574
 30
-1692.760
 70
    32
  0
VERTEX
  8
W71XLIFTS
 62
2
 10
1637.883
 20
-6521.610
 30
-1692.778
 70
    32
  0
VERTEX
  8
W71XLIFTS
 62
2
 10
1653.021
 20
-6513.949
 30
-1693.008
 70
    32
  0
VERTEX
  8
W71XLIFTS
 62
2
 10
1662.096
 20
-6520.651
 30
-1693.192
 70
    32
  0
VERTEX
  8
W71XLIFTS
 62
2
 10
1661.187
 20
-6532.749
 30
-1693.225
 70
    32
  0
VERTEX
  8
W71XLIFTS
 62
2
 10
1668.185
 20
-6543.178
 30
-1693.388
 70
    32
  0
VERTEX
  8
W71XLIFTS
 62
2
 10
1667.705
 20
-6553.153
 30
-1693.528
 70
    32
  0
VERTEX
  8
W71XLIFTS
 62
2
 10
1673.439
 20
-6564.817
 30
-1693.835
 70
    32
  0
VERTEX
  8
W71XLIFTS
 62
2
 10
1683.551
 20
-6581.041
 30
-1693.858
 70
    32
  0
VERTEX
  8
W71XLIFTS
 62
2
 10
1682.424
 20
-6583.216
 30
-1693.858
 70
    32
  0
VERTEX
  8
W71XLIFTS
 62
2
 10
1685.916
 20
-6599.481
 30
-1693.858
 70
    32
  0
VERTEX
  8
W71XLIFTS
 62
2
 10
1688.029
 20
-6621.722
 30
-1693.858
 70
    32
  0
VERTEX
  8
W71XLIFTS
 62
2
 10
1682.213
 20
-6626.600
 30
-1693.858
 70
    32
  0
VERTEX
  8
W71XLIFTS
 62
2
 10
1668.769
 20
-6625.529
 30
-1693.858
 70
    32
  0
VERTEX
  8
W71XLIFTS
 62
2
 10
1667.741
 20
-6621.590
 30
-1693.858
 70
    32
  0
VERTEX
  8
W71XLIFTS
 62
2
 10
1663.056
 20
-6611.262
 30
-1693.858
 70
    32
  0
VERTEX
  8
W71XLIFTS
 62
2
 10
1654.939
 20
-6605.299
 30
-1693.858
 70
    32
  0
VERTEX
  8
W71XLIFTS
 62
2
 10
1651.193
 20
-6598.216
 30
-1693.858
 70
    32
  0
VERTEX
  8
W71XLIFTS
 62
2
 10
1655.418
 20
-6596.911
 30
-1693.858
 70
    32
  0
VERTEX
  8
W71XLIFTS
 62
2
 10
1646.248
 20
-6563.314
 30
-1693.387
 70
    32
  0
SEQEND
  8
W71XLIFTS
  0
POLYLINE
  8
W71XLIFTS
 62
2
 66
     1
 70
     9
  0
VERTEX
  8
W71XLIFTS
 62
2
 10
1734.966
 20
-6417.536
 30
-1740.750
 70
    32
  0
VERTEX
  8
W71XLIFTS
 62
2
 10
1745.969
 20
-6415.579
 30
-1740.230
 70
    32
  0
VERTEX
  8
W71XLIFTS
 62
2
 10
1746.384
 20
-6408.249
 30
-1740.400
 70
    32
  0
VERTEX
  8
W71XLIFTS
 62
2
 10
1740.139
 20
-6394.958
 30
-1740.996
 70
    32
  0
VERTEX
  8
W71XLIFTS
 62
2
 10
1728.833
 20
-6386.071
 30
-1741.758
 70
    32
  0
VERTEX
  8
W71XLIFTS
 62
2
 10
1714.759
 20
-6378.020
 30
-1742.643
 70
    32
  0
VERTEX
  8
W71XLIFTS
 62
2
 10
1716.862
 20
-6370.813
 30
-1742.687
 70
    32
  0
VERTEX
  8
W71XLIFTS
 62
2
 10
1722.648
 20
-6365.601
 30
-1742.503
 70
    32
  0
VERTEX
  8
W71XLIFTS
 62
2
 10
1731.568
 20
-6361.579
 30
-1742.133
 70
    32
  0
VERTEX
  8
W71XLIFTS
 62
2
 10
1738.607
 20
-6363.834
 30
-1741.728
 70
    32
  0
VERTEX
  8
W71XLIFTS
 62
2
 10
1748.401
 20
-6380.024
 30
-1740.890
 70
    32
  0
VERTEX
  8
W71XLIFTS
 62
2
 10
1753.949
 20
-6385.789
 30
-1740.487
 70
    32
  0
VERTEX
  8
W71XLIFTS
 62
2
 10
1760.918
 20
-6387.324
 30
-1740.100
 70
    32
  0
VERTEX
  8
W71XLIFTS
 62
2
 10
1769.951
 20
-6401.579
 30
-1739.341
 70
    32
  0
VERTEX
  8
W71XLIFTS
 62
2
 10
1771.645
 20
-6432.506
 30
-1738.281
 70
    32
  0
VERTEX
  8
W71XLIFTS
 62
2
 10
1774.287
 20
-6435.301
 30
-1738.067
 70
    32
  0
VERTEX
  8
W71XLIFTS
 62
2
 10
1770.648
 20
-6446.146
 30
-1737.529
 70
    32
  0
VERTEX
  8
W71XLIFTS
 62
2
 10
1769.033
 20
-6462.272
 30
-1737.059
 70
    32
  0
VERTEX
  8
W71XLIFTS
 62
2
 10
1754.857
 20
-6466.358
 30
-1737.869
 70
    32
  0
VERTEX
  8
W71XLIFTS
 62
2
 10
1746.019
 20
-6461.825
 30
-1738.564
 70
    32
  0
VERTEX
  8
W71XLIFTS
 62
2
 10
1747.313
 20
-6458.292
 30
-1738.575
 70
    32
  0
VERTEX
  8
W71XLIFTS
 62
2
 10
1737.365
 20
-6429.482
 30
-1740.103
 70
    32
  0
SEQEND
  8
W71XLIFTS
  0
POLYLINE
  8
W71XLIFTS
 62
4
 66
     1
 70
     9
  0
VERTEX
  8
W71XLIFTS
 62
4
 10
1509.283
 20
-6954.780
 30
-1721.962
 70
    32
  0
VERTEX
  8
W71XLIFTS
 62
4
 10
1506.141
 20
-6973.415
 30
-1722.946
 70
    32
  0
VERTEX
  8
W71XLIFTS
 62
4
 10
1493.824
 20
-6973.188
 30
-1721.983
 70
    32
  0
VERTEX
  8
W71XLIFTS
 62
4
 10
1493.651
 20
-6968.879
 30
-1721.687
 70
    32
  0
VERTEX
  8
W71XLIFTS
 62
4
 10
1486.214
 20
-6966.297
 30
-1720.944
 70
    32
  0
VERTEX
  8
W71XLIFTS
 62
4
 10
1484.298
 20
-6951.057
 30
-1719.795
 70
    32
  0
VERTEX
  8
W71XLIFTS
 62
4
 10
1493.372
 20
-6947.524
 30
-1720.262
 70
    32
  0
SEQEND
  8
W71XLIFTS
  0
TEXT
  8
W71XLIFTS
 62
1
 10
2181.856
 20
-8391.891
 30
0.000
 40
1.500
  1
BK -1691.628
 41
 1.0 
  0
TEXT
  8
W71XLIFTS
 62
1
 10
2179.011
 20
-8351.358
 30
0.000
 40
1.500
  1
BK -1688.546
 41
 1.0 
  0
TEXT
  8
W71XLIFTS
 62
1
 10
2171.401
 20
-8319.723
 30
0.000
 40
1.500
  1
BK -1682.594
 41
 1.0 
  0
TEXT
  8
W71XLIFTS
 62
1
 10
2183.747
 20
-8386.416
 30
0.000
 40
1.500
  1
BK -1692.991
 41
 1.0 
  0
TEXT
  8
W71XLIFTS
 62
1
 10
2166.352
 20
-8277.738
 30
0.000
 40
1.500
  1
-1690.241
 41
 1.0 
  0
TEXT
  8
W71XLIFTS
 62
1
 10
2157.331
 20
-8271.602
 30
0.000
 40
1.500
  1
ST-001
 41
 1.0 
  0
POINT
  8
W71XLIFTS
 62
1
 10
2166.681
 20
-8272.725
 30
0.000
  0
POLYLINE
  8
W71XLIFTS
 62
1
 66
     1
 70
     9
  0
VERTEX
  8
W71XLIFTS
 62
1
 10
2166.681
 20
-8270.515
 30
0.000
 70
    32
  0
VERTEX
  8
W71XLIFTS
 62
1
 10
2168.430
 20
-8273.695
 30
0.000
 70
    32
  0
VERTEX
  8
W71XLIFTS
 62
1
 10
2164.931
 20
-8273.693
 30
0.000
 70
    32
  0
SEQEND
  8
W71XLIFTS
  0
POLYLINE
  8
W71XLIFTS
 62
1
 66
     1
 70
     8
  0
VERTEX
  8
W71XLIFTS
 62
1
 10
2144.987
 20
-8204.468
 30
0.000
 70
    32
  0
VERTEX
  8
W71XLIFTS
 62
1
 10
2160.094
 20
-8237.336
 30
0.000
 70
    32
  0
VERTEX
  8
W71XLIFTS
 62
1
 10
2175.612
 20
-8265.060
 30
0.000
 70
    32
  0
VERTEX
  8
W71XLIFTS
 62
1
 10
2176.064
 20
-8286.785
 30
0.000
 70
    32
  0
VERTEX
  8
W71XLIFTS
 62
1
 10
2195.998
 20
-8314.525
 30
0.000
 70
    32
  0
VERTEX
  8
W71XLIFTS
 62
1
 10
2200.413
 20
-8335.394
 30
0.000
 70
    32
  0
VERTEX
  8
W71XLIFTS
 62
1
 10
2197.736
 20
-8359.660
 30
0.000
 70
    32
  0
VERTEX
  8
W71XLIFTS
 62
1
 10
2188.464
 20
-8362.137
 30
0.000
 70
    32
  0
VERTEX
  8
W71XLIFTS
 62
1
 10
2179.444
 20
-8353.639
 30
0.000
 70
    32
  0
VERTEX
  8
W71XLIFTS
 62
1
 10
2174.389
 20
-8347.224
 30
0.000
 70
    32
  0
VERTEX
  8
W71XLIFTS
 62
1
 10
2172.630
 20
-8337.350
 30
0.000
 70
    32
  0
VERTEX
  8
W71XLIFTS
 62
1
 10
2165.802
 20
-8328.961
 30
0.000
 70
    32
  0
VERTEX
  8
W71XLIFTS
 62
1
 10
2167.383
 20
-8310.664
 30
0.000
 70
    32
  0
VERTEX
  8
W71XLIFTS
 62
1
 10
2165.121
 20
-8302.725
 30
0.000
 70
    32
  0
VERTEX
  8
W71XLIFTS
 62
1
 10
2162.019
 20
-8298.642
 30
0.000
 70
    32
  0
VERTEX
  8
W71XLIFTS
 62
1
 10
2159.131
 20
-8261.765
 30
0.000
 70
    32
  0
VERTEX
  8
W71XLIFTS
 62
1
 10
2146.165
 20
-8239.527
 30
0.000
 70
    32
  0
VERTEX
  8
W71XLIFTS
 62
1
 10
2138.277
 20
-8214.679
 30
0.000
 70
    32
  0
SEQEND
  8
W71XLIFTS
  0
TEXT
  8
W71XLIFTS
 62
1
 10
2185.697
 20
-8339.529
 30
0.000
 40
2.000
  1
BK -1697.924
 41
 1.0 
  0
TEXT
  8
W71XLIFTS
 62
1
 10
2175.078
 20
-8313.100
 30
0.000
 40
2.000
  1
BK -1699.448
 41
 1.0 
  0
TEXT
  8
W71XLIFTS
 62
1
 10
2173.166
 20
-8307.346
 30
0.000
 40
2.000
  1
BK -1695.102
 41
 1.0 
  0
TEXT
  8
W71XLIFTS
 62
1
 10
2169.387
 20
-8285.721
 30
0.000
 40
2.000
  1
BK -1692.414
 41
 1.0 
  0
TEXT
  8
W71XLIFTS
 62
1
 10
2160.941
 20
-8244.997
 30
0.000
 40
2.000
  1
BK -1690.085
 41
 1.0 
  0
POLYLINE
  8
W71XLIFTS
 62
1
 66
     1
 70
     8
  0
VERTEX
  8
W71XLIFTS
 62
1
 10
2157.718
 20
-8231.776
 30
0.000
 70
    32
  0
VERTEX
  8
W71XLIFTS
 62
1
 10
2163.837
 20
-8244.767
 30
0.000
 70
    32
  0
VERTEX
  8
W71XLIFTS
 62
1
 10
2176.507
 20
-8264.027
 30
0.000
 70
    32
  0
VERTEX
  8
W71XLIFTS
 62
1
 10
2175.821
 20
-8282.604
 30
0.000
 70
    32
  0
VERTEX
  8
W71XLIFTS
 62
1
 10
2182.122
 20
-8301.607
 30
0.000
 70
    32
  0
VERTEX
  8
W71XLIFTS
 62
1
 10
2179.190
 20
-8311.929
 30
0.000
 70
    32
  0
VERTEX
  8
W71XLIFTS
 62
1
 10
2170.477
 20
-8312.442
 30
0.000
 70
    32
  0
VERTEX
  8
W71XLIFTS
 62
1
 10
2161.934
 20
-8298.637
 30
0.000
 70
    32
  0
VERTEX
  8
W71XLIFTS
 62
1
 10
2161.049
 20
-8264.020
 30
0.000
 70
    32
  0
VERTEX
  8
W71XLIFTS
 62
1
 10
2145.910
 20
-8239.844
 30
0.000
 70
    32
  0
SEQEND
  8
W71XLIFTS
  0
POLYLINE
  8
W71XLIFTS
 62
1
 66
     1
 70
     8
  0
VERTEX
  8
W71XLIFTS
 62
1
 10
2180.025
 20
-8283.477
 30
0.000
 70
    32
  0
VERTEX
  8
W71XLIFTS
 62
1
 10
2177.504
 20
-8277.856
 30
0.000
 70
    32
  0
VERTEX
  8
W71XLIFTS
 62
1
 10
2167.104
 20
-8255.064
 30
0.000
 70
    32
  0
VERTEX
  8
W71XLIFTS
 62
1
 10
2155.471
 20
-8228.875
 30
0.000
 70
    32
  0
SEQEND
  8
W71XLIFTS
  0
TEXT
  8
W71XLIFTS
 62
1
 10
2176.733
 20
-8257.212
 30
0.000
 40
1.500
  1
-1731.05
 50
22.657
 41
 1.0 
  0
TEXT
  8
W71XLIFTS
 62
1
 10
2159.635
 20
-8236.002
 30
0.000
 40
1.500
  1
-1724.68
 50
22.657
 41
 1.0 
  0
POLYLINE
  8
W71XLIFTS
 62
1
 66
     1
 70
     9
  0
VERTEX
  8
W71XLIFTS
 62
1
 10
2177.711
 20
-8324.937
 30
0.000
 70
    32
  0
VERTEX
  8
W71XLIFTS
 62
1
 10
2177.709
 20
-8324.893
 30
0.000
 70
    32
  0
VERTEX
  8
W71XLIFTS
 62
1
 10
2177.703
 20
-8324.850
 30
0.000
 70
    32
  0
VERTEX
  8
W71XLIFTS
 62
1
 10
2177.694
 20
-8324.808
 30
0.000
 70
    32
  0
VERTEX
  8
W71XLIFTS
 62
1
 10
2177.681
 20
-8324.766
 30
0.000
 70
    32
  0
VERTEX
  8
W71XLIFTS
 62
1
 10
2177.664
 20
-8324.726
 30
0.000
 70
    32
  0
VERTEX
  8
W71XLIFTS
 62
1
 10
2177.644
 20
-8324.687
 30
0.000
 70
    32
  0
VERTEX
  8
W71XLIFTS
 62
1
 10
2177.621
 20
-8324.650
 30
0.000
 70
    32
  0
VERTEX
  8
W71XLIFTS
 62
1
 10
2177.594
 20
-8324.616
 30
0.000
 70
    32
  0
VERTEX
  8
W71XLIFTS
 62
1
 10
2177.565
 20
-8324.583
 30
0.000
 70
    32
  0
VERTEX
  8
W71XLIFTS
 62
1
 10
2177.532
 20
-8324.554
 30
0.000
 70
    32
  0
VERTEX
  8
W71XLIFTS
 62
1
 10
2177.498
 20
-8324.527
 30
0.000
 70
    32
  0
VERTEX
  8
W71XLIFTS
 62
1
 10
2177.461
 20
-8324.504
 30
0.000
 70
    32
  0
VERTEX
  8
W71XLIFTS
 62
1
 10
2177.422
 20
-8324.484
 30
0.000
 70
    32
  0
VERTEX
  8
W71XLIFTS
 62
1
 10
2177.382
 20
-8324.467
 30
0.000
 70
    32
  0
VERTEX
  8
W71XLIFTS
 62
1
 10
2177.340
 20
-8324.454
 30
0.000
 70
    32
  0
VERTEX
  8
W71XLIFTS
 62
1
 10
2177.298
 20
-8324.445
 30
0.000
 70
    32
  0
VERTEX
  8
W71XLIFTS
 62
1
 10
2177.255
 20
-8324.439
 30
0.000
 70
    32
  0
VERTEX
  8
W71XLIFTS
 62
1
 10
2177.211
 20
-8324.437
 30
0.000
 70
    32
  0
VERTEX
  8
W71XLIFTS
 62
1
 10
2177.167
 20
-8324.439
 30
0.000
 70
    32
  0
VERTEX
  8
W71XLIFTS
 62
1
 10
2177.124
 20
-8324.445
 30
0.000
 70
    32
  0
VERTEX
  8
W71XLIFTS
 62
1
 10
2177.082
 20
-8324.454
 30
0.000
 70
    32
  0
VERTEX
  8
W71XLIFTS
 62
1
 10
2177.040
 20
-8324.467
 30
0.000
 70
    32
  0
VERTEX
  8
W71XLIFTS
 62
1
 10
2177.000
 20
-8324.484
 30
0.000
 70
    32
  0
VERTEX
  8
W71XLIFTS
 62
1
 10
2176.961
 20
-8324.504
 30
0.000
 70
    32
  0
VERTEX
  8
W71XLIFTS
 62
1
 10
2176.924
 20
-8324.527
 30
0.000
 70
    32
  0
VERTEX
  8
W71XLIFTS
 62
1
 10
2176.890
 20
-8324.554
 30
0.000
 70
    32
  0
VERTEX
  8
W71XLIFTS
 62
1
 10
2176.857
 20
-8324.583
 30
0.000
 70
    32
  0
VERTEX
  8
W71XLIFTS
 62
1
 10
2176.828
 20
-8324.616
 30
0.000
 70
    32
  0
VERTEX
  8
W71XLIFTS
 62
1
 10
2176.801
 20
-8324.650
 30
0.000
 70
    32
  0
VERTEX
  8
W71XLIFTS
 62
1
 10
2176.778
 20
-8324.687
 30
0.000
 70
    32
  0
VERTEX
  8
W71XLIFTS
 62
1
 10
2176.758
 20
-8324.726
 30
0.000
 70
    32
  0
VERTEX
  8
W71XLIFTS
 62
1
 10
2176.741
 20
-8324.766
 30
0.000
 70
    32
  0
VERTEX
  8
W71XLIFTS
 62
1
 10
2176.728
 20
-8324.808
 30
0.000
 70
    32
  0
VERTEX
  8
W71XLIFTS
 62
1
 10
2176.719
 20
-8324.850
 30
0.000
 70
    32
  0
VERTEX
  8
W71XLIFTS
 62
1
 10
2176.713
 20
-8324.893
 30
0.000
 70
    32
  0
VERTEX
  8
W71XLIFTS
 62
1
 10
2176.711
 20
-8324.937
 30
0.000
 70
    32
  0
VERTEX
  8
W71XLIFTS
 62
1
 10
2176.713
 20
-8324.981
 30
0.000
 70
    32
  0
VERTEX
  8
W71XLIFTS
 62
1
 10
2176.719
 20
-8325.024
 30
0.000
 70
    32
  0
VERTEX
  8
W71XLIFTS
 62
1
 10
2176.728
 20
-8325.066
 30
0.000
 70
    32
  0
VERTEX
  8
W71XLIFTS
 62
1
 10
2176.741
 20
-8325.108
 30
0.000
 70
    32
  0
VERTEX
  8
W71XLIFTS
 62
1
 10
2176.758
 20
-8325.148
 30
0.000
 70
    32
  0
VERTEX
  8
W71XLIFTS
 62
1
 10
2176.778
 20
-8325.187
 30
0.000
 70
    32
  0
VERTEX
  8
W71XLIFTS
 62
1
 10
2176.801
 20
-8325.224
 30
0.000
 70
    32
  0
VERTEX
  8
W71XLIFTS
 62
1
 10
2176.828
 20
-8325.258
 30
0.000
 70
    32
  0
VERTEX
  8
W71XLIFTS
 62
1
 10
2176.858
 20
-8325.291
 30
0.000
 70
    32
  0
VERTEX
  8
W71XLIFTS
 62
1
 10
2176.890
 20
-8325.320
 30
0.000
 70
    32
  0
VERTEX
  8
W71XLIFTS
 62
1
 10
2176.924
 20
-8325.347
 30
0.000
 70
    32
  0
VERTEX
  8
W71XLIFTS
 62
1
 10
2176.961
 20
-8325.370
 30
0.000
 70
    32
  0
VERTEX
  8
W71XLIFTS
 62
1
 10
2177.000
 20
-8325.390
 30
0.000
 70
    32
  0
VERTEX
  8
W71XLIFTS
 62
1
 10
2177.040
 20
-8325.407
 30
0.000
 70
    32
  0
VERTEX
  8
W71XLIFTS
 62
1
 10
2177.082
 20
-8325.420
 30
0.000
 70
    32
  0
VERTEX
  8
W71XLIFTS
 62
1
 10
2177.124
 20
-8325.429
 30
0.000
 70
    32
  0
VERTEX
  8
W71XLIFTS
 62
1
 10
2177.168
 20
-8325.435
 30
0.000
 70
    32
  0
VERTEX
  8
W71XLIFTS
 62
1
 10
2177.211
 20
-8325.437
 30
0.000
 70
    32
  0
VERTEX
  8
W71XLIFTS
 62
1
 10
2177.255
 20
-8325.435
 30
0.000
 70
    32
  0
VERTEX
  8
W71XLIFTS
 62
1
 10
2177.298
 20
-8325.429
 30
0.000
 70
    32
  0
VERTEX
  8
W71XLIFTS
 62
1
 10
2177.341
 20
-8325.420
 30
0.000
 70
    32
  0
VERTEX
  8
W71XLIFTS
 62
1
 10
2177.382
 20
-8325.407
 30
0.000
 70
    32
  0
VERTEX
  8
W71XLIFTS
 62
1
 10
2177.422
 20
-8325.390
 30
0.000
 70
    32
  0
VERTEX
  8
W71XLIFTS
 62
1
 10
2177.461
 20
-8325.370
 30
0.000
 70
    32
  0
VERTEX
  8
W71XLIFTS
 62
1
 10
2177.498
 20
-8325.347
 30
0.000
 70
    32
  0
VERTEX
  8
W71XLIFTS
 62
1
 10
2177.532
 20
-8325.320
 30
0.000
 70
    32
  0
VERTEX
  8
W71XLIFTS
 62
1
 10
2177.565
 20
-8325.290
 30
0.000
 70
    32
  0
VERTEX
  8
W71XLIFTS
 62
1
 10
2177.594
 20
-8325.258
 30
0.000
 70
    32
  0
VERTEX
  8
W71XLIFTS
 62
1
 10
2177.621
 20
-8325.224
 30
0.000
 70
    32
  0
VERTEX
  8
W71XLIFTS
 62
1
 10
2177.644
 20
-8325.187
 30
0.000
 70
    32
  0
VERTEX
  8
W71XLIFTS
 62
1
 10
2177.664
 20
-8325.148
 30
0.000
 70
    32
  0
VERTEX
  8
W71XLIFTS
 62
1
 10
2177.681
 20
-8325.108
 30
0.000
 70
    32
  0
VERTEX
  8
W71XLIFTS
 62
1
 10
2177.694
 20
-8325.066
 30
0.000
 70
    32
  0
VERTEX
  8
W71XLIFTS
 62
1
 10
2177.703
 20
-8325.024
 30
0.000
 70
    32
  0
VERTEX
  8
W71XLIFTS
 62
1
 10
2177.709
 20
-8324.980
 30
0.000
 70
    32
  0
VERTEX
  8
W71XLIFTS
 62
1
 10
2177.711
 20
-8324.937
 30
0.000
 70
    32
  0
SEQEND
  8
W71XLIFTS
  0
POLYLINE
  8
W71XLIFTS
 62
1
 66
     1
 70
     9
  0
VERTEX
  8
W71XLIFTS
 62
1
 10
2209.237
 20
-8351.605
 30
0.000
 70
    32
  0
VERTEX
  8
W71XLIFTS
 62
1
 10
2209.235
 20
-8351.561
 30
0.000
 70
    32
  0
VERTEX
  8
W71XLIFTS
 62
1
 10
2209.229
 20
-8351.518
 30
0.000
 70
    32
  0
VERTEX
  8
W71XLIFTS
 62
1
 10
2209.220
 20
-8351.476
 30
0.000
 70
    32
  0
VERTEX
  8
W71XLIFTS
 62
1
 10
2209.207
 20
-8351.434
 30
0.000
 70
    32
  0
VERTEX
  8
W71XLIFTS
 62
1
 10
2209.190
 20
-8351.394
 30
0.000
 70
    32
  0
VERTEX
  8
W71XLIFTS
 62
1
 10
2209.170
 20
-8351.355
 30
0.000
 70
    32
  0
VERTEX
  8
W71XLIFTS
 62
1
 10
2209.147
 20
-8351.318
 30
0.000
 70
    32
  0
VERTEX
  8
W71XLIFTS
 62
1
 10
2209.120
 20
-8351.284
 30
0.000
 70
    32
  0
VERTEX
  8
W71XLIFTS
 62
1
 10
2209.091
 20
-8351.251
 30
0.000
 70
    32
  0
VERTEX
  8
W71XLIFTS
 62
1
 10
2209.058
 20
-8351.222
 30
0.000
 70
    32
  0
VERTEX
  8
W71XLIFTS
 62
1
 10
2209.024
 20
-8351.195
 30
0.000
 70
    32
  0
VERTEX
  8
W71XLIFTS
 62
1
 10
2208.987
 20
-8351.172
 30
0.000
 70
    32
  0
VERTEX
  8
W71XLIFTS
 62
1
 10
2208.948
 20
-8351.152
 30
0.000
 70
    32
  0
VERTEX
  8
W71XLIFTS
 62
1
 10
2208.908
 20
-8351.135
 30
0.000
 70
    32
  0
VERTEX
  8
W71XLIFTS
 62
1
 10
2208.866
 20
-8351.122
 30
0.000
 70
    32
  0
VERTEX
  8
W71XLIFTS
 62
1
 10
2208.824
 20
-8351.113
 30
0.000
 70
    32
  0
VERTEX
  8
W71XLIFTS
 62
1
 10
2208.781
 20
-8351.107
 30
0.000
 70
    32
  0
VERTEX
  8
W71XLIFTS
 62
1
 10
2208.737
 20
-8351.105
 30
0.000
 70
    32
  0
VERTEX
  8
W71XLIFTS
 62
1
 10
2208.693
 20
-8351.107
 30
0.000
 70
    32
  0
VERTEX
  8
W71XLIFTS
 62
1
 10
2208.650
 20
-8351.113
 30
0.000
 70
    32
  0
VERTEX
  8
W71XLIFTS
 62
1
 10
2208.608
 20
-8351.122
 30
0.000
 70
    32
  0
VERTEX
  8
W71XLIFTS
 62
1
 10
2208.566
 20
-8351.135
 30
0.000
 70
    32
  0
VERTEX
  8
W71XLIFTS
 62
1
 10
2208.526
 20
-8351.152
 30
0.000
 70
    32
  0
VERTEX
  8
W71XLIFTS
 62
1
 10
2208.487
 20
-8351.172
 30
0.000
 70
    32
  0
VERTEX
  8
W71XLIFTS
 62
1
 10
2208.450
 20
-8351.195
 30
0.000
 70
    32
  0
VERTEX
  8
W71XLIFTS
 62
1
 10
2208.416
 20
-8351.222
 30
0.000
 70
    32
  0
VERTEX
  8
W71XLIFTS
 62
1
 10
2208.383
 20
-8351.251
 30
0.000
 70
    32
  0
VERTEX
  8
W71XLIFTS
 62
1
 10
2208.354
 20
-8351.284
 30
0.000
 70
    32
  0
VERTEX
  8
W71XLIFTS
 62
1
 10
2208.327
 20
-8351.318
 30
0.000
 70
    32
  0
VERTEX
  8
W71XLIFTS
 62
1
 10
2208.304
 20
-8351.355
 30
0.000
 70
    32
  0
VERTEX
  8
W71XLIFTS
 62
1
 10
2208.284
 20
-8351.394
 30
0.000
 70
    32
  0
VERTEX
  8
W71XLIFTS
 62
1
 10
2208.267
 20
-8351.434
 30
0.000
 70
    32
  0
VERTEX
  8
W71XLIFTS
 62
1
 10
2208.254
 20
-8351.476
 30
0.000
 70
    32
  0
VERTEX
  8
W71XLIFTS
 62
1
 10
2208.245
 20
-8351.518
 30
0.000
 70
    32
  0
VERTEX
  8
W71XLIFTS
 62
1
 10
2208.239
 20
-8351.561
 30
0.000
 70
    32
  0
VERTEX
  8
W71XLIFTS
 62
1
 10
2208.237
 20
-8351.605
 30
0.000
 70
    32
  0
VERTEX
  8
W71XLIFTS
 62
1
 10
2208.239
 20
-8351.649
 30
0.000
 70
    32
  0
VERTEX
  8
W71XLIFTS
 62
1
 10
2208.245
 20
-8351.692
 30
0.000
 70
    32
  0
VERTEX
  8
W71XLIFTS
 62
1
 10
2208.254
 20
-8351.734
 30
0.000
 70
    32
  0
VERTEX
  8
W71XLIFTS
 62
1
 10
2208.267
 20
-8351.776
 30
0.000
 70
    32
  0
VERTEX
  8
W71XLIFTS
 62
1
 10
2208.284
 20
-8351.816
 30
0.000
 70
    32
  0
VERTEX
  8
W71XLIFTS
 62
1
 10
2208.304
 20
-8351.855
 30
0.000
 70
    32
  0
VERTEX
  8
W71XLIFTS
 62
1
 10
2208.327
 20
-8351.892
 30
0.000
 70
    32
  0
VERTEX
  8
W71XLIFTS
 62
1
 10
2208.354
 20
-8351.926
 30
0.000
 70
    32
  0
VERTEX
  8
W71XLIFTS
 62
1
 10
2208.384
 20
-8351.959
 30
0.000
 70
    32
  0
VERTEX
  8
W71XLIFTS
 62
1
 10
2208.416
 20
-8351.988
 30
0.000
 70
    32
  0
VERTEX
  8
W71XLIFTS
 62
1
 10
2208.450
 20
-8352.015
 30
0.000
 70
    32
  0
VERTEX
  8
W71XLIFTS
 62
1
 10
2208.487
 20
-8352.038
 30
0.000
 70
    32
  0
VERTEX
  8
W71XLIFTS
 62
1
 10
2208.526
 20
-8352.058
 30
0.000
 70
    32
  0
VERTEX
  8
W71XLIFTS
 62
1
 10
2208.566
 20
-8352.075
 30
0.000
 70
    32
  0
VERTEX
  8
W71XLIFTS
 62
1
 10
2208.608
 20
-8352.088
 30
0.000
 70
    32
  0
VERTEX
  8
W71XLIFTS
 62
1
 10
2208.650
 20
-8352.097
 30
0.000
 70
    32
  0
VERTEX
  8
W71XLIFTS
 62
1
 10
2208.694
 20
-8352.103
 30
0.000
 70
    32
  0
VERTEX
  8
W71XLIFTS
 62
1
 10
2208.737
 20
-8352.105
 30
0.000
 70
    32
  0
VERTEX
  8
W71XLIFTS
 62
1
 10
2208.781
 20
-8352.103
 30
0.000
 70
    32
  0
VERTEX
  8
W71XLIFTS
 62
1
 10
2208.824
 20
-8352.097
 30
0.000
 70
    32
  0
VERTEX
  8
W71XLIFTS
 62
1
 10
2208.867
 20
-8352.088
 30
0.000
 70
    32
  0
VERTEX
  8
W71XLIFTS
 62
1
 10
2208.908
 20
-8352.075
 30
0.000
 70
    32
  0
VERTEX
  8
W71XLIFTS
 62
1
 10
2208.948
 20
-8352.058
 30
0.000
 70
    32
  0
VERTEX
  8
W71XLIFTS
 62
1
 10
2208.987
 20
-8352.038
 30
0.000
 70
    32
  0
VERTEX
  8
W71XLIFTS
 62
1
 10
2209.024
 20
-8352.015
 30
0.000
 70
    32
  0
VERTEX
  8
W71XLIFTS
 62
1
 10
2209.058
 20
-8351.988
 30
0.000
 70
    32
  0
VERTEX
  8
W71XLIFTS
 62
1
 10
2209.091
 20
-8351.958
 30
0.000
 70
    32
  0
VERTEX
  8
W71XLIFTS
 62
1
 10
2209.120
 20
-8351.926
 30
0.000
 70
    32
  0
VERTEX
  8
W71XLIFTS
 62
1
 10
2209.147
 20
-8351.892
 30
0.000
 70
    32
  0
VERTEX
  8
W71XLIFTS
 62
1
 10
2209.170
 20
-8351.855
 30
0.000
 70
    32
  0
VERTEX
  8
W71XLIFTS
 62
1
 10
2209.190
 20
-8351.816
 30
0.000
 70
    32
  0
VERTEX
  8
W71XLIFTS
 62
1
 10
2209.207
 20
-8351.776
 30
0.000
 70
    32
  0
VERTEX
  8
W71XLIFTS
 62
1
 10
2209.220
 20
-8351.734
 30
0.000
 70
    32
  0
VERTEX
  8
W71XLIFTS
 62
1
 10
2209.229
 20
-8351.692
 30
0.000
 70
    32
  0
VERTEX
  8
W71XLIFTS
 62
1
 10
2209.235
 20
-8351.648
 30
0.000
 70
    32
  0
VERTEX
  8
W71XLIFTS
 62
1
 10
2209.237
 20
-8351.605
 30
0.000
 70
    32
  0
SEQEND
  8
W71XLIFTS
  0
POLYLINE
  8
W71XLIFTS
 62
1
 66
     1
 70
     9
  0
VERTEX
  8
W71XLIFTS
 62
1
 10
2171.531
 20
-8257.715
 30
0.000
 70
    32
  0
VERTEX
  8
W71XLIFTS
 62
1
 10
2171.529
 20
-8257.671
 30
0.000
 70
    32
  0
VERTEX
  8
W71XLIFTS
 62
1
 10
2171.523
 20
-8257.628
 30
0.000
 70
    32
  0
VERTEX
  8
W71XLIFTS
 62
1
 10
2171.514
 20
-8257.586
 30
0.000
 70
    32
  0
VERTEX
  8
W71XLIFTS
 62
1
 10
2171.501
 20
-8257.544
 30
0.000
 70
    32
  0
VERTEX
  8
W71XLIFTS
 62
1
 10
2171.484
 20
-8257.504
 30
0.000
 70
    32
  0
VERTEX
  8
W71XLIFTS
 62
1
 10
2171.464
 20
-8257.465
 30
0.000
 70
    32
  0
VERTEX
  8
W71XLIFTS
 62
1
 10
2171.441
 20
-8257.428
 30
0.000
 70
    32
  0
VERTEX
  8
W71XLIFTS
 62
1
 10
2171.414
 20
-8257.394
 30
0.000
 70
    32
  0
VERTEX
  8
W71XLIFTS
 62
1
 10
2171.385
 20
-8257.361
 30
0.000
 70
    32
  0
VERTEX
  8
W71XLIFTS
 62
1
 10
2171.352
 20
-8257.332
 30
0.000
 70
    32
  0
VERTEX
  8
W71XLIFTS
 62
1
 10
2171.318
 20
-8257.305
 30
0.000
 70
    32
  0
VERTEX
  8
W71XLIFTS
 62
1
 10
2171.281
 20
-8257.282
 30
0.000
 70
    32
  0
VERTEX
  8
W71XLIFTS
 62
1
 10
2171.242
 20
-8257.262
 30
0.000
 70
    32
  0
VERTEX
  8
W71XLIFTS
 62
1
 10
2171.202
 20
-8257.245
 30
0.000
 70
    32
  0
VERTEX
  8
W71XLIFTS
 62
1
 10
2171.160
 20
-8257.232
 30
0.000
 70
    32
  0
VERTEX
  8
W71XLIFTS
 62
1
 10
2171.118
 20
-8257.223
 30
0.000
 70
    32
  0
VERTEX
  8
W71XLIFTS
 62
1
 10
2171.075
 20
-8257.217
 30
0.000
 70
    32
  0
VERTEX
  8
W71XLIFTS
 62
1
 10
2171.031
 20
-8257.215
 30
0.000
 70
    32
  0
VERTEX
  8
W71XLIFTS
 62
1
 10
2170.987
 20
-8257.217
 30
0.000
 70
    32
  0
VERTEX
  8
W71XLIFTS
 62
1
 10
2170.944
 20
-8257.223
 30
0.000
 70
    32
  0
VERTEX
  8
W71XLIFTS
 62
1
 10
2170.902
 20
-8257.232
 30
0.000
 70
    32
  0
VERTEX
  8
W71XLIFTS
 62
1
 10
2170.860
 20
-8257.245
 30
0.000
 70
    32
  0
VERTEX
  8
W71XLIFTS
 62
1
 10
2170.820
 20
-8257.262
 30
0.000
 70
    32
  0
VERTEX
  8
W71XLIFTS
 62
1
 10
2170.781
 20
-8257.282
 30
0.000
 70
    32
  0
VERTEX
  8
W71XLIFTS
 62
1
 10
2170.744
 20
-8257.305
 30
0.000
 70
    32
  0
VERTEX
  8
W71XLIFTS
 62
1
 10
2170.710
 20
-8257.332
 30
0.000
 70
    32
  0
VERTEX
  8
W71XLIFTS
 62
1
 10
2170.677
 20
-8257.361
 30
0.000
 70
    32
  0
VERTEX
  8
W71XLIFTS
 62
1
 10
2170.648
 20
-8257.394
 30
0.000
 70
    32
  0
VERTEX
  8
W71XLIFTS
 62
1
 10
2170.621
 20
-8257.428
 30
0.000
 70
    32
  0
VERTEX
  8
W71XLIFTS
 62
1
 10
2170.598
 20
-8257.465
 30
0.000
 70
    32
  0
VERTEX
  8
W71XLIFTS
 62
1
 10
2170.578
 20
-8257.504
 30
0.000
 70
    32
  0
VERTEX
  8
W71XLIFTS
 62
1
 10
2170.561
 20
-8257.544
 30
0.000
 70
    32
  0
VERTEX
  8
W71XLIFTS
 62
1
 10
2170.548
 20
-8257.586
 30
0.000
 70
    32
  0
VERTEX
  8
W71XLIFTS
 62
1
 10
2170.539
 20
-8257.628
 30
0.000
 70
    32
  0
VERTEX
  8
W71XLIFTS
 62
1
 10
2170.533
 20
-8257.671
 30
0.000
 70
    32
  0
VERTEX
  8
W71XLIFTS
 62
1
 10
2170.531
 20
-8257.715
 30
0.000
 70
    32
  0
VERTEX
  8
W71XLIFTS
 62
1
 10
2170.533
 20
-8257.759
 30
0.000
 70
    32
  0
VERTEX
  8
W71XLIFTS
 62
1
 10
2170.539
 20
-8257.802
 30
0.000
 70
    32
  0
VERTEX
  8
W71XLIFTS
 62
1
 10
2170.548
 20
-8257.844
 30
0.000
 70
    32
  0
VERTEX
  8
W71XLIFTS
 62
1
 10
2170.561
 20
-8257.886
 30
0.000
 70
    32
  0
VERTEX
  8
W71XLIFTS
 62
1
 10
2170.578
 20
-8257.926
 30
0.000
 70
    32
  0
VERTEX
  8
W71XLIFTS
 62
1
 10
2170.598
 20
-8257.965
 30
0.000
 70
    32
  0
VERTEX
  8
W71XLIFTS
 62
1
 10
2170.621
 20
-8258.002
 30
0.000
 70
    32
  0
VERTEX
  8
W71XLIFTS
 62
1
 10
2170.648
 20
-8258.036
 30
0.000
 70
    32
  0
VERTEX
  8
W71XLIFTS
 62
1
 10
2170.678
 20
-8258.069
 30
0.000
 70
    32
  0
VERTEX
  8
W71XLIFTS
 62
1
 10
2170.710
 20
-8258.098
 30
0.000
 70
    32
  0
VERTEX
  8
W71XLIFTS
 62
1
 10
2170.744
 20
-8258.125
 30
0.000
 70
    32
  0
VERTEX
  8
W71XLIFTS
 62
1
 10
2170.781
 20
-8258.148
 30
0.000
 70
    32
  0
VERTEX
  8
W71XLIFTS
 62
1
 10
2170.820
 20
-8258.168
 30
0.000
 70
    32
  0
VERTEX
  8
W71XLIFTS
 62
1
 10
2170.860
 20
-8258.185
 30
0.000
 70
    32
  0
VERTEX
  8
W71XLIFTS
 62
1
 10
2170.902
 20
-8258.198
 30
0.000
 70
    32
  0
VERTEX
  8
W71XLIFTS
 62
1
 10
2170.944
 20
-8258.207
 30
0.000
 70
    32
  0
VERTEX
  8
W71XLIFTS
 62
1
 10
2170.988
 20
-8258.213
 30
0.000
 70
    32
  0
VERTEX
  8
W71XLIFTS
 62
1
 10
2171.031
 20
-8258.215
 30
0.000
 70
    32
  0
VERTEX
  8
W71XLIFTS
 62
1
 10
2171.075
 20
-8258.213
 30
0.000
 70
    32
  0
VERTEX
  8
W71XLIFTS
 62
1
 10
2171.118
 20
-8258.207
 30
0.000
 70
    32
  0
VERTEX
  8
W71XLIFTS
 62
1
 10
2171.161
 20
-8258.198
 30
0.000
 70
    32
  0
VERTEX
  8
W71XLIFTS
 62
1
 10
2171.202
 20
-8258.185
 30
0.000
 70
    32
  0
VERTEX
  8
W71XLIFTS
 62
1
 10
2171.242
 20
-8258.168
 30
0.000
 70
    32
  0
VERTEX
  8
W71XLIFTS
 62
1
 10
2171.281
 20
-8258.148
 30
0.000
 70
    32
  0
VERTEX
  8
W71XLIFTS
 62
1
 10
2171.318
 20
-8258.125
 30
0.000
 70
    32
  0
VERTEX
  8
W71XLIFTS
 62
1
 10
2171.352
 20
-8258.098
 30
0.000
 70
    32
  0
VERTEX
  8
W71XLIFTS
 62
1
 10
2171.385
 20
-8258.068
 30
0.000
 70
    32
  0
VERTEX
  8
W71XLIFTS
 62
1
 10
2171.414
 20
-8258.036
 30
0.000
 70
    32
  0
VERTEX
  8
W71XLIFTS
 62
1
 10
2171.441
 20
-8258.002
 30
0.000
 70
    32
  0
VERTEX
  8
W71XLIFTS
 62
1
 10
2171.464
 20
-8257.965
 30
0.000
 70
    32
  0
VERTEX
  8
W71XLIFTS
 62
1
 10
2171.484
 20
-8257.926
 30
0.000
 70
    32
  0
VERTEX
  8
W71XLIFTS
 62
1
 10
2171.501
 20
-8257.886
 30
0.000
 70
    32
  0
VERTEX
  8
W71XLIFTS
 62
1
 10
2171.514
 20
-8257.844
 30
0.000
 70
    32
  0
VERTEX
  8
W71XLIFTS
 62
1
 10
2171.523
 20
-8257.802
 30
0.000
 70
    32
  0
VERTEX
  8
W71XLIFTS
 62
1
 10
2171.529
 20
-8257.758
 30
0.000
 70
    32
  0
VERTEX
  8
W71XLIFTS
 62
1
 10
2171.531
 20
-8257.715
 30
0.000
 70
    32
  0
SEQEND
  8
W71XLIFTS
  0
POLYLINE
  8
W71XLIFTS
 62
1
 66
     1
 70
     9
  0
VERTEX
  8
W71XLIFTS
 62
1
 10
2159.681
 20
-8239.017
 30
0.000
 70
    32
  0
VERTEX
  8
W71XLIFTS
 62
1
 10
2159.679
 20
-8238.973
 30
0.000
 70
    32
  0
VERTEX
  8
W71XLIFTS
 62
1
 10
2159.673
 20
-8238.930
 30
0.000
 70
    32
  0
VERTEX
  8
W71XLIFTS
 62
1
 10
2159.664
 20
-8238.888
 30
0.000
 70
    32
  0
VERTEX
  8
W71XLIFTS
 62
1
 10
2159.651
 20
-8238.846
 30
0.000
 70
    32
  0
VERTEX
  8
W71XLIFTS
 62
1
 10
2159.634
 20
-8238.806
 30
0.000
 70
    32
  0
VERTEX
  8
W71XLIFTS
 62
1
 10
2159.614
 20
-8238.767
 30
0.000
 70
    32
  0
VERTEX
  8
W71XLIFTS
 62
1
 10
2159.591
 20
-8238.730
 30
0.000
 70
    32
  0
VERTEX
  8
W71XLIFTS
 62
1
 10
2159.564
 20
-8238.696
 30
0.000
 70
    32
  0
VERTEX
  8
W71XLIFTS
 62
1
 10
2159.535
 20
-8238.663
 30
0.000
 70
    32
  0
VERTEX
  8
W71XLIFTS
 62
1
 10
2159.502
 20
-8238.634
 30
0.000
 70
    32
  0
VERTEX
  8
W71XLIFTS
 62
1
 10
2159.468
 20
-8238.607
 30
0.000
 70
    32
  0
VERTEX
  8
W71XLIFTS
 62
1
 10
2159.431
 20
-8238.584
 30
0.000
 70
    32
  0
VERTEX
  8
W71XLIFTS
 62
1
 10
2159.392
 20
-8238.564
 30
0.000
 70
    32
  0
VERTEX
  8
W71XLIFTS
 62
1
 10
2159.352
 20
-8238.547
 30
0.000
 70
    32
  0
VERTEX
  8
W71XLIFTS
 62
1
 10
2159.310
 20
-8238.534
 30
0.000
 70
    32
  0
VERTEX
  8
W71XLIFTS
 62
1
 10
2159.268
 20
-8238.525
 30
0.000
 70
    32
  0
VERTEX
  8
W71XLIFTS
 62
1
 10
2159.225
 20
-8238.519
 30
0.000
 70
    32
  0
VERTEX
  8
W71XLIFTS
 62
1
 10
2159.181
 20
-8238.517
 30
0.000
 70
    32
  0
VERTEX
  8
W71XLIFTS
 62
1
 10
2159.137
 20
-8238.519
 30
0.000
 70
    32
  0
VERTEX
  8
W71XLIFTS
 62
1
 10
2159.094
 20
-8238.525
 30
0.000
 70
    32
  0
VERTEX
  8
W71XLIFTS
 62
1
 10
2159.052
 20
-8238.534
 30
0.000
 70
    32
  0
VERTEX
  8
W71XLIFTS
 62
1
 10
2159.010
 20
-8238.547
 30
0.000
 70
    32
  0
VERTEX
  8
W71XLIFTS
 62
1
 10
2158.970
 20
-8238.564
 30
0.000
 70
    32
  0
VERTEX
  8
W71XLIFTS
 62
1
 10
2158.931
 20
-8238.584
 30
0.000
 70
    32
  0
VERTEX
  8
W71XLIFTS
 62
1
 10
2158.894
 20
-8238.607
 30
0.000
 70
    32
  0
VERTEX
  8
W71XLIFTS
 62
1
 10
2158.860
 20
-8238.634
 30
0.000
 70
    32
  0
VERTEX
  8
W71XLIFTS
 62
1
 10
2158.827
 20
-8238.663
 30
0.000
 70
    32
  0
VERTEX
  8
W71XLIFTS
 62
1
 10
2158.798
 20
-8238.696
 30
0.000
 70
    32
  0
VERTEX
  8
W71XLIFTS
 62
1
 10
2158.771
 20
-8238.730
 30
0.000
 70
    32
  0
VERTEX
  8
W71XLIFTS
 62
1
 10
2158.748
 20
-8238.767
 30
0.000
 70
    32
  0
VERTEX
  8
W71XLIFTS
 62
1
 10
2158.728
 20
-8238.806
 30
0.000
 70
    32
  0
VERTEX
  8
W71XLIFTS
 62
1
 10
2158.711
 20
-8238.846
 30
0.000
 70
    32
  0
VERTEX
  8
W71XLIFTS
 62
1
 10
2158.698
 20
-8238.888
 30
0.000
 70
    32
  0
VERTEX
  8
W71XLIFTS
 62
1
 10
2158.689
 20
-8238.930
 30
0.000
 70
    32
  0
VERTEX
  8
W71XLIFTS
 62
1
 10
2158.683
 20
-8238.973
 30
0.000
 70
    32
  0
VERTEX
  8
W71XLIFTS
 62
1
 10
2158.681
 20
-8239.017
 30
0.000
 70
    32
  0
VERTEX
  8
W71XLIFTS
 62
1
 10
2158.683
 20
-8239.061
 30
0.000
 70
    32
  0
VERTEX
  8
W71XLIFTS
 62
1
 10
2158.689
 20
-8239.104
 30
0.000
 70
    32
  0
VERTEX
  8
W71XLIFTS
 62
1
 10
2158.698
 20
-8239.146
 30
0.000
 70
    32
  0
VERTEX
  8
W71XLIFTS
 62
1
 10
2158.711
 20
-8239.188
 30
0.000
 70
    32
  0
VERTEX
  8
W71XLIFTS
 62
1
 10
2158.728
 20
-8239.228
 30
0.000
 70
    32
  0
VERTEX
  8
W71XLIFTS
 62
1
 10
2158.748
 20
-8239.267
 30
0.000
 70
    32
  0
VERTEX
  8
W71XLIFTS
 62
1
 10
2158.771
 20
-8239.304
 30
0.000
 70
    32
  0
VERTEX
  8
W71XLIFTS
 62
1
 10
2158.798
 20
-8239.338
 30
0.000
 70
    32
  0
VERTEX
  8
W71XLIFTS
 62
1
 10
2158.828
 20
-8239.371
 30
0.000
 70
    32
  0
VERTEX
  8
W71XLIFTS
 62
1
 10
2158.860
 20
-8239.400
 30
0.000
 70
    32
  0
VERTEX
  8
W71XLIFTS
 62
1
 10
2158.894
 20
-8239.427
 30
0.000
 70
    32
  0
VERTEX
  8
W71XLIFTS
 62
1
 10
2158.931
 20
-8239.450
 30
0.000
 70
    32
  0
VERTEX
  8
W71XLIFTS
 62
1
 10
2158.970
 20
-8239.470
 30
0.000
 70
    32
  0
VERTEX
  8
W71XLIFTS
 62
1
 10
2159.010
 20
-8239.487
 30
0.000
 70
    32
  0
VERTEX
  8
W71XLIFTS
 62
1
 10
2159.052
 20
-8239.500
 30
0.000
 70
    32
  0
VERTEX
  8
W71XLIFTS
 62
1
 10
2159.094
 20
-8239.509
 30
0.000
 70
    32
  0
VERTEX
  8
W71XLIFTS
 62
1
 10
2159.138
 20
-8239.515
 30
0.000
 70
    32
  0
VERTEX
  8
W71XLIFTS
 62
1
 10
2159.181
 20
-8239.517
 30
0.000
 70
    32
  0
VERTEX
  8
W71XLIFTS
 62
1
 10
2159.225
 20
-8239.515
 30
0.000
 70
    32
  0
VERTEX
  8
W71XLIFTS
 62
1
 10
2159.268
 20
-8239.509
 30
0.000
 70
    32
  0
VERTEX
  8
W71XLIFTS
 62
1
 10
2159.311
 20
-8239.500
 30
0.000
 70
    32
  0
VERTEX
  8
W71XLIFTS
 62
1
 10
2159.352
 20
-8239.487
 30
0.000
 70
    32
  0
VERTEX
  8
W71XLIFTS
 62
1
 10
2159.392
 20
-8239.470
 30
0.000
 70
    32
  0
VERTEX
  8
W71XLIFTS
 62
1
 10
2159.431
 20
-8239.450
 30
0.000
 70
    32
  0
VERTEX
  8
W71XLIFTS
 62
1
 10
2159.468
 20
-8239.427
 30
0.000
 70
    32
  0
VERTEX
  8
W71XLIFTS
 62
1
 10
2159.502
 20
-8239.400
 30
0.000
 70
    32
  0
VERTEX
  8
W71XLIFTS
 62
1
 10
2159.535
 20
-8239.370
 30
0.000
 70
    32
  0
VERTEX
  8
W71XLIFTS
 62
1
 10
2159.564
 20
-8239.338
 30
0.000
 70
    32
  0
VERTEX
  8
W71XLIFTS
 62
1
 10
2159.591
 20
-8239.304
 30
0.000
 70
    32
  0
VERTEX
  8
W71XLIFTS
 62
1
 10
2159.614
 20
-8239.267
 30
0.000
 70
    32
  0
VERTEX
  8
W71XLIFTS
 62
1
 10
2159.634
 20
-8239.228
 30
0.000
 70
    32
  0
VERTEX
  8
W71XLIFTS
 62
1
 10
2159.651
 20
-8239.188
 30
0.000
 70
    32
  0
VERTEX
  8
W71XLIFTS
 62
1
 10
2159.664
 20
-8239.146
 30
0.000
 70
    32
  0
VERTEX
  8
W71XLIFTS
 62
1
 10
2159.673
 20
-8239.104
 30
0.000
 70
    32
  0
VERTEX
  8
W71XLIFTS
 62
1
 10
2159.679
 20
-8239.060
 30
0.000
 70
    32
  0
VERTEX
  8
W71XLIFTS
 62
1
 10
2159.681
 20
-8239.017
 30
0.000
 70
    32
  0
SEQEND
  8
W71XLIFTS
  0
LINE
  8
W71XLIFTS
 62
1
 10
2157.714
 20
-8260.269
 30
0.000
 11
2127.426
 21
-8191.553
 31
0.000
  0
TEXT
  8
W71XLIFTS
 62
1
 10
2147.635
 20
-8209.908
 30
0.000
 40
3.000
  1
BM -1702.21
 50
24.126
 41
 1.0 
  0
TEXT
  8
W71XLIFTS
 62
1
 10
2153.256
 20
-8218.278
 30
0.000
 40
3.000
  1
-37'
 50
305.666
 41
 1.0 
  0
LINE
  8
W71XLIFTS
 62
1
 10
2136.237
 20
-8187.427
 30
0.000
 11
2159.181
 21
-8239.017
 31
0.000
  0
LINE
  8
W71XLIFTS
 62
1
 10
2159.181
 20
-8239.017
 30
0.000
 11
2161.884
 21
-8243.090
 31
0.000
  0
LINE
  8
W71XLIFTS
 62
1
 10
2161.884
 20
-8243.090
 30
0.000
 11
2170.997
 21
-8246.549
 31
0.000
  0
LINE
  8
W71XLIFTS
 62
1
 10
2170.997
 20
-8246.549
 30
0.000
 11
2176.129
 21
-8254.551
 31
0.000
  0
LINE
  8
W71XLIFTS
 62
1
 10
2176.129
 20
-8254.551
 30
0.000
 11
2180.025
 21
-8283.477
 31
0.000
  0
LINE
  8
W71XLIFTS
 62
1
 10
2180.025
 20
-8283.477
 30
0.000
 11
2180.758
 21
-8290.325
 31
0.000
  0
LINE
  8
W71XLIFTS
 62
1
 10
2180.758
 20
-8290.325
 30
0.000
 11
2192.695
 21
-8285.907
 31
0.000
  0
LINE
  8
W71XLIFTS
 62
1
 10
2192.695
 20
-8285.907
 30
0.000
 11
2192.185
 21
-8289.337
 31
0.000
  0
LINE
  8
W71XLIFTS
 62
1
 10
2192.185
 20
-8289.337
 30
0.000
 11
2197.998
 21
-8313.487
 31
0.000
  0
LINE
  8
W71XLIFTS
 62
1
 10
2197.998
 20
-8313.487
 30
0.000
 11
2199.387
 21
-8319.714
 31
0.000
  0
LINE
  8
W71XLIFTS
 62
1
 10
2199.387
 20
-8319.714
 30
0.000
 11
2203.058
 21
-8327.964
 31
0.000
  0
LINE
  8
W71XLIFTS
 62
1
 10
2203.058
 20
-8327.964
 30
0.000
 11
2201.712
 21
-8331.201
 31
0.000
  0
LINE
  8
W71XLIFTS
 62
1
 10
2201.712
 20
-8331.201
 30
0.000
 11
2204.949
 21
-8352.308
 31
0.000
  0
LINE
  8
W71XLIFTS
 62
1
 10
2204.949
 20
-8352.308
 30
0.000
 11
2208.473
 21
-8362.537
 31
0.000
  0
LINE
  8
W71XLIFTS
 62
1
 10
2208.473
 20
-8362.537
 30
0.000
 11
2207.844
 21
-8377.752
 31
0.000
  0
LINE
  8
W71XLIFTS
 62
1
 10
2207.844
 20
-8377.752
 30
0.000
 11
2213.375
 21
-8396.192
 31
0.000
  0
LINE
  8
W71XLIFTS
 62
1
 10
2213.375
 20
-8396.192
 30
0.000
 11
2215.482
 21
-8412.636
 31
0.000
  0
LINE
  8
W71XLIFTS
 62
1
 10
2215.482
 20
-8412.636
 30
0.000
 11
2205.945
 21
-8414.380
 31
0.000
  0
LINE
  8
W71XLIFTS
 62
1
 10
2205.945
 20
-8414.380
 30
0.000
 11
2200.243
 21
-8398.109
 31
0.000
  0
LINE
  8
W71XLIFTS
 62
1
 10
2200.243
 20
-8398.109
 30
0.000
 11
2196.988
 21
-8394.440
 31
0.000
  0
LINE
  8
W71XLIFTS
 62
1
 10
2196.988
 20
-8394.440
 30
0.000
 11
2194.684
 21
-8376.665
 31
0.000
  0
LINE
  8
W71XLIFTS
 62
1
 10
2194.684
 20
-8376.665
 30
0.000
 11
2190.413
 21
-8356.478
 31
0.000
  0
LINE
  8
W71XLIFTS
 62
1
 10
2190.413
 20
-8356.478
 30
0.000
 11
2174.487
 21
-8350.061
 31
0.000
  0
LINE
  8
W71XLIFTS
 62
1
 10
2174.487
 20
-8350.061
 30
0.000
 11
2177.247
 21
-8336.541
 31
0.000
  0
LINE
  8
W71XLIFTS
 62
1
 10
2177.247
 20
-8336.541
 30
0.000
 11
2178.649
 21
-8330.020
 31
0.000
  0
LINE
  8
W71XLIFTS
 62
1
 10
2178.649
 20
-8330.020
 30
0.000
 11
2168.341
 21
-8310.239
 31
0.000
  0
LINE
  8
W71XLIFTS
 62
1
 10
2168.341
 20
-8310.239
 30
0.000
 11
2166.208
 21
-8298.110
 31
0.000
  0
LINE
  8
W71XLIFTS
 62
1
 10
2166.208
 20
-8298.110
 30
0.000
 11
2168.693
 21
-8294.714
 31
0.000
  0
LINE
  8
W71XLIFTS
 62
1
 10
2168.693
 20
-8294.714
 30
0.000
 11
2163.539
 21
-8284.804
 31
0.000
  0
LINE
  8
W71XLIFTS
 62
1
 10
2163.539
 20
-8284.804
 30
0.000
 11
2155.023
 21
-8279.835
 31
0.000
  0
LINE
  8
W71XLIFTS
 62
1
 10
2155.023
 20
-8279.835
 30
0.000
 11
2157.714
 21
-8260.269
 31
0.000
  0
LINE
  8
W71XLIFTS
 62
1
 10
2174.502
 20
-8264.008
 30
0.000
 11
2175.580
 21
-8282.185
 31
0.000
  0
LINE
  8
W71XLIFTS
 62
1
 10
2175.580
 20
-8282.185
 30
0.000
 11
2182.690
 21
-8301.271
 31
0.000
  0
LINE
  8
W71XLIFTS
 62
1
 10
2182.690
 20
-8301.271
 30
0.000
 11
2178.652
 21
-8308.790
 31
0.000
  0
LINE
  8
W71XLIFTS
 62
1
 10
2178.652
 20
-8308.790
 30
0.000
 11
2189.560
 21
-8318.086
 31
0.000
  0
LINE
  8
W71XLIFTS
 62
1
 10
2189.560
 20
-8318.086
 30
0.000
 11
2198.507
 21
-8339.509
 31
0.000
  0
LINE
  8
W71XLIFTS
 62
1
 10
2198.507
 20
-8339.509
 30
0.000
 11
2196.771
 21
-8368.091
 31
0.000
  0
LINE
  8
W71XLIFTS
 62
1
 10
2196.771
 20
-8368.091
 30
0.000
 11
2199.403
 21
-8396.472
 31
0.000
  0
LINE
  8
W71XLIFTS
 62
1
 10
2199.403
 20
-8396.472
 30
0.000
 11
2198.572
 21
-8406.989
 31
0.000
  0
LINE
  8
W71XLIFTS
 62
1
 10
2198.572
 20
-8406.989
 30
0.000
 11
2187.623
 21
-8409.127
 31
0.000
  0
LINE
  8
W71XLIFTS
 62
1
 10
2187.623
 20
-8409.127
 30
0.000
 11
2185.150
 21
-8398.375
 31
0.000
  0
LINE
  8
W71XLIFTS
 62
1
 10
2185.150
 20
-8398.375
 30
0.000
 11
2179.594
 21
-8396.087
 31
0.000
  0
LINE
  8
W71XLIFTS
 62
1
 10
2179.594
 20
-8396.087
 30
0.000
 11
2177.125
 21
-8383.274
 31
0.000
  0
LINE
  8
W71XLIFTS
 62
1
 10
2177.125
 20
-8383.274
 30
0.000
 11
2173.502
 21
-8345.406
 31
0.000
  0
LINE
  8
W71XLIFTS
 62
1
 10
2173.502
 20
-8345.406
 30
0.000
 11
2166.317
 21
-8329.045
 31
0.000
  0
LINE
  8
W71XLIFTS
 62
1
 10
2166.317
 20
-8329.045
 30
0.000
 11
2166.556
 21
-8310.725
 31
0.000
  0
LINE
  8
W71XLIFTS
 62
1
 10
2166.556
 20
-8310.725
 30
0.000
 11
2161.493
 21
-8298.062
 31
0.000
  0
LINE
  8
W71XLIFTS
 62
1
 10
2161.493
 20
-8298.062
 30
0.000
 11
2161.596
 21
-8274.795
 31
0.000
  0
LINE
  8
W71XLIFTS
 62
1
 10
2161.596
 20
-8274.795
 30
0.000
 11
2161.123
 21
-8264.335
 31
0.000
  0
LINE
  8
W71XLIFTS
 62
1
 10
2161.123
 20
-8264.335
 30
0.000
 11
2159.747
 21
-8259.413
 31
0.000
  0
LINE
  8
W71XLIFTS
 62
1
 10
2159.747
 20
-8259.413
 30
0.000
 11
2146.275
 21
-8239.565
 31
0.000
  0
POLYLINE
  8
W71XLIFTS
 62
1
 66
     1
 70
     9
  0
VERTEX
  8
W71XLIFTS
 62
1
 10
2221.317
 20
-8504.743
 30
-1714.146
 70
    32
  0
VERTEX
  8
W71XLIFTS
 62
1
 10
2221.315
 20
-8504.699
 30
-1714.146
 70
    32
  0
VERTEX
  8
W71XLIFTS
 62
1
 10
2221.309
 20
-8504.656
 30
-1714.146
 70
    32
  0
VERTEX
  8
W71XLIFTS
 62
1
 10
2221.300
 20
-8504.614
 30
-1714.146
 70
    32
  0
VERTEX
  8
W71XLIFTS
 62
1
 10
2221.287
 20
-8504.572
 30
-1714.146
 70
    32
  0
VERTEX
  8
W71XLIFTS
 62
1
 10
2221.270
 20
-8504.532
 30
-1714.146
 70
    32
  0
VERTEX
  8
W71XLIFTS
 62
1
 10
2221.250
 20
-8504.493
 30
-1714.146
 70
    32
  0
VERTEX
  8
W71XLIFTS
 62
1
 10
2221.227
 20
-8504.456
 30
-1714.146
 70
    32
  0
VERTEX
  8
W71XLIFTS
 62
1
 10
2221.200
 20
-8504.422
 30
-1714.146
 70
    32
  0
VERTEX
  8
W71XLIFTS
 62
1
 10
2221.171
 20
-8504.389
 30
-1714.146
 70
    32
  0
VERTEX
  8
W71XLIFTS
 62
1
 10
2221.138
 20
-8504.360
 30
-1714.146
 70
    32
  0
VERTEX
  8
W71XLIFTS
 62
1
 10
2221.104
 20
-8504.333
 30
-1714.146
 70
    32
  0
VERTEX
  8
W71XLIFTS
 62
1
 10
2221.067
 20
-8504.310
 30
-1714.146
 70
    32
  0
VERTEX
  8
W71XLIFTS
 62
1
 10
2221.028
 20
-8504.290
 30
-1714.146
 70
    32
  0
VERTEX
  8
W71XLIFTS
 62
1
 10
2220.988
 20
-8504.273
 30
-1714.146
 70
    32
  0
VERTEX
  8
W71XLIFTS
 62
1
 10
2220.946
 20
-8504.260
 30
-1714.146
 70
    32
  0
VERTEX
  8
W71XLIFTS
 62
1
 10
2220.904
 20
-8504.251
 30
-1714.146
 70
    32
  0
VERTEX
  8
W71XLIFTS
 62
1
 10
2220.861
 20
-8504.245
 30
-1714.146
 70
    32
  0
VERTEX
  8
W71XLIFTS
 62
1
 10
2220.817
 20
-8504.243
 30
-1714.146
 70
    32
  0
VERTEX
  8
W71XLIFTS
 62
1
 10
2220.773
 20
-8504.245
 30
-1714.146
 70
    32
  0
VERTEX
  8
W71XLIFTS
 62
1
 10
2220.730
 20
-8504.251
 30
-1714.146
 70
    32
  0
VERTEX
  8
W71XLIFTS
 62
1
 10
2220.688
 20
-8504.260
 30
-1714.146
 70
    32
  0
VERTEX
  8
W71XLIFTS
 62
1
 10
2220.646
 20
-8504.273
 30
-1714.146
 70
    32
  0
VERTEX
  8
W71XLIFTS
 62
1
 10
2220.606
 20
-8504.290
 30
-1714.146
 70
    32
  0
VERTEX
  8
W71XLIFTS
 62
1
 10
2220.567
 20
-8504.310
 30
-1714.146
 70
    32
  0
VERTEX
  8
W71XLIFTS
 62
1
 10
2220.530
 20
-8504.333
 30
-1714.146
 70
    32
  0
VERTEX
  8
W71XLIFTS
 62
1
 10
2220.496
 20
-8504.360
 30
-1714.146
 70
    32
  0
VERTEX
  8
W71XLIFTS
 62
1
 10
2220.463
 20
-8504.389
 30
-1714.146
 70
    32
  0
VERTEX
  8
W71XLIFTS
 62
1
 10
2220.434
 20
-8504.422
 30
-1714.146
 70
    32
  0
VERTEX
  8
W71XLIFTS
 62
1
 10
2220.407
 20
-8504.456
 30
-1714.146
 70
    32
  0
VERTEX
  8
W71XLIFTS
 62
1
 10
2220.384
 20
-8504.493
 30
-1714.146
 70
    32
  0
VERTEX
  8
W71XLIFTS
 62
1
 10
2220.364
 20
-8504.532
 30
-1714.146
 70
    32
  0
VERTEX
  8
W71XLIFTS
 62
1
 10
2220.347
 20
-8504.572
 30
-1714.146
 70
    32
  0
VERTEX
  8
W71XLIFTS
 62
1
 10
2220.334
 20
-8504.614
 30
-1714.146
 70
    32
  0
VERTEX
  8
W71XLIFTS
 62
1
 10
2220.325
 20
-8504.656
 30
-1714.146
 70
    32
  0
VERTEX
  8
W71XLIFTS
 62
1
 10
2220.319
 20
-8504.699
 30
-1714.146
 70
    32
  0
VERTEX
  8
W71XLIFTS
 62
1
 10
2220.317
 20
-8504.743
 30
-1714.146
 70
    32
  0
VERTEX
  8
W71XLIFTS
 62
1
 10
2220.319
 20
-8504.787
 30
-1714.146
 70
    32
  0
VERTEX
  8
W71XLIFTS
 62
1
 10
2220.325
 20
-8504.830
 30
-1714.146
 70
    32
  0
VERTEX
  8
W71XLIFTS
 62
1
 10
2220.334
 20
-8504.872
 30
-1714.146
 70
    32
  0
VERTEX
  8
W71XLIFTS
 62
1
 10
2220.347
 20
-8504.914
 30
-1714.146
 70
    32
  0
VERTEX
  8
W71XLIFTS
 62
1
 10
2220.364
 20
-8504.954
 30
-1714.146
 70
    32
  0
VERTEX
  8
W71XLIFTS
 62
1
 10
2220.384
 20
-8504.993
 30
-1714.146
 70
    32
  0
VERTEX
  8
W71XLIFTS
 62
1
 10
2220.407
 20
-8505.030
 30
-1714.146
 70
    32
  0
VERTEX
  8
W71XLIFTS
 62
1
 10
2220.434
 20
-8505.064
 30
-1714.146
 70
    32
  0
VERTEX
  8
W71XLIFTS
 62
1
 10
2220.464
 20
-8505.097
 30
-1714.146
 70
    32
  0
VERTEX
  8
W71XLIFTS
 62
1
 10
2220.496
 20
-8505.126
 30
-1714.146
 70
    32
  0
VERTEX
  8
W71XLIFTS
 62
1
 10
2220.530
 20
-8505.153
 30
-1714.146
 70
    32
  0
VERTEX
  8
W71XLIFTS
 62
1
 10
2220.567
 20
-8505.176
 30
-1714.146
 70
    32
  0
VERTEX
  8
W71XLIFTS
 62
1
 10
2220.606
 20
-8505.196
 30
-1714.146
 70
    32
  0
VERTEX
  8
W71XLIFTS
 62
1
 10
2220.646
 20
-8505.213
 30
-1714.146
 70
    32
  0
VERTEX
  8
W71XLIFTS
 62
1
 10
2220.688
 20
-8505.226
 30
-1714.146
 70
    32
  0
VERTEX
  8
W71XLIFTS
 62
1
 10
2220.730
 20
-8505.235
 30
-1714.146
 70
    32
  0
VERTEX
  8
W71XLIFTS
 62
1
 10
2220.774
 20
-8505.241
 30
-1714.146
 70
    32
  0
VERTEX
  8
W71XLIFTS
 62
1
 10
2220.817
 20
-8505.243
 30
-1714.146
 70
    32
  0
VERTEX
  8
W71XLIFTS
 62
1
 10
2220.861
 20
-8505.241
 30
-1714.146
 70
    32
  0
VERTEX
  8
W71XLIFTS
 62
1
 10
2220.904
 20
-8505.235
 30
-1714.146
 70
    32
  0
VERTEX
  8
W71XLIFTS
 62
1
 10
2220.947
 20
-8505.226
 30
-1714.146
 70
    32
  0
VERTEX
  8
W71XLIFTS
 62
1
 10
2220.988
 20
-8505.213
 30
-1714.146
 70
    32
  0
VERTEX
  8
W71XLIFTS
 62
1
 10
2221.028
 20
-8505.196
 30
-1714.146
 70
    32
  0
VERTEX
  8
W71XLIFTS
 62
1
 10
2221.067
 20
-8505.176
 30
-1714.146
 70
    32
  0
VERTEX
  8
W71XLIFTS
 62
1
 10
2221.104
 20
-8505.153
 30
-1714.146
 70
    32
  0
VERTEX
  8
W71XLIFTS
 62
1
 10
2221.138
 20
-8505.126
 30
-1714.146
 70
    32
  0
VERTEX
  8
W71XLIFTS
 62
1
 10
2221.171
 20
-8505.096
 30
-1714.146
 70
    32
  0
VERTEX
  8
W71XLIFTS
 62
1
 10
2221.200
 20
-8505.064
 30
-1714.146
 70
    32
  0
VERTEX
  8
W71XLIFTS
 62
1
 10
2221.227
 20
-8505.030
 30
-1714.146
 70
    32
  0
VERTEX
  8
W71XLIFTS
 62
1
 10
2221.250
 20
-8504.993
 30
-1714.146
 70
    32
  0
VERTEX
  8
W71XLIFTS
 62
1
 10
2221.270
 20
-8504.954
 30
-1714.146
 70
    32
  0
VERTEX
  8
W71XLIFTS
 62
1
 10
2221.287
 20
-8504.914
 30
-1714.146
 70
    32
  0
VERTEX
  8
W71XLIFTS
 62
1
 10
2221.300
 20
-8504.872
 30
-1714.146
 70
    32
  0
VERTEX
  8
W71XLIFTS
 62
1
 10
2221.309
 20
-8504.830
 30
-1714.146
 70
    32
  0
VERTEX
  8
W71XLIFTS
 62
1
 10
2221.315
 20
-8504.786
 30
-1714.146
 70
    32
  0
SEQEND
  8
W71XLIFTS
  0
POLYLINE
  8
W71XLIFTS
 62
1
 66
     1
 70
     9
  0
VERTEX
  8
W71XLIFTS
 62
1
 10
2252.755
 20
-8603.166
 30
-1725.620
 70
    32
  0
VERTEX
  8
W71XLIFTS
 62
1
 10
2252.753
 20
-8603.122
 30
-1725.620
 70
    32
  0
VERTEX
  8
W71XLIFTS
 62
1
 10
2252.747
 20
-8603.079
 30
-1725.620
 70
    32
  0
VERTEX
  8
W71XLIFTS
 62
1
 10
2252.738
 20
-8603.037
 30
-1725.620
 70
    32
  0
VERTEX
  8
W71XLIFTS
 62
1
 10
2252.725
 20
-8602.995
 30
-1725.620
 70
    32
  0
VERTEX
  8
W71XLIFTS
 62
1
 10
2252.708
 20
-8602.955
 30
-1725.620
 70
    32
  0
VERTEX
  8
W71XLIFTS
 62
1
 10
2252.688
 20
-8602.916
 30
-1725.620
 70
    32
  0
VERTEX
  8
W71XLIFTS
 62
1
 10
2252.665
 20
-8602.879
 30
-1725.620
 70
    32
  0
VERTEX
  8
W71XLIFTS
 62
1
 10
2252.638
 20
-8602.845
 30
-1725.620
 70
    32
  0
VERTEX
  8
W71XLIFTS
 62
1
 10
2252.609
 20
-8602.812
 30
-1725.620
 70
    32
  0
VERTEX
  8
W71XLIFTS
 62
1
 10
2252.576
 20
-8602.783
 30
-1725.620
 70
    32
  0
VERTEX
  8
W71XLIFTS
 62
1
 10
2252.542
 20
-8602.756
 30
-1725.620
 70
    32
  0
VERTEX
  8
W71XLIFTS
 62
1
 10
2252.505
 20
-8602.733
 30
-1725.620
 70
    32
  0
VERTEX
  8
W71XLIFTS
 62
1
 10
2252.466
 20
-8602.713
 30
-1725.620
 70
    32
  0
VERTEX
  8
W71XLIFTS
 62
1
 10
2252.426
 20
-8602.696
 30
-1725.620
 70
    32
  0
VERTEX
  8
W71XLIFTS
 62
1
 10
2252.384
 20
-8602.683
 30
-1725.620
 70
    32
  0
VERTEX
  8
W71XLIFTS
 62
1
 10
2252.342
 20
-8602.674
 30
-1725.620
 70
    32
  0
VERTEX
  8
W71XLIFTS
 62
1
 10
2252.299
 20
-8602.668
 30
-1725.620
 70
    32
  0
VERTEX
  8
W71XLIFTS
 62
1
 10
2252.255
 20
-8602.666
 30
-1725.620
 70
    32
  0
VERTEX
  8
W71XLIFTS
 62
1
 10
2252.211
 20
-8602.668
 30
-1725.620
 70
    32
  0
VERTEX
  8
W71XLIFTS
 62
1
 10
2252.168
 20
-8602.674
 30
-1725.620
 70
    32
  0
VERTEX
  8
W71XLIFTS
 62
1
 10
2252.126
 20
-8602.683
 30
-1725.620
 70
    32
  0
VERTEX
  8
W71XLIFTS
 62
1
 10
2252.084
 20
-8602.696
 30
-1725.620
 70
    32
  0
VERTEX
  8
W71XLIFTS
 62
1
 10
2252.044
 20
-8602.713
 30
-1725.620
 70
    32
  0
VERTEX
  8
W71XLIFTS
 62
1
 10
2252.005
 20
-8602.733
 30
-1725.620
 70
    32
  0
VERTEX
  8
W71XLIFTS
 62
1
 10
2251.968
 20
-8602.756
 30
-1725.620
 70
    32
  0
VERTEX
  8
W71XLIFTS
 62
1
 10
2251.934
 20
-8602.783
 30
-1725.620
 70
    32
  0
VERTEX
  8
W71XLIFTS
 62
1
 10
2251.901
 20
-8602.812
 30
-1725.620
 70
    32
  0
VERTEX
  8
W71XLIFTS
 62
1
 10
2251.872
 20
-8602.845
 30
-1725.620
 70
    32
  0
VERTEX
  8
W71XLIFTS
 62
1
 10
2251.845
 20
-8602.879
 30
-1725.620
 70
    32
  0
VERTEX
  8
W71XLIFTS
 62
1
 10
2251.822
 20
-8602.916
 30
-1725.620
 70
    32
  0
VERTEX
  8
W71XLIFTS
 62
1
 10
2251.802
 20
-8602.955
 30
-1725.620
 70
    32
  0
VERTEX
  8
W71XLIFTS
 62
1
 10
2251.785
 20
-8602.995
 30
-1725.620
 70
    32
  0
VERTEX
  8
W71XLIFTS
 62
1
 10
2251.772
 20
-8603.037
 30
-1725.620
 70
    32
  0
VERTEX
  8
W71XLIFTS
 62
1
 10
2251.763
 20
-8603.079
 30
-1725.620
 70
    32
  0
VERTEX
  8
W71XLIFTS
 62
1
 10
2251.757
 20
-8603.122
 30
-1725.620
 70
    32
  0
VERTEX
  8
W71XLIFTS
 62
1
 10
2251.755
 20
-8603.166
 30
-1725.620
 70
    32
  0
VERTEX
  8
W71XLIFTS
 62
1
 10
2251.757
 20
-8603.210
 30
-1725.620
 70
    32
  0
VERTEX
  8
W71XLIFTS
 62
1
 10
2251.763
 20
-8603.253
 30
-1725.620
 70
    32
  0
VERTEX
  8
W71XLIFTS
 62
1
 10
2251.772
 20
-8603.295
 30
-1725.620
 70
    32
  0
VERTEX
  8
W71XLIFTS
 62
1
 10
2251.785
 20
-8603.337
 30
-1725.620
 70
    32
  0
VERTEX
  8
W71XLIFTS
 62
1
 10
2251.802
 20
-8603.377
 30
-1725.620
 70
    32
  0
VERTEX
  8
W71XLIFTS
 62
1
 10
2251.822
 20
-8603.416
 30
-1725.620
 70
    32
  0
VERTEX
  8
W71XLIFTS
 62
1
 10
2251.845
 20
-8603.453
 30
-1725.620
 70
    32
  0
VERTEX
  8
W71XLIFTS
 62
1
 10
2251.872
 20
-8603.487
 30
-1725.620
 70
    32
  0
VERTEX
  8
W71XLIFTS
 62
1
 10
2251.902
 20
-8603.520
 30
-1725.620
 70
    32
  0
VERTEX
  8
W71XLIFTS
 62
1
 10
2251.934
 20
-8603.549
 30
-1725.620
 70
    32
  0
VERTEX
  8
W71XLIFTS
 62
1
 10
2251.968
 20
-8603.576
 30
-1725.620
 70
    32
  0
VERTEX
  8
W71XLIFTS
 62
1
 10
2252.005
 20
-8603.599
 30
-1725.620
 70
    32
  0
VERTEX
  8
W71XLIFTS
 62
1
 10
2252.044
 20
-8603.619
 30
-1725.620
 70
    32
  0
VERTEX
  8
W71XLIFTS
 62
1
 10
2252.084
 20
-8603.636
 30
-1725.620
 70
    32
  0
VERTEX
  8
W71XLIFTS
 62
1
 10
2252.126
 20
-8603.649
 30
-1725.620
 70
    32
  0
VERTEX
  8
W71XLIFTS
 62
1
 10
2252.168
 20
-8603.658
 30
-1725.620
 70
    32
  0
VERTEX
  8
W71XLIFTS
 62
1
 10
2252.212
 20
-8603.664
 30
-1725.620
 70
    32
  0
VERTEX
  8
W71XLIFTS
 62
1
 10
2252.255
 20
-8603.666
 30
-1725.620
 70
    32
  0
VERTEX
  8
W71XLIFTS
 62
1
 10
2252.299
 20
-8603.664
 30
-1725.620
 70
    32
  0
VERTEX
  8
W71XLIFTS
 62
1
 10
2252.342
 20
-8603.658
 30
-1725.620
 70
    32
  0
VERTEX
  8
W71XLIFTS
 62
1
 10
2252.385
 20
-8603.649
 30
-1725.620
 70
    32
  0
VERTEX
  8
W71XLIFTS
 62
1
 10
2252.426
 20
-8603.636
 30
-1725.620
 70
    32
  0
VERTEX
  8
W71XLIFTS
 62
1
 10
2252.466
 20
-8603.619
 30
-1725.620
 70
    32
  0
VERTEX
  8
W71XLIFTS
 62
1
 10
2252.505
 20
-8603.599
 30
-1725.620
 70
    32
  0
VERTEX
  8
W71XLIFTS
 62
1
 10
2252.542
 20
-8603.576
 30
-1725.620
 70
    32
  0
VERTEX
  8
W71XLIFTS
 62
1
 10
2252.576
 20
-8603.549
 30
-1725.620
 70
    32
  0
VERTEX
  8
W71XLIFTS
 62
1
 10
2252.609
 20
-8603.519
 30
-1725.620
 70
    32
  0
VERTEX
  8
W71XLIFTS
 62
1
 10
2252.638
 20
-8603.487
 30
-1725.620
 70
    32
  0
VERTEX
  8
W71XLIFTS
 62
1
 10
2252.665
 20
-8603.453
 30
-1725.620
 70
    32
  0
VERTEX
  8
W71XLIFTS
 62
1
 10
2252.688
 20
-8603.416
 30
-1725.620
 70
    32
  0
VERTEX
  8
W71XLIFTS
 62
1
 10
2252.708
 20
-8603.377
 30
-1725.620
 70
    32
  0
VERTEX
  8
W71XLIFTS
 62
1
 10
2252.725
 20
-8603.337
 30
-1725.620
 70
    32
  0
VERTEX
  8
W71XLIFTS
 62
1
 10
2252.738
 20
-8603.295
 30
-1725.620
 70
    32
  0
VERTEX
  8
W71XLIFTS
 62
1
 10
2252.747
 20
-8603.253
 30
-1725.620
 70
    32
  0
VERTEX
  8
W71XLIFTS
 62
1
 10
2252.753
 20
-8603.209
 30
-1725.620
 70
    32
  0
SEQEND
  8
W71XLIFTS
  0
POLYLINE
  8
W71XLIFTS
 62
1
 66
     1
 70
     9
  0
VERTEX
  8
W71XLIFTS
 62
1
 10
2252.755
 20
-8603.166
 30
0.000
 70
    32
  0
VERTEX
  8
W71XLIFTS
 62
1
 10
2252.753
 20
-8603.122
 30
0.000
 70
    32
  0
VERTEX
  8
W71XLIFTS
 62
1
 10
2252.747
 20
-8603.079
 30
0.000
 70
    32
  0
VERTEX
  8
W71XLIFTS
 62
1
 10
2252.738
 20
-8603.037
 30
0.000
 70
    32
  0
VERTEX
  8
W71XLIFTS
 62
1
 10
2252.725
 20
-8602.995
 30
0.000
 70
    32
  0
VERTEX
  8
W71XLIFTS
 62
1
 10
2252.708
 20
-8602.955
 30
0.000
 70
    32
  0
VERTEX
  8
W71XLIFTS
 62
1
 10
2252.688
 20
-8602.916
 30
0.000
 70
    32
  0
VERTEX
  8
W71XLIFTS
 62
1
 10
2252.665
 20
-8602.879
 30
0.000
 70
    32
  0
VERTEX
  8
W71XLIFTS
 62
1
 10
2252.638
 20
-8602.845
 30
0.000
 70
    32
  0
VERTEX
  8
W71XLIFTS
 62
1
 10
2252.609
 20
-8602.812
 30
0.000
 70
    32
  0
VERTEX
  8
W71XLIFTS
 62
1
 10
2252.576
 20
-8602.783
 30
0.000
 70
    32
  0
VERTEX
  8
W71XLIFTS
 62
1
 10
2252.542
 20
-8602.756
 30
0.000
 70
    32
  0
VERTEX
  8
W71XLIFTS
 62
1
 10
2252.505
 20
-8602.733
 30
0.000
 70
    32
  0
VERTEX
  8
W71XLIFTS
 62
1
 10
2252.466
 20
-8602.713
 30
0.000
 70
    32
  0
VERTEX
  8
W71XLIFTS
 62
1
 10
2252.426
 20
-8602.696
 30
0.000
 70
    32
  0
VERTEX
  8
W71XLIFTS
 62
1
 10
2252.384
 20
-8602.683
 30
0.000
 70
    32
  0
VERTEX
  8
W71XLIFTS
 62
1
 10
2252.342
 20
-8602.674
 30
0.000
 70
    32
  0
VERTEX
  8
W71XLIFTS
 62
1
 10
2252.299
 20
-8602.668
 30
0.000
 70
    32
  0
VERTEX
  8
W71XLIFTS
 62
1
 10
2252.255
 20
-8602.666
 30
0.000
 70
    32
  0
VERTEX
  8
W71XLIFTS
 62
1
 10
2252.211
 20
-8602.668
 30
0.000
 70
    32
  0
VERTEX
  8
W71XLIFTS
 62
1
 10
2252.168
 20
-8602.674
 30
0.000
 70
    32
  0
VERTEX
  8
W71XLIFTS
 62
1
 10
2252.126
 20
-8602.683
 30
0.000
 70
    32
  0
VERTEX
  8
W71XLIFTS
 62
1
 10
2252.084
 20
-8602.696
 30
0.000
 70
    32
  0
VERTEX
  8
W71XLIFTS
 62
1
 10
2252.044
 20
-8602.713
 30
0.000
 70
    32
  0
VERTEX
  8
W71XLIFTS
 62
1
 10
2252.005
 20
-8602.733
 30
0.000
 70
    32
  0
VERTEX
  8
W71XLIFTS
 62
1
 10
2251.968
 20
-8602.756
 30
0.000
 70
    32
  0
VERTEX
  8
W71XLIFTS
 62
1
 10
2251.934
 20
-8602.783
 30
0.000
 70
    32
  0
VERTEX
  8
W71XLIFTS
 62
1
 10
2251.901
 20
-8602.812
 30
0.000
 70
    32
  0
VERTEX
  8
W71XLIFTS
 62
1
 10
2251.872
 20
-8602.845
 30
0.000
 70
    32
  0
VERTEX
  8
W71XLIFTS
 62
1
 10
2251.845
 20
-8602.879
 30
0.000
 70
    32
  0
VERTEX
  8
W71XLIFTS
 62
1
 10
2251.822
 20
-8602.916
 30
0.000
 70
    32
  0
VERTEX
  8
W71XLIFTS
 62
1
 10
2251.802
 20
-8602.955
 30
0.000
 70
    32
  0
VERTEX
  8
W71XLIFTS
 62
1
 10
2251.785
 20
-8602.995
 30
0.000
 70
    32
  0
VERTEX
  8
W71XLIFTS
 62
1
 10
2251.772
 20
-8603.037
 30
0.000
 70
    32
  0
VERTEX
  8
W71XLIFTS
 62
1
 10
2251.763
 20
-8603.079
 30
0.000
 70
    32
  0
VERTEX
  8
W71XLIFTS
 62
1
 10
2251.757
 20
-8603.122
 30
0.000
 70
    32
  0
VERTEX
  8
W71XLIFTS
 62
1
 10
2251.755
 20
-8603.166
 30
0.000
 70
    32
  0
VERTEX
  8
W71XLIFTS
 62
1
 10
2251.757
 20
-8603.210
 30
0.000
 70
    32
  0
VERTEX
  8
W71XLIFTS
 62
1
 10
2251.763
 20
-8603.253
 30
0.000
 70
    32
  0
VERTEX
  8
W71XLIFTS
 62
1
 10
2251.772
 20
-8603.295
 30
0.000
 70
    32
  0
VERTEX
  8
W71XLIFTS
 62
1
 10
2251.785
 20
-8603.337
 30
0.000
 70
    32
  0
VERTEX
  8
W71XLIFTS
 62
1
 10
2251.802
 20
-8603.377
 30
0.000
 70
    32
  0
VERTEX
  8
W71XLIFTS
 62
1
 10
2251.822
 20
-8603.416
 30
0.000
 70
    32
  0
VERTEX
  8
W71XLIFTS
 62
1
 10
2251.845
 20
-8603.453
 30
0.000
 70
    32
  0
VERTEX
  8
W71XLIFTS
 62
1
 10
2251.872
 20
-8603.487
 30
0.000
 70
    32
  0
VERTEX
  8
W71XLIFTS
 62
1
 10
2251.902
 20
-8603.520
 30
0.000
 70
    32
  0
VERTEX
  8
W71XLIFTS
 62
1
 10
2251.934
 20
-8603.549
 30
0.000
 70
    32
  0
VERTEX
  8
W71XLIFTS
 62
1
 10
2251.968
 20
-8603.576
 30
0.000
 70
    32
  0
VERTEX
  8
W71XLIFTS
 62
1
 10
2252.005
 20
-8603.599
 30
0.000
 70
    32
  0
VERTEX
  8
W71XLIFTS
 62
1
 10
2252.044
 20
-8603.619
 30
0.000
 70
    32
  0
VERTEX
  8
W71XLIFTS
 62
1
 10
2252.084
 20
-8603.636
 30
0.000
 70
    32
  0
VERTEX
  8
W71XLIFTS
 62
1
 10
2252.126
 20
-8603.649
 30
0.000
 70
    32
  0
VERTEX
  8
W71XLIFTS
 62
1
 10
2252.168
 20
-8603.658
 30
0.000
 70
    32
  0
VERTEX
  8
W71XLIFTS
 62
1
 10
2252.212
 20
-8603.664
 30
0.000
 70
    32
  0
VERTEX
  8
W71XLIFTS
 62
1
 10
2252.255
 20
-8603.666
 30
0.000
 70
    32
  0
VERTEX
  8
W71XLIFTS
 62
1
 10
2252.299
 20
-8603.664
 30
0.000
 70
    32
  0
VERTEX
  8
W71XLIFTS
 62
1
 10
2252.342
 20
-8603.658
 30
0.000
 70
    32
  0
VERTEX
  8
W71XLIFTS
 62
1
 10
2252.385
 20
-8603.649
 30
0.000
 70
    32
  0
VERTEX
  8
W71XLIFTS
 62
1
 10
2252.426
 20
-8603.636
 30
0.000
 70
    32
  0
VERTEX
  8
W71XLIFTS
 62
1
 10
2252.466
 20
-8603.619
 30
0.000
 70
    32
  0
VERTEX
  8
W71XLIFTS
 62
1
 10
2252.505
 20
-8603.599
 30
0.000
 70
    32
  0
VERTEX
  8
W71XLIFTS
 62
1
 10
2252.542
 20
-8603.576
 30
0.000
 70
    32
  0
VERTEX
  8
W71XLIFTS
 62
1
 10
2252.576
 20
-8603.549
 30
0.000
 70
    32
  0
VERTEX
  8
W71XLIFTS
 62
1
 10
2252.609
 20
-8603.519
 30
0.000
 70
    32
  0
VERTEX
  8
W71XLIFTS
 62
1
 10
2252.638
 20
-8603.487
 30
0.000
 70
    32
  0
VERTEX
  8
W71XLIFTS
 62
1
 10
2252.665
 20
-8603.453
 30
0.000
 70
    32
  0
VERTEX
  8
W71XLIFTS
 62
1
 10
2252.688
 20
-8603.416
 30
0.000
 70
    32
  0
VERTEX
  8
W71XLIFTS
 62
1
 10
2252.708
 20
-8603.377
 30
0.000
 70
    32
  0
VERTEX
  8
W71XLIFTS
 62
1
 10
2252.725
 20
-8603.337
 30
0.000
 70
    32
  0
VERTEX
  8
W71XLIFTS
 62
1
 10
2252.738
 20
-8603.295
 30
0.000
 70
    32
  0
VERTEX
  8
W71XLIFTS
 62
1
 10
2252.747
 20
-8603.253
 30
0.000
 70
    32
  0
VERTEX
  8
W71XLIFTS
 62
1
 10
2252.753
 20
-8603.209
 30
0.000
 70
    32
  0
SEQEND
  8
W71XLIFTS
  0
TEXT
  8
W71XLIFTS
 62
1
 10
2237.088
 20
-8563.934
 30
0.000
 40
2.000
  1
FL-1724.5
 50
35.666
 41
 1.0 
  0
TEXT
  8
W71XLIFTS
 62
1
 10
2235.089
 20
-8561.149
 30
0.000
 40
2.000
  1
BK-1713.5
 50
35.666
 41
 1.0 
  0
TEXT
  8
W71XLIFTS
 62
1
 10
2226.428
 20
-8527.905
 30
0.000
 40
2.000
  1
BK-1716
 50
36.084
 41
 1.0 
  0
TEXT
  8
W71XLIFTS
 62
1
 10
2213.687
 20
-8506.181
 30
0.000
 40
2.000
  1
BK-1714
 50
0.400
 41
 1.0 
  0
TEXT
  8
W71XLIFTS
 62
1
 10
2245.965
 20
-8607.913
 30
0.000
 40
2.000
  1
FL-1725.6
 50
35.666
 41
 1.0 
  0
TEXT
  8
W71XLIFTS
 62
1
 10
2243.966
 20
-8605.128
 30
0.000
 40
2.000
  1
BK-1713.6
 50
35.666
 41
 1.0 
  0
TEXT
  8
W71XLIFTS
 62
1
 10
2229.355
 20
-8590.746
 30
-1712.570
 40
2.000
  1
-1712.570
 50
4.111
 41
 1.0 
  0
TEXT
  8
W71XLIFTS
 62
1
 10
2230.303
 20
-8586.668
 30
-1712.570
 40
2.000
  1
ST-915M
 50
4.111
 41
 1.0 
  0
TEXT
  8
W71XLIFTS
 62
1
 10
2229.899
 20
-8577.078
 30
-1712.530
 40
2.000
  1
ST-915N
 41
 1.0 
  0
TEXT
  8
W71XLIFTS
 62
1
 10
2228.565
 20
-8581.078
 30
-1712.530
 40
2.000
  1
-1712.530
 41
 1.0 
  0
LINE
  8
W71XLIFTS
 62
3
 10
2247.771
 20
-8582.335
 30
0.000
 11
2244.272
 21
-8582.333
 31
0.000
  0
POINT
  8
W71XLIFTS
 62
3
 10
2246.022
 20
-8581.365
 30
0.000
  0
LINE
  8
W71XLIFTS
 62
3
 10
2244.272
 20
-8582.333
 30
0.000
 11
2246.022
 21
-8579.155
 31
0.000
  0
LINE
  8
W71XLIFTS
 62
3
 10
2246.022
 20
-8579.155
 30
0.000
 11
2247.771
 21
-8582.335
 31
0.000
  0
LINE
  8
W71XLIFTS
 62
3
 10
2246.873
 20
-8582.397
 30
0.000
 11
2248.622
 21
-8585.577
 31
0.000
  0
POINT
  8
W71XLIFTS
 62
3
 10
2246.873
 20
-8584.607
 30
0.000
  0
LINE
  8
W71XLIFTS
 62
3
 10
2245.123
 20
-8585.575
 30
0.000
 11
2246.873
 21
-8582.397
 31
0.000
  0
LINE
  8
W71XLIFTS
 62
3
 10
2248.622
 20
-8585.577
 30
0.000
 11
2245.123
 21
-8585.575
 31
0.000
  0
LINE
  8
W71XLIFTS
 62
3
 10
2210.861
 20
-8485.778
 30
0.000
 11
2212.611
 21
-8482.600
 31
0.000
  0
POINT
  8
W71XLIFTS
 62
3
 10
2212.611
 20
-8484.810
 30
0.000
  0
LINE
  8
W71XLIFTS
 62
3
 10
2214.360
 20
-8485.780
 30
0.000
 11
2210.861
 21
-8485.778
 31
0.000
  0
LINE
  8
W71XLIFTS
 62
3
 10
2212.611
 20
-8482.600
 30
0.000
 11
2214.360
 21
-8485.780
 31
0.000
  0
LINE
  8
W71XLIFTS
 62
3
 10
2210.629
 20
-8478.020
 30
0.000
 11
2207.130
 21
-8478.018
 31
0.000
  0
LINE
  8
W71XLIFTS
 62
3
 10
2207.130
 20
-8478.018
 30
0.000
 11
2208.880
 21
-8474.840
 31
0.000
  0
POINT
  8
W71XLIFTS
 62
3
 10
2208.880
 20
-8477.050
 30
0.000
  0
LINE
  8
W71XLIFTS
 62
3
 10
2208.880
 20
-8474.840
 30
0.000
 11
2210.629
 21
-8478.020
 31
0.000
  0
LINE
  8
W71XLIFTS
 62
1
 10
1650.046
 20
-6698.704
 30
0.000
 11
1649.960
 21
-6698.746
 31
0.000
  0
POLYLINE
  8
W71XLIFTS
 62
1
 66
     1
 70
     9
  0
VERTEX
  8
W71XLIFTS
 62
1
 10
1667.481
 20
-6772.136
 30
0.000
 70
    32
  0
VERTEX
  8
W71XLIFTS
 62
1
 10
1679.229
 20
-6768.135
 30
0.000
 70
    32
  0
VERTEX
  8
W71XLIFTS
 62
1
 10
1685.455
 20
-6766.368
 30
0.000
 70
    32
  0
VERTEX
  8
W71XLIFTS
 62
1
 10
1695.761
 20
-6775.794
 30
0.000
 70
    32
  0
VERTEX
  8
W71XLIFTS
 62
1
 10
1705.749
 20
-6769.466
 30
0.000
 70
    32
  0
VERTEX
  8
W71XLIFTS
 62
1
 10
1700.876
 20
-6763.048
 30
0.000
 70
    32
  0
VERTEX
  8
W71XLIFTS
 62
1
 10
1700.117
 20
-6754.753
 30
0.000
 70
    32
  0
VERTEX
  8
W71XLIFTS
 62
1
 10
1689.365
 20
-6743.025
 30
0.000
 70
    32
  0
VERTEX
  8
W71XLIFTS
 62
1
 10
1676.436
 20
-6735.616
 30
0.000
 70
    32
  0
VERTEX
  8
W71XLIFTS
 62
1
 10
1673.672
 20
-6731.736
 30
0.000
 70
    32
  0
VERTEX
  8
W71XLIFTS
 62
1
 10
1672.268
 20
-6719.285
 30
0.000
 70
    32
  0
VERTEX
  8
W71XLIFTS
 62
1
 10
1662.477
 20
-6720.079
 30
0.000
 70
    32
  0
VERTEX
  8
W71XLIFTS
 62
1
 10
1650.046
 20
-6698.704
 30
0.000
 70
    32
  0
VERTEX
  8
W71XLIFTS
 62
1
 10
1644.243
 20
-6688.926
 30
0.000
 70
    32
  0
VERTEX
  8
W71XLIFTS
 62
1
 10
1631.203
 20
-6695.153
 30
0.000
 70
    32
  0
VERTEX
  8
W71XLIFTS
 62
1
 10
1632.488
 20
-6696.811
 30
0.000
 70
    32
  0
VERTEX
  8
W71XLIFTS
 62
1
 10
1638.399
 20
-6706.634
 30
0.000
 70
    32
  0
VERTEX
  8
W71XLIFTS
 62
1
 10
1653.767
 20
-6732.522
 30
0.000
 70
    32
  0
VERTEX
  8
W71XLIFTS
 62
1
 10
1648.513
 20
-6746.671
 30
0.000
 70
    32
  0
SEQEND
  8
W71XLIFTS
  0
TEXT
  8
W71XLIFTS
 62
1
 10
1658.667
 20
-6749.805
 30
0.000
 40
2.160
  1
FLOOR +84'
 50
306.387
 41
 1.0 
  0
TEXT
  8
W71XLIFTS
 62
1
 10
1655.769
 20
-6751.941
 30
0.000
 40
2.160
  1
BACK +96'
 50
306.387
 41
 1.0 
  0
POINT
  8
W71XLIFTS
 62
8
 10
1669.530
 20
-6756.553
 30
1714.000
  0
LINE
  8
W71XLIFTS
 62
1
 10
1800.544
 20
-7075.543
 30
0.000
 11
1800.656
 21
-7075.489
 31
0.000
  0
POLYLINE
  8
W71XLIFTS
 62
1
 66
     1
 70
     9
  0
VERTEX
  8
W71XLIFTS
 62
1
 10
1813.672
 20
-7096.887
 30
0.000
 70
    32
  0
VERTEX
  8
W71XLIFTS
 62
1
 10
1815.037
 20
-7096.594
 30
0.000
 70
    32
  0
VERTEX
  8
W71XLIFTS
 62
1
 10
1818.094
 20
-7103.348
 30
0.000
 70
    32
  0
VERTEX
  8
W71XLIFTS
 62
1
 10
1822.479
 20
-7111.204
 30
0.000
 70
    32
  0
VERTEX
  8
W71XLIFTS
 62
1
 10
1824.378
 20
-7115.867
 30
0.000
 70
    32
  0
VERTEX
  8
W71XLIFTS
 62
1
 10
1827.588
 20
-7121.045
 30
0.000
 70
    32
  0
VERTEX
  8
W71XLIFTS
 62
1
 10
1829.772
 20
-7124.678
 30
0.000
 70
    32
  0
VERTEX
  8
W71XLIFTS
 62
1
 10
1833.428
 20
-7130.354
 30
0.000
 70
    32
  0
VERTEX
  8
W71XLIFTS
 62
1
 10
1839.012
 20
-7137.509
 30
0.000
 70
    32
  0
VERTEX
  8
W71XLIFTS
 62
1
 10
1846.128
 20
-7136.171
 30
0.000
 70
    32
  0
VERTEX
  8
W71XLIFTS
 62
1
 10
1851.370
 20
-7133.863
 30
0.000
 70
    32
  0
VERTEX
  8
W71XLIFTS
 62
1
 10
1857.147
 20
-7131.029
 30
0.000
 70
    32
  0
VERTEX
  8
W71XLIFTS
 62
1
 10
1864.578
 20
-7125.477
 30
0.000
 70
    32
  0
VERTEX
  8
W71XLIFTS
 62
1
 10
1870.131
 20
-7120.213
 30
0.000
 70
    32
  0
VERTEX
  8
W71XLIFTS
 62
1
 10
1867.667
 20
-7112.185
 30
0.000
 70
    32
  0
VERTEX
  8
W71XLIFTS
 62
1
 10
1864.677
 20
-7103.622
 30
0.000
 70
    32
  0
VERTEX
  8
W71XLIFTS
 62
1
 10
1861.819
 20
-7094.150
 30
0.000
 70
    32
  0
VERTEX
  8
W71XLIFTS
 62
1
 10
1856.702
 20
-7086.825
 30
0.000
 70
    32
  0
VERTEX
  8
W71XLIFTS
 62
1
 10
1850.246
 20
-7078.005
 30
0.000
 70
    32
  0
VERTEX
  8
W71XLIFTS
 62
1
 10
1846.419
 20
-7071.862
 30
0.000
 70
    32
  0
VERTEX
  8
W71XLIFTS
 62
1
 10
1841.603
 20
-7062.642
 30
0.000
 70
    32
  0
VERTEX
  8
W71XLIFTS
 62
1
 10
1834.103
 20
-7054.401
 30
0.000
 70
    32
  0
VERTEX
  8
W71XLIFTS
 62
1
 10
1830.847
 20
-7051.819
 30
0.000
 70
    32
  0
VERTEX
  8
W71XLIFTS
 62
1
 10
1826.935
 20
-7051.063
 30
0.000
 70
    32
  0
VERTEX
  8
W71XLIFTS
 62
1
 10
1820.411
 20
-7049.673
 30
0.000
 70
    32
  0
VERTEX
  8
W71XLIFTS
 62
1
 10
1815.569
 20
-7048.000
 30
0.000
 70
    32
  0
VERTEX
  8
W71XLIFTS
 62
1
 10
1810.908
 20
-7045.732
 30
0.000
 70
    32
  0
VERTEX
  8
W71XLIFTS
 62
1
 10
1807.393
 20
-7043.708
 30
0.000
 70
    32
  0
VERTEX
  8
W71XLIFTS
 62
1
 10
1803.583
 20
-7045.229
 30
0.000
 70
    32
  0
VERTEX
  8
W71XLIFTS
 62
1
 10
1798.012
 20
-7046.996
 30
0.000
 70
    32
  0
VERTEX
  8
W71XLIFTS
 62
1
 10
1795.513
 20
-7047.576
 30
0.000
 70
    32
  0
VERTEX
  8
W71XLIFTS
 62
1
 10
1788.282
 20
-7057.486
 30
0.000
 70
    32
  0
VERTEX
  8
W71XLIFTS
 62
1
 10
1794.492
 20
-7064.544
 30
0.000
 70
    32
  0
VERTEX
  8
W71XLIFTS
 62
1
 10
1801.393
 20
-7072.409
 30
0.000
 70
    32
  0
VERTEX
  8
W71XLIFTS
 62
1
 10
1800.923
 20
-7074.793
 30
0.000
 70
    32
  0
SEQEND
  8
W71XLIFTS
  0
POINT
  8
W71XLIFTS
 62
3
 10
1816.987
 20
-7073.468
 30
0.000
  0
POINT
  8
W71XLIFTS
 62
3
 10
1811.717
 20
-7067.720
 30
0.000
  0
LINE
  8
W71XLIFTS
 62
13
 10
1816.539
 20
-7093.087
 30
0.000
 11
1818.962
 21
-7083.316
 31
0.000
  0
LINE
  8
W71XLIFTS
 62
13
 10
1818.962
 20
-7083.316
 30
0.000
 11
1812.775
 21
-7087.443
 31
0.000
  0
LINE
  8
W71XLIFTS
 62
13
 10
1822.727
 20
-7088.960
 30
0.000
 11
1818.962
 21
-7083.316
 31
0.000
  0
LINE
  8
W71XLIFTS
 62
13
 10
1812.775
 20
-7087.443
 30
0.000
 11
1822.727
 21
-7088.960
 31
0.000
  0
LINE
  8
W71XLIFTS
 62
13
 10
1816.539
 20
-7093.087
 30
0.000
 11
1822.727
 21
-7088.960
 31
0.000
  0
LINE
  8
W71XLIFTS
 62
13
 10
1812.775
 20
-7087.443
 30
0.000
 11
1816.539
 21
-7093.087
 31
0.000
  0
POLYLINE
  8
W71XLIFTS
 62
1
 66
     1
 70
     9
  0
VERTEX
  8
W71XLIFTS
 62
1
 10
2205.639
 20
-8506.656
 30
-1716.000
 70
    32
  0
VERTEX
  8
W71XLIFTS
 62
1
 10
2207.596
 20
-8511.639
 30
-1716.000
 70
    32
  0
VERTEX
  8
W71XLIFTS
 62
1
 10
2209.225
 20
-8515.763
 30
-1716.000
 70
    32
  0
VERTEX
  8
W71XLIFTS
 62
1
 10
2216.155
 20
-8529.881
 30
-1716.000
 70
    32
  0
VERTEX
  8
W71XLIFTS
 62
1
 10
2216.088
 20
-8545.334
 30
-1716.000
 70
    32
  0
VERTEX
  8
W71XLIFTS
 62
1
 10
2233.798
 20
-8547.800
 30
-1716.000
 70
    32
  0
VERTEX
  8
W71XLIFTS
 62
1
 10
2236.085
 20
-8547.093
 30
-1716.000
 70
    32
  0
VERTEX
  8
W71XLIFTS
 62
1
 10
2230.786
 20
-8556.383
 30
-1716.000
 70
    32
  0
VERTEX
  8
W71XLIFTS
 62
1
 10
2233.025
 20
-8564.823
 30
-1716.000
 70
    32
  0
VERTEX
  8
W71XLIFTS
 62
1
 10
2232.716
 20
-8577.366
 30
-1716.000
 70
    32
  0
VERTEX
  8
W71XLIFTS
 62
1
 10
2230.853
 20
-8580.650
 30
-1716.000
 70
    32
  0
VERTEX
  8
W71XLIFTS
 62
1
 10
2239.414
 20
-8592.262
 30
-1716.000
 70
    32
  0
VERTEX
  8
W71XLIFTS
 62
1
 10
2242.604
 20
-8604.324
 30
-1716.000
 70
    32
  0
VERTEX
  8
W71XLIFTS
 62
1
 10
2246.480
 20
-8613.532
 30
-1716.000
 70
    32
  0
VERTEX
  8
W71XLIFTS
 62
1
 10
2257.581
 20
-8611.459
 30
-1716.000
 70
    32
  0
VERTEX
  8
W71XLIFTS
 62
1
 10
2256.255
 20
-8603.092
 30
-1716.000
 70
    32
  0
VERTEX
  8
W71XLIFTS
 62
1
 10
2257.715
 20
-8586.956
 30
-1716.000
 70
    32
  0
VERTEX
  8
W71XLIFTS
 62
1
 10
2251.969
 20
-8566.192
 30
-1716.000
 70
    32
  0
VERTEX
  8
W71XLIFTS
 62
1
 10
2249.790
 20
-8554.526
 30
-1716.000
 70
    32
  0
VERTEX
  8
W71XLIFTS
 62
1
 10
2245.043
 20
-8544.326
 30
-1716.000
 70
    32
  0
VERTEX
  8
W71XLIFTS
 62
1
 10
2250.941
 20
-8542.504
 30
-1716.000
 70
    32
  0
VERTEX
  8
W71XLIFTS
 62
1
 10
2247.080
 20
-8536.692
 30
-1716.000
 70
    32
  0
VERTEX
  8
W71XLIFTS
 62
1
 10
2242.177
 20
-8525.682
 30
-1716.000
 70
    32
  0
VERTEX
  8
W71XLIFTS
 62
1
 10
2230.999
 20
-8507.388
 30
-1716.000
 70
    32
  0
VERTEX
  8
W71XLIFTS
 62
1
 10
2228.765
 20
-8494.274
 30
-1716.000
 70
    32
  0
VERTEX
  8
W71XLIFTS
 62
1
 10
2222.542
 20
-8478.535
 30
-1716.000
 70
    32
  0
VERTEX
  8
W71XLIFTS
 62
1
 10
2208.093
 20
-8454.170
 30
-1716.000
 70
    32
  0
VERTEX
  8
W71XLIFTS
 62
1
 10
2206.718
 20
-8452.657
 30
-1716.000
 70
    32
  0
VERTEX
  8
W71XLIFTS
 62
1
 10
2206.061
 20
-8434.545
 30
-1716.000
 70
    32
  0
VERTEX
  8
W71XLIFTS
 62
1
 10
2211.194
 20
-8420.655
 30
-1716.000
 70
    32
  0
VERTEX
  8
W71XLIFTS
 62
1
 10
2203.328
 20
-8415.304
 30
-1716.000
 70
    32
  0
VERTEX
  8
W71XLIFTS
 62
1
 10
2188.283
 20
-8420.840
 30
-1716.000
 70
    32
  0
VERTEX
  8
W71XLIFTS
 62
1
 10
2192.831
 20
-8456.193
 30
-1716.000
 70
    32
  0
VERTEX
  8
W71XLIFTS
 62
1
 10
2196.379
 20
-8469.119
 30
-1716.000
 70
    32
  0
VERTEX
  8
W71XLIFTS
 62
1
 10
2195.514
 20
-8478.921
 30
-1716.000
 70
    32
  0
VERTEX
  8
W71XLIFTS
 62
1
 10
2200.510
 20
-8505.072
 30
-1716.000
 70
    32
  0
SEQEND
  8
W71XLIFTS
  0
TEXT
  8
W71XLIFTS
 62
1
 10
2225.603
 20
-8481.342
 30
-1714.642
 40
1.800
  1
-1714.403
 41
 1.0 
  0
TEXT
  8
W71XLIFTS
 62
1
 10
2226.546
 20
-8478.942
 30
-1714.642
 40
1.800
  1
ST-325O
 41
 1.0 
  0
TEXT
  8
W71XLIFTS
 62
1
 10
2226.758
 20
-8475.887
 30
-1714.642
 40
1.800
  1
1-17-96
 50
359.755
 41
 1.0 
  0
TEXT
  8
W71XLIFTS
 62
1
 10
2222.133
 20
-8473.487
 30
-1714.642
 40
1.800
  1
-1714.543
 41
 1.0 
  0
TEXT
  8
W71XLIFTS
 62
1
 10
2223.161
 20
-8471.087
 30
-1714.642
 40
1.800
  1
ST-325P
 41
 1.0 
  0
POLYLINE
  8
W71XLIFTS
 62
2
 66
     1
 70
     9
  0
VERTEX
  8
W71XLIFTS
 62
2
 10
1944.146
 20
-7109.361
 30
-1809.581
 70
    32
  0
VERTEX
  8
W71XLIFTS
 62
2
 10
1948.739
 20
-7114.812
 30
-1809.536
 70
    32
  0
VERTEX
  8
W71XLIFTS
 62
2
 10
1951.028
 20
-7125.972
 30
-1809.216
 70
    32
  0
VERTEX
  8
W71XLIFTS
 62
2
 10
1966.116
 20
-7149.410
 30
-1808.873
 70
    32
  0
VERTEX
  8
W71XLIFTS
 62
2
 10
1976.175
 20
-7169.946
 30
-1808.472
 70
    32
  0
VERTEX
  8
W71XLIFTS
 62
2
 10
1972.891
 20
-7200.760
 30
-1807.281
 70
    32
  0
VERTEX
  8
W71XLIFTS
 62
2
 10
1975.357
 20
-7220.094
 30
-1806.951
 70
    32
  0
VERTEX
  8
W71XLIFTS
 62
2
 10
1966.874
 20
-7224.824
 30
-1807.001
 70
    32
  0
VERTEX
  8
W71XLIFTS
 62
2
 10
1964.472
 20
-7234.227
 30
-1806.987
 70
    32
  0
VERTEX
  8
W71XLIFTS
 62
2
 10
1945.432
 20
-7228.500
 30
-1807.155
 70
    32
  0
VERTEX
  8
W71XLIFTS
 62
2
 10
1944.683
 20
-7202.223
 30
-1807.251
 70
    32
  0
VERTEX
  8
W71XLIFTS
 62
2
 10
1948.602
 20
-7189.069
 30
-1807.266
 70
    32
  0
VERTEX
  8
W71XLIFTS
 62
2
 10
1944.906
 20
-7148.228
 30
-1808.236
 70
    32
  0
VERTEX
  8
W71XLIFTS
 62
2
 10
1940.811
 20
-7132.698
 30
-1808.652
 70
    32
  0
VERTEX
  8
W71XLIFTS
 62
2
 10
1934.449
 20
-7120.932
 30
-1808.863
 70
    32
  0
SEQEND
  8
W71XLIFTS
  0
POLYLINE
  8
W71XLIFTS
 62
3
 66
     1
 70
     9
  0
VERTEX
  8
W71XLIFTS
 62
3
 10
1927.743
 20
-7124.144
 30
-1808.500
 70
    32
  0
VERTEX
  8
W71XLIFTS
 62
3
 10
1935.059
 20
-7120.034
 30
-1808.500
 70
    32
  0
VERTEX
  8
W71XLIFTS
 62
3
 10
1940.297
 20
-7124.551
 30
-1808.500
 70
    32
  0
VERTEX
  8
W71XLIFTS
 62
3
 10
1945.372
 20
-7139.171
 30
-1808.500
 70
    32
  0
VERTEX
  8
W71XLIFTS
 62
3
 10
1955.074
 20
-7140.769
 30
-1808.500
 70
    32
  0
VERTEX
  8
W71XLIFTS
 62
3
 10
1962.609
 20
-7148.488
 30
-1808.500
 70
    32
  0
VERTEX
  8
W71XLIFTS
 62
3
 10
1976.082
 20
-7160.505
 30
-1808.500
 70
    32
  0
VERTEX
  8
W71XLIFTS
 62
3
 10
1978.376
 20
-7172.841
 30
-1808.500
 70
    32
  0
VERTEX
  8
W71XLIFTS
 62
3
 10
1975.835
 20
-7190.359
 30
-1808.500
 70
    32
  0
VERTEX
  8
W71XLIFTS
 62
3
 10
1977.971
 20
-7203.665
 30
-1808.500
 70
    32
  0
VERTEX
  8
W71XLIFTS
 62
3
 10
1976.900
 20
-7206.146
 30
-1808.500
 70
    32
  0
VERTEX
  8
W71XLIFTS
 62
3
 10
1970.018
 20
-7211.656
 30
-1808.500
 70
    32
  0
VERTEX
  8
W71XLIFTS
 62
3
 10
1958.068
 20
-7215.667
 30
-1808.500
 70
    32
  0
VERTEX
  8
W71XLIFTS
 62
3
 10
1952.565
 20
-7212.768
 30
-1808.500
 70
    32
  0
VERTEX
  8
W71XLIFTS
 62
3
 10
1945.493
 20
-7207.285
 30
-1808.500
 70
    32
  0
VERTEX
  8
W71XLIFTS
 62
3
 10
1942.302
 20
-7202.441
 30
-1808.500
 70
    32
  0
VERTEX
  8
W71XLIFTS
 62
3
 10
1935.246
 20
-7171.550
 30
-1808.500
 70
    32
  0
VERTEX
  8
W71XLIFTS
 62
3
 10
1930.315
 20
-7149.978
 30
-1808.500
 70
    32
  0
VERTEX
  8
W71XLIFTS
 62
3
 10
1931.298
 20
-7144.991
 30
-1808.500
 70
    32
  0
VERTEX
  8
W71XLIFTS
 62
3
 10
1930.583
 20
-7139.227
 30
-1808.500
 70
    32
  0
VERTEX
  8
W71XLIFTS
 62
3
 10
1927.262
 20
-7136.189
 30
-1808.500
 70
    32
  0
VERTEX
  8
W71XLIFTS
 62
3
 10
1925.948
 20
-7128.000
 30
-1808.500
 70
    32
  0
SEQEND
  8
W71XLIFTS
  0
POLYLINE
  8
W71XLIFTS
 62
4
 66
     1
 70
     9
  0
VERTEX
  8
W71XLIFTS
 62
4
 10
1925.561
 20
-7124.283
 30
-1806.000
 70
    32
  0
VERTEX
  8
W71XLIFTS
 62
4
 10
1933.607
 20
-7120.792
 30
-1806.000
 70
    32
  0
VERTEX
  8
W71XLIFTS
 62
4
 10
1941.173
 20
-7140.473
 30
-1806.000
 70
    32
  0
VERTEX
  8
W71XLIFTS
 62
4
 10
1955.885
 20
-7141.899
 30
-1806.000
 70
    32
  0
VERTEX
  8
W71XLIFTS
 62
4
 10
1959.834
 20
-7148.197
 30
-1806.000
 70
    32
  0
VERTEX
  8
W71XLIFTS
 62
4
 10
1965.525
 20
-7150.961
 30
-1806.000
 70
    32
  0
VERTEX
  8
W71XLIFTS
 62
4
 10
1972.302
 20
-7157.225
 30
-1806.000
 70
    32
  0
VERTEX
  8
W71XLIFTS
 62
4
 10
1975.933
 20
-7165.463
 30
-1806.000
 70
    32
  0
VERTEX
  8
W71XLIFTS
 62
4
 10
1976.963
 20
-7178.421
 30
-1806.000
 70
    32
  0
VERTEX
  8
W71XLIFTS
 62
4
 10
1973.972
 20
-7188.558
 30
-1806.000
 70
    32
  0
VERTEX
  8
W71XLIFTS
 62
4
 10
1979.625
 20
-7197.627
 30
-1806.000
 70
    32
  0
VERTEX
  8
W71XLIFTS
 62
4
 10
1977.565
 20
-7203.100
 30
-1806.000
 70
    32
  0
VERTEX
  8
W71XLIFTS
 62
4
 10
1971.885
 20
-7204.324
 30
-1806.000
 70
    32
  0
VERTEX
  8
W71XLIFTS
 62
4
 10
1955.190
 20
-7206.889
 30
-1806.000
 70
    32
  0
VERTEX
  8
W71XLIFTS
 62
4
 10
1944.011
 20
-7207.207
 30
-1806.000
 70
    32
  0
VERTEX
  8
W71XLIFTS
 62
4
 10
1940.873
 20
-7202.040
 30
-1806.000
 70
    32
  0
VERTEX
  8
W71XLIFTS
 62
4
 10
1939.154
 20
-7193.286
 30
-1806.000
 70
    32
  0
VERTEX
  8
W71XLIFTS
 62
4
 10
1938.492
 20
-7187.198
 30
-1806.000
 70
    32
  0
VERTEX
  8
W71XLIFTS
 62
4
 10
1937.289
 20
-7180.357
 30
-1806.000
 70
    32
  0
VERTEX
  8
W71XLIFTS
 62
4
 10
1934.257
 20
-7174.543
 30
-1806.000
 70
    32
  0
VERTEX
  8
W71XLIFTS
 62
4
 10
1928.939
 20
-7149.253
 30
-1806.000
 70
    32
  0
VERTEX
  8
W71XLIFTS
 62
4
 10
1924.843
 20
-7127.652
 30
-1806.000
 70
    32
  0
SEQEND
  8
W71XLIFTS
  0
POLYLINE
  8
W71XLIFTS
 62
5
 66
     1
 70
     9
  0
VERTEX
  8
W71XLIFTS
 62
5
 10
1923.327
 20
-7124.745
 30
-1803.750
 70
    32
  0
VERTEX
  8
W71XLIFTS
 62
5
 10
1931.913
 20
-7122.007
 30
-1803.750
 70
    32
  0
VERTEX
  8
W71XLIFTS
 62
5
 10
1939.701
 20
-7144.382
 30
-1803.750
 70
    32
  0
VERTEX
  8
W71XLIFTS
 62
5
 10
1959.747
 20
-7145.691
 30
-1803.750
 70
    32
  0
VERTEX
  8
W71XLIFTS
 62
5
 10
1968.557
 20
-7156.775
 30
-1803.750
 70
    32
  0
VERTEX
  8
W71XLIFTS
 62
5
 10
1974.313
 20
-7174.331
 30
-1803.750
 70
    32
  0
VERTEX
  8
W71XLIFTS
 62
5
 10
1976.718
 20
-7188.014
 30
-1803.750
 70
    32
  0
VERTEX
  8
W71XLIFTS
 62
5
 10
1977.762
 20
-7195.825
 30
-1803.750
 70
    32
  0
VERTEX
  8
W71XLIFTS
 62
5
 10
1974.978
 20
-7202.674
 30
-1803.750
 70
    32
  0
VERTEX
  8
W71XLIFTS
 62
5
 10
1966.010
 20
-7203.689
 30
-1803.750
 70
    32
  0
VERTEX
  8
W71XLIFTS
 62
5
 10
1960.136
 20
-7203.053
 30
-1803.750
 70
    32
  0
VERTEX
  8
W71XLIFTS
 62
5
 10
1948.186
 20
-7207.064
 30
-1803.750
 70
    32
  0
VERTEX
  8
W71XLIFTS
 62
5
 10
1942.423
 20
-7207.776
 30
-1803.750
 70
    32
  0
VERTEX
  8
W71XLIFTS
 62
5
 10
1938.952
 20
-7198.568
 30
-1803.750
 70
    32
  0
VERTEX
  8
W71XLIFTS
 62
5
 10
1934.726
 20
-7178.772
 30
-1803.750
 70
    32
  0
VERTEX
  8
W71XLIFTS
 62
5
 10
1931.683
 20
-7168.971
 30
-1803.750
 70
    32
  0
VERTEX
  8
W71XLIFTS
 62
5
 10
1928.109
 20
-7151.275
 30
-1803.750
 70
    32
  0
VERTEX
  8
W71XLIFTS
 62
5
 10
1924.468
 20
-7139.050
 30
-1803.750
 70
    32
  0
VERTEX
  8
W71XLIFTS
 62
5
 10
1923.091
 20
-7127.198
 30
-1803.750
 70
    32
  0
SEQEND
  8
W71XLIFTS
  0
POLYLINE
  8
W71XLIFTS
 62
6
 66
     1
 70
     9
  0
VERTEX
  8
W71XLIFTS
 62
6
 10
1921.657
 20
-7124.802
 30
-1801.400
 70
    32
  0
VERTEX
  8
W71XLIFTS
 62
6
 10
1929.625
 20
-7122.793
 30
-1801.400
 70
    32
  0
VERTEX
  8
W71XLIFTS
 62
6
 10
1931.218
 20
-7124.218
 30
-1801.400
 70
    32
  0
VERTEX
  8
W71XLIFTS
 62
6
 10
1934.096
 20
-7132.996
 30
-1801.400
 70
    32
  0
VERTEX
  8
W71XLIFTS
 62
6
 10
1939.688
 20
-7149.529
 30
-1801.400
 70
    32
  0
VERTEX
  8
W71XLIFTS
 62
6
 10
1946.606
 20
-7157.976
 30
-1801.400
 70
    32
  0
VERTEX
  8
W71XLIFTS
 62
6
 10
1963.359
 20
-7157.081
 30
-1801.400
 70
    32
  0
VERTEX
  8
W71XLIFTS
 62
6
 10
1966.279
 20
-7161.548
 30
-1801.400
 70
    32
  0
VERTEX
  8
W71XLIFTS
 62
6
 10
1971.402
 20
-7173.851
 30
-1801.400
 70
    32
  0
VERTEX
  8
W71XLIFTS
 62
6
 10
1973.469
 20
-7181.499
 30
-1801.400
 70
    32
  0
VERTEX
  8
W71XLIFTS
 62
6
 10
1973.703
 20
-7199.309
 30
-1801.400
 70
    32
  0
VERTEX
  8
W71XLIFTS
 62
6
 10
1966.952
 20
-7203.013
 30
-1801.400
 70
    32
  0
VERTEX
  8
W71XLIFTS
 62
6
 10
1941.347
 20
-7208.263
 30
-1801.400
 70
    32
  0
VERTEX
  8
W71XLIFTS
 62
6
 10
1939.590
 20
-7205.814
 30
-1801.400
 70
    32
  0
VERTEX
  8
W71XLIFTS
 62
6
 10
1937.030
 20
-7195.096
 30
-1801.400
 70
    32
  0
VERTEX
  8
W71XLIFTS
 62
6
 10
1929.327
 20
-7164.098
 30
-1801.400
 70
    32
  0
VERTEX
  8
W71XLIFTS
 62
6
 10
1922.610
 20
-7139.242
 30
-1801.400
 70
    32
  0
SEQEND
  8
W71XLIFTS
  0
POLYLINE
  8
W71XLIFTS
 62
7
 66
     1
 70
     9
  0
VERTEX
  8
W71XLIFTS
 62
7
 10
1921.821
 20
-7125.826
 30
-1799.000
 70
    32
  0
VERTEX
  8
W71XLIFTS
 62
7
 10
1928.332
 20
-7122.580
 30
-1799.000
 70
    32
  0
VERTEX
  8
W71XLIFTS
 62
7
 10
1929.818
 20
-7124.652
 30
-1799.000
 70
    32
  0
VERTEX
  8
W71XLIFTS
 62
7
 10
1932.996
 20
-7134.642
 30
-1799.000
 70
    32
  0
VERTEX
  8
W71XLIFTS
 62
7
 10
1938.588
 20
-7151.174
 30
-1799.000
 70
    32
  0
VERTEX
  8
W71XLIFTS
 62
7
 10
1943.854
 20
-7156.526
 30
-1799.000
 70
    32
  0
VERTEX
  8
W71XLIFTS
 62
7
 10
1948.436
 20
-7168.076
 30
-1799.000
 70
    32
  0
VERTEX
  8
W71XLIFTS
 62
7
 10
1963.370
 20
-7172.196
 30
-1799.000
 70
    32
  0
VERTEX
  8
W71XLIFTS
 62
7
 10
1968.372
 20
-7179.165
 30
-1799.000
 70
    32
  0
VERTEX
  8
W71XLIFTS
 62
7
 10
1966.738
 20
-7193.179
 30
-1799.000
 70
    32
  0
VERTEX
  8
W71XLIFTS
 62
7
 10
1963.837
 20
-7196.687
 30
-1799.000
 70
    32
  0
VERTEX
  8
W71XLIFTS
 62
7
 10
1954.885
 20
-7203.683
 30
-1799.000
 70
    32
  0
VERTEX
  8
W71XLIFTS
 62
7
 10
1939.383
 20
-7209.102
 30
-1799.000
 70
    32
  0
VERTEX
  8
W71XLIFTS
 62
7
 10
1936.650
 20
-7204.500
 30
-1799.000
 70
    32
  0
VERTEX
  8
W71XLIFTS
 62
7
 10
1931.274
 20
-7177.539
 30
-1799.000
 70
    32
  0
VERTEX
  8
W71XLIFTS
 62
7
 10
1921.973
 20
-7143.123
 30
-1799.000
 70
    32
  0
VERTEX
  8
W71XLIFTS
 62
7
 10
1921.253
 20
-7135.365
 30
-1799.000
 70
    32
  0
SEQEND
  8
W71XLIFTS
  0
POLYLINE
  8
W71XLIFTS
 62
8
 66
     1
 70
     9
  0
VERTEX
  8
W71XLIFTS
 62
8
 10
1927.202
 20
-7123.391
 30
-1796.800
 70
    32
  0
VERTEX
  8
W71XLIFTS
 62
8
 10
1930.838
 20
-7133.622
 30
-1796.800
 70
    32
  0
VERTEX
  8
W71XLIFTS
 62
8
 10
1936.300
 20
-7151.960
 30
-1796.800
 70
    32
  0
VERTEX
  8
W71XLIFTS
 62
8
 10
1941.808
 20
-7156.853
 30
-1796.800
 70
    32
  0
VERTEX
  8
W71XLIFTS
 62
8
 10
1943.377
 20
-7159.437
 30
-1796.800
 70
    32
  0
VERTEX
  8
W71XLIFTS
 62
8
 10
1948.770
 20
-7172.117
 30
-1796.800
 70
    32
  0
VERTEX
  8
W71XLIFTS
 62
8
 10
1952.380
 20
-7172.379
 30
-1796.800
 70
    32
  0
VERTEX
  8
W71XLIFTS
 62
8
 10
1958.371
 20
-7176.355
 30
-1796.800
 70
    32
  0
VERTEX
  8
W71XLIFTS
 62
8
 10
1960.737
 20
-7185.215
 30
-1796.800
 70
    32
  0
VERTEX
  8
W71XLIFTS
 62
8
 10
1960.694
 20
-7189.526
 30
-1796.800
 70
    32
  0
VERTEX
  8
W71XLIFTS
 62
8
 10
1953.539
 20
-7203.793
 30
-1796.800
 70
    32
  0
VERTEX
  8
W71XLIFTS
 62
8
 10
1937.607
 20
-7209.806
 30
-1796.800
 70
    32
  0
VERTEX
  8
W71XLIFTS
 62
8
 10
1935.985
 20
-7207.546
 30
-1796.800
 70
    32
  0
VERTEX
  8
W71XLIFTS
 62
8
 10
1934.193
 20
-7202.268
 30
-1796.800
 70
    32
  0
VERTEX
  8
W71XLIFTS
 62
8
 10
1932.551
 20
-7192.033
 30
-1796.800
 70
    32
  0
VERTEX
  8
W71XLIFTS
 62
8
 10
1934.022
 20
-7188.123
 30
-1796.800
 70
    32
  0
VERTEX
  8
W71XLIFTS
 62
8
 10
1932.120
 20
-7181.498
 30
-1796.800
 70
    32
  0
VERTEX
  8
W71XLIFTS
 62
8
 10
1930.063
 20
-7177.838
 30
-1796.800
 70
    32
  0
VERTEX
  8
W71XLIFTS
 62
8
 10
1921.819
 20
-7146.087
 30
-1796.800
 70
    32
  0
VERTEX
  8
W71XLIFTS
 62
8
 10
1922.416
 20
-7137.384
 30
-1796.800
 70
    32
  0
VERTEX
  8
W71XLIFTS
 62
8
 10
1924.288
 20
-7132.045
 30
-1796.800
 70
    32
  0
VERTEX
  8
W71XLIFTS
 62
8
 10
1926.126
 20
-7123.878
 30
-1796.800
 70
    32
  0
SEQEND
  8
W71XLIFTS
  0
POLYLINE
  8
W71XLIFTS
 62
11
 66
     1
 70
     9
  0
VERTEX
  8
W71XLIFTS
 62
11
 10
1922.413
 20
-7146.517
 30
-1794.300
 70
    32
  0
VERTEX
  8
W71XLIFTS
 62
11
 10
1928.932
 20
-7136.132
 30
-1794.300
 70
    32
  0
VERTEX
  8
W71XLIFTS
 62
11
 10
1931.969
 20
-7143.939
 30
-1794.300
 70
    32
  0
VERTEX
  8
W71XLIFTS
 62
11
 10
1931.150
 20
-7149.949
 30
-1794.300
 70
    32
  0
VERTEX
  8
W71XLIFTS
 62
11
 10
1940.978
 20
-7158.876
 30
-1794.300
 70
    32
  0
VERTEX
  8
W71XLIFTS
 62
11
 10
1941.900
 20
-7161.353
 30
-1794.300
 70
    32
  0
VERTEX
  8
W71XLIFTS
 62
11
 10
1946.641
 20
-7171.932
 30
-1794.300
 70
    32
  0
VERTEX
  8
W71XLIFTS
 62
11
 10
1952.266
 20
-7180.166
 30
-1794.300
 70
    32
  0
VERTEX
  8
W71XLIFTS
 62
11
 10
1955.695
 20
-7193.685
 30
-1794.300
 70
    32
  0
VERTEX
  8
W71XLIFTS
 62
11
 10
1951.627
 20
-7204.309
 30
-1794.300
 70
    32
  0
VERTEX
  8
W71XLIFTS
 62
11
 10
1937.742
 20
-7209.994
 30
-1794.300
 70
    32
  0
VERTEX
  8
W71XLIFTS
 62
11
 10
1934.614
 20
-7208.815
 30
-1794.300
 70
    32
  0
VERTEX
  8
W71XLIFTS
 62
11
 10
1932.291
 20
-7195.644
 30
-1794.300
 70
    32
  0
VERTEX
  8
W71XLIFTS
 62
11
 10
1935.181
 20
-7188.148
 30
-1794.300
 70
    32
  0
VERTEX
  8
W71XLIFTS
 62
11
 10
1935.793
 20
-7185.425
 30
-1794.300
 70
    32
  0
VERTEX
  8
W71XLIFTS
 62
11
 10
1934.412
 20
-7182.707
 30
-1794.300
 70
    32
  0
VERTEX
  8
W71XLIFTS
 62
11
 10
1930.715
 20
-7179.938
 30
-1794.300
 70
    32
  0
VERTEX
  8
W71XLIFTS
 62
11
 10
1929.633
 20
-7178.432
 30
-1794.300
 70
    32
  0
VERTEX
  8
W71XLIFTS
 62
11
 10
1926.920
 20
-7170.677
 30
-1794.300
 70
    32
  0
VERTEX
  8
W71XLIFTS
 62
11
 10
1924.707
 20
-7158.853
 30
-1794.300
 70
    32
  0
VERTEX
  8
W71XLIFTS
 62
11
 10
1925.426
 20
-7155.484
 30
-1794.300
 70
    32
  0
SEQEND
  8
W71XLIFTS
  0
POLYLINE
  8
W71XLIFTS
 62
13
 66
     1
 70
     9
  0
VERTEX
  8
W71XLIFTS
 62
13
 10
1928.824
 20
-7157.040
 30
-1791.900
 70
    32
  0
VERTEX
  8
W71XLIFTS
 62
13
 10
1933.264
 20
-7155.280
 30
-1791.900
 70
    32
  0
VERTEX
  8
W71XLIFTS
 62
13
 10
1940.660
 20
-7160.816
 30
-1791.900
 70
    32
  0
VERTEX
  8
W71XLIFTS
 62
13
 10
1940.887
 20
-7165.504
 30
-1791.900
 70
    32
  0
VERTEX
  8
W71XLIFTS
 62
13
 10
1946.922
 20
-7176.297
 30
-1791.900
 70
    32
  0
VERTEX
  8
W71XLIFTS
 62
13
 10
1950.847
 20
-7183.753
 30
-1791.900
 70
    32
  0
VERTEX
  8
W71XLIFTS
 62
13
 10
1953.648
 20
-7194.013
 30
-1791.900
 70
    32
  0
VERTEX
  8
W71XLIFTS
 62
13
 10
1950.951
 20
-7203.367
 30
-1791.900
 70
    32
  0
VERTEX
  8
W71XLIFTS
 62
13
 10
1944.899
 20
-7206.855
 30
-1791.900
 70
    32
  0
VERTEX
  8
W71XLIFTS
 62
13
 10
1940.783
 20
-7208.668
 30
-1791.900
 70
    32
  0
VERTEX
  8
W71XLIFTS
 62
13
 10
1933.350
 20
-7209.437
 30
-1791.900
 70
    32
  0
VERTEX
  8
W71XLIFTS
 62
13
 10
1931.514
 20
-7197.343
 30
-1791.900
 70
    32
  0
VERTEX
  8
W71XLIFTS
 62
13
 10
1936.851
 20
-7188.091
 30
-1791.900
 70
    32
  0
VERTEX
  8
W71XLIFTS
 62
13
 10
1937.376
 20
-7182.862
 30
-1791.900
 70
    32
  0
VERTEX
  8
W71XLIFTS
 62
13
 10
1933.808
 20
-7178.289
 30
-1791.900
 70
    32
  0
VERTEX
  8
W71XLIFTS
 62
13
 10
1930.188
 20
-7174.039
 30
-1791.900
 70
    32
  0
VERTEX
  8
W71XLIFTS
 62
13
 10
1928.720
 20
-7168.815
 30
-1791.900
 70
    32
  0
SEQEND
  8
W71XLIFTS
  0
POLYLINE
  8
W71XLIFTS
 62
2
 66
     1
 70
     9
  0
VERTEX
  8
W71XLIFTS
 62
2
 10
1937.778
 20
-7161.172
 30
-1788.000
 70
    32
  0
VERTEX
  8
W71XLIFTS
 62
2
 10
1941.414
 20
-7171.404
 30
-1788.000
 70
    32
  0
VERTEX
  8
W71XLIFTS
 62
2
 10
1947.908
 20
-7182.438
 30
-1788.000
 70
    32
  0
VERTEX
  8
W71XLIFTS
 62
2
 10
1951.239
 20
-7189.464
 30
-1788.000
 70
    32
  0
VERTEX
  8
W71XLIFTS
 62
2
 10
1949.464
 20
-7201.295
 30
-1788.000
 70
    32
  0
VERTEX
  8
W71XLIFTS
 62
2
 10
1947.587
 20
-7204.640
 30
-1788.000
 70
    32
  0
VERTEX
  8
W71XLIFTS
 62
2
 10
1939.948
 20
-7208.696
 30
-1788.000
 70
    32
  0
VERTEX
  8
W71XLIFTS
 62
2
 10
1932.462
 20
-7209.789
 30
-1788.000
 70
    32
  0
VERTEX
  8
W71XLIFTS
 62
2
 10
1930.626
 20
-7197.694
 30
-1788.000
 70
    32
  0
VERTEX
  8
W71XLIFTS
 62
2
 10
1940.427
 20
-7185.524
 30
-1788.000
 70
    32
  0
VERTEX
  8
W71XLIFTS
 62
2
 10
1939.624
 20
-7177.254
 30
-1788.000
 70
    32
  0
VERTEX
  8
W71XLIFTS
 62
2
 10
1936.481
 20
-7170.093
 30
-1788.000
 70
    32
  0
VERTEX
  8
W71XLIFTS
 62
2
 10
1936.026
 20
-7160.717
 30
-1788.000
 70
    32
  0
SEQEND
  8
W71XLIFTS
  0
TEXT
  8
W71XLIFTS
 62
7
 10
2172.668
 20
-8273.740
 30
0.000
 40
1.500
  1
-1736.28
 50
22.657
 41
 1.0 
  0
TEXT
  8
W71XLIFTS
 62
7
 10
2179.508
 20
-8329.045
 30
0.000
 40
1.500
  1
-1737.58
 50
22.657
 41
 1.0 
  0
TEXT
  8
W71XLIFTS
 62
7
 10
2206.813
 20
-8354.800
 30
0.000
 40
1.500
  1
-1738.79
 50
3.476
 41
 1.0 
  0
TEXT
  8
W71XLIFTS
 62
7
 10
2203.458
 20
-8402.928
 30
0.000
 40
2.000
  1
-1739.87
 50
3.476
 41
 1.0 
  0
POLYLINE
  8
W71XLIFTS
 62
8
 66
     1
 70
     8
  0
VERTEX
  8
W71XLIFTS
 62
8
 10
2213.033
 20
-8521.199
 30
-1772.000
 70
    32
  0
VERTEX
  8
W71XLIFTS
 62
8
 10
2226.529
 20
-8490.636
 30
-1772.000
 70
    32
  0
VERTEX
  8
W71XLIFTS
 62
8
 10
2234.494
 20
-8489.499
 30
-1772.000
 70
    32
  0
VERTEX
  8
W71XLIFTS
 62
8
 10
2240.406
 20
-8489.528
 30
-1772.000
 70
    32
  0
VERTEX
  8
W71XLIFTS
 62
8
 10
2244.779
 20
-8497.996
 30
-1772.000
 70
    32
  0
VERTEX
  8
W71XLIFTS
 62
8
 10
2249.122
 20
-8502.060
 30
-1772.000
 70
    32
  0
VERTEX
  8
W71XLIFTS
 62
8
 10
2251.251
 20
-8507.080
 30
-1772.000
 70
    32
  0
VERTEX
  8
W71XLIFTS
 62
8
 10
2250.645
 20
-8520.736
 30
-1772.000
 70
    32
  0
VERTEX
  8
W71XLIFTS
 62
8
 10
2253.880
 20
-8528.576
 30
-1772.000
 70
    32
  0
VERTEX
  8
W71XLIFTS
 62
8
 10
2257.147
 20
-8537.435
 30
-1772.000
 70
    32
  0
VERTEX
  8
W71XLIFTS
 62
8
 10
2266.285
 20
-8538.089
 30
-1772.000
 70
    32
  0
VERTEX
  8
W71XLIFTS
 62
8
 10
2266.526
 20
-8530.160
 30
-1772.000
 70
    32
  0
VERTEX
  8
W71XLIFTS
 62
8
 10
2271.491
 20
-8524.574
 30
-1772.000
 70
    32
  0
VERTEX
  8
W71XLIFTS
 62
8
 10
2270.173
 20
-8508.668
 30
-1772.000
 70
    32
  0
VERTEX
  8
W71XLIFTS
 62
8
 10
2271.547
 20
-8505.270
 30
-1772.000
 70
    32
  0
VERTEX
  8
W71XLIFTS
 62
8
 10
2275.649
 20
-8500.689
 30
-1772.000
 70
    32
  0
VERTEX
  8
W71XLIFTS
 62
8
 10
2271.663
 20
-8492.294
 30
-1772.000
 70
    32
  0
VERTEX
  8
W71XLIFTS
 62
8
 10
2264.460
 20
-8484.250
 30
-1772.000
 70
    32
  0
VERTEX
  8
W71XLIFTS
 62
8
 10
2260.459
 20
-8482.908
 30
-1772.000
 70
    32
  0
VERTEX
  8
W71XLIFTS
 62
8
 10
2257.429
 20
-8470.927
 30
-1772.000
 70
    32
  0
VERTEX
  8
W71XLIFTS
 62
8
 10
2260.269
 20
-8464.523
 30
-1772.000
 70
    32
  0
VERTEX
  8
W71XLIFTS
 62
8
 10
2259.382
 20
-8460.962
 30
-1772.000
 70
    32
  0
VERTEX
  8
W71XLIFTS
 62
8
 10
2253.571
 20
-8457.139
 30
-1772.000
 70
    32
  0
VERTEX
  8
W71XLIFTS
 62
8
 10
2252.043
 20
-8452.265
 30
-1772.000
 70
    32
  0
VERTEX
  8
W71XLIFTS
 62
8
 10
2252.825
 20
-8449.914
 30
-1772.000
 70
    32
  0
VERTEX
  8
W71XLIFTS
 62
8
 10
2249.218
 20
-8438.550
 30
-1772.000
 70
    32
  0
VERTEX
  8
W71XLIFTS
 62
8
 10
2245.440
 20
-8434.039
 30
-1772.000
 70
    32
  0
VERTEX
  8
W71XLIFTS
 62
8
 10
2238.795
 20
-8431.742
 30
-1772.000
 70
    32
  0
VERTEX
  8
W71XLIFTS
 62
8
 10
2222.633
 20
-8436.338
 30
-1772.000
 70
    32
  0
VERTEX
  8
W71XLIFTS
 62
8
 10
2210.834
 20
-8422.996
 30
-1772.000
 70
    32
  0
VERTEX
  8
W71XLIFTS
 62
8
 10
2209.144
 20
-8421.206
 30
-1772.000
 70
    32
  0
VERTEX
  8
W71XLIFTS
 62
8
 10
2207.579
 20
-8412.573
 30
-1772.000
 70
    32
  0
VERTEX
  8
W71XLIFTS
 62
8
 10
2211.684
 20
-8388.698
 30
-1772.000
 70
    32
  0
VERTEX
  8
W71XLIFTS
 62
8
 10
2214.548
 20
-8383.017
 30
-1772.000
 70
    32
  0
VERTEX
  8
W71XLIFTS
 62
8
 10
2217.842
 20
-8380.038
 30
-1772.000
 70
    32
  0
VERTEX
  8
W71XLIFTS
 62
8
 10
2222.624
 20
-8382.045
 30
-1772.000
 70
    32
  0
VERTEX
  8
W71XLIFTS
 62
8
 10
2223.426
 20
-8392.995
 30
-1772.000
 70
    32
  0
VERTEX
  8
W71XLIFTS
 62
8
 10
2222.908
 20
-8403.812
 30
-1772.000
 70
    32
  0
VERTEX
  8
W71XLIFTS
 62
8
 10
2229.943
 20
-8406.758
 30
-1772.000
 70
    32
  0
VERTEX
  8
W71XLIFTS
 62
8
 10
2233.671
 20
-8405.669
 30
-1772.000
 70
    32
  0
VERTEX
  8
W71XLIFTS
 62
8
 10
2241.486
 20
-8388.682
 30
-1772.000
 70
    32
  0
VERTEX
  8
W71XLIFTS
 62
8
 10
2242.324
 20
-8381.592
 30
-1772.000
 70
    32
  0
VERTEX
  8
W71XLIFTS
 62
8
 10
2245.689
 20
-8373.564
 30
-1772.000
 70
    32
  0
VERTEX
  8
W71XLIFTS
 62
8
 10
2244.840
 20
-8357.094
 30
-1772.000
 70
    32
  0
VERTEX
  8
W71XLIFTS
 62
8
 10
2242.747
 20
-8352.291
 30
-1772.000
 70
    32
  0
VERTEX
  8
W71XLIFTS
 62
8
 10
2241.107
 20
-8345.603
 30
-1772.000
 70
    32
  0
VERTEX
  8
W71XLIFTS
 62
8
 10
2236.108
 20
-8335.960
 30
-1772.000
 70
    32
  0
VERTEX
  8
W71XLIFTS
 62
8
 10
2234.633
 20
-8329.745
 30
-1772.000
 70
    32
  0
VERTEX
  8
W71XLIFTS
 62
8
 10
2227.798
 20
-8321.238
 30
-1772.000
 70
    32
  0
VERTEX
  8
W71XLIFTS
 62
8
 10
2226.044
 20
-8314.966
 30
-1772.000
 70
    32
  0
VERTEX
  8
W71XLIFTS
 62
8
 10
2215.467
 20
-8293.576
 30
-1772.000
 70
    32
  0
VERTEX
  8
W71XLIFTS
 62
8
 10
2210.741
 20
-8283.441
 30
-1772.000
 70
    32
  0
VERTEX
  8
W71XLIFTS
 62
8
 10
2207.048
 20
-8279.987
 30
-1772.000
 70
    32
  0
VERTEX
  8
W71XLIFTS
 62
8
 10
2203.320
 20
-8272.959
 30
-1772.000
 70
    32
  0
VERTEX
  8
W71XLIFTS
 62
8
 10
2192.437
 20
-8278.736
 30
-1772.000
 70
    32
  0
VERTEX
  8
W71XLIFTS
 62
8
 10
2201.776
 20
-8292.894
 30
-1772.000
 70
    32
  0
VERTEX
  8
W71XLIFTS
 62
8
 10
2212.942
 20
-8311.498
 30
-1772.000
 70
    32
  0
VERTEX
  8
W71XLIFTS
 62
8
 10
2217.704
 20
-8322.597
 30
-1772.000
 70
    32
  0
VERTEX
  8
W71XLIFTS
 62
8
 10
2220.549
 20
-8331.732
 30
-1772.000
 70
    32
  0
VERTEX
  8
W71XLIFTS
 62
8
 10
2219.459
 20
-8342.521
 30
-1772.000
 70
    32
  0
VERTEX
  8
W71XLIFTS
 62
8
 10
2219.329
 20
-8347.547
 30
-1772.000
 70
    32
  0
VERTEX
  8
W71XLIFTS
 62
8
 10
2218.485
 20
-8354.869
 30
-1772.000
 70
    32
  0
VERTEX
  8
W71XLIFTS
 62
8
 10
2211.178
 20
-8361.525
 30
-1772.000
 70
    32
  0
VERTEX
  8
W71XLIFTS
 62
8
 10
2208.733
 20
-8367.293
 30
-1772.000
 70
    32
  0
VERTEX
  8
W71XLIFTS
 62
8
 10
2205.082
 20
-8374.598
 30
-1772.000
 70
    32
  0
VERTEX
  8
W71XLIFTS
 62
8
 10
2203.550
 20
-8376.729
 30
-1772.000
 70
    32
  0
VERTEX
  8
W71XLIFTS
 62
8
 10
2198.658
 20
-8384.866
 30
-1772.000
 70
    32
  0
VERTEX
  8
W71XLIFTS
 62
8
 10
2198.194
 20
-8400.211
 30
-1772.000
 70
    32
  0
VERTEX
  8
W71XLIFTS
 62
8
 10
2194.760
 20
-8409.532
 30
-1772.000
 70
    32
  0
VERTEX
  8
W71XLIFTS
 62
8
 10
2195.574
 20
-8414.710
 30
-1772.000
 70
    32
  0
VERTEX
  8
W71XLIFTS
 62
8
 10
2195.914
 20
-8424.619
 30
-1772.000
 70
    32
  0
VERTEX
  8
W71XLIFTS
 62
8
 10
2215.307
 20
-8448.458
 30
-1772.000
 70
    32
  0
VERTEX
  8
W71XLIFTS
 62
8
 10
2219.724
 20
-8459.950
 30
-1772.000
 70
    32
  0
VERTEX
  8
W71XLIFTS
 62
8
 10
2219.723
 20
-8468.315
 30
-1772.000
 70
    32
  0
VERTEX
  8
W71XLIFTS
 62
8
 10
2217.115
 20
-8471.391
 30
-1772.000
 70
    32
  0
VERTEX
  8
W71XLIFTS
 62
8
 10
2215.452
 20
-8483.629
 30
-1772.000
 70
    32
  0
VERTEX
  8
W71XLIFTS
 62
8
 10
2204.497
 20
-8512.592
 30
-1772.000
 70
    32
  0
VERTEX
  8
W71XLIFTS
 62
8
 10
2201.308
 20
-8523.834
 30
-1772.000
 70
    32
  0
SEQEND
  8
W71XLIFTS
  0
POLYLINE
  8
W71XLIFTS
 62
8
 66
     1
 70
     8
  0
VERTEX
  8
W71XLIFTS
 62
8
 10
2212.236
 20
-8521.946
 30
-1759.000
 70
    32
  0
VERTEX
  8
W71XLIFTS
 62
8
 10
2225.732
 20
-8491.384
 30
-1759.000
 70
    32
  0
VERTEX
  8
W71XLIFTS
 62
8
 10
2233.697
 20
-8490.247
 30
-1759.000
 70
    32
  0
VERTEX
  8
W71XLIFTS
 62
8
 10
2239.608
 20
-8490.276
 30
-1759.000
 70
    32
  0
VERTEX
  8
W71XLIFTS
 62
8
 10
2243.982
 20
-8498.744
 30
-1759.000
 70
    32
  0
VERTEX
  8
W71XLIFTS
 62
8
 10
2248.325
 20
-8502.808
 30
-1759.000
 70
    32
  0
VERTEX
  8
W71XLIFTS
 62
8
 10
2250.454
 20
-8507.828
 30
-1759.000
 70
    32
  0
VERTEX
  8
W71XLIFTS
 62
8
 10
2249.848
 20
-8521.484
 30
-1759.000
 70
    32
  0
VERTEX
  8
W71XLIFTS
 62
8
 10
2253.083
 20
-8529.324
 30
-1759.000
 70
    32
  0
VERTEX
  8
W71XLIFTS
 62
8
 10
2256.350
 20
-8538.183
 30
-1759.000
 70
    32
  0
VERTEX
  8
W71XLIFTS
 62
8
 10
2265.488
 20
-8538.837
 30
-1759.000
 70
    32
  0
VERTEX
  8
W71XLIFTS
 62
8
 10
2265.729
 20
-8530.908
 30
-1759.000
 70
    32
  0
VERTEX
  8
W71XLIFTS
 62
8
 10
2270.694
 20
-8525.322
 30
-1759.000
 70
    32
  0
VERTEX
  8
W71XLIFTS
 62
8
 10
2269.376
 20
-8509.416
 30
-1759.000
 70
    32
  0
VERTEX
  8
W71XLIFTS
 62
8
 10
2270.750
 20
-8506.018
 30
-1759.000
 70
    32
  0
VERTEX
  8
W71XLIFTS
 62
8
 10
2274.852
 20
-8501.437
 30
-1759.000
 70
    32
  0
VERTEX
  8
W71XLIFTS
 62
8
 10
2270.866
 20
-8493.042
 30
-1759.000
 70
    32
  0
VERTEX
  8
W71XLIFTS
 62
8
 10
2263.663
 20
-8484.998
 30
-1759.000
 70
    32
  0
VERTEX
  8
W71XLIFTS
 62
8
 10
2259.662
 20
-8483.656
 30
-1759.000
 70
    32
  0
VERTEX
  8
W71XLIFTS
 62
8
 10
2256.632
 20
-8471.675
 30
-1759.000
 70
    32
  0
VERTEX
  8
W71XLIFTS
 62
8
 10
2259.472
 20
-8465.271
 30
-1759.000
 70
    32
  0
VERTEX
  8
W71XLIFTS
 62
8
 10
2258.585
 20
-8461.710
 30
-1759.000
 70
    32
  0
VERTEX
  8
W71XLIFTS
 62
8
 10
2252.774
 20
-8457.887
 30
-1759.000
 70
    32
  0
VERTEX
  8
W71XLIFTS
 62
8
 10
2251.245
 20
-8453.013
 30
-1759.000
 70
    32
  0
VERTEX
  8
W71XLIFTS
 62
8
 10
2252.028
 20
-8450.662
 30
-1759.000
 70
    32
  0
VERTEX
  8
W71XLIFTS
 62
8
 10
2248.421
 20
-8439.298
 30
-1759.000
 70
    32
  0
VERTEX
  8
W71XLIFTS
 62
8
 10
2244.643
 20
-8434.787
 30
-1759.000
 70
    32
  0
VERTEX
  8
W71XLIFTS
 62
8
 10
2237.998
 20
-8432.490
 30
-1759.000
 70
    32
  0
VERTEX
  8
W71XLIFTS
 62
8
 10
2221.836
 20
-8437.086
 30
-1759.000
 70
    32
  0
VERTEX
  8
W71XLIFTS
 62
8
 10
2210.037
 20
-8423.743
 30
-1759.000
 70
    32
  0
VERTEX
  8
W71XLIFTS
 62
8
 10
2208.347
 20
-8421.954
 30
-1759.000
 70
    32
  0
VERTEX
  8
W71XLIFTS
 62
8
 10
2206.782
 20
-8413.321
 30
-1759.000
 70
    32
  0
VERTEX
  8
W71XLIFTS
 62
8
 10
2210.887
 20
-8389.446
 30
-1759.000
 70
    32
  0
VERTEX
  8
W71XLIFTS
 62
8
 10
2213.751
 20
-8383.765
 30
-1759.000
 70
    32
  0
VERTEX
  8
W71XLIFTS
 62
8
 10
2217.045
 20
-8380.786
 30
-1759.000
 70
    32
  0
VERTEX
  8
W71XLIFTS
 62
8
 10
2221.827
 20
-8382.793
 30
-1759.000
 70
    32
  0
VERTEX
  8
W71XLIFTS
 62
8
 10
2222.629
 20
-8393.743
 30
-1759.000
 70
    32
  0
VERTEX
  8
W71XLIFTS
 62
8
 10
2222.111
 20
-8404.560
 30
-1759.000
 70
    32
  0
VERTEX
  8
W71XLIFTS
 62
8
 10
2229.146
 20
-8407.506
 30
-1759.000
 70
    32
  0
VERTEX
  8
W71XLIFTS
 62
8
 10
2232.874
 20
-8406.417
 30
-1759.000
 70
    32
  0
VERTEX
  8
W71XLIFTS
 62
8
 10
2240.689
 20
-8389.430
 30
-1759.000
 70
    32
  0
VERTEX
  8
W71XLIFTS
 62
8
 10
2241.527
 20
-8382.340
 30
-1759.000
 70
    32
  0
VERTEX
  8
W71XLIFTS
 62
8
 10
2244.892
 20
-8374.312
 30
-1759.000
 70
    32
  0
VERTEX
  8
W71XLIFTS
 62
8
 10
2244.043
 20
-8357.842
 30
-1759.000
 70
    32
  0
VERTEX
  8
W71XLIFTS
 62
8
 10
2241.950
 20
-8353.038
 30
-1759.000
 70
    32
  0
VERTEX
  8
W71XLIFTS
 62
8
 10
2240.310
 20
-8346.351
 30
-1759.000
 70
    32
  0
VERTEX
  8
W71XLIFTS
 62
8
 10
2235.311
 20
-8336.708
 30
-1759.000
 70
    32
  0
VERTEX
  8
W71XLIFTS
 62
8
 10
2233.836
 20
-8330.493
 30
-1759.000
 70
    32
  0
VERTEX
  8
W71XLIFTS
 62
8
 10
2227.001
 20
-8321.986
 30
-1759.000
 70
    32
  0
VERTEX
  8
W71XLIFTS
 62
8
 10
2225.247
 20
-8315.714
 30
-1759.000
 70
    32
  0
VERTEX
  8
W71XLIFTS
 62
8
 10
2214.670
 20
-8294.324
 30
-1759.000
 70
    32
  0
VERTEX
  8
W71XLIFTS
 62
8
 10
2209.944
 20
-8284.189
 30
-1759.000
 70
    32
  0
VERTEX
  8
W71XLIFTS
 62
8
 10
2206.251
 20
-8280.735
 30
-1759.000
 70
    32
  0
VERTEX
  8
W71XLIFTS
 62
8
 10
2202.523
 20
-8273.707
 30
-1759.000
 70
    32
  0
VERTEX
  8
W71XLIFTS
 62
8
 10
2191.640
 20
-8279.484
 30
-1759.000
 70
    32
  0
VERTEX
  8
W71XLIFTS
 62
8
 10
2200.979
 20
-8293.642
 30
-1759.000
 70
    32
  0
VERTEX
  8
W71XLIFTS
 62
8
 10
2212.145
 20
-8312.246
 30
-1759.000
 70
    32
  0
VERTEX
  8
W71XLIFTS
 62
8
 10
2216.907
 20
-8323.345
 30
-1759.000
 70
    32
  0
VERTEX
  8
W71XLIFTS
 62
8
 10
2219.752
 20
-8332.480
 30
-1759.000
 70
    32
  0
VERTEX
  8
W71XLIFTS
 62
8
 10
2218.662
 20
-8343.269
 30
-1759.000
 70
    32
  0
VERTEX
  8
W71XLIFTS
 62
8
 10
2218.532
 20
-8348.295
 30
-1759.000
 70
    32
  0
VERTEX
  8
W71XLIFTS
 62
8
 10
2217.688
 20
-8355.617
 30
-1759.000
 70
    32
  0
VERTEX
  8
W71XLIFTS
 62
8
 10
2210.381
 20
-8362.273
 30
-1759.000
 70
    32
  0
VERTEX
  8
W71XLIFTS
 62
8
 10
2207.936
 20
-8368.041
 30
-1759.000
 70
    32
  0
VERTEX
  8
W71XLIFTS
 62
8
 10
2204.285
 20
-8375.345
 30
-1759.000
 70
    32
  0
VERTEX
  8
W71XLIFTS
 62
8
 10
2202.753
 20
-8377.477
 30
-1759.000
 70
    32
  0
VERTEX
  8
W71XLIFTS
 62
8
 10
2197.861
 20
-8385.614
 30
-1759.000
 70
    32
  0
VERTEX
  8
W71XLIFTS
 62
8
 10
2197.397
 20
-8400.959
 30
-1759.000
 70
    32
  0
VERTEX
  8
W71XLIFTS
 62
8
 10
2193.963
 20
-8410.280
 30
-1759.000
 70
    32
  0
VERTEX
  8
W71XLIFTS
 62
8
 10
2194.777
 20
-8415.458
 30
-1759.000
 70
    32
  0
VERTEX
  8
W71XLIFTS
 62
8
 10
2195.117
 20
-8425.367
 30
-1759.000
 70
    32
  0
VERTEX
  8
W71XLIFTS
 62
8
 10
2214.510
 20
-8449.205
 30
-1759.000
 70
    32
  0
VERTEX
  8
W71XLIFTS
 62
8
 10
2218.927
 20
-8460.698
 30
-1759.000
 70
    32
  0
VERTEX
  8
W71XLIFTS
 62
8
 10
2218.926
 20
-8469.063
 30
-1759.000
 70
    32
  0
VERTEX
  8
W71XLIFTS
 62
8
 10
2216.318
 20
-8472.139
 30
-1759.000
 70
    32
  0
VERTEX
  8
W71XLIFTS
 62
8
 10
2214.655
 20
-8484.377
 30
-1759.000
 70
    32
  0
VERTEX
  8
W71XLIFTS
 62
8
 10
2203.700
 20
-8513.340
 30
-1759.000
 70
    32
  0
VERTEX
  8
W71XLIFTS
 62
8
 10
2200.511
 20
-8524.582
 30
-1759.000
 70
    32
  0
SEQEND
  8
W71XLIFTS
  0
TEXT
  8
W71XLIFTS
 62
13
 10
2199.798
 20
-8281.318
 30
-1759.869
 40
2.000
  1
BK-1759.8
 41
 1.0 
  0
TEXT
  8
W71XLIFTS
 62
13
 10
2199.798
 20
-8285.618
 30
-1771.869
 40
2.000
  1
Fl-1771.8
 41
 1.0 
  0
TEXT
  8
W71XLIFTS
 62
13
 10
2209.672
 20
-8297.532
 30
-1760.489
 40
2.000
  1
BK-1760.4
 41
 1.0 
  0
TEXT
  8
W71XLIFTS
 62
13
 10
2209.672
 20
-8301.832
 30
-1772.489
 40
2.000
  1
Fl-1772.4
 41
 1.0 
  0
TEXT
  8
W71XLIFTS
 62
13
 10
2218.988
 20
-8317.404
 30
-1762.098
 40
2.000
  1
BK-1762.0
 41
 1.0 
  0
TEXT
  8
W71XLIFTS
 62
13
 10
2218.988
 20
-8321.704
 30
-1773.598
 40
2.000
  1
Fl-1773.5
 41
 1.0 
  0
TEXT
  8
W71XLIFTS
 62
13
 10
2221.289
 20
-8326.942
 30
-1758.712
 40
2.000
  1
BK-1758.7
 41
 1.0 
  0
TEXT
  8
W71XLIFTS
 62
13
 10
2230.265
 20
-8349.539
 30
-1759.918
 40
2.000
  1
BK-1759.9
 41
 1.0 
  0
TEXT
  8
W71XLIFTS
 62
13
 10
2222.313
 20
-8358.321
 30
-1762.136
 40
2.000
  1
BK-1762.1
 41
 1.0 
  0
TEXT
  8
W71XLIFTS
 62
13
 10
2230.610
 20
-8365.498
 30
-1760.135
 40
2.000
  1
BK-1760.1
 41
 1.0 
  0
TEXT
  8
W71XLIFTS
 62
13
 10
2216.896
 20
-8371.809
 30
-1762.854
 40
3.000
  1
ST-660M
 41
 1.0 
  0
TEXT
  8
W71XLIFTS
 62
13
 10
2216.468
 20
-8375.809
 30
-1762.854
 40
3.000
  1
-1762.85
 41
 1.0 
  0
POLYLINE
  8
W71XLIFTS
 62
13
 66
     1
 70
     9
  0
VERTEX
  8
W71XLIFTS
 62
13
 10
2214.667
 20
-8371.798
 30
-1762.854
 70
    32
  0
VERTEX
  8
W71XLIFTS
 62
13
 10
2216.416
 20
-8374.978
 30
-1762.854
 70
    32
  0
VERTEX
  8
W71XLIFTS
 62
13
 10
2212.917
 20
-8374.976
 30
-1762.854
 70
    32
  0
SEQEND
  8
W71XLIFTS
  0
POINT
  8
W71XLIFTS
 62
13
 10
2214.667
 20
-8374.008
 30
-1762.854
  0
POLYLINE
  8
W71XLIFTS
 62
13
 66
     1
 70
     9
  0
VERTEX
  8
W71XLIFTS
 62
13
 10
2214.667
 20
-8371.798
 30
-1762.854
 70
    32
  0
VERTEX
  8
W71XLIFTS
 62
13
 10
2216.416
 20
-8374.978
 30
-1762.854
 70
    32
  0
VERTEX
  8
W71XLIFTS
 62
13
 10
2212.917
 20
-8374.976
 30
-1762.854
 70
    32
  0
SEQEND
  8
W71XLIFTS
  0
TEXT
  8
W71XLIFTS
 62
13
 10
2205.025
 20
-8387.200
 30
-1762.065
 40
2.000
  1
BK-1762.0
 41
 1.0 
  0
TEXT
  8
W71XLIFTS
 62
13
 10
2229.552
 20
-8394.161
 30
-1760.307
 40
2.000
  1
BK-1760.3
 41
 1.0 
  0
TEXT
  8
W71XLIFTS
 62
13
 10
2202.429
 20
-8403.615
 30
-1763.933
 40
2.000
  1
BK-1763.9
 41
 1.0 
  0
TEXT
  8
W71XLIFTS
 62
13
 10
2216.015
 20
-8417.361
 30
-1763.908
 40
3.000
  1
ST-661M
 41
 1.0 
  0
TEXT
  8
W71XLIFTS
 62
13
 10
2203.715
 20
-8420.251
 30
-1763.908
 40
3.000
  1
ST-661M
 41
 1.0 
  0
TEXT
  8
W71XLIFTS
 62
13
 10
2203.644
 20
-8424.251
 30
-1763.908
 40
3.000
  1
-1763.91
 41
 1.0 
  0
POINT
  8
W71XLIFTS
 62
13
 10
2200.872
 20
-8421.383
 30
-1763.908
  0
POLYLINE
  8
W71XLIFTS
 62
13
 66
     1
 70
     9
  0
VERTEX
  8
W71XLIFTS
 62
13
 10
2200.872
 20
-8419.173
 30
-1763.908
 70
    32
  0
VERTEX
  8
W71XLIFTS
 62
13
 10
2202.621
 20
-8422.353
 30
-1763.908
 70
    32
  0
VERTEX
  8
W71XLIFTS
 62
13
 10
2199.122
 20
-8422.351
 30
-1763.908
 70
    32
  0
SEQEND
  8
W71XLIFTS
  0
TEXT
  8
W71XLIFTS
 62
13
 10
2193.039
 20
-8432.088
 30
-1699.397
 40
2.000
  1
BK-1699.4
 41
 1.0 
  0
TEXT
  8
W71XLIFTS
 62
13
 10
2231.402
 20
-8445.708
 30
0.000
 40
2.000
  1
bk-1764
 50
35.666
 41
 1.0 
  0
TEXT
  8
W71XLIFTS
 62
13
 10
2260.789
 20
-8534.021
 30
-1762.852
 40
2.000
  1
BK-1762.8
 41
 1.0 
  0
TEXT
  8
W71XLIFTS
 62
13
 10
2248.366
 20
-8482.165
 30
-1763.751
 40
2.000
  1
BK-1763.7
 41
 1.0 
  0
TEXT
  8
W71XLIFTS
 62
13
 10
2247.175
 20
-8475.090
 30
-1763.676
 40
2.000
  1
BK-1763.6
 41
 1.0 
  0
TEXT
  8
W71XLIFTS
 62
13
 10
2246.756
 20
-8466.126
 30
-1763.999
 40
2.000
  1
ST-441N
 41
 1.0 
  0
POLYLINE
  8
W71XLIFTS
 62
13
 66
     1
 70
     9
  0
VERTEX
  8
W71XLIFTS
 62
13
 10
2243.770
 20
-8464.275
 30
-1763.999
 70
    32
  0
VERTEX
  8
W71XLIFTS
 62
13
 10
2245.519
 20
-8467.455
 30
-1763.999
 70
    32
  0
VERTEX
  8
W71XLIFTS
 62
13
 10
2242.020
 20
-8467.453
 30
-1763.999
 70
    32
  0
SEQEND
  8
W71XLIFTS
  0
POINT
  8
W71XLIFTS
 62
13
 10
2243.770
 20
-8466.485
 30
-1763.999
  0
TEXT
  8
W71XLIFTS
 62
13
 10
2244.898
 20
-8469.049
 30
-1763.999
 40
3.000
  1
-1764.00
 41
 1.0 
  0
TEXT
  8
W71XLIFTS
 62
13
 10
2240.042
 20
-8460.142
 30
-1762.642
 40
3.000
  1
-1762.64
 41
 1.0 
  0
TEXT
  8
W71XLIFTS
 62
13
 10
2244.066
 20
-8456.142
 30
-1762.642
 40
2.000
  1
ST-441M
 41
 1.0 
  0
POINT
  8
W71XLIFTS
 62
13
 10
2238.737
 20
-8459.477
 30
-1762.642
  0
POLYLINE
  8
W71XLIFTS
 62
13
 66
     1
 70
     9
  0
VERTEX
  8
W71XLIFTS
 62
13
 10
2238.737
 20
-8457.267
 30
-1762.642
 70
    32
  0
VERTEX
  8
W71XLIFTS
 62
13
 10
2240.486
 20
-8460.447
 30
-1762.642
 70
    32
  0
VERTEX
  8
W71XLIFTS
 62
13
 10
2236.987
 20
-8460.445
 30
-1762.642
 70
    32
  0
SEQEND
  8
W71XLIFTS
  0
TEXT
  8
W71XLIFTS
 62
13
 10
2222.991
 20
-8469.460
 30
-1761.614
 40
2.000
  1
ST-565N
 41
 1.0 
  0
POINT
  8
W71XLIFTS
 62
13
 10
2239.489
 20
-8469.690
 30
-1761.614
  0
POLYLINE
  8
W71XLIFTS
 62
13
 66
     1
 70
     9
  0
VERTEX
  8
W71XLIFTS
 62
13
 10
2239.489
 20
-8467.480
 30
-1761.614
 70
    32
  0
VERTEX
  8
W71XLIFTS
 62
13
 10
2241.238
 20
-8470.660
 30
-1761.614
 70
    32
  0
VERTEX
  8
W71XLIFTS
 62
13
 10
2237.739
 20
-8470.658
 30
-1761.614
 70
    32
  0
SEQEND
  8
W71XLIFTS
  0
TEXT
  8
W71XLIFTS
 62
13
 10
2216.730
 20
-8474.615
 30
-1761.614
 40
3.000
  1
-1761.61
 41
 1.0 
  0
TEXT
  8
W71XLIFTS
 62
13
 10
2233.588
 20
-8483.145
 30
-1763.686
 40
2.000
  1
BK-1763.6
 41
 1.0 
  0
TEXT
  8
W71XLIFTS
 62
1
 10
2203.306
 20
-8531.895
 30
0.000
 40
2.000
  1
BK-1760
 50
331.392
 41
 1.0 
  0
TEXT
  8
W71XLIFTS
 62
1
 10
2192.806
 20
-8547.655
 30
0.000
 40
2.000
  1
BK-1762
 50
331.392
 41
 1.0 
  0
TEXT
  8
W71XLIFTS
 62
1
 10
2201.443
 20
-8536.385
 30
-1785.150
 40
3.000
  1
Fl -1785.153
 50
-53.858
 41
 1.0 
  0
TEXT
  8
W71XLIFTS
 62
1
 10
2192.127
 20
-8558.814
 30
-1777.000
 40
3.000
  1
Fl -1776.931
 50
-53.858
 41
 1.0 
  0
TEXT
  8
W71XLIFTS
 62
1
 10
2214.836
 20
-8500.950
 30
-1793.880
 40
3.000
  1
Fl -1793.88
 50
-53.858
 41
 1.0 
  0
TEXT
  8
W71XLIFTS
 62
5
 10
2251.101
 20
-8566.373
 30
0.000
 40
2.000
  1
BK-1753
 50
35.666
 41
 1.0 
  0
TEXT
  8
W71XLIFTS
 62
5
 10
2250.501
 20
-8543.408
 30
0.000
 40
2.000
  1
BK-1755
 50
35.666
 41
 1.0 
  0
TEXT
  8
W71XLIFTS
 62
5
 10
2248.502
 20
-8540.623
 30
0.000
 40
2.000
  1
BK-1753
 50
35.666
 41
 1.0 
  0
TEXT
  8
W71XLIFTS
 62
5
 10
2241.869
 20
-8505.261
 30
0.000
 40
2.000
  1
BK-1752
 50
35.666
 41
 1.0 
  0
TEXT
  8
W71XLIFTS
 62
5
 10
2220.950
 20
-8449.012
 30
0.000
 40
2.000
  1
BK-1750
 50
331.392
 41
 1.0 
  0
TEXT
  8
W71XLIFTS
 62
5
 10
2226.544
 20
-8417.519
 30
0.000
 40
2.000
  1
BK-1751
 50
35.666
 41
 1.0 
  0
TEXT
  8
W71XLIFTS
 62
5
 10
2221.645
 20
-8396.545
 30
0.000
 40
2.000
  1
BK-1751
 50
35.666
 41
 1.0 
  0
POLYLINE
  8
W71XLIFTS
 62
5
 66
     1
 70
     8
  0
VERTEX
  8
W71XLIFTS
 62
5
 10
2185.799
 20
-8560.307
 30
-1750.000
 70
    32
  0
VERTEX
  8
W71XLIFTS
 62
5
 10
2202.914
 20
-8519.168
 30
-1750.000
 70
    32
  0
VERTEX
  8
W71XLIFTS
 62
5
 10
2214.458
 20
-8483.011
 30
-1750.000
 70
    32
  0
VERTEX
  8
W71XLIFTS
 62
5
 10
2216.978
 20
-8466.327
 30
-1750.000
 70
    32
  0
VERTEX
  8
W71XLIFTS
 62
5
 10
2214.195
 20
-8456.915
 30
-1750.000
 70
    32
  0
VERTEX
  8
W71XLIFTS
 62
5
 10
2218.499
 20
-8452.033
 30
-1750.000
 70
    32
  0
VERTEX
  8
W71XLIFTS
 62
5
 10
2218.432
 20
-8437.024
 30
-1750.000
 70
    32
  0
VERTEX
  8
W71XLIFTS
 62
5
 10
2224.113
 20
-8421.484
 30
-1750.000
 70
    32
  0
VERTEX
  8
W71XLIFTS
 62
5
 10
2227.793
 20
-8408.449
 30
-1750.000
 70
    32
  0
VERTEX
  8
W71XLIFTS
 62
5
 10
2216.519
 20
-8392.165
 30
-1750.000
 70
    32
  0
VERTEX
  8
W71XLIFTS
 62
5
 10
2227.753
 20
-8384.859
 30
-1750.000
 70
    32
  0
VERTEX
  8
W71XLIFTS
 62
5
 10
2232.549
 20
-8383.884
 30
-1750.000
 70
    32
  0
VERTEX
  8
W71XLIFTS
 62
5
 10
2235.968
 20
-8409.067
 30
-1750.000
 70
    32
  0
VERTEX
  8
W71XLIFTS
 62
5
 10
2233.885
 20
-8425.346
 30
-1750.000
 70
    32
  0
VERTEX
  8
W71XLIFTS
 62
5
 10
2233.735
 20
-8432.318
 30
-1750.000
 70
    32
  0
VERTEX
  8
W71XLIFTS
 62
5
 10
2237.747
 20
-8439.297
 30
-1750.000
 70
    32
  0
VERTEX
  8
W71XLIFTS
 62
5
 10
2238.516
 20
-8449.721
 30
-1750.000
 70
    32
  0
VERTEX
  8
W71XLIFTS
 62
5
 10
2247.978
 20
-8457.177
 30
-1750.000
 70
    32
  0
VERTEX
  8
W71XLIFTS
 62
5
 10
2240.499
 20
-8469.338
 30
-1750.000
 70
    32
  0
VERTEX
  8
W71XLIFTS
 62
5
 10
2248.339
 20
-8481.858
 30
-1750.000
 70
    32
  0
VERTEX
  8
W71XLIFTS
 62
5
 10
2257.109
 20
-8518.806
 30
-1750.000
 70
    32
  0
VERTEX
  8
W71XLIFTS
 62
5
 10
2258.618
 20
-8537.992
 30
-1750.000
 70
    32
  0
VERTEX
  8
W71XLIFTS
 62
5
 10
2259.553
 20
-8566.923
 30
-1750.000
 70
    32
  0
VERTEX
  8
W71XLIFTS
 62
5
 10
2257.100
 20
-8567.530
 30
-1750.000
 70
    32
  0
VERTEX
  8
W71XLIFTS
 62
5
 10
2246.242
 20
-8564.872
 30
-1750.000
 70
    32
  0
VERTEX
  8
W71XLIFTS
 62
5
 10
2247.316
 20
-8554.156
 30
-1750.000
 70
    32
  0
VERTEX
  8
W71XLIFTS
 62
5
 10
2247.680
 20
-8540.640
 30
-1750.000
 70
    32
  0
VERTEX
  8
W71XLIFTS
 62
5
 10
2244.935
 20
-8535.922
 30
-1750.000
 70
    32
  0
VERTEX
  8
W71XLIFTS
 62
5
 10
2245.245
 20
-8522.456
 30
-1750.000
 70
    32
  0
VERTEX
  8
W71XLIFTS
 62
5
 10
2238.274
 20
-8506.704
 30
-1750.000
 70
    32
  0
VERTEX
  8
W71XLIFTS
 62
5
 10
2234.467
 20
-8497.347
 30
-1750.000
 70
    32
  0
VERTEX
  8
W71XLIFTS
 62
5
 10
2224.062
 20
-8495.715
 30
-1750.000
 70
    32
  0
VERTEX
  8
W71XLIFTS
 62
5
 10
2225.055
 20
-8499.099
 30
-1750.000
 70
    32
  0
VERTEX
  8
W71XLIFTS
 62
5
 10
2215.489
 20
-8514.176
 30
-1750.000
 70
    32
  0
VERTEX
  8
W71XLIFTS
 62
5
 10
2203.873
 20
-8543.149
 30
-1750.000
 70
    32
  0
VERTEX
  8
W71XLIFTS
 62
5
 10
2199.889
 20
-8556.619
 30
-1750.000
 70
    32
  0
SEQEND
  8
W71XLIFTS
  0
TEXT
  8
W71XLIFTS
 62
4
 10
2209.687
 20
-8439.576
 30
0.000
 40
2.000
  1
BK-1738
 50
35.666
 41
 1.0 
  0
POLYLINE
  8
W71XLIFTS
 62
4
 66
     1
 70
     8
  0
VERTEX
  8
W71XLIFTS
 62
4
 10
2215.813
 20
-8489.388
 30
-1739.000
 70
    32
  0
VERTEX
  8
W71XLIFTS
 62
4
 10
2216.712
 20
-8490.715
 30
-1739.000
 70
    32
  0
VERTEX
  8
W71XLIFTS
 62
4
 10
2216.636
 20
-8495.779
 30
-1739.000
 70
    32
  0
VERTEX
  8
W71XLIFTS
 62
4
 10
2215.151
 20
-8508.807
 30
-1739.000
 70
    32
  0
VERTEX
  8
W71XLIFTS
 62
4
 10
2226.172
 20
-8513.623
 30
-1739.000
 70
    32
  0
VERTEX
  8
W71XLIFTS
 62
4
 10
2229.846
 20
-8516.377
 30
-1739.000
 70
    32
  0
VERTEX
  8
W71XLIFTS
 62
4
 10
2232.865
 20
-8529.597
 30
-1739.000
 70
    32
  0
VERTEX
  8
W71XLIFTS
 62
4
 10
2241.870
 20
-8546.915
 30
-1739.000
 70
    32
  0
VERTEX
  8
W71XLIFTS
 62
4
 10
2242.639
 20
-8555.348
 30
-1739.000
 70
    32
  0
VERTEX
  8
W71XLIFTS
 62
4
 10
2247.914
 20
-8559.727
 30
-1739.000
 70
    32
  0
VERTEX
  8
W71XLIFTS
 62
4
 10
2249.002
 20
-8579.858
 30
-1739.000
 70
    32
  0
VERTEX
  8
W71XLIFTS
 62
4
 10
2253.774
 20
-8582.885
 30
-1739.000
 70
    32
  0
VERTEX
  8
W71XLIFTS
 62
4
 10
2260.964
 20
-8581.042
 30
-1739.000
 70
    32
  0
VERTEX
  8
W71XLIFTS
 62
4
 10
2259.090
 20
-8567.384
 30
-1739.000
 70
    32
  0
VERTEX
  8
W71XLIFTS
 62
4
 10
2257.717
 20
-8556.931
 30
-1739.000
 70
    32
  0
VERTEX
  8
W71XLIFTS
 62
4
 10
2254.658
 20
-8538.682
 30
-1739.000
 70
    32
  0
VERTEX
  8
W71XLIFTS
 62
4
 10
2264.659
 20
-8527.813
 30
-1739.000
 70
    32
  0
VERTEX
  8
W71XLIFTS
 62
4
 10
2261.051
 20
-8518.777
 30
-1739.000
 70
    32
  0
VERTEX
  8
W71XLIFTS
 62
4
 10
2264.369
 20
-8511.692
 30
-1739.000
 70
    32
  0
VERTEX
  8
W71XLIFTS
 62
4
 10
2246.963
 20
-8498.334
 30
-1739.000
 70
    32
  0
VERTEX
  8
W71XLIFTS
 62
4
 10
2241.124
 20
-8488.531
 30
-1739.000
 70
    32
  0
VERTEX
  8
W71XLIFTS
 62
4
 10
2235.740
 20
-8463.026
 30
-1739.000
 70
    32
  0
VERTEX
  8
W71XLIFTS
 62
4
 10
2224.772
 20
-8444.637
 30
-1739.000
 70
    32
  0
VERTEX
  8
W71XLIFTS
 62
4
 10
2225.089
 20
-8428.136
 30
-1739.000
 70
    32
  0
VERTEX
  8
W71XLIFTS
 62
4
 10
2212.215
 20
-8430.134
 30
-1739.000
 70
    32
  0
VERTEX
  8
W71XLIFTS
 62
4
 10
2211.268
 20
-8434.385
 30
-1739.000
 70
    32
  0
VERTEX
  8
W71XLIFTS
 62
4
 10
2199.637
 20
-8446.169
 30
-1739.000
 70
    32
  0
VERTEX
  8
W71XLIFTS
 62
4
 10
2202.703
 20
-8454.229
 30
-1739.000
 70
    32
  0
VERTEX
  8
W71XLIFTS
 62
4
 10
2205.697
 20
-8474.628
 30
-1739.000
 70
    32
  0
VERTEX
  8
W71XLIFTS
 62
4
 10
2205.697
 20
-8474.628
 30
-1739.000
 70
    32
  0
VERTEX
  8
W71XLIFTS
 62
4
 10
2205.648
 20
-8474.712
 30
-1739.000
 70
    32
  0
SEQEND
  8
W71XLIFTS
  0
TEXT
  8
W71XLIFTS
 62
4
 10
2206.651
 20
-8455.223
 30
0.000
 40
2.000
  1
BK-1737
 50
35.666
 41
 1.0 
  0
TEXT
  8
W71XLIFTS
 62
4
 10
2224.584
 20
-8487.337
 30
0.000
 40
2.000
  1
BK-1740
 50
35.666
 41
 1.0 
  0
TEXT
  8
W71XLIFTS
 62
4
 10
2249.375
 20
-8553.453
 30
-1739.381
 40
2.000
  1
-1739.38
 41
 1.0 
  0
TEXT
  8
W71XLIFTS
 62
4
 10
2239.824
 20
-8520.576
 30
0.000
 40
2.000
  1
BK-1739
 50
35.666
 41
 1.0 
  0
TEXT
  8
W71XLIFTS
 62
4
 10
2251.697
 20
-8564.997
 30
-1738.325
 40
2.000
  1
-1738.33
 41
 1.0 
  0
POLYLINE
  8
W71XLIFTS
 62
7
 66
     1
 70
     8
  0
VERTEX
  8
W71XLIFTS
 62
7
 10
2158.504
 20
-8259.335
 30
-1731.000
 70
    32
  0
VERTEX
  8
W71XLIFTS
 62
7
 10
2163.855
 20
-8276.971
 30
-1735.000
 70
    32
  0
VERTEX
  8
W71XLIFTS
 62
7
 10
2167.843
 20
-8298.867
 30
-1736.000
 70
    32
  0
VERTEX
  8
W71XLIFTS
 62
7
 10
2175.144
 20
-8304.346
 30
-1736.000
 70
    32
  0
VERTEX
  8
W71XLIFTS
 62
7
 10
2177.211
 20
-8324.937
 30
-1737.000
 70
    32
  0
VERTEX
  8
W71XLIFTS
 62
7
 10
2178.809
 20
-8346.075
 30
-1737.000
 70
    32
  0
VERTEX
  8
W71XLIFTS
 62
7
 10
2191.376
 20
-8356.147
 30
-1738.000
 70
    32
  0
VERTEX
  8
W71XLIFTS
 62
7
 10
2195.891
 20
-8374.073
 30
-1738.000
 70
    32
  0
VERTEX
  8
W71XLIFTS
 62
7
 10
2197.293
 20
-8391.398
 30
-1739.000
 70
    32
  0
VERTEX
  8
W71XLIFTS
 62
7
 10
2206.366
 20
-8411.909
 30
-1739.000
 70
    32
  0
VERTEX
  8
W71XLIFTS
 62
7
 10
2211.926
 20
-8410.245
 30
-1739.000
 70
    32
  0
VERTEX
  8
W71XLIFTS
 62
7
 10
2218.521
 20
-8406.617
 30
-1739.000
 70
    32
  0
VERTEX
  8
W71XLIFTS
 62
7
 10
2216.448
 20
-8391.903
 30
-1739.000
 70
    32
  0
VERTEX
  8
W71XLIFTS
 62
7
 10
2212.734
 20
-8370.785
 30
-1738.000
 70
    32
  0
VERTEX
  8
W71XLIFTS
 62
7
 10
2208.737
 20
-8351.605
 30
-1738.000
 70
    32
  0
VERTEX
  8
W71XLIFTS
 62
7
 10
2200.031
 20
-8316.403
 30
-1737.000
 70
    32
  0
VERTEX
  8
W71XLIFTS
 62
7
 10
2188.558
 20
-8291.840
 30
-1736.000
 70
    32
  0
VERTEX
  8
W71XLIFTS
 62
7
 10
2180.792
 20
-8290.232
 30
-1736.000
 70
    32
  0
VERTEX
  8
W71XLIFTS
 62
7
 10
2179.613
 20
-8282.639
 30
-1740.000
 70
    32
  0
VERTEX
  8
W71XLIFTS
 62
7
 10
2176.129
 20
-8254.551
 30
-1731.000
 70
    32
  0
SEQEND
  8
W71XLIFTS
  0
POLYLINE
  8
W71XLIFTS
 62
6
 66
     1
 70
     8
  0
VERTEX
  8
W71XLIFTS
 62
6
 10
2370.966
 20
-9187.123
 30
-1797.152
 70
    32
  0
VERTEX
  8
W71XLIFTS
 62
6
 10
2372.577
 20
-9192.595
 30
-1795.589
 70
    32
  0
VERTEX
  8
W71XLIFTS
 62
6
 10
2373.659
 20
-9193.624
 30
-1795.058
 70
    32
  0
VERTEX
  8
W71XLIFTS
 62
6
 10
2377.674
 20
-9201.803
 30
-1791.176
 70
    32
  0
VERTEX
  8
W71XLIFTS
 62
6
 10
2381.607
 20
-9208.285
 30
-1788.459
 70
    32
  0
VERTEX
  8
W71XLIFTS
 62
6
 10
2383.239
 20
-9213.139
 30
-1788.013
 70
    32
  0
VERTEX
  8
W71XLIFTS
 62
6
 10
2386.394
 20
-9218.673
 30
-1786.235
 70
    32
  0
VERTEX
  8
W71XLIFTS
 62
6
 10
2389.753
 20
-9230.689
 30
-1781.735
 70
    32
  0
VERTEX
  8
W71XLIFTS
 62
6
 10
2391.124
 20
-9238.789
 30
-1778.464
 70
    32
  0
VERTEX
  8
W71XLIFTS
 62
6
 10
2392.907
 20
-9260.070
 30
-1774.492
 70
    32
  0
VERTEX
  8
W71XLIFTS
 62
6
 10
2397.012
 20
-9266.422
 30
-1773.796
 70
    32
  0
VERTEX
  8
W71XLIFTS
 62
6
 10
2397.985
 20
-9279.112
 30
-1774.166
 70
    32
  0
VERTEX
  8
W71XLIFTS
 62
6
 10
2399.318
 20
-9288.570
 30
-1773.747
 70
    32
  0
VERTEX
  8
W71XLIFTS
 62
6
 10
2399.057
 20
-9298.478
 30
-1773.558
 70
    32
  0
VERTEX
  8
W71XLIFTS
 62
6
 10
2405.982
 20
-9311.663
 30
-1772.534
 70
    32
  0
VERTEX
  8
W71XLIFTS
 62
6
 10
2413.078
 20
-9321.813
 30
-1772.306
 70
    32
  0
VERTEX
  8
W71XLIFTS
 62
6
 10
2421.091
 20
-9329.321
 30
-1772.510
 70
    32
  0
VERTEX
  8
W71XLIFTS
 62
6
 10
2428.199
 20
-9337.138
 30
-1772.696
 70
    32
  0
VERTEX
  8
W71XLIFTS
 62
6
 10
2437.925
 20
-9352.820
 30
-1778.317
 70
    32
  0
VERTEX
  8
W71XLIFTS
 62
6
 10
2440.128
 20
-9353.391
 30
-1773.428
 70
    32
  0
VERTEX
  8
W71XLIFTS
 62
6
 10
2444.277
 20
-9361.277
 30
-1772.555
 70
    32
  0
VERTEX
  8
W71XLIFTS
 62
6
 10
2448.169
 20
-9369.078
 30
-1772.360
 70
    32
  0
VERTEX
  8
W71XLIFTS
 62
6
 10
2453.416
 20
-9377.737
 30
-1772.935
 70
    32
  0
VERTEX
  8
W71XLIFTS
 62
6
 10
2457.545
 20
-9386.846
 30
-1773.437
 70
    32
  0
VERTEX
  8
W71XLIFTS
 62
6
 10
2461.060
 20
-9383.992
 30
-1772.926
 70
    32
  0
VERTEX
  8
W71XLIFTS
 62
6
 10
2463.282
 20
-9385.240
 30
-1773.040
 70
    32
  0
VERTEX
  8
W71XLIFTS
 62
6
 10
2464.889
 20
-9383.153
 30
-1772.648
 70
    32
  0
VERTEX
  8
W71XLIFTS
 62
6
 10
2468.155
 20
-9389.122
 30
-1772.733
 70
    32
  0
VERTEX
  8
W71XLIFTS
 62
6
 10
2470.968
 20
-9392.330
 30
-1772.676
 70
    32
  0
VERTEX
  8
W71XLIFTS
 62
6
 10
2477.073
 20
-9402.709
 30
-1772.318
 70
    32
  0
VERTEX
  8
W71XLIFTS
 62
6
 10
2482.309
 20
-9411.401
 30
-1772.390
 70
    32
  0
VERTEX
  8
W71XLIFTS
 62
6
 10
2483.650
 20
-9411.719
 30
-1772.415
 70
    32
  0
VERTEX
  8
W71XLIFTS
 62
6
 10
2486.327
 20
-9413.123
 30
-1772.170
 70
    32
  0
VERTEX
  8
W71XLIFTS
 62
6
 10
2490.264
 20
-9421.731
 30
-1771.833
 70
    32
  0
VERTEX
  8
W71XLIFTS
 62
6
 10
2496.953
 20
-9430.165
 30
-1772.082
 70
    32
  0
VERTEX
  8
W71XLIFTS
 62
6
 10
2499.127
 20
-9430.664
 30
-1771.970
 70
    32
  0
VERTEX
  8
W71XLIFTS
 62
6
 10
2504.168
 20
-9426.974
 30
-1769.986
 70
    32
  0
VERTEX
  8
W71XLIFTS
 62
6
 10
2500.747
 20
-9421.388
 30
-1772.219
 70
    32
  0
VERTEX
  8
W71XLIFTS
 62
6
 10
2500.248
 20
-9418.150
 30
-1771.283
 70
    32
  0
VERTEX
  8
W71XLIFTS
 62
6
 10
2496.689
 20
-9408.941
 30
-1771.161
 70
    32
  0
VERTEX
  8
W71XLIFTS
 62
6
 10
2484.044
 20
-9388.309
 30
-1771.348
 70
    32
  0
VERTEX
  8
W71XLIFTS
 62
6
 10
2478.076
 20
-9377.911
 30
-1771.330
 70
    32
  0
VERTEX
  8
W71XLIFTS
 62
6
 10
2473.313
 20
-9367.466
 30
-1771.317
 70
    32
  0
VERTEX
  8
W71XLIFTS
 62
6
 10
2470.558
 20
-9360.913
 30
-1772.026
 70
    32
  0
VERTEX
  8
W71XLIFTS
 62
6
 10
2466.437
 20
-9351.197
 30
-1772.462
 70
    32
  0
VERTEX
  8
W71XLIFTS
 62
6
 10
2461.885
 20
-9346.381
 30
-1771.886
 70
    32
  0
VERTEX
  8
W71XLIFTS
 62
6
 10
2458.843
 20
-9339.784
 30
-1771.911
 70
    32
  0
VERTEX
  8
W71XLIFTS
 62
6
 10
2450.618
 20
-9331.725
 30
-1772.825
 70
    32
  0
VERTEX
  8
W71XLIFTS
 62
6
 10
2445.698
 20
-9318.818
 30
-1772.842
 70
    32
  0
VERTEX
  8
W71XLIFTS
 62
6
 10
2439.795
 20
-9301.994
 30
-1772.756
 70
    32
  0
VERTEX
  8
W71XLIFTS
 62
6
 10
2435.240
 20
-9296.568
 30
-1771.765
 70
    32
  0
VERTEX
  8
W71XLIFTS
 62
6
 10
2434.946
 20
-9293.649
 30
-1771.790
 70
    32
  0
VERTEX
  8
W71XLIFTS
 62
6
 10
2434.711
 20
-9289.768
 30
-1771.755
 70
    32
  0
VERTEX
  8
W71XLIFTS
 62
6
 10
2433.908
 20
-9285.559
 30
-1772.189
 70
    32
  0
VERTEX
  8
W71XLIFTS
 62
6
 10
2434.108
 20
-9282.594
 30
-1772.299
 70
    32
  0
VERTEX
  8
W71XLIFTS
 62
6
 10
2431.857
 20
-9277.404
 30
-1773.132
 70
    32
  0
VERTEX
  8
W71XLIFTS
 62
6
 10
2427.514
 20
-9275.546
 30
-1772.530
 70
    32
  0
VERTEX
  8
W71XLIFTS
 62
6
 10
2423.955
 20
-9272.066
 30
-1771.622
 70
    32
  0
VERTEX
  8
W71XLIFTS
 62
6
 10
2422.368
 20
-9266.293
 30
-1771.752
 70
    32
  0
VERTEX
  8
W71XLIFTS
 62
6
 10
2408.727
 20
-9264.470
 30
-1772.440
 70
    32
  0
VERTEX
  8
W71XLIFTS
 62
6
 10
2404.864
 20
-9261.216
 30
-1773.440
 70
    32
  0
VERTEX
  8
W71XLIFTS
 62
6
 10
2403.772
 20
-9253.099
 30
-1774.662
 70
    32
  0
VERTEX
  8
W71XLIFTS
 62
6
 10
2404.566
 20
-9248.925
 30
-1775.429
 70
    32
  0
VERTEX
  8
W71XLIFTS
 62
6
 10
2402.268
 20
-9240.509
 30
-1777.025
 70
    32
  0
VERTEX
  8
W71XLIFTS
 62
6
 10
2401.252
 20
-9236.905
 30
-1777.781
 70
    32
  0
VERTEX
  8
W71XLIFTS
 62
6
 10
2399.506
 20
-9226.751
 30
-1780.822
 70
    32
  0
VERTEX
  8
W71XLIFTS
 62
6
 10
2396.833
 20
-9219.130
 30
-1784.045
 70
    32
  0
VERTEX
  8
W71XLIFTS
 62
6
 10
2393.418
 20
-9210.743
 30
-1785.738
 70
    32
  0
VERTEX
  8
W71XLIFTS
 62
6
 10
2388.237
 20
-9202.432
 30
-1788.811
 70
    32
  0
VERTEX
  8
W71XLIFTS
 62
6
 10
2383.895
 20
-9195.662
 30
-1791.415
 70
    32
  0
VERTEX
  8
W71XLIFTS
 62
6
 10
2381.438
 20
-9190.609
 30
-1793.405
 70
    32
  0
VERTEX
  8
W71XLIFTS
 62
6
 10
2380.216
 20
-9186.469
 30
-1795.651
 70
    32
  0
VERTEX
  8
W71XLIFTS
 62
6
 10
2376.754
 20
-9180.713
 30
-1796.457
 70
    32
  0
VERTEX
  8
W71XLIFTS
 62
6
 10
2375.142
 20
-9177.746
 30
-1796.710
 70
    32
  0
SEQEND
  8
W71XLIFTS
  0
POLYLINE
  8
W71XLIFTS
 62
6
 66
     1
 70
     8
  0
VERTEX
  8
W71XLIFTS
 62
6
 10
2212.053
 20
-8107.413
 30
-1793.120
 70
    32
  0
VERTEX
  8
W71XLIFTS
 62
6
 10
2218.783
 20
-8114.573
 30
-1793.308
 70
    32
  0
VERTEX
  8
W71XLIFTS
 62
6
 10
2220.378
 20
-8127.773
 30
-1792.592
 70
    32
  0
VERTEX
  8
W71XLIFTS
 62
6
 10
2217.735
 20
-8137.850
 30
-1795.523
 70
    32
  0
VERTEX
  8
W71XLIFTS
 62
6
 10
2217.403
 20
-8140.832
 30
-1794.400
 70
    32
  0
VERTEX
  8
W71XLIFTS
 62
6
 10
2216.490
 20
-8154.233
 30
-1792.930
 70
    32
  0
VERTEX
  8
W71XLIFTS
 62
6
 10
2214.807
 20
-8168.249
 30
-1792.631
 70
    32
  0
VERTEX
  8
W71XLIFTS
 62
6
 10
2212.905
 20
-8180.388
 30
-1791.216
 70
    32
  0
VERTEX
  8
W71XLIFTS
 62
6
 10
2210.974
 20
-8186.512
 30
-1791.417
 70
    32
  0
VERTEX
  8
W71XLIFTS
 62
6
 10
2209.346
 20
-8196.498
 30
-1791.963
 70
    32
  0
VERTEX
  8
W71XLIFTS
 62
6
 10
2207.479
 20
-8207.656
 30
-1792.351
 70
    32
  0
VERTEX
  8
W71XLIFTS
 62
6
 10
2207.182
 20
-8216.620
 30
-1793.289
 70
    32
  0
VERTEX
  8
W71XLIFTS
 62
6
 10
2202.992
 20
-8230.121
 30
-1792.432
 70
    32
  0
VERTEX
  8
W71XLIFTS
 62
6
 10
2206.352
 20
-8236.414
 30
-1793.530
 70
    32
  0
VERTEX
  8
W71XLIFTS
 62
6
 10
2207.026
 20
-8249.996
 30
-1795.195
 70
    32
  0
VERTEX
  8
W71XLIFTS
 62
6
 10
2209.973
 20
-8259.553
 30
-1793.155
 70
    32
  0
VERTEX
  8
W71XLIFTS
 62
6
 10
2212.161
 20
-8272.669
 30
-1792.711
 70
    32
  0
VERTEX
  8
W71XLIFTS
 62
6
 10
2221.827
 20
-8272.879
 30
-1791.165
 70
    32
  0
VERTEX
  8
W71XLIFTS
 62
6
 10
2224.247
 20
-8282.477
 30
-1789.390
 70
    32
  0
VERTEX
  8
W71XLIFTS
 62
6
 10
2235.075
 20
-8276.645
 30
-1788.547
 70
    32
  0
VERTEX
  8
W71XLIFTS
 62
6
 10
2246.771
 20
-8279.086
 30
-1790.246
 70
    32
  0
VERTEX
  8
W71XLIFTS
 62
6
 10
2244.500
 20
-8263.924
 30
-1789.691
 70
    32
  0
VERTEX
  8
W71XLIFTS
 62
6
 10
2243.329
 20
-8250.922
 30
-1791.630
 70
    32
  0
VERTEX
  8
W71XLIFTS
 62
6
 10
2233.670
 20
-8237.115
 30
-1793.103
 70
    32
  0
VERTEX
  8
W71XLIFTS
 62
6
 10
2228.248
 20
-8220.693
 30
-1793.971
 70
    32
  0
VERTEX
  8
W71XLIFTS
 62
6
 10
2226.550
 20
-8213.319
 30
-1794.801
 70
    32
  0
VERTEX
  8
W71XLIFTS
 62
6
 10
2226.815
 20
-8206.390
 30
-1794.555
 70
    32
  0
VERTEX
  8
W71XLIFTS
 62
6
 10
2223.946
 20
-8199.645
 30
-1789.585
 70
    32
  0
VERTEX
  8
W71XLIFTS
 62
6
 10
2225.946
 20
-8187.147
 30
-1790.762
 70
    32
  0
VERTEX
  8
W71XLIFTS
 62
6
 10
2231.459
 20
-8175.441
 30
-1797.034
 70
    32
  0
VERTEX
  8
W71XLIFTS
 62
6
 10
2231.330
 20
-8139.963
 30
-1793.224
 70
    32
  0
VERTEX
  8
W71XLIFTS
 62
6
 10
2232.728
 20
-8128.756
 30
-1792.276
 70
    32
  0
VERTEX
  8
W71XLIFTS
 62
6
 10
2232.835
 20
-8118.265
 30
-1792.051
 70
    32
  0
VERTEX
  8
W71XLIFTS
 62
6
 10
2231.587
 20
-8111.898
 30
-1792.460
 70
    32
  0
VERTEX
  8
W71XLIFTS
 62
6
 10
2227.423
 20
-8107.796
 30
-1794.695
 70
    32
  0
SEQEND
  8
W71XLIFTS
  0
POLYLINE
  8
W71XLIFTS
 62
7
 66
     1
 70
     8
  0
VERTEX
  8
W71XLIFTS
 62
7
 10
2181.452
 20
-8092.981
 30
-1783.382
 70
    32
  0
VERTEX
  8
W71XLIFTS
 62
7
 10
2196.591
 20
-8093.299
 30
-1782.653
 70
    32
  0
VERTEX
  8
W71XLIFTS
 62
7
 10
2209.791
 20
-8099.447
 30
-1781.840
 70
    32
  0
VERTEX
  8
W71XLIFTS
 62
7
 10
2216.841
 20
-8110.729
 30
-1779.642
 70
    32
  0
VERTEX
  8
W71XLIFTS
 62
7
 10
2214.945
 20
-8121.847
 30
-1781.354
 70
    32
  0
VERTEX
  8
W71XLIFTS
 62
7
 10
2215.840
 20
-8134.120
 30
-1782.611
 70
    32
  0
VERTEX
  8
W71XLIFTS
 62
7
 10
2215.332
 20
-8141.022
 30
-1782.716
 70
    32
  0
VERTEX
  8
W71XLIFTS
 62
7
 10
2215.627
 20
-8152.760
 30
-1782.932
 70
    32
  0
VERTEX
  8
W71XLIFTS
 62
7
 10
2217.939
 20
-8165.586
 30
-1783.779
 70
    32
  0
VERTEX
  8
W71XLIFTS
 62
7
 10
2219.877
 20
-8198.570
 30
-1782.514
 70
    32
  0
VERTEX
  8
W71XLIFTS
 62
7
 10
2219.067
 20
-8209.140
 30
-1782.938
 70
    32
  0
VERTEX
  8
W71XLIFTS
 62
7
 10
2221.007
 20
-8220.369
 30
-1780.187
 70
    32
  0
VERTEX
  8
W71XLIFTS
 62
7
 10
2221.709
 20
-8233.044
 30
-1780.852
 70
    32
  0
VERTEX
  8
W71XLIFTS
 62
7
 10
2228.105
 20
-8232.589
 30
-1780.686
 70
    32
  0
VERTEX
  8
W71XLIFTS
 62
7
 10
2233.933
 20
-8251.121
 30
-1779.469
 70
    32
  0
VERTEX
  8
W71XLIFTS
 62
7
 10
2237.274
 20
-8259.103
 30
-1780.116
 70
    32
  0
VERTEX
  8
W71XLIFTS
 62
7
 10
2244.031
 20
-8271.125
 30
-1778.306
 70
    32
  0
VERTEX
  8
W71XLIFTS
 62
7
 10
2246.385
 20
-8274.704
 30
-1777.946
 70
    32
  0
VERTEX
  8
W71XLIFTS
 62
7
 10
2248.664
 20
-8276.360
 30
-1776.843
 70
    32
  0
VERTEX
  8
W71XLIFTS
 62
7
 10
2254.179
 20
-8273.728
 30
-1773.073
 70
    32
  0
VERTEX
  8
W71XLIFTS
 62
7
 10
2256.682
 20
-8279.316
 30
-1780.727
 70
    32
  0
VERTEX
  8
W71XLIFTS
 62
7
 10
2260.244
 20
-8281.737
 30
-1779.628
 70
    32
  0
VERTEX
  8
W71XLIFTS
 62
7
 10
2270.753
 20
-8296.890
 30
-1778.408
 70
    32
  0
VERTEX
  8
W71XLIFTS
 62
7
 10
2271.596
 20
-8296.225
 30
-1775.424
 70
    32
  0
VERTEX
  8
W71XLIFTS
 62
7
 10
2278.544
 20
-8292.126
 30
-1775.233
 70
    32
  0
VERTEX
  8
W71XLIFTS
 62
7
 10
2282.681
 20
-8289.401
 30
-1778.234
 70
    32
  0
VERTEX
  8
W71XLIFTS
 62
7
 10
2274.965
 20
-8279.832
 30
-1778.389
 70
    32
  0
VERTEX
  8
W71XLIFTS
 62
7
 10
2270.913
 20
-8270.677
 30
-1778.394
 70
    32
  0
VERTEX
  8
W71XLIFTS
 62
7
 10
2261.812
 20
-8253.207
 30
-1771.186
 70
    32
  0
VERTEX
  8
W71XLIFTS
 62
7
 10
2248.047
 20
-8227.515
 30
-1780.033
 70
    32
  0
VERTEX
  8
W71XLIFTS
 62
7
 10
2244.809
 20
-8215.970
 30
-1781.252
 70
    32
  0
VERTEX
  8
W71XLIFTS
 62
7
 10
2240.276
 20
-8210.115
 30
-1781.860
 70
    32
  0
VERTEX
  8
W71XLIFTS
 62
7
 10
2235.743
 20
-8209.465
 30
-1782.217
 70
    32
  0
VERTEX
  8
W71XLIFTS
 62
7
 10
2235.419
 20
-8196.781
 30
-1780.211
 70
    32
  0
VERTEX
  8
W71XLIFTS
 62
7
 10
2232.582
 20
-8165.012
 30
-1783.509
 70
    32
  0
VERTEX
  8
W71XLIFTS
 62
7
 10
2230.379
 20
-8154.202
 30
-1781.958
 70
    32
  0
VERTEX
  8
W71XLIFTS
 62
7
 10
2228.656
 20
-8140.840
 30
-1781.601
 70
    32
  0
VERTEX
  8
W71XLIFTS
 62
7
 10
2229.411
 20
-8130.324
 30
-1779.907
 70
    32
  0
VERTEX
  8
W71XLIFTS
 62
7
 10
2231.011
 20
-8122.234
 30
-1782.595
 70
    32
  0
VERTEX
  8
W71XLIFTS
 62
7
 10
2228.035
 20
-8109.212
 30
-1780.185
 70
    32
  0
VERTEX
  8
W71XLIFTS
 62
7
 10
2229.719
 20
-8102.808
 30
-1780.685
 70
    32
  0
VERTEX
  8
W71XLIFTS
 62
7
 10
2222.150
 20
-8096.216
 30
-1779.522
 70
    32
  0
VERTEX
  8
W71XLIFTS
 62
7
 10
2218.719
 20
-8094.262
 30
-1780.219
 70
    32
  0
VERTEX
  8
W71XLIFTS
 62
7
 10
2208.728
 20
-8087.029
 30
-1781.240
 70
    32
  0
VERTEX
  8
W71XLIFTS
 62
7
 10
2201.762
 20
-8085.541
 30
-1781.510
 70
    32
  0
VERTEX
  8
W71XLIFTS
 62
7
 10
2193.331
 20
-8084.275
 30
-1781.788
 70
    32
  0
VERTEX
  8
W71XLIFTS
 62
7
 10
2185.682
 20
-8082.491
 30
-1782.519
 70
    32
  0
VERTEX
  8
W71XLIFTS
 62
7
 10
2182.233
 20
-8081.827
 30
-1783.205
 70
    32
  0
SEQEND
  8
W71XLIFTS
  0
POLYLINE
  8
W71XLIFTS
 62
8
 66
     1
 70
     8
  0
VERTEX
  8
W71XLIFTS
 62
8
 10
2388.464
 20
-9202.084
 30
-1788.870
 70
    32
  0
VERTEX
  8
W71XLIFTS
 62
8
 10
2393.009
 20
-9207.002
 30
-1787.149
 70
    32
  0
VERTEX
  8
W71XLIFTS
 62
8
 10
2396.606
 20
-9214.011
 30
-1784.736
 70
    32
  0
VERTEX
  8
W71XLIFTS
 62
8
 10
2398.404
 20
-9223.067
 30
-1782.277
 70
    32
  0
VERTEX
  8
W71XLIFTS
 62
8
 10
2399.778
 20
-9225.559
 30
-1780.840
 70
    32
  0
VERTEX
  8
W71XLIFTS
 62
8
 10
2401.827
 20
-9235.450
 30
-1777.898
 70
    32
  0
VERTEX
  8
W71XLIFTS
 62
8
 10
2404.279
 20
-9251.326
 30
-1769.903
 70
    32
  0
VERTEX
  8
W71XLIFTS
 62
8
 10
2405.887
 20
-9258.002
 30
-1767.314
 70
    32
  0
VERTEX
  8
W71XLIFTS
 62
8
 10
2414.066
 20
-9263.326
 30
-1764.456
 70
    32
  0
VERTEX
  8
W71XLIFTS
 62
8
 10
2417.335
 20
-9266.836
 30
-1766.537
 70
    32
  0
VERTEX
  8
W71XLIFTS
 62
8
 10
2424.212
 20
-9270.991
 30
-1765.812
 70
    32
  0
VERTEX
  8
W71XLIFTS
 62
8
 10
2426.823
 20
-9285.752
 30
-1763.554
 70
    32
  0
VERTEX
  8
W71XLIFTS
 62
8
 10
2429.715
 20
-9290.862
 30
-1761.630
 70
    32
  0
VERTEX
  8
W71XLIFTS
 62
8
 10
2430.001
 20
-9294.811
 30
-1762.941
 70
    32
  0
VERTEX
  8
W71XLIFTS
 62
8
 10
2430.299
 20
-9301.844
 30
-1762.353
 70
    32
  0
VERTEX
  8
W71XLIFTS
 62
8
 10
2429.032
 20
-9307.013
 30
-1764.195
 70
    32
  0
VERTEX
  8
W71XLIFTS
 62
8
 10
2423.475
 20
-9313.576
 30
-1764.630
 70
    32
  0
VERTEX
  8
W71XLIFTS
 62
8
 10
2426.228
 20
-9317.057
 30
-1760.659
 70
    32
  0
VERTEX
  8
W71XLIFTS
 62
8
 10
2437.890
 20
-9327.843
 30
-1763.805
 70
    32
  0
VERTEX
  8
W71XLIFTS
 62
8
 10
2441.940
 20
-9333.050
 30
-1763.733
 70
    32
  0
VERTEX
  8
W71XLIFTS
 62
8
 10
2455.695
 20
-9350.295
 30
-1762.044
 70
    32
  0
VERTEX
  8
W71XLIFTS
 62
8
 10
2458.070
 20
-9355.493
 30
-1761.461
 70
    32
  0
VERTEX
  8
W71XLIFTS
 62
8
 10
2468.799
 20
-9372.029
 30
-1760.270
 70
    32
  0
VERTEX
  8
W71XLIFTS
 62
8
 10
2470.725
 20
-9378.273
 30
-1760.372
 70
    32
  0
VERTEX
  8
W71XLIFTS
 62
8
 10
2480.540
 20
-9394.729
 30
-1759.000
 70
    32
  0
VERTEX
  8
W71XLIFTS
 62
8
 10
2487.344
 20
-9404.690
 30
-1759.346
 70
    32
  0
VERTEX
  8
W71XLIFTS
 62
8
 10
2496.756
 20
-9423.588
 30
-1758.976
 70
    32
  0
VERTEX
  8
W71XLIFTS
 62
8
 10
2499.896
 20
-9435.569
 30
-1760.080
 70
    32
  0
VERTEX
  8
W71XLIFTS
 62
8
 10
2493.341
 20
-9437.038
 30
-1759.947
 70
    32
  0
VERTEX
  8
W71XLIFTS
 62
8
 10
2489.030
 20
-9438.687
 30
-1761.062
 70
    32
  0
VERTEX
  8
W71XLIFTS
 62
8
 10
2486.008
 20
-9427.894
 30
-1759.998
 70
    32
  0
VERTEX
  8
W71XLIFTS
 62
8
 10
2482.787
 20
-9420.368
 30
-1760.140
 70
    32
  0
VERTEX
  8
W71XLIFTS
 62
8
 10
2481.048
 20
-9415.985
 30
-1759.109
 70
    32
  0
VERTEX
  8
W71XLIFTS
 62
8
 10
2476.003
 20
-9410.474
 30
-1759.606
 70
    32
  0
VERTEX
  8
W71XLIFTS
 62
8
 10
2468.578
 20
-9411.648
 30
-1759.737
 70
    32
  0
VERTEX
  8
W71XLIFTS
 62
8
 10
2460.757
 20
-9395.369
 30
-1761.621
 70
    32
  0
VERTEX
  8
W71XLIFTS
 62
8
 10
2451.257
 20
-9394.664
 30
-1762.128
 70
    32
  0
VERTEX
  8
W71XLIFTS
 62
8
 10
2449.412
 20
-9391.473
 30
-1762.387
 70
    32
  0
VERTEX
  8
W71XLIFTS
 62
8
 10
2444.706
 20
-9383.464
 30
-1762.162
 70
    32
  0
VERTEX
  8
W71XLIFTS
 62
8
 10
2435.709
 20
-9376.188
 30
-1763.618
 70
    32
  0
VERTEX
  8
W71XLIFTS
 62
8
 10
2435.977
 20
-9363.977
 30
-1762.152
 70
    32
  0
VERTEX
  8
W71XLIFTS
 62
8
 10
2430.531
 20
-9358.913
 30
-1764.108
 70
    32
  0
VERTEX
  8
W71XLIFTS
 62
8
 10
2426.663
 20
-9354.668
 30
-1763.586
 70
    32
  0
VERTEX
  8
W71XLIFTS
 62
8
 10
2421.375
 20
-9350.808
 30
-1763.483
 70
    32
  0
VERTEX
  8
W71XLIFTS
 62
8
 10
2420.131
 20
-9347.263
 30
-1762.542
 70
    32
  0
VERTEX
  8
W71XLIFTS
 62
8
 10
2417.070
 20
-9340.416
 30
-1761.944
 70
    32
  0
VERTEX
  8
W71XLIFTS
 62
8
 10
2412.340
 20
-9341.173
 30
-1761.960
 70
    32
  0
VERTEX
  8
W71XLIFTS
 62
8
 10
2404.847
 20
-9329.739
 30
-1761.460
 70
    32
  0
VERTEX
  8
W71XLIFTS
 62
8
 10
2405.010
 20
-9328.591
 30
-1763.256
 70
    32
  0
VERTEX
  8
W71XLIFTS
 62
8
 10
2402.548
 20
-9321.034
 30
-1762.394
 70
    32
  0
VERTEX
  8
W71XLIFTS
 62
8
 10
2398.122
 20
-9317.807
 30
-1761.558
 70
    32
  0
VERTEX
  8
W71XLIFTS
 62
8
 10
2397.319
 20
-9317.252
 30
-1764.223
 70
    32
  0
VERTEX
  8
W71XLIFTS
 62
8
 10
2396.056
 20
-9315.199
 30
-1764.477
 70
    32
  0
VERTEX
  8
W71XLIFTS
 62
8
 10
2402.064
 20
-9301.579
 30
-1762.943
 70
    32
  0
VERTEX
  8
W71XLIFTS
 62
8
 10
2400.411
 20
-9297.823
 30
-1762.924
 70
    32
  0
VERTEX
  8
W71XLIFTS
 62
8
 10
2397.434
 20
-9285.233
 30
-1763.702
 70
    32
  0
VERTEX
  8
W71XLIFTS
 62
8
 10
2396.307
 20
-9274.128
 30
-1765.356
 70
    32
  0
VERTEX
  8
W71XLIFTS
 62
8
 10
2392.059
 20
-9261.160
 30
-1766.259
 70
    32
  0
VERTEX
  8
W71XLIFTS
 62
8
 10
2391.890
 20
-9254.440
 30
-1770.371
 70
    32
  0
VERTEX
  8
W71XLIFTS
 62
8
 10
2390.273
 20
-9246.214
 30
-1775.015
 70
    32
  0
VERTEX
  8
W71XLIFTS
 62
8
 10
2389.729
 20
-9235.242
 30
-1779.755
 70
    32
  0
VERTEX
  8
W71XLIFTS
 62
8
 10
2386.849
 20
-9222.514
 30
-1785.054
 70
    32
  0
VERTEX
  8
W71XLIFTS
 62
8
 10
2384.565
 20
-9215.994
 30
-1786.990
 70
    32
  0
SEQEND
  8
W71XLIFTS
  0
POLYLINE
  8
W71XLIFTS
 62
2
 66
     1
 70
     8
  0
VERTEX
  8
W71XLIFTS
 62
2
 10
2402.223
 20
-9307.127
 30
-1754.975
 70
    32
  0
VERTEX
  8
W71XLIFTS
 62
2
 10
2403.198
 20
-9314.180
 30
-1752.975
 70
    32
  0
VERTEX
  8
W71XLIFTS
 62
2
 10
2405.757
 20
-9329.309
 30
-1750.633
 70
    32
  0
VERTEX
  8
W71XLIFTS
 62
2
 10
2418.172
 20
-9345.737
 30
-1752.898
 70
    32
  0
VERTEX
  8
W71XLIFTS
 62
2
 10
2425.551
 20
-9354.413
 30
-1755.370
 70
    32
  0
VERTEX
  8
W71XLIFTS
 62
2
 10
2444.135
 20
-9343.068
 30
-1754.889
 70
    32
  0
VERTEX
  8
W71XLIFTS
 62
2
 10
2430.586
 20
-9321.504
 30
-1754.424
 70
    32
  0
VERTEX
  8
W71XLIFTS
 62
2
 10
2428.178
 20
-9312.173
 30
-1755.355
 70
    32
  0
VERTEX
  8
W71XLIFTS
 62
2
 10
2410.970
 20
-9307.505
 30
-1754.078
 70
    32
  0
SEQEND
  8
W71XLIFTS
  0
POLYLINE
  8
W71XLIFTS
 62
2
 66
     1
 70
     8
  0
VERTEX
  8
W71XLIFTS
 62
2
 10
2416.189
 20
-9232.978
 30
-1744.565
 70
    32
  0
VERTEX
  8
W71XLIFTS
 62
2
 10
2421.352
 20
-9238.851
 30
-1744.126
 70
    32
  0
VERTEX
  8
W71XLIFTS
 62
2
 10
2425.993
 20
-9241.873
 30
-1744.338
 70
    32
  0
VERTEX
  8
W71XLIFTS
 62
2
 10
2428.758
 20
-9249.713
 30
-1743.796
 70
    32
  0
VERTEX
  8
W71XLIFTS
 62
2
 10
2432.527
 20
-9254.603
 30
-1744.357
 70
    32
  0
VERTEX
  8
W71XLIFTS
 62
2
 10
2421.984
 20
-9263.027
 30
-1745.179
 70
    32
  0
VERTEX
  8
W71XLIFTS
 62
2
 10
2420.421
 20
-9270.422
 30
-1747.170
 70
    32
  0
VERTEX
  8
W71XLIFTS
 62
2
 10
2417.925
 20
-9275.624
 30
-1745.401
 70
    32
  0
VERTEX
  8
W71XLIFTS
 62
2
 10
2418.275
 20
-9284.829
 30
-1746.416
 70
    32
  0
VERTEX
  8
W71XLIFTS
 62
2
 10
2419.552
 20
-9295.321
 30
-1746.156
 70
    32
  0
VERTEX
  8
W71XLIFTS
 62
2
 10
2422.865
 20
-9308.905
 30
-1744.048
 70
    32
  0
VERTEX
  8
W71XLIFTS
 62
2
 10
2423.157
 20
-9317.387
 30
-1743.466
 70
    32
  0
VERTEX
  8
W71XLIFTS
 62
2
 10
2424.593
 20
-9326.315
 30
-1743.832
 70
    32
  0
VERTEX
  8
W71XLIFTS
 62
2
 10
2426.024
 20
-9328.199
 30
-1743.217
 70
    32
  0
VERTEX
  8
W71XLIFTS
 62
2
 10
2432.167
 20
-9342.289
 30
-1742.999
 70
    32
  0
VERTEX
  8
W71XLIFTS
 62
2
 10
2436.402
 20
-9348.602
 30
-1741.901
 70
    32
  0
VERTEX
  8
W71XLIFTS
 62
2
 10
2440.362
 20
-9352.585
 30
-1743.440
 70
    32
  0
VERTEX
  8
W71XLIFTS
 62
2
 10
2445.218
 20
-9359.094
 30
-1742.122
 70
    32
  0
VERTEX
  8
W71XLIFTS
 62
2
 10
2450.098
 20
-9366.981
 30
-1742.089
 70
    32
  0
VERTEX
  8
W71XLIFTS
 62
2
 10
2456.919
 20
-9376.258
 30
-1741.900
 70
    32
  0
VERTEX
  8
W71XLIFTS
 62
2
 10
2464.136
 20
-9389.918
 30
-1741.092
 70
    32
  0
VERTEX
  8
W71XLIFTS
 62
2
 10
2472.166
 20
-9404.173
 30
-1740.836
 70
    32
  0
VERTEX
  8
W71XLIFTS
 62
2
 10
2475.717
 20
-9416.969
 30
-1739.232
 70
    32
  0
VERTEX
  8
W71XLIFTS
 62
2
 10
2483.214
 20
-9439.350
 30
-1733.270
 70
    32
  0
VERTEX
  8
W71XLIFTS
 62
2
 10
2474.704
 20
-9444.030
 30
-1733.270
 70
    32
  0
VERTEX
  8
W71XLIFTS
 62
2
 10
2466.750
 20
-9417.750
 30
-1740.345
 70
    32
  0
VERTEX
  8
W71XLIFTS
 62
2
 10
2460.885
 20
-9408.137
 30
-1740.579
 70
    32
  0
VERTEX
  8
W71XLIFTS
 62
2
 10
2454.595
 20
-9397.315
 30
-1741.050
 70
    32
  0
VERTEX
  8
W71XLIFTS
 62
2
 10
2447.464
 20
-9390.014
 30
-1741.431
 70
    32
  0
VERTEX
  8
W71XLIFTS
 62
2
 10
2436.680
 20
-9389.027
 30
-1742.869
 70
    32
  0
VERTEX
  8
W71XLIFTS
 62
2
 10
2429.760
 20
-9373.846
 30
-1743.027
 70
    32
  0
VERTEX
  8
W71XLIFTS
 62
2
 10
2422.872
 20
-9369.394
 30
-1741.538
 70
    32
  0
VERTEX
  8
W71XLIFTS
 62
2
 10
2418.573
 20
-9362.162
 30
-1742.696
 70
    32
  0
VERTEX
  8
W71XLIFTS
 62
2
 10
2413.548
 20
-9358.787
 30
-1743.933
 70
    32
  0
VERTEX
  8
W71XLIFTS
 62
2
 10
2409.044
 20
-9348.167
 30
-1742.073
 70
    32
  0
VERTEX
  8
W71XLIFTS
 62
2
 10
2406.166
 20
-9338.349
 30
-1742.907
 70
    32
  0
VERTEX
  8
W71XLIFTS
 62
2
 10
2403.074
 20
-9328.156
 30
-1744.121
 70
    32
  0
VERTEX
  8
W71XLIFTS
 62
2
 10
2400.004
 20
-9319.634
 30
-1742.352
 70
    32
  0
VERTEX
  8
W71XLIFTS
 62
2
 10
2389.429
 20
-9323.487
 30
-1743.388
 70
    32
  0
VERTEX
  8
W71XLIFTS
 62
2
 10
2386.679
 20
-9316.353
 30
-1745.317
 70
    32
  0
VERTEX
  8
W71XLIFTS
 62
2
 10
2385.095
 20
-9312.984
 30
-1745.058
 70
    32
  0
VERTEX
  8
W71XLIFTS
 62
2
 10
2386.739
 20
-9305.212
 30
-1744.626
 70
    32
  0
VERTEX
  8
W71XLIFTS
 62
2
 10
2388.817
 20
-9300.100
 30
-1744.705
 70
    32
  0
VERTEX
  8
W71XLIFTS
 62
2
 10
2386.256
 20
-9293.780
 30
-1744.646
 70
    32
  0
VERTEX
  8
W71XLIFTS
 62
2
 10
2387.043
 20
-9290.129
 30
-1745.626
 70
    32
  0
VERTEX
  8
W71XLIFTS
 62
2
 10
2390.518
 20
-9285.043
 30
-1745.962
 70
    32
  0
VERTEX
  8
W71XLIFTS
 62
2
 10
2391.820
 20
-9280.395
 30
-1747.002
 70
    32
  0
VERTEX
  8
W71XLIFTS
 62
2
 10
2401.809
 20
-9279.714
 30
-1747.047
 70
    32
  0
VERTEX
  8
W71XLIFTS
 62
2
 10
2405.699
 20
-9279.016
 30
-1745.765
 70
    32
  0
VERTEX
  8
W71XLIFTS
 62
2
 10
2404.150
 20
-9270.309
 30
-1745.936
 70
    32
  0
VERTEX
  8
W71XLIFTS
 62
2
 10
2404.604
 20
-9264.828
 30
-1746.058
 70
    32
  0
VERTEX
  8
W71XLIFTS
 62
2
 10
2407.831
 20
-9256.421
 30
-1745.840
 70
    32
  0
SEQEND
  8
W71XLIFTS
  0
POLYLINE
  8
W71XLIFTS
 62
7
 66
     1
 70
     8
  0
VERTEX
  8
W71XLIFTS
 62
7
 10
2415.318
 20
-9239.805
 30
-1745.402
 70
    32
  0
VERTEX
  8
W71XLIFTS
 62
7
 10
2419.371
 20
-9249.985
 30
-1745.292
 70
    32
  0
VERTEX
  8
W71XLIFTS
 62
7
 10
2420.718
 20
-9263.041
 30
-1746.450
 70
    32
  0
VERTEX
  8
W71XLIFTS
 62
7
 10
2420.483
 20
-9270.419
 30
-1747.130
 70
    32
  0
VERTEX
  8
W71XLIFTS
 62
7
 10
2418.262
 20
-9284.612
 30
-1746.305
 70
    32
  0
VERTEX
  8
W71XLIFTS
 62
7
 10
2421.983
 20
-9296.871
 30
-1746.396
 70
    32
  0
VERTEX
  8
W71XLIFTS
 62
7
 10
2403.874
 20
-9296.148
 30
-1746.186
 70
    32
  0
VERTEX
  8
W71XLIFTS
 62
7
 10
2402.915
 20
-9288.715
 30
-1746.004
 70
    32
  0
VERTEX
  8
W71XLIFTS
 62
7
 10
2405.367
 20
-9273.427
 30
-1745.915
 70
    32
  0
VERTEX
  8
W71XLIFTS
 62
7
 10
2403.862
 20
-9270.588
 30
-1748.134
 70
    32
  0
VERTEX
  8
W71XLIFTS
 62
7
 10
2404.307
 20
-9265.459
 30
-1748.133
 70
    32
  0
VERTEX
  8
W71XLIFTS
 62
7
 10
2408.046
 20
-9254.646
 30
-1746.586
 70
    32
  0
VERTEX
  8
W71XLIFTS
 62
7
 10
2403.803
 20
-9245.602
 30
-1745.253
 70
    32
  0
SEQEND
  8
W71XLIFTS
  0
ENDSEC
  0
EOF
