999
********************************
999
*   DXF File - Entities Only   *
999
*        3D Data Format        *
999
*     Output from ENVISAGE     *
999
*     02-Jan-2008 11:32:17     *
999
********************************
  0
SECTION 
  2
HEADER
  9
$ACADVER
  1
AC1009
  9
$EXTMIN
 10
-290000.000
 20
-250000.000
 30
-4000.000
  9
$EXTMAX
 10
320000.000
 20
160000.000
 30
6000.000
  0
ENDSEC
  0
SECTION
  2
ENTITIES
  0
POLYLINE
  8
W74LALIFT
 62
2
 66
     1
 70
     9
  0
VERTEX
  8
W74LALIFT
 62
2
 10
2119.858
 20
-7921.872
 30
-2018.921
 70
    32
  0
VERTEX
  8
W74LALIFT
 62
2
 10
2117.563
 20
-7920.759
 30
-2021.500
 70
    32
  0
VERTEX
  8
W74LALIFT
 62
2
 10
2112.016
 20
-7915.379
 30
-2022.000
 70
    32
  0
VERTEX
  8
W74LALIFT
 62
2
 10
2107.277
 20
-7912.645
 30
-2022.500
 70
    32
  0
VERTEX
  8
W74LALIFT
 62
2
 10
2092.466
 20
-7895.022
 30
-2024.000
 70
    32
  0
VERTEX
  8
W74LALIFT
 62
2
 10
2076.298
 20
-7890.211
 30
-2024.000
 70
    32
  0
VERTEX
  8
W74LALIFT
 62
2
 10
2074.847
 20
-7882.823
 30
-2024.000
 70
    32
  0
VERTEX
  8
W74LALIFT
 62
2
 10
2071.162
 20
-7876.423
 30
-2024.000
 70
    32
  0
VERTEX
  8
W74LALIFT
 62
2
 10
2071.110
 20
-7869.558
 30
-2024.000
 70
    32
  0
VERTEX
  8
W74LALIFT
 62
2
 10
2081.802
 20
-7866.330
 30
-2024.000
 70
    32
  0
VERTEX
  8
W74LALIFT
 62
2
 10
2083.094
 20
-7850.745
 30
-2024.000
 70
    32
  0
VERTEX
  8
W74LALIFT
 62
2
 10
2085.375
 20
-7848.480
 30
-2024.000
 70
    32
  0
VERTEX
  8
W74LALIFT
 62
2
 10
2087.133
 20
-7840.692
 30
-2024.000
 70
    32
  0
VERTEX
  8
W74LALIFT
 62
2
 10
2080.954
 20
-7833.077
 30
-2024.000
 70
    32
  0
VERTEX
  8
W74LALIFT
 62
2
 10
2079.392
 20
-7821.018
 30
-2024.000
 70
    32
  0
VERTEX
  8
W74LALIFT
 62
2
 10
2076.416
 20
-7811.822
 30
-2024.000
 70
    32
  0
VERTEX
  8
W74LALIFT
 62
2
 10
2084.332
 20
-7810.663
 30
-2024.000
 70
    32
  0
VERTEX
  8
W74LALIFT
 62
2
 10
2086.949
 20
-7814.737
 30
-2024.000
 70
    32
  0
VERTEX
  8
W74LALIFT
 62
2
 10
2090.309
 20
-7815.682
 30
-2024.000
 70
    32
  0
VERTEX
  8
W74LALIFT
 62
2
 10
2092.696
 20
-7821.423
 30
-2024.000
 70
    32
  0
VERTEX
  8
W74LALIFT
 62
2
 10
2099.171
 20
-7831.931
 30
-2024.000
 70
    32
  0
VERTEX
  8
W74LALIFT
 62
2
 10
2101.247
 20
-7839.567
 30
-2024.000
 70
    32
  0
VERTEX
  8
W74LALIFT
 62
2
 10
2106.393
 20
-7846.292
 30
-2024.000
 70
    32
  0
VERTEX
  8
W74LALIFT
 62
2
 10
2105.191
 20
-7852.198
 30
-2024.000
 70
    32
  0
VERTEX
  8
W74LALIFT
 62
2
 10
2101.276
 20
-7874.514
 30
-2024.000
 70
    32
  0
VERTEX
  8
W74LALIFT
 62
2
 10
2100.558
 20
-7882.040
 30
-2024.000
 70
    32
  0
VERTEX
  8
W74LALIFT
 62
2
 10
2102.488
 20
-7891.540
 30
-2024.000
 70
    32
  0
VERTEX
  8
W74LALIFT
 62
2
 10
2115.831
 20
-7901.192
 30
-2022.000
 70
    32
  0
VERTEX
  8
W74LALIFT
 62
2
 10
2121.149
 20
-7901.593
 30
-2021.683
 70
    32
  0
VERTEX
  8
W74LALIFT
 62
2
 10
2119.858
 20
-7921.872
 30
-2018.921
 70
    32
  0
SEQEND
  8
W74LALIFT
  0
LINE
  8
W74LALIFT
 62
6
 10
2137.279
 20
-7183.461
 30
-2094.684
 11
2096.050
 21
-7112.262
 31
-2100.889
  0
POLYLINE
  8
W74LALIFT
 62
6
 66
     1
 70
     9
  0
VERTEX
  8
W74LALIFT
 62
6
 10
2122.950
 20
-7166.361
 30
-2095.476
 70
    32
  0
VERTEX
  8
W74LALIFT
 62
6
 10
2134.557
 20
-7188.575
 30
-2096.104
 70
    32
  0
VERTEX
  8
W74LALIFT
 62
6
 10
2142.273
 20
-7191.891
 30
-2094.843
 70
    32
  0
VERTEX
  8
W74LALIFT
 62
6
 10
2143.960
 20
-7191.032
 30
-2094.405
 70
    32
  0
VERTEX
  8
W74LALIFT
 62
6
 10
2149.831
 20
-7188.044
 30
-2094.544
 70
    32
  0
VERTEX
  8
W74LALIFT
 62
6
 10
2147.604
 20
-7173.510
 30
-2095.530
 70
    32
  0
VERTEX
  8
W74LALIFT
 62
6
 10
2147.568
 20
-7173.275
 30
-2095.524
 70
    32
  0
VERTEX
  8
W74LALIFT
 62
6
 10
2147.601
 20
-7169.976
 30
-2095.261
 70
    32
  0
VERTEX
  8
W74LALIFT
 62
6
 10
2147.623
 20
-7167.806
 30
-2095.290
 70
    32
  0
VERTEX
  8
W74LALIFT
 62
6
 10
2147.633
 20
-7166.792
 30
-2095.305
 70
    32
  0
VERTEX
  8
W74LALIFT
 62
6
 10
2147.663
 20
-7163.870
 30
-2095.346
 70
    32
  0
VERTEX
  8
W74LALIFT
 62
6
 10
2147.937
 20
-7163.290
 30
-2095.353
 70
    32
  0
VERTEX
  8
W74LALIFT
 62
6
 10
2148.045
 20
-7163.086
 30
-2095.355
 70
    32
  0
VERTEX
  8
W74LALIFT
 62
6
 10
2140.505
 20
-7146.906
 30
-2095.633
 70
    32
  0
VERTEX
  8
W74LALIFT
 62
6
 10
2140.414
 20
-7144.333
 30
-2095.670
 70
    32
  0
VERTEX
  8
W74LALIFT
 62
6
 10
2140.652
 20
-7143.624
 30
-2095.687
 70
    32
  0
VERTEX
  8
W74LALIFT
 62
6
 10
2135.037
 20
-7131.715
 30
-2096.162
 70
    32
  0
VERTEX
  8
W74LALIFT
 62
6
 10
2128.088
 20
-7132.556
 30
-2096.253
 70
    32
  0
VERTEX
  8
W74LALIFT
 62
6
 10
2116.127
 20
-7119.121
 30
-2096.682
 70
    32
  0
VERTEX
  8
W74LALIFT
 62
6
 10
2103.175
 20
-7097.497
 30
-2093.808
 70
    32
  0
VERTEX
  8
W74LALIFT
 62
6
 10
2093.022
 20
-7097.091
 30
-2093.010
 70
    32
  0
VERTEX
  8
W74LALIFT
 62
6
 10
2082.121
 20
-7078.453
 30
-2092.633
 70
    32
  0
VERTEX
  8
W74LALIFT
 62
6
 10
2074.718
 20
-7063.472
 30
-2092.600
 70
    32
  0
VERTEX
  8
W74LALIFT
 62
6
 10
2061.224
 20
-7073.346
 30
-2092.605
 70
    32
  0
VERTEX
  8
W74LALIFT
 62
6
 10
2072.929
 20
-7094.968
 30
-2091.288
 70
    32
  0
VERTEX
  8
W74LALIFT
 62
6
 10
2086.870
 20
-7115.164
 30
-2094.530
 70
    32
  0
VERTEX
  8
W74LALIFT
 62
6
 10
2083.919
 20
-7125.521
 30
-2095.444
 70
    32
  0
VERTEX
  8
W74LALIFT
 62
6
 10
2094.090
 20
-7137.659
 30
-2096.683
 70
    32
  0
VERTEX
  8
W74LALIFT
 62
6
 10
2110.917
 20
-7157.711
 30
-2096.059
 70
    32
  0
VERTEX
  8
W74LALIFT
 62
6
 10
2122.931
 20
-7166.463
 30
-2095.623
 70
    32
  0
SEQEND
  8
W74LALIFT
  0
POLYLINE
  8
W74LALIFT
 62
7
 66
     1
 70
     8
  0
VERTEX
  8
W74LALIFT
 62
7
 10
1836.615
 20
-6953.299
 30
-1999.000
 70
    32
  0
VERTEX
  8
W74LALIFT
 62
7
 10
1839.614
 20
-6945.440
 30
-1999.000
 70
    32
  0
VERTEX
  8
W74LALIFT
 62
7
 10
1841.532
 20
-6933.386
 30
-1999.000
 70
    32
  0
VERTEX
  8
W74LALIFT
 62
7
 10
1841.149
 20
-6913.791
 30
-1999.000
 70
    32
  0
VERTEX
  8
W74LALIFT
 62
7
 10
1856.039
 20
-6914.779
 30
-1999.000
 70
    32
  0
VERTEX
  8
W74LALIFT
 62
7
 10
1855.852
 20
-6931.654
 30
-1999.000
 70
    32
  0
VERTEX
  8
W74LALIFT
 62
7
 10
1858.839
 20
-6933.252
 30
-1999.000
 70
    32
  0
SEQEND
  8
W74LALIFT
  0
POLYLINE
  8
W74LALIFT
 62
7
 66
     1
 70
     8
  0
VERTEX
  8
W74LALIFT
 62
7
 10
1858.839
 20
-6933.252
 30
-1999.000
 70
    32
  0
VERTEX
  8
W74LALIFT
 62
7
 10
1870.576
 20
-6939.534
 30
-1999.000
 70
    32
  0
VERTEX
  8
W74LALIFT
 62
7
 10
1879.695
 20
-6949.196
 30
-1999.000
 70
    32
  0
SEQEND
  8
W74LALIFT
  0
POLYLINE
  8
W74LALIFT
 62
7
 66
     1
 70
     8
  0
VERTEX
  8
W74LALIFT
 62
7
 10
1879.695
 20
-6949.196
 30
-1999.000
 70
    32
  0
VERTEX
  8
W74LALIFT
 62
7
 10
1880.790
 20
-6950.356
 30
-1999.000
 70
    32
  0
VERTEX
  8
W74LALIFT
 62
7
 10
1877.992
 20
-6961.766
 30
-1999.000
 70
    32
  0
VERTEX
  8
W74LALIFT
 62
7
 10
1862.835
 20
-6966.825
 30
-1999.000
 70
    32
  0
VERTEX
  8
W74LALIFT
 62
7
 10
1840.379
 20
-6967.888
 30
-1999.000
 70
    32
  0
SEQEND
  8
W74LALIFT
  0
POLYLINE
  8
W74LALIFT
 62
3
 66
     1
 70
     9
  0
VERTEX
  8
W74LALIFT
 62
3
 10
2405.666
 20
-8249.418
 30
-2048.115
 70
    32
  0
VERTEX
  8
W74LALIFT
 62
3
 10
2406.169
 20
-8250.386
 30
-2048.049
 70
    32
  0
VERTEX
  8
W74LALIFT
 62
3
 10
2406.676
 20
-8251.360
 30
-2047.885
 70
    32
  0
VERTEX
  8
W74LALIFT
 62
3
 10
2407.084
 20
-8252.144
 30
-2047.929
 70
    32
  0
VERTEX
  8
W74LALIFT
 62
3
 10
2409.496
 20
-8256.783
 30
-2047.944
 70
    32
  0
VERTEX
  8
W74LALIFT
 62
3
 10
2409.473
 20
-8257.517
 30
-2047.946
 70
    32
  0
VERTEX
  8
W74LALIFT
 62
3
 10
2409.145
 20
-8267.867
 30
-2047.975
 70
    32
  0
VERTEX
  8
W74LALIFT
 62
3
 10
2415.958
 20
-8271.661
 30
-2047.988
 70
    32
  0
VERTEX
  8
W74LALIFT
 62
3
 10
2420.131
 20
-8269.897
 30
-2047.985
 70
    32
  0
VERTEX
  8
W74LALIFT
 62
3
 10
2421.799
 20
-8269.192
 30
-2047.982
 70
    32
  0
VERTEX
  8
W74LALIFT
 62
3
 10
2423.863
 20
-8255.460
 30
-2047.933
 70
    32
  0
VERTEX
  8
W74LALIFT
 62
3
 10
2423.229
 20
-8250.409
 30
-2047.915
 70
    32
  0
VERTEX
  8
W74LALIFT
 62
3
 10
2422.338
 20
-8243.316
 30
-2047.532
 70
    32
  0
VERTEX
  8
W74LALIFT
 62
3
 10
2420.837
 20
-8242.685
 30
-2047.491
 70
    32
  0
VERTEX
  8
W74LALIFT
 62
3
 10
2417.533
 20
-8241.295
 30
-2047.982
 70
    32
  0
VERTEX
  8
W74LALIFT
 62
3
 10
2413.086
 20
-8238.304
 30
-2048.776
 70
    32
  0
VERTEX
  8
W74LALIFT
 62
3
 10
2412.329
 20
-8237.795
 30
-2048.813
 70
    32
  0
VERTEX
  8
W74LALIFT
 62
3
 10
2411.839
 20
-8237.466
 30
-2048.991
 70
    32
  0
VERTEX
  8
W74LALIFT
 62
3
 10
2411.210
 20
-8237.043
 30
-2049.161
 70
    32
  0
VERTEX
  8
W74LALIFT
 62
3
 10
2410.549
 20
-8238.518
 30
-2048.993
 70
    32
  0
VERTEX
  8
W74LALIFT
 62
3
 10
2409.507
 20
-8240.845
 30
-2048.637
 70
    32
  0
VERTEX
  8
W74LALIFT
 62
3
 10
2405.666
 20
-8249.418
 30
-2048.115
 70
    32
  0
SEQEND
  8
W74LALIFT
  0
POLYLINE
  8
W74LALIFT
 62
3
 66
     1
 70
     9
  0
VERTEX
  8
W74LALIFT
 62
3
 10
2246.409
 20
-7822.192
 30
-1996.953
 70
    32
  0
VERTEX
  8
W74LALIFT
 62
3
 10
2256.778
 20
-7825.508
 30
-1998.458
 70
    32
  0
VERTEX
  8
W74LALIFT
 62
3
 10
2261.057
 20
-7828.660
 30
-1998.229
 70
    32
  0
VERTEX
  8
W74LALIFT
 62
3
 10
2265.453
 20
-7836.647
 30
-1996.681
 70
    32
  0
VERTEX
  8
W74LALIFT
 62
3
 10
2267.149
 20
-7843.132
 30
-1996.603
 70
    32
  0
VERTEX
  8
W74LALIFT
 62
3
 10
2271.890
 20
-7860.429
 30
-1997.092
 70
    32
  0
VERTEX
  8
W74LALIFT
 62
3
 10
2273.384
 20
-7869.549
 30
-1996.603
 70
    32
  0
VERTEX
  8
W74LALIFT
 62
3
 10
2277.262
 20
-7881.600
 30
-1996.044
 70
    32
  0
VERTEX
  8
W74LALIFT
 62
3
 10
2291.023
 20
-7876.992
 30
-1995.288
 70
    32
  0
VERTEX
  8
W74LALIFT
 62
3
 10
2285.332
 20
-7860.763
 30
-1996.008
 70
    32
  0
VERTEX
  8
W74LALIFT
 62
3
 10
2282.282
 20
-7838.434
 30
-1996.302
 70
    32
  0
VERTEX
  8
W74LALIFT
 62
3
 10
2276.680
 20
-7831.414
 30
-1996.850
 70
    32
  0
VERTEX
  8
W74LALIFT
 62
3
 10
2273.138
 20
-7822.390
 30
-1996.711
 70
    32
  0
VERTEX
  8
W74LALIFT
 62
3
 10
2273.817
 20
-7814.817
 30
-1997.047
 70
    32
  0
VERTEX
  8
W74LALIFT
 62
3
 10
2266.592
 20
-7796.364
 30
-1996.208
 70
    32
  0
VERTEX
  8
W74LALIFT
 62
3
 10
2264.131
 20
-7786.854
 30
-1996.596
 70
    32
  0
VERTEX
  8
W74LALIFT
 62
3
 10
2259.200
 20
-7776.347
 30
-1996.377
 70
    32
  0
VERTEX
  8
W74LALIFT
 62
3
 10
2253.146
 20
-7776.067
 30
-1997.271
 70
    32
  0
VERTEX
  8
W74LALIFT
 62
3
 10
2246.653
 20
-7780.890
 30
-1997.559
 70
    32
  0
VERTEX
  8
W74LALIFT
 62
3
 10
2254.697
 20
-7798.988
 30
-1996.438
 70
    32
  0
VERTEX
  8
W74LALIFT
 62
3
 10
2255.454
 20
-7802.934
 30
-1996.527
 70
    32
  0
VERTEX
  8
W74LALIFT
 62
3
 10
2253.225
 20
-7804.963
 30
-1996.283
 70
    32
  0
VERTEX
  8
W74LALIFT
 62
3
 10
2247.530
 20
-7809.827
 30
-1996.441
 70
    32
  0
VERTEX
  8
W74LALIFT
 62
3
 10
2241.083
 20
-7812.971
 30
-1996.519
 70
    32
  0
SEQEND
  8
W74LALIFT
  0
POLYLINE
  8
W74LALIFT
 62
3
 66
     1
 70
     9
  0
VERTEX
  8
W74LALIFT
 62
3
 10
2040.379
 20
-6608.541
 30
-2063.023
 70
    32
  0
VERTEX
  8
W74LALIFT
 62
3
 10
2030.398
 20
-6570.703
 30
-2053.669
 70
    32
  0
VERTEX
  8
W74LALIFT
 62
3
 10
2027.566
 20
-6547.600
 30
-2047.306
 70
    32
  0
VERTEX
  8
W74LALIFT
 62
3
 10
2027.300
 20
-6526.829
 30
-2046.019
 70
    32
  0
VERTEX
  8
W74LALIFT
 62
3
 10
2021.390
 20
-6505.067
 30
-2043.504
 70
    32
  0
VERTEX
  8
W74LALIFT
 62
3
 10
2020.598
 20
-6492.961
 30
-2042.469
 70
    32
  0
VERTEX
  8
W74LALIFT
 62
3
 10
2016.136
 20
-6487.242
 30
-2044.086
 70
    32
  0
VERTEX
  8
W74LALIFT
 62
3
 10
2014.267
 20
-6479.057
 30
-2043.039
 70
    32
  0
VERTEX
  8
W74LALIFT
 62
3
 10
2005.182
 20
-6474.633
 30
-2044.079
 70
    32
  0
VERTEX
  8
W74LALIFT
 62
3
 10
2002.184
 20
-6469.602
 30
-2043.460
 70
    32
  0
VERTEX
  8
W74LALIFT
 62
3
 10
1997.889
 20
-6462.228
 30
-2042.055
 70
    32
  0
VERTEX
  8
W74LALIFT
 62
3
 10
1989.812
 20
-6445.779
 30
-2041.935
 70
    32
  0
VERTEX
  8
W74LALIFT
 62
3
 10
1977.864
 20
-6433.331
 30
-2043.181
 70
    32
  0
VERTEX
  8
W74LALIFT
 62
3
 10
1955.307
 20
-6405.410
 30
-2043.032
 70
    32
  0
VERTEX
  8
W74LALIFT
 62
3
 10
1951.240
 20
-6407.600
 30
-2043.960
 70
    32
  0
VERTEX
  8
W74LALIFT
 62
3
 10
1943.288
 20
-6397.719
 30
-2044.889
 70
    32
  0
VERTEX
  8
W74LALIFT
 62
3
 10
1939.510
 20
-6385.939
 30
-2045.405
 70
    32
  0
VERTEX
  8
W74LALIFT
 62
3
 10
1932.392
 20
-6385.878
 30
-2044.723
 70
    32
  0
VERTEX
  8
W74LALIFT
 62
3
 10
1930.548
 20
-6386.922
 30
-2045.441
 70
    32
  0
VERTEX
  8
W74LALIFT
 62
3
 10
1922.759
 20
-6391.947
 30
-2045.095
 70
    32
  0
VERTEX
  8
W74LALIFT
 62
3
 10
1924.920
 20
-6404.108
 30
-2046.029
 70
    32
  0
VERTEX
  8
W74LALIFT
 62
3
 10
1930.945
 20
-6414.977
 30
-2045.537
 70
    32
  0
VERTEX
  8
W74LALIFT
 62
3
 10
1936.357
 20
-6425.351
 30
-2044.448
 70
    32
  0
VERTEX
  8
W74LALIFT
 62
3
 10
1931.989
 20
-6431.289
 30
-2043.837
 70
    32
  0
VERTEX
  8
W74LALIFT
 62
3
 10
1938.403
 20
-6437.879
 30
-2044.115
 70
    32
  0
VERTEX
  8
W74LALIFT
 62
3
 10
1936.729
 20
-6446.598
 30
-2043.526
 70
    32
  0
VERTEX
  8
W74LALIFT
 62
3
 10
1947.127
 20
-6452.494
 30
-2043.833
 70
    32
  0
VERTEX
  8
W74LALIFT
 62
3
 10
1955.335
 20
-6456.226
 30
-2045.069
 70
    32
  0
VERTEX
  8
W74LALIFT
 62
3
 10
1971.370
 20
-6467.365
 30
-2043.251
 70
    32
  0
VERTEX
  8
W74LALIFT
 62
3
 10
1979.658
 20
-6468.577
 30
-2043.283
 70
    32
  0
VERTEX
  8
W74LALIFT
 62
3
 10
1985.004
 20
-6474.687
 30
-2043.648
 70
    32
  0
VERTEX
  8
W74LALIFT
 62
3
 10
1990.968
 20
-6487.205
 30
-2044.529
 70
    32
  0
VERTEX
  8
W74LALIFT
 62
3
 10
1995.038
 20
-6488.590
 30
-2044.394
 70
    32
  0
VERTEX
  8
W74LALIFT
 62
3
 10
2007.506
 20
-6505.650
 30
-2044.384
 70
    32
  0
VERTEX
  8
W74LALIFT
 62
3
 10
2008.129
 20
-6507.019
 30
-2044.422
 70
    32
  0
VERTEX
  8
W74LALIFT
 62
3
 10
2013.551
 20
-6522.774
 30
-2045.840
 70
    32
  0
VERTEX
  8
W74LALIFT
 62
3
 10
2011.964
 20
-6527.993
 30
-2046.541
 70
    32
  0
VERTEX
  8
W74LALIFT
 62
3
 10
2015.626
 20
-6550.234
 30
-2048.859
 70
    32
  0
VERTEX
  8
W74LALIFT
 62
3
 10
2020.053
 20
-6572.655
 30
-2054.121
 70
    32
  0
VERTEX
  8
W74LALIFT
 62
3
 10
2029.589
 20
-6610.553
 30
-2064.768
 70
    32
  0
SEQEND
  8
W74LALIFT
  0
POLYLINE
  8
W74LALIFT
 62
6
 66
     1
 70
     8
  0
VERTEX
  8
W74LALIFT
 62
6
 10
2540.060
 20
-8834.702
 30
-2056.548
 70
    32
  0
VERTEX
  8
W74LALIFT
 62
6
 10
2549.326
 20
-8827.531
 30
-2055.731
 70
    32
  0
VERTEX
  8
W74LALIFT
 62
6
 10
2555.555
 20
-8820.118
 30
-2055.142
 70
    32
  0
VERTEX
  8
W74LALIFT
 62
6
 10
2562.405
 20
-8816.381
 30
-2055.781
 70
    32
  0
VERTEX
  8
W74LALIFT
 62
6
 10
2569.621
 20
-8812.246
 30
-2054.432
 70
    32
  0
VERTEX
  8
W74LALIFT
 62
6
 10
2576.779
 20
-8805.772
 30
-2053.122
 70
    32
  0
VERTEX
  8
W74LALIFT
 62
6
 10
2580.509
 20
-8802.850
 30
-2055.105
 70
    32
  0
VERTEX
  8
W74LALIFT
 62
6
 10
2590.530
 20
-8794.066
 30
-2052.765
 70
    32
  0
VERTEX
  8
W74LALIFT
 62
6
 10
2620.932
 20
-8773.666
 30
-2050.802
 70
    32
  0
VERTEX
  8
W74LALIFT
 62
6
 10
2621.776
 20
-8769.461
 30
-2049.647
 70
    32
  0
VERTEX
  8
W74LALIFT
 62
6
 10
2622.515
 20
-8763.224
 30
-2050.621
 70
    32
  0
VERTEX
  8
W74LALIFT
 62
6
 10
2616.001
 20
-8753.030
 30
-2051.828
 70
    32
  0
VERTEX
  8
W74LALIFT
 62
6
 10
2618.694
 20
-8747.608
 30
-2051.973
 70
    32
  0
VERTEX
  8
W74LALIFT
 62
6
 10
2623.897
 20
-8744.828
 30
-2051.570
 70
    32
  0
VERTEX
  8
W74LALIFT
 62
6
 10
2628.325
 20
-8753.346
 30
-2049.247
 70
    32
  0
VERTEX
  8
W74LALIFT
 62
6
 10
2631.590
 20
-8761.390
 30
-2048.942
 70
    32
  0
VERTEX
  8
W74LALIFT
 62
6
 10
2635.383
 20
-8767.749
 30
-2063.554
 70
    32
  0
VERTEX
  8
W74LALIFT
 62
6
 10
2639.542
 20
-8778.286
 30
-2048.764
 70
    32
  0
VERTEX
  8
W74LALIFT
 62
6
 10
2643.765
 20
-8787.066
 30
-2050.636
 70
    32
  0
VERTEX
  8
W74LALIFT
 62
6
 10
2646.022
 20
-8796.090
 30
-2051.921
 70
    32
  0
VERTEX
  8
W74LALIFT
 62
6
 10
2638.044
 20
-8798.836
 30
-2052.006
 70
    32
  0
VERTEX
  8
W74LALIFT
 62
6
 10
2634.376
 20
-8800.443
 30
-2052.425
 70
    32
  0
VERTEX
  8
W74LALIFT
 62
6
 10
2630.944
 20
-8790.419
 30
-2052.468
 70
    32
  0
VERTEX
  8
W74LALIFT
 62
6
 10
2627.014
 20
-8787.683
 30
-2051.639
 70
    32
  0
VERTEX
  8
W74LALIFT
 62
6
 10
2620.272
 20
-8792.310
 30
-2049.983
 70
    32
  0
VERTEX
  8
W74LALIFT
 62
6
 10
2620.679
 20
-8795.787
 30
-2049.338
 70
    32
  0
VERTEX
  8
W74LALIFT
 62
6
 10
2621.877
 20
-8801.543
 30
-2049.524
 70
    32
  0
VERTEX
  8
W74LALIFT
 62
6
 10
2626.072
 20
-8809.676
 30
-2050.443
 70
    32
  0
VERTEX
  8
W74LALIFT
 62
6
 10
2630.401
 20
-8819.127
 30
-2051.643
 70
    32
  0
VERTEX
  8
W74LALIFT
 62
6
 10
2619.534
 20
-8820.369
 30
-2052.755
 70
    32
  0
VERTEX
  8
W74LALIFT
 62
6
 10
2617.281
 20
-8813.309
 30
-2052.585
 70
    32
  0
VERTEX
  8
W74LALIFT
 62
6
 10
2615.108
 20
-8811.532
 30
-2052.437
 70
    32
  0
VERTEX
  8
W74LALIFT
 62
6
 10
2605.903
 20
-8812.609
 30
-2052.802
 70
    32
  0
VERTEX
  8
W74LALIFT
 62
6
 10
2605.708
 20
-8807.431
 30
-2052.696
 70
    32
  0
VERTEX
  8
W74LALIFT
 62
6
 10
2598.691
 20
-8804.956
 30
-2053.041
 70
    32
  0
VERTEX
  8
W74LALIFT
 62
6
 10
2595.208
 20
-8806.814
 30
-2052.959
 70
    32
  0
VERTEX
  8
W74LALIFT
 62
6
 10
2586.865
 20
-8812.658
 30
-2054.186
 70
    32
  0
VERTEX
  8
W74LALIFT
 62
6
 10
2582.307
 20
-8817.480
 30
-2052.092
 70
    32
  0
VERTEX
  8
W74LALIFT
 62
6
 10
2572.973
 20
-8823.230
 30
-2053.858
 70
    32
  0
VERTEX
  8
W74LALIFT
 62
6
 10
2570.899
 20
-8827.363
 30
-2055.333
 70
    32
  0
VERTEX
  8
W74LALIFT
 62
6
 10
2562.055
 20
-8831.102
 30
-2054.690
 70
    32
  0
VERTEX
  8
W74LALIFT
 62
6
 10
2557.042
 20
-8835.209
 30
-2056.023
 70
    32
  0
VERTEX
  8
W74LALIFT
 62
6
 10
2550.808
 20
-8841.280
 30
-2057.116
 70
    32
  0
SEQEND
  8
W74LALIFT
  0
POLYLINE
  8
W74LALIFT
 62
8
 66
     1
 70
     8
  0
VERTEX
  8
W74LALIFT
 62
8
 10
2015.450
 20
-7214.139
 30
-2047.899
 70
    32
  0
VERTEX
  8
W74LALIFT
 62
8
 10
2005.419
 20
-7206.291
 30
-2044.248
 70
    32
  0
VERTEX
  8
W74LALIFT
 62
8
 10
2000.185
 20
-7197.513
 30
-2041.632
 70
    32
  0
VERTEX
  8
W74LALIFT
 62
8
 10
1995.649
 20
-7191.034
 30
-2038.871
 70
    32
  0
VERTEX
  8
W74LALIFT
 62
8
 10
1987.783
 20
-7176.934
 30
-2039.261
 70
    32
  0
VERTEX
  8
W74LALIFT
 62
8
 10
1982.978
 20
-7171.658
 30
-2038.159
 70
    32
  0
VERTEX
  8
W74LALIFT
 62
8
 10
1979.142
 20
-7161.427
 30
-2037.867
 70
    32
  0
VERTEX
  8
W74LALIFT
 62
8
 10
1972.958
 20
-7151.088
 30
-2036.701
 70
    32
  0
VERTEX
  8
W74LALIFT
 62
8
 10
1972.952
 20
-7151.080
 30
-2036.695
 70
    32
  0
VERTEX
  8
W74LALIFT
 62
8
 10
1969.326
 20
-7141.480
 30
-2037.203
 70
    32
  0
VERTEX
  8
W74LALIFT
 62
8
 10
1958.247
 20
-7123.824
 30
-2035.754
 70
    32
  0
VERTEX
  8
W74LALIFT
 62
8
 10
1968.465
 20
-7111.907
 30
-2035.328
 70
    32
  0
VERTEX
  8
W74LALIFT
 62
8
 10
1980.846
 20
-7133.612
 30
-2036.669
 70
    32
  0
VERTEX
  8
W74LALIFT
 62
8
 10
1985.628
 20
-7145.231
 30
-2036.158
 70
    32
  0
VERTEX
  8
W74LALIFT
 62
8
 10
1989.549
 20
-7154.706
 30
-2037.021
 70
    32
  0
VERTEX
  8
W74LALIFT
 62
8
 10
2001.184
 20
-7174.842
 30
-2037.992
 70
    32
  0
VERTEX
  8
W74LALIFT
 62
8
 10
2009.643
 20
-7186.422
 30
-2038.788
 70
    32
  0
VERTEX
  8
W74LALIFT
 62
8
 10
2020.655
 20
-7203.137
 30
-2044.911
 70
    32
  0
VERTEX
  8
W74LALIFT
 62
8
 10
2031.080
 20
-7218.907
 30
-2048.003
 70
    32
  0
SEQEND
  8
W74LALIFT
  0
POLYLINE
  8
W74LALIFT
 62
7
 66
     1
 70
     8
  0
VERTEX
  8
W74LALIFT
 62
7
 10
2124.216
 20
-7171.527
 30
-2094.135
 70
    32
  0
VERTEX
  8
W74LALIFT
 62
7
 10
2100.280
 20
-7145.631
 30
-2083.022
 70
    32
  0
VERTEX
  8
W74LALIFT
 62
7
 10
2101.121
 20
-7141.033
 30
-2083.555
 70
    32
  0
VERTEX
  8
W74LALIFT
 62
7
 10
2071.262
 20
-7113.727
 30
-2072.444
 70
    32
  0
VERTEX
  8
W74LALIFT
 62
7
 10
2064.647
 20
-7102.588
 30
-2071.608
 70
    32
  0
VERTEX
  8
W74LALIFT
 62
7
 10
2058.652
 20
-7091.551
 30
-2070.133
 70
    32
  0
VERTEX
  8
W74LALIFT
 62
7
 10
2062.229
 20
-7081.255
 30
-2068.533
 70
    32
  0
VERTEX
  8
W74LALIFT
 62
7
 10
2064.616
 20
-7076.804
 30
-2071.977
 70
    32
  0
VERTEX
  8
W74LALIFT
 62
7
 10
2061.110
 20
-7070.572
 30
-2071.531
 70
    32
  0
VERTEX
  8
W74LALIFT
 62
7
 10
2070.849
 20
-7065.467
 30
-2070.146
 70
    32
  0
VERTEX
  8
W74LALIFT
 62
7
 10
2077.370
 20
-7073.822
 30
-2071.651
 70
    32
  0
VERTEX
  8
W74LALIFT
 62
7
 10
2081.337
 20
-7084.316
 30
-2071.363
 70
    32
  0
VERTEX
  8
W74LALIFT
 62
7
 10
2087.627
 20
-7094.472
 30
-2070.790
 70
    32
  0
VERTEX
  8
W74LALIFT
 62
7
 10
2099.615
 20
-7107.704
 30
-2078.164
 70
    32
  0
VERTEX
  8
W74LALIFT
 62
7
 10
2120.501
 20
-7137.175
 30
-2082.734
 70
    32
  0
VERTEX
  8
W74LALIFT
 62
7
 10
2129.430
 20
-7154.237
 30
-2088.385
 70
    32
  0
VERTEX
  8
W74LALIFT
 62
7
 10
2134.548
 20
-7160.776
 30
-2090.481
 70
    32
  0
VERTEX
  8
W74LALIFT
 62
7
 10
2138.493
 20
-7157.542
 30
-2095.733
 70
    32
  0
SEQEND
  8
W74LALIFT
  0
POLYLINE
  8
W74LALIFT
 62
4
 66
     1
 70
     9
  0
VERTEX
  8
W74LALIFT
 62
4
 10
2353.496
 20
-8170.597
 30
-1995.000
 70
    32
  0
VERTEX
  8
W74LALIFT
 62
4
 10
2355.020
 20
-8172.438
 30
-1995.000
 70
    32
  0
VERTEX
  8
W74LALIFT
 62
4
 10
2361.611
 20
-8199.432
 30
-1992.713
 70
    32
  0
VERTEX
  8
W74LALIFT
 62
4
 10
2360.650
 20
-8207.753
 30
-1994.597
 70
    32
  0
VERTEX
  8
W74LALIFT
 62
4
 10
2365.803
 20
-8225.377
 30
-1994.222
 70
    32
  0
VERTEX
  8
W74LALIFT
 62
4
 10
2364.818
 20
-8232.997
 30
-1992.430
 70
    32
  0
VERTEX
  8
W74LALIFT
 62
4
 10
2363.246
 20
-8245.531
 30
-1991.290
 70
    32
  0
VERTEX
  8
W74LALIFT
 62
4
 10
2360.755
 20
-8259.589
 30
-1990.153
 70
    32
  0
VERTEX
  8
W74LALIFT
 62
4
 10
2354.199
 20
-8266.098
 30
-1988.719
 70
    32
  0
VERTEX
  8
W74LALIFT
 62
4
 10
2351.123
 20
-8275.353
 30
-1988.601
 70
    32
  0
VERTEX
  8
W74LALIFT
 62
4
 10
2350.719
 20
-8281.158
 30
-1989.495
 70
    32
  0
VERTEX
  8
W74LALIFT
 62
4
 10
2352.960
 20
-8284.465
 30
-1990.098
 70
    32
  0
VERTEX
  8
W74LALIFT
 62
4
 10
2345.988
 20
-8297.438
 30
-1989.006
 70
    32
  0
VERTEX
  8
W74LALIFT
 62
4
 10
2358.470
 20
-8300.332
 30
-1988.201
 70
    32
  0
VERTEX
  8
W74LALIFT
 62
4
 10
2358.676
 20
-8298.540
 30
-1990.354
 70
    32
  0
VERTEX
  8
W74LALIFT
 62
4
 10
2363.944
 20
-8290.149
 30
-1990.603
 70
    32
  0
VERTEX
  8
W74LALIFT
 62
4
 10
2366.212
 20
-8284.913
 30
-1990.257
 70
    32
  0
VERTEX
  8
W74LALIFT
 62
4
 10
2369.300
 20
-8283.873
 30
-1989.865
 70
    32
  0
VERTEX
  8
W74LALIFT
 62
4
 10
2374.138
 20
-8279.780
 30
-1989.751
 70
    32
  0
VERTEX
  8
W74LALIFT
 62
4
 10
2379.980
 20
-8279.974
 30
-1990.634
 70
    32
  0
VERTEX
  8
W74LALIFT
 62
4
 10
2386.104
 20
-8283.346
 30
-1989.373
 70
    32
  0
VERTEX
  8
W74LALIFT
 62
4
 10
2386.342
 20
-8284.223
 30
-1990.779
 70
    32
  0
VERTEX
  8
W74LALIFT
 62
4
 10
2394.470
 20
-8292.843
 30
-1989.125
 70
    32
  0
VERTEX
  8
W74LALIFT
 62
4
 10
2398.582
 20
-8290.706
 30
-1988.724
 70
    32
  0
VERTEX
  8
W74LALIFT
 62
4
 10
2401.561
 20
-8285.593
 30
-1989.366
 70
    32
  0
VERTEX
  8
W74LALIFT
 62
4
 10
2402.984
 20
-8280.547
 30
-1988.306
 70
    32
  0
VERTEX
  8
W74LALIFT
 62
4
 10
2404.235
 20
-8273.233
 30
-1988.677
 70
    32
  0
VERTEX
  8
W74LALIFT
 62
4
 10
2401.942
 20
-8269.131
 30
-1988.060
 70
    32
  0
VERTEX
  8
W74LALIFT
 62
4
 10
2393.352
 20
-8270.212
 30
-1989.945
 70
    32
  0
VERTEX
  8
W74LALIFT
 62
4
 10
2391.877
 20
-8270.952
 30
-1989.503
 70
    32
  0
VERTEX
  8
W74LALIFT
 62
4
 10
2383.727
 20
-8268.914
 30
-1989.590
 70
    32
  0
VERTEX
  8
W74LALIFT
 62
4
 10
2380.154
 20
-8262.713
 30
-1989.953
 70
    32
  0
VERTEX
  8
W74LALIFT
 62
4
 10
2377.706
 20
-8258.368
 30
-1991.606
 70
    32
  0
VERTEX
  8
W74LALIFT
 62
4
 10
2374.483
 20
-8247.959
 30
-1992.341
 70
    32
  0
VERTEX
  8
W74LALIFT
 62
4
 10
2374.729
 20
-8242.269
 30
-1991.611
 70
    32
  0
VERTEX
  8
W74LALIFT
 62
4
 10
2374.930
 20
-8239.191
 30
-1992.082
 70
    32
  0
VERTEX
  8
W74LALIFT
 62
4
 10
2378.005
 20
-8230.380
 30
-1991.180
 70
    32
  0
VERTEX
  8
W74LALIFT
 62
4
 10
2376.680
 20
-8222.096
 30
-1992.264
 70
    32
  0
VERTEX
  8
W74LALIFT
 62
4
 10
2374.834
 20
-8206.003
 30
-1993.676
 70
    32
  0
VERTEX
  8
W74LALIFT
 62
4
 10
2370.818
 20
-8175.385
 30
-1995.000
 70
    32
  0
VERTEX
  8
W74LALIFT
 62
4
 10
2366.037
 20
-8156.653
 30
-1995.000
 70
    32
  0
VERTEX
  8
W74LALIFT
 62
4
 10
2363.372
 20
-8151.629
 30
-1995.000
 70
    32
  0
VERTEX
  8
W74LALIFT
 62
4
 10
2364.074
 20
-8140.246
 30
-1995.000
 70
    32
  0
VERTEX
  8
W74LALIFT
 62
4
 10
2358.870
 20
-8126.216
 30
-1995.000
 70
    32
  0
VERTEX
  8
W74LALIFT
 62
4
 10
2359.379
 20
-8109.764
 30
-1995.000
 70
    32
  0
VERTEX
  8
W74LALIFT
 62
4
 10
2360.187
 20
-8090.438
 30
-1995.000
 70
    32
  0
VERTEX
  8
W74LALIFT
 62
4
 10
2356.319
 20
-8070.625
 30
-1995.000
 70
    32
  0
VERTEX
  8
W74LALIFT
 62
4
 10
2353.939
 20
-8063.910
 30
-1995.000
 70
    32
  0
VERTEX
  8
W74LALIFT
 62
4
 10
2355.036
 20
-8051.041
 30
-1995.000
 70
    32
  0
VERTEX
  8
W74LALIFT
 62
4
 10
2347.803
 20
-8048.887
 30
-1995.000
 70
    32
  0
VERTEX
  8
W74LALIFT
 62
4
 10
2342.597
 20
-8050.468
 30
-1995.000
 70
    32
  0
VERTEX
  8
W74LALIFT
 62
4
 10
2340.389
 20
-8049.510
 30
-1995.000
 70
    32
  0
VERTEX
  8
W74LALIFT
 62
4
 10
2338.274
 20
-8046.278
 30
-1995.000
 70
    32
  0
VERTEX
  8
W74LALIFT
 62
4
 10
2330.411
 20
-8056.394
 30
-1995.000
 70
    32
  0
VERTEX
  8
W74LALIFT
 62
4
 10
2328.181
 20
-8071.199
 30
-1995.000
 70
    32
  0
VERTEX
  8
W74LALIFT
 62
4
 10
2338.616
 20
-8102.877
 30
-1995.000
 70
    32
  0
VERTEX
  8
W74LALIFT
 62
4
 10
2338.658
 20
-8106.884
 30
-1995.000
 70
    32
  0
VERTEX
  8
W74LALIFT
 62
4
 10
2339.085
 20
-8121.301
 30
-1995.000
 70
    32
  0
VERTEX
  8
W74LALIFT
 62
4
 10
2350.464
 20
-8144.897
 30
-1995.000
 70
    32
  0
VERTEX
  8
W74LALIFT
 62
4
 10
2349.564
 20
-8152.349
 30
-1995.000
 70
    32
  0
SEQEND
  8
W74LALIFT
  0
POLYLINE
  8
W74LALIFT
 62
2
 66
     1
 70
     9
  0
VERTEX
  8
W74LALIFT
 62
2
 10
2625.660
 20
-8935.157
 30
-2014.287
 70
    32
  0
VERTEX
  8
W74LALIFT
 62
2
 10
2620.841
 20
-8923.100
 30
-2018.852
 70
    32
  0
VERTEX
  8
W74LALIFT
 62
2
 10
2613.419
 20
-8923.801
 30
-2018.741
 70
    32
  0
VERTEX
  8
W74LALIFT
 62
2
 10
2602.505
 20
-8920.793
 30
-2021.017
 70
    32
  0
VERTEX
  8
W74LALIFT
 62
2
 10
2594.597
 20
-8924.038
 30
-2024.193
 70
    32
  0
VERTEX
  8
W74LALIFT
 62
2
 10
2600.733
 20
-8942.239
 30
-2020.834
 70
    32
  0
VERTEX
  8
W74LALIFT
 62
2
 10
2606.269
 20
-8963.578
 30
-2023.667
 70
    32
  0
VERTEX
  8
W74LALIFT
 62
2
 10
2610.092
 20
-8975.420
 30
-2021.533
 70
    32
  0
VERTEX
  8
W74LALIFT
 62
2
 10
2609.144
 20
-8989.483
 30
-2018.949
 70
    32
  0
VERTEX
  8
W74LALIFT
 62
2
 10
2611.966
 20
-8996.492
 30
-2017.757
 70
    32
  0
VERTEX
  8
W74LALIFT
 62
2
 10
2623.844
 20
-9032.696
 30
-2021.890
 70
    32
  0
VERTEX
  8
W74LALIFT
 62
2
 10
2628.170
 20
-9041.791
 30
-2019.320
 70
    32
  0
VERTEX
  8
W74LALIFT
 62
2
 10
2631.123
 20
-9050.283
 30
-2019.877
 70
    32
  0
VERTEX
  8
W74LALIFT
 62
2
 10
2638.858
 20
-9047.122
 30
-2017.003
 70
    32
  0
VERTEX
  8
W74LALIFT
 62
2
 10
2645.181
 20
-9046.785
 30
-2018.264
 70
    32
  0
VERTEX
  8
W74LALIFT
 62
2
 10
2647.557
 20
-9037.597
 30
-2017.456
 70
    32
  0
VERTEX
  8
W74LALIFT
 62
2
 10
2643.825
 20
-9020.949
 30
-2017.194
 70
    32
  0
VERTEX
  8
W74LALIFT
 62
2
 10
2639.239
 20
-9012.159
 30
-2017.441
 70
    32
  0
VERTEX
  8
W74LALIFT
 62
2
 10
2635.203
 20
-8997.669
 30
-2017.275
 70
    32
  0
VERTEX
  8
W74LALIFT
 62
2
 10
2629.326
 20
-9008.225
 30
-2017.380
 70
    32
  0
VERTEX
  8
W74LALIFT
 62
2
 10
2622.012
 20
-8988.494
 30
-2014.934
 70
    32
  0
VERTEX
  8
W74LALIFT
 62
2
 10
2626.313
 20
-8978.554
 30
-2017.738
 70
    32
  0
VERTEX
  8
W74LALIFT
 62
2
 10
2629.665
 20
-8955.868
 30
-2018.997
 70
    32
  0
VERTEX
  8
W74LALIFT
 62
2
 10
2628.088
 20
-8947.712
 30
-2016.729
 70
    32
  0
VERTEX
  8
W74LALIFT
 62
2
 10
2624.891
 20
-8935.975
 30
-2015.573
 70
    32
  0
SEQEND
  8
W74LALIFT
  0
POLYLINE
  8
W74LALIFT
 62
2
 66
     1
 70
     8
  0
VERTEX
  8
W74LALIFT
 62
2
 10
2582.203
 20
-9090.180
 30
-2025.261
 70
    32
  0
VERTEX
  8
W74LALIFT
 62
2
 10
2585.048
 20
-9082.527
 30
-2024.854
 70
    32
  0
VERTEX
  8
W74LALIFT
 62
2
 10
2583.801
 20
-9067.833
 30
-2025.068
 70
    32
  0
VERTEX
  8
W74LALIFT
 62
2
 10
2585.404
 20
-9057.356
 30
-2026.145
 70
    32
  0
VERTEX
  8
W74LALIFT
 62
2
 10
2597.979
 20
-9052.743
 30
-2026.062
 70
    32
  0
VERTEX
  8
W74LALIFT
 62
2
 10
2600.186
 20
-9069.821
 30
-2023.379
 70
    32
  0
VERTEX
  8
W74LALIFT
 62
2
 10
2606.175
 20
-9083.834
 30
-2022.286
 70
    32
  0
VERTEX
  8
W74LALIFT
 62
2
 10
2612.603
 20
-9085.657
 30
-2024.332
 70
    32
  0
VERTEX
  8
W74LALIFT
 62
2
 10
2619.382
 20
-9083.495
 30
-2024.866
 70
    32
  0
VERTEX
  8
W74LALIFT
 62
2
 10
2624.745
 20
-9076.543
 30
-2024.540
 70
    32
  0
VERTEX
  8
W74LALIFT
 62
2
 10
2627.361
 20
-9068.721
 30
-2024.647
 70
    32
  0
VERTEX
  8
W74LALIFT
 62
2
 10
2628.866
 20
-9066.173
 30
-2026.362
 70
    32
  0
VERTEX
  8
W74LALIFT
 62
2
 10
2629.416
 20
-9060.986
 30
-2025.492
 70
    32
  0
VERTEX
  8
W74LALIFT
 62
2
 10
2630.576
 20
-9054.959
 30
-2026.131
 70
    32
  0
VERTEX
  8
W74LALIFT
 62
2
 10
2627.662
 20
-9048.020
 30
-2026.947
 70
    32
  0
VERTEX
  8
W74LALIFT
 62
2
 10
2623.093
 20
-9038.448
 30
-2027.556
 70
    32
  0
VERTEX
  8
W74LALIFT
 62
2
 10
2620.910
 20
-9028.344
 30
-2025.882
 70
    32
  0
VERTEX
  8
W74LALIFT
 62
2
 10
2612.259
 20
-9017.225
 30
-2022.097
 70
    32
  0
VERTEX
  8
W74LALIFT
 62
2
 10
2605.605
 20
-9004.074
 30
-2022.226
 70
    32
  0
VERTEX
  8
W74LALIFT
 62
2
 10
2601.503
 20
-8994.968
 30
-2023.831
 70
    32
  0
VERTEX
  8
W74LALIFT
 62
2
 10
2603.776
 20
-8987.689
 30
-2025.591
 70
    32
  0
VERTEX
  8
W74LALIFT
 62
2
 10
2599.499
 20
-8970.652
 30
-2032.659
 70
    32
  0
VERTEX
  8
W74LALIFT
 62
2
 10
2599.038
 20
-8969.602
 30
-2033.005
 70
    32
  0
VERTEX
  8
W74LALIFT
 62
2
 10
2596.601
 20
-8957.203
 30
-2033.112
 70
    32
  0
VERTEX
  8
W74LALIFT
 62
2
 10
2594.119
 20
-8938.352
 30
-2029.767
 70
    32
  0
VERTEX
  8
W74LALIFT
 62
2
 10
2595.311
 20
-8931.951
 30
-2027.679
 70
    32
  0
VERTEX
  8
W74LALIFT
 62
2
 10
2592.734
 20
-8925.366
 30
-2026.678
 70
    32
  0
VERTEX
  8
W74LALIFT
 62
2
 10
2589.351
 20
-8914.060
 30
-2026.777
 70
    32
  0
VERTEX
  8
W74LALIFT
 62
2
 10
2602.592
 20
-8910.669
 30
-2030.288
 70
    32
  0
VERTEX
  8
W74LALIFT
 62
2
 10
2602.080
 20
-8903.622
 30
-2028.878
 70
    32
  0
VERTEX
  8
W74LALIFT
 62
2
 10
2600.030
 20
-8896.664
 30
-2030.477
 70
    32
  0
VERTEX
  8
W74LALIFT
 62
2
 10
2601.182
 20
-8889.990
 30
-2029.873
 70
    32
  0
VERTEX
  8
W74LALIFT
 62
2
 10
2601.072
 20
-8884.397
 30
-2030.150
 70
    32
  0
VERTEX
  8
W74LALIFT
 62
2
 10
2599.778
 20
-8871.820
 30
-2031.218
 70
    32
  0
VERTEX
  8
W74LALIFT
 62
2
 10
2595.809
 20
-8863.086
 30
-2029.581
 70
    32
  0
VERTEX
  8
W74LALIFT
 62
2
 10
2595.960
 20
-8860.523
 30
-2029.707
 70
    32
  0
VERTEX
  8
W74LALIFT
 62
2
 10
2592.577
 20
-8851.729
 30
-2028.631
 70
    32
  0
VERTEX
  8
W74LALIFT
 62
2
 10
2599.055
 20
-8845.838
 30
-2029.579
 70
    32
  0
VERTEX
  8
W74LALIFT
 62
2
 10
2602.151
 20
-8845.141
 30
-2029.253
 70
    32
  0
VERTEX
  8
W74LALIFT
 62
2
 10
2606.879
 20
-8854.528
 30
-2030.496
 70
    32
  0
VERTEX
  8
W74LALIFT
 62
2
 10
2610.392
 20
-8860.079
 30
-2031.559
 70
    32
  0
VERTEX
  8
W74LALIFT
 62
2
 10
2613.026
 20
-8863.337
 30
-2030.736
 70
    32
  0
VERTEX
  8
W74LALIFT
 62
2
 10
2616.210
 20
-8863.627
 30
-2031.095
 70
    32
  0
VERTEX
  8
W74LALIFT
 62
2
 10
2619.022
 20
-8874.132
 30
-2031.336
 70
    32
  0
VERTEX
  8
W74LALIFT
 62
2
 10
2621.079
 20
-8879.956
 30
-2028.950
 70
    32
  0
VERTEX
  8
W74LALIFT
 62
2
 10
2620.756
 20
-8894.872
 30
-2029.507
 70
    32
  0
VERTEX
  8
W74LALIFT
 62
2
 10
2629.325
 20
-8896.340
 30
-2028.632
 70
    32
  0
VERTEX
  8
W74LALIFT
 62
2
 10
2632.903
 20
-8898.702
 30
-2027.894
 70
    32
  0
VERTEX
  8
W74LALIFT
 62
2
 10
2635.881
 20
-8910.321
 30
-2029.079
 70
    32
  0
VERTEX
  8
W74LALIFT
 62
2
 10
2634.264
 20
-8919.288
 30
-2029.762
 70
    32
  0
VERTEX
  8
W74LALIFT
 62
2
 10
2633.806
 20
-8926.099
 30
-2029.184
 70
    32
  0
VERTEX
  8
W74LALIFT
 62
2
 10
2636.283
 20
-8929.768
 30
-2030.466
 70
    32
  0
VERTEX
  8
W74LALIFT
 62
2
 10
2635.227
 20
-8951.958
 30
-2030.526
 70
    32
  0
VERTEX
  8
W74LALIFT
 62
2
 10
2635.269
 20
-8964.225
 30
-2029.368
 70
    32
  0
VERTEX
  8
W74LALIFT
 62
2
 10
2633.854
 20
-8993.069
 30
-2029.196
 70
    32
  0
VERTEX
  8
W74LALIFT
 62
2
 10
2637.786
 20
-8995.646
 30
-2029.443
 70
    32
  0
VERTEX
  8
W74LALIFT
 62
2
 10
2647.110
 20
-8995.819
 30
-2029.240
 70
    32
  0
VERTEX
  8
W74LALIFT
 62
2
 10
2649.334
 20
-9007.209
 30
-2028.653
 70
    32
  0
VERTEX
  8
W74LALIFT
 62
2
 10
2647.873
 20
-9017.487
 30
-2029.121
 70
    32
  0
VERTEX
  8
W74LALIFT
 62
2
 10
2649.539
 20
-9021.334
 30
-2028.287
 70
    32
  0
VERTEX
  8
W74LALIFT
 62
2
 10
2648.668
 20
-9032.660
 30
-2027.255
 70
    32
  0
VERTEX
  8
W74LALIFT
 62
2
 10
2654.449
 20
-9041.307
 30
-2027.481
 70
    32
  0
VERTEX
  8
W74LALIFT
 62
2
 10
2654.711
 20
-9046.637
 30
-2027.974
 70
    32
  0
VERTEX
  8
W74LALIFT
 62
2
 10
2665.592
 20
-9064.539
 30
-2026.767
 70
    32
  0
VERTEX
  8
W74LALIFT
 62
2
 10
2664.232
 20
-9066.469
 30
-2026.881
 70
    32
  0
VERTEX
  8
W74LALIFT
 62
2
 10
2669.302
 20
-9075.706
 30
-2025.397
 70
    32
  0
VERTEX
  8
W74LALIFT
 62
2
 10
2667.209
 20
-9076.431
 30
-2025.501
 70
    32
  0
VERTEX
  8
W74LALIFT
 62
2
 10
2670.415
 20
-9087.289
 30
-2024.478
 70
    32
  0
VERTEX
  8
W74LALIFT
 62
2
 10
2667.758
 20
-9091.125
 30
-2024.530
 70
    32
  0
VERTEX
  8
W74LALIFT
 62
2
 10
2671.548
 20
-9098.015
 30
-2022.999
 70
    32
  0
VERTEX
  8
W74LALIFT
 62
2
 10
2672.013
 20
-9102.660
 30
-2024.994
 70
    32
  0
VERTEX
  8
W74LALIFT
 62
2
 10
2670.203
 20
-9107.139
 30
-2024.165
 70
    32
  0
VERTEX
  8
W74LALIFT
 62
2
 10
2667.140
 20
-9110.739
 30
-2024.299
 70
    32
  0
VERTEX
  8
W74LALIFT
 62
2
 10
2667.619
 20
-9120.938
 30
-2024.338
 70
    32
  0
VERTEX
  8
W74LALIFT
 62
2
 10
2661.720
 20
-9124.439
 30
-2024.623
 70
    32
  0
VERTEX
  8
W74LALIFT
 62
2
 10
2655.767
 20
-9122.042
 30
-2023.409
 70
    32
  0
VERTEX
  8
W74LALIFT
 62
2
 10
2651.506
 20
-9118.960
 30
-2023.241
 70
    32
  0
VERTEX
  8
W74LALIFT
 62
2
 10
2650.658
 20
-9106.548
 30
-2023.761
 70
    32
  0
VERTEX
  8
W74LALIFT
 62
2
 10
2651.281
 20
-9099.368
 30
-2024.197
 70
    32
  0
VERTEX
  8
W74LALIFT
 62
2
 10
2646.555
 20
-9093.234
 30
-2024.892
 70
    32
  0
VERTEX
  8
W74LALIFT
 62
2
 10
2651.198
 20
-9086.613
 30
-2025.552
 70
    32
  0
VERTEX
  8
W74LALIFT
 62
2
 10
2653.802
 20
-9079.675
 30
-2025.756
 70
    32
  0
VERTEX
  8
W74LALIFT
 62
2
 10
2655.055
 20
-9071.503
 30
-2026.851
 70
    32
  0
VERTEX
  8
W74LALIFT
 62
2
 10
2652.423
 20
-9063.563
 30
-2027.388
 70
    32
  0
VERTEX
  8
W74LALIFT
 62
2
 10
2648.011
 20
-9059.193
 30
-2027.349
 70
    32
  0
VERTEX
  8
W74LALIFT
 62
2
 10
2643.084
 20
-9061.154
 30
-2025.415
 70
    32
  0
VERTEX
  8
W74LALIFT
 62
2
 10
2640.587
 20
-9066.622
 30
-2025.559
 70
    32
  0
VERTEX
  8
W74LALIFT
 62
2
 10
2637.433
 20
-9071.849
 30
-2023.831
 70
    32
  0
VERTEX
  8
W74LALIFT
 62
2
 10
2639.114
 20
-9075.374
 30
-2023.907
 70
    32
  0
VERTEX
  8
W74LALIFT
 62
2
 10
2637.218
 20
-9079.495
 30
-2024.248
 70
    32
  0
VERTEX
  8
W74LALIFT
 62
2
 10
2632.667
 20
-9086.283
 30
-2024.931
 70
    32
  0
VERTEX
  8
W74LALIFT
 62
2
 10
2633.166
 20
-9089.215
 30
-2025.200
 70
    32
  0
VERTEX
  8
W74LALIFT
 62
2
 10
2622.482
 20
-9095.664
 30
-2024.881
 70
    32
  0
VERTEX
  8
W74LALIFT
 62
2
 10
2613.305
 20
-9097.890
 30
-2024.536
 70
    32
  0
VERTEX
  8
W74LALIFT
 62
2
 10
2608.385
 20
-9106.635
 30
-2022.752
 70
    32
  0
VERTEX
  8
W74LALIFT
 62
2
 10
2610.029
 20
-9115.379
 30
-2023.293
 70
    32
  0
VERTEX
  8
W74LALIFT
 62
2
 10
2605.832
 20
-9122.248
 30
-2025.048
 70
    32
  0
VERTEX
  8
W74LALIFT
 62
2
 10
2606.006
 20
-9129.603
 30
-2026.148
 70
    32
  0
VERTEX
  8
W74LALIFT
 62
2
 10
2602.215
 20
-9144.375
 30
-2023.939
 70
    32
  0
VERTEX
  8
W74LALIFT
 62
2
 10
2597.869
 20
-9150.372
 30
-2024.553
 70
    32
  0
VERTEX
  8
W74LALIFT
 62
2
 10
2588.191
 20
-9149.607
 30
-2026.260
 70
    32
  0
VERTEX
  8
W74LALIFT
 62
2
 10
2588.692
 20
-9139.952
 30
-2026.571
 70
    32
  0
VERTEX
  8
W74LALIFT
 62
2
 10
2584.703
 20
-9116.615
 30
-2025.325
 70
    32
  0
VERTEX
  8
W74LALIFT
 62
2
 10
2584.886
 20
-9115.293
 30
-2025.467
 70
    32
  0
VERTEX
  8
W74LALIFT
 62
2
 10
2581.310
 20
-9106.386
 30
-2026.542
 70
    32
  0
VERTEX
  8
W74LALIFT
 62
2
 10
2579.036
 20
-9104.973
 30
-2026.819
 70
    32
  0
SEQEND
  8
W74LALIFT
  0
POLYLINE
  8
W74LALIFT
 62
6
 66
     1
 70
     8
  0
VERTEX
  8
W74LALIFT
 62
6
 10
2562.214
 20
-9065.364
 30
-1999.440
 70
    32
  0
VERTEX
  8
W74LALIFT
 62
6
 10
2569.161
 20
-9059.208
 30
-1999.574
 70
    32
  0
VERTEX
  8
W74LALIFT
 62
6
 10
2570.319
 20
-9050.739
 30
-2000.444
 70
    32
  0
VERTEX
  8
W74LALIFT
 62
6
 10
2571.199
 20
-9047.620
 30
-2000.719
 70
    32
  0
VERTEX
  8
W74LALIFT
 62
6
 10
2570.182
 20
-9038.996
 30
-2000.062
 70
    32
  0
VERTEX
  8
W74LALIFT
 62
6
 10
2567.489
 20
-9031.739
 30
-1998.854
 70
    32
  0
VERTEX
  8
W74LALIFT
 62
6
 10
2562.338
 20
-9021.439
 30
-1997.827
 70
    32
  0
VERTEX
  8
W74LALIFT
 62
6
 10
2557.289
 20
-9012.475
 30
-1997.822
 70
    32
  0
VERTEX
  8
W74LALIFT
 62
6
 10
2555.211
 20
-9003.208
 30
-1996.826
 70
    32
  0
VERTEX
  8
W74LALIFT
 62
6
 10
2555.201
 20
-9002.067
 30
2003.000
 70
    32
  0
VERTEX
  8
W74LALIFT
 62
6
 10
2551.565
 20
-8992.453
 30
2003.000
 70
    32
  0
VERTEX
  8
W74LALIFT
 62
6
 10
2564.766
 20
-8986.109
 30
2003.000
 70
    32
  0
VERTEX
  8
W74LALIFT
 62
6
 10
2567.444
 20
-8994.954
 30
2003.000
 70
    32
  0
VERTEX
  8
W74LALIFT
 62
6
 10
2567.964
 20
-8996.534
 30
-1997.614
 70
    32
  0
VERTEX
  8
W74LALIFT
 62
6
 10
2569.866
 20
-9005.947
 30
-1998.212
 70
    32
  0
VERTEX
  8
W74LALIFT
 62
6
 10
2574.571
 20
-9021.851
 30
-1998.486
 70
    32
  0
VERTEX
  8
W74LALIFT
 62
6
 10
2582.408
 20
-9030.281
 30
-1999.307
 70
    32
  0
VERTEX
  8
W74LALIFT
 62
6
 10
2582.797
 20
-9046.993
 30
-2004.051
 70
    32
  0
VERTEX
  8
W74LALIFT
 62
6
 10
2583.492
 20
-9047.878
 30
-2000.648
 70
    32
  0
VERTEX
  8
W74LALIFT
 62
6
 10
2585.904
 20
-9063.260
 30
-2004.398
 70
    32
  0
VERTEX
  8
W74LALIFT
 62
6
 10
2598.850
 20
-9059.791
 30
-2007.559
 70
    32
  0
VERTEX
  8
W74LALIFT
 62
6
 10
2600.994
 20
-9059.974
 30
-2007.056
 70
    32
  0
VERTEX
  8
W74LALIFT
 62
6
 10
2609.037
 20
-9054.098
 30
-2007.547
 70
    32
  0
VERTEX
  8
W74LALIFT
 62
6
 10
2628.730
 20
-9035.611
 30
-2006.558
 70
    32
  0
VERTEX
  8
W74LALIFT
 62
6
 10
2629.431
 20
-9031.603
 30
-2004.995
 70
    32
  0
VERTEX
  8
W74LALIFT
 62
6
 10
2625.883
 20
-9024.210
 30
-2002.858
 70
    32
  0
VERTEX
  8
W74LALIFT
 62
6
 10
2620.664
 20
-9015.757
 30
-2002.511
 70
    32
  0
VERTEX
  8
W74LALIFT
 62
6
 10
2620.123
 20
-9014.950
 30
-2003.659
 70
    32
  0
VERTEX
  8
W74LALIFT
 62
6
 10
2614.542
 20
-9004.802
 30
-2003.659
 70
    32
  0
VERTEX
  8
W74LALIFT
 62
6
 10
2609.652
 20
-8993.779
 30
-2003.659
 70
    32
  0
VERTEX
  8
W74LALIFT
 62
6
 10
2608.585
 20
-8990.376
 30
-2000.061
 70
    32
  0
VERTEX
  8
W74LALIFT
 62
6
 10
2610.607
 20
-8981.376
 30
-1999.597
 70
    32
  0
VERTEX
  8
W74LALIFT
 62
6
 10
2610.861
 20
-8975.585
 30
-1997.933
 70
    32
  0
VERTEX
  8
W74LALIFT
 62
6
 10
2613.145
 20
-8969.645
 30
-1997.131
 70
    32
  0
VERTEX
  8
W74LALIFT
 62
6
 10
2605.732
 20
-8956.092
 30
-1993.940
 70
    32
  0
VERTEX
  8
W74LALIFT
 62
6
 10
2599.730
 20
-8919.627
 30
-1992.073
 70
    32
  0
VERTEX
  8
W74LALIFT
 62
6
 10
2616.117
 20
-8913.254
 30
-1991.711
 70
    32
  0
VERTEX
  8
W74LALIFT
 62
6
 10
2627.514
 20
-8912.098
 30
-1991.627
 70
    32
  0
VERTEX
  8
W74LALIFT
 62
6
 10
2626.776
 20
-8941.431
 30
-1992.328
 70
    32
  0
VERTEX
  8
W74LALIFT
 62
6
 10
2628.487
 20
-8962.275
 30
-1995.344
 70
    32
  0
VERTEX
  8
W74LALIFT
 62
6
 10
2635.011
 20
-8976.643
 30
-1999.567
 70
    32
  0
VERTEX
  8
W74LALIFT
 62
6
 10
2641.074
 20
-8986.671
 30
-2000.022
 70
    32
  0
VERTEX
  8
W74LALIFT
 62
6
 10
2641.200
 20
-8994.190
 30
-2003.659
 70
    32
  0
VERTEX
  8
W74LALIFT
 62
6
 10
2641.749
 20
-9002.283
 30
-2003.659
 70
    32
  0
VERTEX
  8
W74LALIFT
 62
6
 10
2647.055
 20
-9006.550
 30
-2003.659
 70
    32
  0
VERTEX
  8
W74LALIFT
 62
6
 10
2647.110
 20
-9008.902
 30
-2002.531
 70
    32
  0
VERTEX
  8
W74LALIFT
 62
6
 10
2649.598
 20
-9016.054
 30
-2003.548
 70
    32
  0
VERTEX
  8
W74LALIFT
 62
6
 10
2650.607
 20
-9020.611
 30
-2003.051
 70
    32
  0
VERTEX
  8
W74LALIFT
 62
6
 10
2653.894
 20
-9025.135
 30
-2003.178
 70
    32
  0
VERTEX
  8
W74LALIFT
 62
6
 10
2655.478
 20
-9029.528
 30
-2002.788
 70
    32
  0
VERTEX
  8
W74LALIFT
 62
6
 10
2657.559
 20
-9036.394
 30
-2002.213
 70
    32
  0
VERTEX
  8
W74LALIFT
 62
6
 10
2651.938
 20
-9045.668
 30
-2002.758
 70
    32
  0
VERTEX
  8
W74LALIFT
 62
6
 10
2645.031
 20
-9047.681
 30
-2004.599
 70
    32
  0
VERTEX
  8
W74LALIFT
 62
6
 10
2639.070
 20
-9046.542
 30
-2006.501
 70
    32
  0
VERTEX
  8
W74LALIFT
 62
6
 10
2609.656
 20
-9066.776
 30
-2006.974
 70
    32
  0
VERTEX
  8
W74LALIFT
 62
6
 10
2610.054
 20
-9068.930
 30
-2005.989
 70
    32
  0
VERTEX
  8
W74LALIFT
 62
6
 10
2599.524
 20
-9072.064
 30
-2006.865
 70
    32
  0
VERTEX
  8
W74LALIFT
 62
6
 10
2594.143
 20
-9078.556
 30
-2004.621
 70
    32
  0
VERTEX
  8
W74LALIFT
 62
6
 10
2594.532
 20
-9085.799
 30
-2003.231
 70
    32
  0
VERTEX
  8
W74LALIFT
 62
6
 10
2592.204
 20
-9090.120
 30
-2003.069
 70
    32
  0
VERTEX
  8
W74LALIFT
 62
6
 10
2588.668
 20
-9102.477
 30
-2000.898
 70
    32
  0
VERTEX
  8
W74LALIFT
 62
6
 10
2586.466
 20
-9122.725
 30
-1997.833
 70
    32
  0
VERTEX
  8
W74LALIFT
 62
6
 10
2586.384
 20
-9123.981
 30
2003.000
 70
    32
  0
VERTEX
  8
W74LALIFT
 62
6
 10
2586.573
 20
-9132.058
 30
2003.000
 70
    32
  0
VERTEX
  8
W74LALIFT
 62
6
 10
2577.008
 20
-9133.979
 30
2003.000
 70
    32
  0
VERTEX
  8
W74LALIFT
 62
6
 10
2567.059
 20
-9131.863
 30
2003.000
 70
    32
  0
VERTEX
  8
W74LALIFT
 62
6
 10
2565.912
 20
-9122.249
 30
2003.000
 70
    32
  0
VERTEX
  8
W74LALIFT
 62
6
 10
2565.993
 20
-9121.104
 30
-1998.429
 70
    32
  0
VERTEX
  8
W74LALIFT
 62
6
 10
2566.099
 20
-9108.929
 30
-1997.507
 70
    32
  0
VERTEX
  8
W74LALIFT
 62
6
 10
2569.039
 20
-9094.930
 30
-1999.463
 70
    32
  0
VERTEX
  8
W74LALIFT
 62
6
 10
2569.579
 20
-9093.140
 30
-1998.080
 70
    32
  0
VERTEX
  8
W74LALIFT
 62
6
 10
2569.157
 20
-9078.450
 30
-2001.633
 70
    32
  0
VERTEX
  8
W74LALIFT
 62
6
 10
2566.971
 20
-9075.351
 30
-2000.709
 70
    32
  0
SEQEND
  8
W74LALIFT
  0
ENDSEC
  0
EOF
