999
********************************
999
*   DXF File - Entities Only   *
999
*        3D Data Format        *
999
*     Output from ENVISAGE     *
999
*     02-Jan-2008 11:29:01     *
999
********************************
  0
SECTION 
  2
HEADER
  9
$ACADVER
  1
AC1009
  9
$EXTMIN
 10
-290000.000
 20
-250000.000
 30
-4000.000
  9
$EXTMAX
 10
320000.000
 20
160000.000
 30
6000.000
  0
ENDSEC
  0
SECTION
  2
ENTITIES
  0
TEXT
  8
W72LASURC
 62
1
 10
2454.578
 20
-9320.411
 30
-1813.000
 40
3.000
  1
8-1-98
 50
216.402
 41
 1.0 
  0
LINE
  8
W72LASURC
 62
1
 10
2477.018
 20
-9306.925
 30
-1813.000
 11
2448.756
 21
-9328.875
 31
-1813.000
  0
TEXT
  8
W72LASURC
 62
1
 10
1513.396
 20
-6043.976
 30
1000.000
 40
2.362
  1
2-1-99
 50
-3.742
 41
 1.0 
  0
TEXT
  8
W72LASURC
 62
1
 10
1553.743
 20
-6006.848
 30
1000.000
 40
2.362
  1
2-1-99
 50
11.959
 41
 1.0 
  0
TEXT
  8
W72LASURC
 62
1
 10
1584.791
 20
-5978.883
 30
1000.000
 40
2.362
  1
2-1-99
 50
27.008
 41
 1.0 
  0
POLYLINE
  8
W72LASURC
 62
1
 66
     1
 70
     8
  0
VERTEX
  8
W72LASURC
 62
1
 10
1542.348
 20
-6073.181
 30
-1912.800
 70
    32
  0
VERTEX
  8
W72LASURC
 62
1
 10
1533.505
 20
-6070.203
 30
-1912.600
 70
    32
  0
VERTEX
  8
W72LASURC
 62
1
 10
1533.457
 20
-6057.730
 30
-1911.800
 70
    32
  0
VERTEX
  8
W72LASURC
 62
1
 10
1538.681
 20
-6047.326
 30
-1911.800
 70
    32
  0
VERTEX
  8
W72LASURC
 62
1
 10
1518.282
 20
-6045.557
 30
-1911.800
 70
    32
  0
SEQEND
  8
W72LASURC
  0
POLYLINE
  8
W72LASURC
 62
1
 66
     1
 70
     8
  0
VERTEX
  8
W72LASURC
 62
1
 10
1531.082
 20
-6014.239
 30
-1910.333
 70
    32
  0
VERTEX
  8
W72LASURC
 62
1
 10
1539.179
 20
-6011.230
 30
-1910.330
 70
    32
  0
VERTEX
  8
W72LASURC
 62
1
 10
1552.523
 20
-6008.783
 30
-1910.330
 70
    32
  0
VERTEX
  8
W72LASURC
 62
1
 10
1565.563
 20
-6006.058
 30
-1910.330
 70
    32
  0
SEQEND
  8
W72LASURC
  0
POLYLINE
  8
W72LASURC
 62
1
 66
     1
 70
     8
  0
VERTEX
  8
W72LASURC
 62
1
 10
1564.628
 20
-5990.969
 30
-1911.200
 70
    32
  0
VERTEX
  8
W72LASURC
 62
1
 10
1582.941
 20
-5981.533
 30
-1911.200
 70
    32
  0
VERTEX
  8
W72LASURC
 62
1
 10
1596.454
 20
-5974.617
 30
-1911.200
 70
    32
  0
SEQEND
  8
W72LASURC
  0
LINE
  8
W72LASURC
 62
1
 10
1602.775
 20
-6213.799
 30
-1896.000
 11
1643.594
 21
-6186.755
 31
-1896.000
  0
TEXT
  8
W72LASURC
 62
1
 10
1645.903
 20
-6186.852
 30
-1896.000
 40
3.000
  1
12-1-98
 50
35.669
 41
 1.0 
  0
TEXT
  8
W72LASURC
 62
1
 10
1845.907
 20
-7008.996
 30
-1835.000
 40
2.362
  1
4-1-99
 50
-139.932
 41
 1.0 
  0
POLYLINE
  8
W72LASURC
 62
1
 66
     1
 70
     8
  0
VERTEX
  8
W72LASURC
 62
1
 10
1538.084
 20
-5947.971
 30
-1912.687
 70
    32
  0
VERTEX
  8
W72LASURC
 62
1
 10
1545.885
 20
-5941.861
 30
-1912.222
 70
    32
  0
VERTEX
  8
W72LASURC
 62
1
 10
1544.839
 20
-5933.044
 30
-1912.190
 70
    32
  0
VERTEX
  8
W72LASURC
 62
1
 10
1553.460
 20
-5927.692
 30
-1912.181
 70
    32
  0
VERTEX
  8
W72LASURC
 62
1
 10
1565.109
 20
-5923.705
 30
-1912.109
 70
    32
  0
VERTEX
  8
W72LASURC
 62
1
 10
1576.680
 20
-5923.143
 30
-1911.989
 70
    32
  0
VERTEX
  8
W72LASURC
 62
1
 10
1589.545
 20
-5927.299
 30
-1912.170
 70
    32
  0
VERTEX
  8
W72LASURC
 62
1
 10
1593.971
 20
-5931.205
 30
-1912.135
 70
    32
  0
VERTEX
  8
W72LASURC
 62
1
 10
1596.972
 20
-5935.260
 30
-1912.177
 70
    32
  0
VERTEX
  8
W72LASURC
 62
1
 10
1604.850
 20
-5935.212
 30
-1912.177
 70
    32
  0
SEQEND
  8
W72LASURC
  0
POLYLINE
  8
W72LASURC
 62
1
 66
     1
 70
     8
  0
VERTEX
  8
W72LASURC
 62
1
 10
1582.553
 20
-6095.880
 30
-1911.595
 70
    32
  0
VERTEX
  8
W72LASURC
 62
1
 10
1599.525
 20
-6083.809
 30
-1911.599
 70
    32
  0
VERTEX
  8
W72LASURC
 62
1
 10
1608.357
 20
-6082.729
 30
-1911.599
 70
    32
  0
SEQEND
  8
W72LASURC
  0
POLYLINE
  8
W72LASURC
 62
1
 66
     1
 70
     8
  0
VERTEX
  8
W72LASURC
 62
1
 10
1590.626
 20
-6108.112
 30
-1911.254
 70
    32
  0
VERTEX
  8
W72LASURC
 62
1
 10
1599.589
 20
-6109.053
 30
-1911.316
 70
    32
  0
VERTEX
  8
W72LASURC
 62
1
 10
1606.997
 20
-6107.936
 30
-1943.000
 70
    32
  0
VERTEX
  8
W72LASURC
 62
1
 10
1618.199
 20
-6107.073
 30
-1943.000
 70
    32
  0
SEQEND
  8
W72LASURC
  0
TEXT
  8
W72LASURC
 62
1
 10
1621.714
 20
-6107.495
 30
-1911.000
 40
2.362
  1
4-1-99
 50
2.162
 41
 1.0 
  0
TEXT
  8
W72LASURC
 62
1
 10
1612.013
 20
-6083.011
 30
-1911.000
 40
2.362
  1
2-1-99
 50
1.221
 41
 1.0 
  0
TEXT
  8
W72LASURC
 62
1
 10
1607.474
 20
-5935.503
 30
-1911.000
 40
2.362
  1
4-1-99
 41
 1.0 
  0
TEXT
  8
W72LASURC
 62
1
 10
1529.348
 20
-5908.537
 30
-1911.000
 40
2.362
  1
4-1-99
 50
6.075
 41
 1.0 
  0
POLYLINE
  8
W72LASURC
 62
1
 66
     1
 70
     8
  0
VERTEX
  8
W72LASURC
 62
1
 10
1502.225
 20
-5985.104
 30
-1908.400
 70
    32
  0
VERTEX
  8
W72LASURC
 62
1
 10
1503.649
 20
-5979.736
 30
-1911.291
 70
    32
  0
VERTEX
  8
W72LASURC
 62
1
 10
1500.600
 20
-5961.476
 30
-1913.930
 70
    32
  0
VERTEX
  8
W72LASURC
 62
1
 10
1498.793
 20
-5942.193
 30
-1913.900
 70
    32
  0
VERTEX
  8
W72LASURC
 62
1
 10
1495.022
 20
-5937.529
 30
-1913.777
 70
    32
  0
VERTEX
  8
W72LASURC
 62
1
 10
1507.492
 20
-5928.574
 30
-1913.404
 70
    32
  0
VERTEX
  8
W72LASURC
 62
1
 10
1503.777
 20
-5913.578
 30
-1915.820
 70
    32
  0
VERTEX
  8
W72LASURC
 62
1
 10
1518.576
 20
-5909.997
 30
-1917.099
 70
    32
  0
VERTEX
  8
W72LASURC
 62
1
 10
1525.167
 20
-5909.150
 30
-1917.537
 70
    32
  0
VERTEX
  8
W72LASURC
 62
1
 10
1534.116
 20
-5931.766
 30
-1913.911
 70
    32
  0
VERTEX
  8
W72LASURC
 62
1
 10
1535.689
 20
-5940.524
 30
-1913.591
 70
    32
  0
VERTEX
  8
W72LASURC
 62
1
 10
1528.401
 20
-5942.668
 30
-1913.710
 70
    32
  0
VERTEX
  8
W72LASURC
 62
1
 10
1525.928
 20
-5950.959
 30
-1913.948
 70
    32
  0
VERTEX
  8
W72LASURC
 62
1
 10
1529.651
 20
-5956.630
 30
-1913.927
 70
    32
  0
VERTEX
  8
W72LASURC
 62
1
 10
1535.142
 20
-5968.572
 30
-1914.701
 70
    32
  0
VERTEX
  8
W72LASURC
 62
1
 10
1521.931
 20
-5979.721
 30
-1912.384
 70
    32
  0
VERTEX
  8
W72LASURC
 62
1
 10
1509.550
 20
-5991.234
 30
-1908.400
 70
    32
  0
SEQEND
  8
W72LASURC
  0
POLYLINE
  8
W72LASURC
 62
6
 66
     1
 70
     9
  0
VERTEX
  8
W72LASURC
 62
6
 10
2428.909
 20
-9281.994
 30
-1807.591
 70
    32
  0
VERTEX
  8
W72LASURC
 62
6
 10
2430.763
 20
-9285.435
 30
-1807.563
 70
    32
  0
VERTEX
  8
W72LASURC
 62
6
 10
2435.419
 20
-9301.186
 30
-1805.171
 70
    32
  0
VERTEX
  8
W72LASURC
 62
6
 10
2434.958
 20
-9313.961
 30
-1803.519
 70
    32
  0
VERTEX
  8
W72LASURC
 62
6
 10
2448.624
 20
-9319.123
 30
-1801.867
 70
    32
  0
VERTEX
  8
W72LASURC
 62
6
 10
2456.059
 20
-9336.560
 30
-1800.807
 70
    32
  0
VERTEX
  8
W72LASURC
 62
6
 10
2461.763
 20
-9351.957
 30
-1799.900
 70
    32
  0
VERTEX
  8
W72LASURC
 62
6
 10
2461.763
 20
-9351.957
 30
-1800.291
 70
    32
  0
VERTEX
  8
W72LASURC
 62
6
 10
2463.576
 20
-9353.875
 30
-1800.328
 70
    32
  0
VERTEX
  8
W72LASURC
 62
6
 10
2468.813
 20
-9370.817
 30
-1800.588
 70
    32
  0
VERTEX
  8
W72LASURC
 62
6
 10
2480.135
 20
-9372.002
 30
-1800.675
 70
    32
  0
VERTEX
  8
W72LASURC
 62
6
 10
2482.645
 20
-9377.067
 30
-1800.652
 70
    32
  0
VERTEX
  8
W72LASURC
 62
6
 10
2481.692
 20
-9389.268
 30
-1800.625
 70
    32
  0
VERTEX
  8
W72LASURC
 62
6
 10
2487.833
 20
-9400.950
 30
-1800.446
 70
    32
  0
VERTEX
  8
W72LASURC
 62
6
 10
2498.667
 20
-9419.024
 30
-1800.052
 70
    32
  0
VERTEX
  8
W72LASURC
 62
6
 10
2515.183
 20
-9416.277
 30
-1800.005
 70
    32
  0
VERTEX
  8
W72LASURC
 62
6
 10
2513.543
 20
-9402.939
 30
-1800.259
 70
    32
  0
VERTEX
  8
W72LASURC
 62
6
 10
2506.370
 20
-9382.502
 30
-1800.621
 70
    32
  0
VERTEX
  8
W72LASURC
 62
6
 10
2498.364
 20
-9361.675
 30
-1800.674
 70
    32
  0
VERTEX
  8
W72LASURC
 62
6
 10
2485.874
 20
-9344.546
 30
-1800.343
 70
    32
  0
VERTEX
  8
W72LASURC
 62
6
 10
2484.060
 20
-9336.138
 30
-1799.853
 70
    32
  0
VERTEX
  8
W72LASURC
 62
6
 10
2471.933
 20
-9316.728
 30
-1801.167
 70
    32
  0
VERTEX
  8
W72LASURC
 62
6
 10
2467.814
 20
-9301.255
 30
-1802.320
 70
    32
  0
VERTEX
  8
W72LASURC
 62
6
 10
2463.037
 20
-9288.999
 30
-1804.362
 70
    32
  0
VERTEX
  8
W72LASURC
 62
6
 10
2449.384
 20
-9271.987
 30
-1807.596
 70
    32
  0
SEQEND
  8
W72LASURC
  0
POLYLINE
  8
W72LASURC
 62
6
 66
     1
 70
     9
  0
VERTEX
  8
W72LASURC
 62
6
 10
2486.305
 20
-9283.367
 30
-1803.956
 70
    32
  0
VERTEX
  8
W72LASURC
 62
6
 10
2486.439
 20
-9283.369
 30
-1803.951
 70
    32
  0
VERTEX
  8
W72LASURC
 62
6
 10
2491.395
 20
-9287.188
 30
-1803.163
 70
    32
  0
VERTEX
  8
W72LASURC
 62
6
 10
2499.291
 20
-9299.212
 30
-1803.131
 70
    32
  0
VERTEX
  8
W72LASURC
 62
6
 10
2500.475
 20
-9304.588
 30
-1803.119
 70
    32
  0
VERTEX
  8
W72LASURC
 62
6
 10
2508.678
 20
-9311.888
 30
-1803.097
 70
    32
  0
VERTEX
  8
W72LASURC
 62
6
 10
2514.973
 20
-9325.926
 30
-1803.063
 70
    32
  0
VERTEX
  8
W72LASURC
 62
6
 10
2528.472
 20
-9318.381
 30
-1803.063
 70
    32
  0
VERTEX
  8
W72LASURC
 62
6
 10
2523.589
 20
-9309.432
 30
-1803.086
 70
    32
  0
VERTEX
  8
W72LASURC
 62
6
 10
2516.703
 20
-9301.486
 30
-1803.109
 70
    32
  0
VERTEX
  8
W72LASURC
 62
6
 10
2509.360
 20
-9290.201
 30
-1803.138
 70
    32
  0
VERTEX
  8
W72LASURC
 62
6
 10
2506.739
 20
-9280.533
 30
-1803.929
 70
    32
  0
VERTEX
  8
W72LASURC
 62
6
 10
2502.978
 20
-9277.857
 30
-1803.954
 70
    32
  0
VERTEX
  8
W72LASURC
 62
6
 10
2495.205
 20
-9270.619
 30
-1804.016
 70
    32
  0
VERTEX
  8
W72LASURC
 62
6
 10
2495.160
 20
-9270.693
 30
-1803.969
 70
    32
  0
VERTEX
  8
W72LASURC
 62
6
 10
2480.431
 20
-9272.167
 30
-1805.066
 70
    32
  0
SEQEND
  8
W72LASURC
  0
POLYLINE
  8
W72LASURC
 62
6
 66
     1
 70
     9
  0
VERTEX
  8
W72LASURC
 62
6
 10
1821.250
 20
-7055.928
 30
-1834.992
 70
    32
  0
VERTEX
  8
W72LASURC
 62
6
 10
1831.718
 20
-7058.948
 30
-1834.755
 70
    32
  0
VERTEX
  8
W72LASURC
 62
6
 10
1839.172
 20
-7057.650
 30
-1834.624
 70
    32
  0
VERTEX
  8
W72LASURC
 62
6
 10
1843.210
 20
-7053.212
 30
-1834.596
 70
    32
  0
VERTEX
  8
W72LASURC
 62
6
 10
1842.864
 20
-7045.370
 30
-1834.692
 70
    32
  0
VERTEX
  8
W72LASURC
 62
6
 10
1831.674
 20
-7042.540
 30
-1834.941
 70
    32
  0
VERTEX
  8
W72LASURC
 62
6
 10
1827.400
 20
-7039.839
 30
-1835.054
 70
    32
  0
VERTEX
  8
W72LASURC
 62
6
 10
1824.944
 20
-7032.805
 30
-1835.178
 70
    32
  0
VERTEX
  8
W72LASURC
 62
6
 10
1822.229
 20
-7039.684
 30
-1835.116
 70
    32
  0
VERTEX
  8
W72LASURC
 62
6
 10
1820.378
 20
-7047.963
 30
-1835.054
 70
    32
  0
SEQEND
  8
W72LASURC
  0
POLYLINE
  8
W72LASURC
 62
1
 66
     1
 70
     8
  0
VERTEX
  8
W72LASURC
 62
1
 10
1835.384
 20
-7019.686
 30
-1835.000
 70
    32
  0
VERTEX
  8
W72LASURC
 62
1
 10
1826.285
 20
-7029.039
 30
-1835.000
 70
    32
  0
VERTEX
  8
W72LASURC
 62
1
 10
1822.190
 20
-7039.759
 30
-1835.000
 70
    32
  0
VERTEX
  8
W72LASURC
 62
1
 10
1820.598
 20
-7047.971
 30
-1835.000
 70
    32
  0
VERTEX
  8
W72LASURC
 62
1
 10
1808.313
 20
-7052.305
 30
-1835.000
 70
    32
  0
SEQEND
  8
W72LASURC
  0
POLYLINE
  8
W72LASURC
 62
6
 66
     1
 70
     9
  0
VERTEX
  8
W72LASURC
 62
6
 10
2497.787
 20
-9419.137
 30
-1801.098
 70
    32
  0
VERTEX
  8
W72LASURC
 62
6
 10
2509.434
 20
-9439.601
 30
-1802.727
 70
    32
  0
VERTEX
  8
W72LASURC
 62
6
 10
2518.806
 20
-9438.136
 30
-1802.686
 70
    32
  0
VERTEX
  8
W72LASURC
 62
6
 10
2527.247
 20
-9433.778
 30
-1802.697
 70
    32
  0
VERTEX
  8
W72LASURC
 62
6
 10
2517.245
 20
-9412.950
 30
-1800.095
 70
    32
  0
VERTEX
  8
W72LASURC
 62
6
 10
2513.543
 20
-9402.939
 30
-1800.259
 70
    32
  0
VERTEX
  8
W72LASURC
 62
6
 10
2515.183
 20
-9416.277
 30
-1800.005
 70
    32
  0
SEQEND
  8
W72LASURC
  0
POLYLINE
  8
W72LASURC
 62
6
 66
     1
 70
     9
  0
VERTEX
  8
W72LASURC
 62
6
 10
2524.379
 20
-9309.670
 30
-1802.779
 70
    32
  0
VERTEX
  8
W72LASURC
 62
6
 10
2534.616
 20
-9323.878
 30
-1802.090
 70
    32
  0
VERTEX
  8
W72LASURC
 62
6
 10
2534.442
 20
-9327.547
 30
-1801.892
 70
    32
  0
VERTEX
  8
W72LASURC
 62
6
 10
2532.100
 20
-9329.422
 30
-1801.832
 70
    32
  0
VERTEX
  8
W72LASURC
 62
6
 10
2531.252
 20
-9336.490
 30
-1801.556
 70
    32
  0
VERTEX
  8
W72LASURC
 62
6
 10
2534.156
 20
-9349.142
 30
-1802.138
 70
    32
  0
VERTEX
  8
W72LASURC
 62
6
 10
2540.215
 20
-9360.945
 30
-1802.931
 70
    32
  0
VERTEX
  8
W72LASURC
 62
6
 10
2541.819
 20
-9369.493
 30
-1803.390
 70
    32
  0
VERTEX
  8
W72LASURC
 62
6
 10
2528.430
 20
-9376.255
 30
-1803.367
 70
    32
  0
VERTEX
  8
W72LASURC
 62
6
 10
2518.501
 20
-9361.857
 30
-1802.404
 70
    32
  0
VERTEX
  8
W72LASURC
 62
6
 10
2516.065
 20
-9341.180
 30
-1801.581
 70
    32
  0
VERTEX
  8
W72LASURC
 62
6
 10
2513.122
 20
-9335.306
 30
-1801.850
 70
    32
  0
VERTEX
  8
W72LASURC
 62
6
 10
2512.711
 20
-9323.422
 30
-1802.507
 70
    32
  0
VERTEX
  8
W72LASURC
 62
6
 10
2510.980
 20
-9317.849
 30
-1802.515
 70
    32
  0
VERTEX
  8
W72LASURC
 62
6
 10
2515.228
 20
-9325.701
 30
-1802.647
 70
    32
  0
VERTEX
  8
W72LASURC
 62
6
 10
2527.974
 20
-9318.831
 30
-1802.713
 70
    32
  0
SEQEND
  8
W72LASURC
  0
POLYLINE
  8
W72LASURC
 62
6
 66
     1
 70
     9
  0
VERTEX
  8
W72LASURC
 62
6
 10
2456.949
 20
-8842.610
 30
-1859.208
 70
    32
  0
VERTEX
  8
W72LASURC
 62
6
 10
2438.108
 20
-8826.472
 30
-1865.053
 70
    32
  0
VERTEX
  8
W72LASURC
 62
6
 10
2433.167
 20
-8810.225
 30
-1868.089
 70
    32
  0
VERTEX
  8
W72LASURC
 62
6
 10
2425.592
 20
-8798.057
 30
-1869.927
 70
    32
  0
VERTEX
  8
W72LASURC
 62
6
 10
2412.798
 20
-8786.210
 30
-1870.893
 70
    32
  0
VERTEX
  8
W72LASURC
 62
6
 10
2404.551
 20
-8780.840
 30
-1870.568
 70
    32
  0
VERTEX
  8
W72LASURC
 62
6
 10
2397.325
 20
-8762.251
 30
-1869.917
 70
    32
  0
VERTEX
  8
W72LASURC
 62
6
 10
2404.079
 20
-8756.302
 30
-1869.912
 70
    32
  0
VERTEX
  8
W72LASURC
 62
6
 10
2411.598
 20
-8757.957
 30
-1870.123
 70
    32
  0
VERTEX
  8
W72LASURC
 62
6
 10
2420.339
 20
-8766.275
 30
-1870.537
 70
    32
  0
VERTEX
  8
W72LASURC
 62
6
 10
2428.593
 20
-8777.766
 30
-1871.023
 70
    32
  0
VERTEX
  8
W72LASURC
 62
6
 10
2440.434
 20
-8797.844
 30
-1868.740
 70
    32
  0
VERTEX
  8
W72LASURC
 62
6
 10
2448.890
 20
-8814.947
 30
-1865.452
 70
    32
  0
VERTEX
  8
W72LASURC
 62
6
 10
2457.970
 20
-8828.078
 30
-1861.670
 70
    32
  0
VERTEX
  8
W72LASURC
 62
6
 10
2463.556
 20
-8834.123
 30
-1859.710
 70
    32
  0
SEQEND
  8
W72LASURC
  0
POLYLINE
  8
W72LASURC
 62
6
 66
     1
 70
     9
  0
VERTEX
  8
W72LASURC
 62
6
 10
2419.110
 20
-8889.499
 30
-1840.890
 70
    32
  0
VERTEX
  8
W72LASURC
 62
6
 10
2426.951
 20
-8891.120
 30
-1839.691
 70
    32
  0
VERTEX
  8
W72LASURC
 62
6
 10
2432.069
 20
-8891.707
 30
-1838.946
 70
    32
  0
VERTEX
  8
W72LASURC
 62
6
 10
2429.426
 20
-8901.155
 30
-1838.561
 70
    32
  0
VERTEX
  8
W72LASURC
 62
6
 10
2423.087
 20
-8899.704
 30
-1839.542
 70
    32
  0
VERTEX
  8
W72LASURC
 62
6
 10
2415.905
 20
-8899.177
 30
-1840.564
 70
    32
  0
SEQEND
  8
W72LASURC
  0
POLYLINE
  8
W72LASURC
 62
1
 66
     1
 70
     9
  0
VERTEX
  8
W72LASURC
 62
1
 10
2505.901
 20
-9302.495
 30
-1819.239
 70
    32
  0
VERTEX
  8
W72LASURC
 62
1
 10
2504.131
 20
-9303.632
 30
-1819.350
 70
    32
  0
VERTEX
  8
W72LASURC
 62
1
 10
2510.753
 20
-9314.020
 30
-1820.344
 70
    32
  0
VERTEX
  8
W72LASURC
 62
1
 10
2515.938
 20
-9324.727
 30
-1821.718
 70
    32
  0
VERTEX
  8
W72LASURC
 62
1
 10
2515.866
 20
-9331.685
 30
-1823.485
 70
    32
  0
VERTEX
  8
W72LASURC
 62
1
 10
2517.094
 20
-9337.997
 30
-1825.090
 70
    32
  0
VERTEX
  8
W72LASURC
 62
1
 10
2518.323
 20
-9344.309
 30
-1825.995
 70
    32
  0
VERTEX
  8
W72LASURC
 62
1
 10
2519.551
 20
-9350.621
 30
-1822.699
 70
    32
  0
VERTEX
  8
W72LASURC
 62
1
 10
2521.771
 20
-9359.288
 30
-1815.570
 70
    32
  0
VERTEX
  8
W72LASURC
 62
1
 10
2530.508
 20
-9358.961
 30
-1815.160
 70
    32
  0
VERTEX
  8
W72LASURC
 62
1
 10
2537.795
 20
-9357.201
 30
-1815.842
 70
    32
  0
VERTEX
  8
W72LASURC
 62
1
 10
2534.354
 20
-9348.042
 30
-1822.399
 70
    32
  0
VERTEX
  8
W72LASURC
 62
1
 10
2533.519
 20
-9342.938
 30
-1825.979
 70
    32
  0
VERTEX
  8
W72LASURC
 62
1
 10
2533.016
 20
-9334.722
 30
-1825.035
 70
    32
  0
VERTEX
  8
W72LASURC
 62
1
 10
2532.020
 20
-9326.801
 30
-1823.808
 70
    32
  0
VERTEX
  8
W72LASURC
 62
1
 10
2523.890
 20
-9310.674
 30
-1818.908
 70
    32
  0
VERTEX
  8
W72LASURC
 62
1
 10
2514.382
 20
-9297.049
 30
-1818.707
 70
    32
  0
VERTEX
  8
W72LASURC
 62
1
 10
2512.424
 20
-9298.306
 30
-1818.830
 70
    32
  0
SEQEND
  8
W72LASURC
  0
POLYLINE
  8
W72LASURC
 62
1
 66
     1
 70
     9
  0
VERTEX
  8
W72LASURC
 62
1
 10
1843.997
 20
-7044.945
 30
-1833.915
 70
    32
  0
VERTEX
  8
W72LASURC
 62
1
 10
1843.441
 20
-7057.172
 30
-1832.988
 70
    32
  0
VERTEX
  8
W72LASURC
 62
1
 10
1848.241
 20
-7066.663
 30
-1832.655
 70
    32
  0
VERTEX
  8
W72LASURC
 62
1
 10
1838.729
 20
-7071.724
 30
-1832.826
 70
    32
  0
VERTEX
  8
W72LASURC
 62
1
 10
1830.707
 20
-7064.839
 30
-1833.341
 70
    32
  0
VERTEX
  8
W72LASURC
 62
1
 10
1825.520
 20
-7062.353
 30
-1834.259
 70
    32
  0
VERTEX
  8
W72LASURC
 62
1
 10
1821.140
 20
-7059.734
 30
-1834.495
 70
    32
  0
VERTEX
  8
W72LASURC
 62
1
 10
1821.140
 20
-7055.896
 30
-1834.398
 70
    32
  0
VERTEX
  8
W72LASURC
 62
1
 10
1831.776
 20
-7058.954
 30
-1834.302
 70
    32
  0
VERTEX
  8
W72LASURC
 62
1
 10
1839.114
 20
-7057.674
 30
-1834.205
 70
    32
  0
VERTEX
  8
W72LASURC
 62
1
 10
1843.157
 20
-7053.213
 30
-1834.108
 70
    32
  0
VERTEX
  8
W72LASURC
 62
1
 10
1842.846
 20
-7045.381
 30
-1834.012
 70
    32
  0
SEQEND
  8
W72LASURC
  0
POLYLINE
  8
W72LASURC
 62
1
 66
     1
 70
     9
  0
VERTEX
  8
W72LASURC
 62
1
 10
1483.516
 20
-5868.813
 30
-1916.264
 70
    32
  0
VERTEX
  8
W72LASURC
 62
1
 10
1476.776
 20
-5859.050
 30
-1917.346
 70
    32
  0
VERTEX
  8
W72LASURC
 62
1
 10
1470.087
 20
-5853.735
 30
-1916.829
 70
    32
  0
VERTEX
  8
W72LASURC
 62
1
 10
1462.484
 20
-5846.447
 30
-1917.409
 70
    32
  0
VERTEX
  8
W72LASURC
 62
1
 10
1450.236
 20
-5826.646
 30
-1917.382
 70
    32
  0
VERTEX
  8
W72LASURC
 62
1
 10
1451.325
 20
-5822.115
 30
-1916.710
 70
    32
  0
VERTEX
  8
W72LASURC
 62
1
 10
1450.759
 20
-5815.519
 30
-1914.216
 70
    32
  0
VERTEX
  8
W72LASURC
 62
1
 10
1441.671
 20
-5800.813
 30
-1914.352
 70
    32
  0
VERTEX
  8
W72LASURC
 62
1
 10
1460.623
 20
-5790.562
 30
-1913.211
 70
    32
  0
VERTEX
  8
W72LASURC
 62
1
 10
1465.997
 20
-5807.270
 30
-1913.030
 70
    32
  0
VERTEX
  8
W72LASURC
 62
1
 10
1468.592
 20
-5814.267
 30
-1913.609
 70
    32
  0
VERTEX
  8
W72LASURC
 62
1
 10
1472.454
 20
-5829.553
 30
-1917.055
 70
    32
  0
VERTEX
  8
W72LASURC
 62
1
 10
1482.102
 20
-5846.495
 30
-1916.408
 70
    32
  0
VERTEX
  8
W72LASURC
 62
1
 10
1488.325
 20
-5852.553
 30
-1916.630
 70
    32
  0
VERTEX
  8
W72LASURC
 62
1
 10
1496.764
 20
-5855.787
 30
-1916.360
 70
    32
  0
VERTEX
  8
W72LASURC
 62
1
 10
1483.516
 20
-5853.761
 30
-1916.336
 70
    32
  0
VERTEX
  8
W72LASURC
 62
1
 10
1482.652
 20
-5858.682
 30
-1916.312
 70
    32
  0
VERTEX
  8
W72LASURC
 62
1
 10
1483.372
 20
-5864.182
 30
-1916.288
 70
    32
  0
SEQEND
  8
W72LASURC
  0
POLYLINE
  8
W72LASURC
 62
1
 66
     1
 70
     9
  0
VERTEX
  8
W72LASURC
 62
1
 10
1443.424
 20
-5799.879
 30
-1915.666
 70
    32
  0
VERTEX
  8
W72LASURC
 62
1
 10
1443.999
 20
-5796.549
 30
-1915.277
 70
    32
  0
VERTEX
  8
W72LASURC
 62
1
 10
1434.919
 20
-5775.201
 30
-1915.589
 70
    32
  0
VERTEX
  8
W72LASURC
 62
1
 10
1422.909
 20
-5753.765
 30
-1914.368
 70
    32
  0
VERTEX
  8
W72LASURC
 62
1
 10
1439.827
 20
-5748.594
 30
-1912.504
 70
    32
  0
VERTEX
  8
W72LASURC
 62
1
 10
1454.708
 20
-5774.488
 30
-1915.289
 70
    32
  0
VERTEX
  8
W72LASURC
 62
1
 10
1461.683
 20
-5785.443
 30
-1913.367
 70
    32
  0
VERTEX
  8
W72LASURC
 62
1
 10
1467.199
 20
-5799.126
 30
-1912.077
 70
    32
  0
VERTEX
  8
W72LASURC
 62
1
 10
1471.196
 20
-5809.949
 30
-1912.950
 70
    32
  0
VERTEX
  8
W72LASURC
 62
1
 10
1470.764
 20
-5823.403
 30
-1916.203
 70
    32
  0
VERTEX
  8
W72LASURC
 62
1
 10
1468.421
 20
-5814.150
 30
-1916.069
 70
    32
  0
VERTEX
  8
W72LASURC
 62
1
 10
1465.765
 20
-5807.407
 30
-1915.935
 70
    32
  0
VERTEX
  8
W72LASURC
 62
1
 10
1460.609
 20
-5790.782
 30
-1915.801
 70
    32
  0
SEQEND
  8
W72LASURC
  0
POLYLINE
  8
W72LASURC
 62
1
 66
     1
 70
     9
  0
VERTEX
  8
W72LASURC
 62
1
 10
1422.964
 20
-5753.767
 30
-1914.384
 70
    32
  0
VERTEX
  8
W72LASURC
 62
1
 10
1423.146
 20
-5741.151
 30
-1915.256
 70
    32
  0
VERTEX
  8
W72LASURC
 62
1
 10
1427.105
 20
-5728.399
 30
-1913.549
 70
    32
  0
VERTEX
  8
W72LASURC
 62
1
 10
1436.486
 20
-5739.254
 30
-1914.652
 70
    32
  0
VERTEX
  8
W72LASURC
 62
1
 10
1446.404
 20
-5758.015
 30
-1914.652
 70
    32
  0
VERTEX
  8
W72LASURC
 62
1
 10
1448.501
 20
-5763.817
 30
-1914.651
 70
    32
  0
VERTEX
  8
W72LASURC
 62
1
 10
1439.866
 20
-5748.642
 30
-1914.518
 70
    32
  0
SEQEND
  8
W72LASURC
  0
POLYLINE
  8
W72LASURC
 62
1
 66
     1
 70
     9
  0
VERTEX
  8
W72LASURC
 62
1
 10
2385.692
 20
-8735.106
 30
-1815.187
 70
    32
  0
VERTEX
  8
W72LASURC
 62
1
 10
2374.053
 20
-8729.412
 30
-1814.152
 70
    32
  0
VERTEX
  8
W72LASURC
 62
1
 10
2365.519
 20
-8716.112
 30
-1811.482
 70
    32
  0
VERTEX
  8
W72LASURC
 62
1
 10
2358.914
 20
-8717.874
 30
-1811.647
 70
    32
  0
VERTEX
  8
W72LASURC
 62
1
 10
2350.949
 20
-8723.455
 30
-1812.121
 70
    32
  0
VERTEX
  8
W72LASURC
 62
1
 10
2344.674
 20
-8735.629
 30
-1813.327
 70
    32
  0
VERTEX
  8
W72LASURC
 62
1
 10
2350.675
 20
-8750.541
 30
-1815.495
 70
    32
  0
VERTEX
  8
W72LASURC
 62
1
 10
2363.967
 20
-8757.416
 30
-1817.261
 70
    32
  0
VERTEX
  8
W72LASURC
 62
1
 10
2395.011
 20
-8772.702
 30
-1815.460
 70
    32
  0
VERTEX
  8
W72LASURC
 62
1
 10
2380.535
 20
-8755.133
 30
-1815.392
 70
    32
  0
VERTEX
  8
W72LASURC
 62
1
 10
2386.777
 20
-8746.940
 30
-1815.324
 70
    32
  0
VERTEX
  8
W72LASURC
 62
1
 10
2382.525
 20
-8737.473
 30
-1815.255
 70
    32
  0
SEQEND
  8
W72LASURC
  0
POLYLINE
  8
W72LASURC
 62
1
 66
     1
 70
     9
  0
VERTEX
  8
W72LASURC
 62
1
 10
2394.950
 20
-8759.469
 30
-1801.806
 70
    32
  0
VERTEX
  8
W72LASURC
 62
1
 10
2393.281
 20
-8756.050
 30
-1801.418
 70
    32
  0
VERTEX
  8
W72LASURC
 62
1
 10
2388.166
 20
-8748.945
 30
-1800.065
 70
    32
  0
VERTEX
  8
W72LASURC
 62
1
 10
2379.497
 20
-8742.177
 30
-1801.875
 70
    32
  0
VERTEX
  8
W72LASURC
 62
1
 10
2373.467
 20
-8733.365
 30
-1801.317
 70
    32
  0
VERTEX
  8
W72LASURC
 62
1
 10
2362.292
 20
-8718.447
 30
-1798.928
 70
    32
  0
VERTEX
  8
W72LASURC
 62
1
 10
2356.416
 20
-8723.710
 30
-1800.038
 70
    32
  0
VERTEX
  8
W72LASURC
 62
1
 10
2350.429
 20
-8724.329
 30
-1798.929
 70
    32
  0
VERTEX
  8
W72LASURC
 62
1
 10
2344.849
 20
-8722.808
 30
-1800.734
 70
    32
  0
VERTEX
  8
W72LASURC
 62
1
 10
2343.402
 20
-8717.941
 30
-1801.288
 70
    32
  0
VERTEX
  8
W72LASURC
 62
1
 10
2340.714
 20
-8712.566
 30
-1800.861
 70
    32
  0
VERTEX
  8
W72LASURC
 62
1
 10
2334.795
 20
-8714.412
 30
-1800.499
 70
    32
  0
VERTEX
  8
W72LASURC
 62
1
 10
2333.081
 20
-8717.249
 30
-1803.995
 70
    32
  0
VERTEX
  8
W72LASURC
 62
1
 10
2332.769
 20
-8722.780
 30
-1803.771
 70
    32
  0
VERTEX
  8
W72LASURC
 62
1
 10
2333.571
 20
-8726.277
 30
-1800.639
 70
    32
  0
VERTEX
  8
W72LASURC
 62
1
 10
2334.242
 20
-8732.600
 30
-1802.594
 70
    32
  0
VERTEX
  8
W72LASURC
 62
1
 10
2337.210
 20
-8737.525
 30
-1802.780
 70
    32
  0
VERTEX
  8
W72LASURC
 62
1
 10
2341.837
 20
-8746.651
 30
-1798.210
 70
    32
  0
VERTEX
  8
W72LASURC
 62
1
 10
2350.259
 20
-8751.509
 30
-1801.744
 70
    32
  0
VERTEX
  8
W72LASURC
 62
1
 10
2348.692
 20
-8746.004
 30
-1801.749
 70
    32
  0
VERTEX
  8
W72LASURC
 62
1
 10
2349.358
 20
-8740.382
 30
-1801.754
 70
    32
  0
VERTEX
  8
W72LASURC
 62
1
 10
2354.442
 20
-8737.780
 30
-1801.759
 70
    32
  0
VERTEX
  8
W72LASURC
 62
1
 10
2365.193
 20
-8745.165
 30
-1801.764
 70
    32
  0
VERTEX
  8
W72LASURC
 62
1
 10
2372.277
 20
-8746.340
 30
-1801.770
 70
    32
  0
VERTEX
  8
W72LASURC
 62
1
 10
2374.194
 20
-8744.913
 30
-1801.775
 70
    32
  0
VERTEX
  8
W72LASURC
 62
1
 10
2376.694
 20
-8744.410
 30
-1801.780
 70
    32
  0
VERTEX
  8
W72LASURC
 62
1
 10
2382.611
 20
-8750.200
 30
-1801.785
 70
    32
  0
VERTEX
  8
W72LASURC
 62
1
 10
2387.861
 20
-8751.291
 30
-1801.791
 70
    32
  0
VERTEX
  8
W72LASURC
 62
1
 10
2390.612
 20
-8754.899
 30
-1801.796
 70
    32
  0
VERTEX
  8
W72LASURC
 62
1
 10
2392.779
 20
-8757.585
 30
-1801.801
 70
    32
  0
SEQEND
  8
W72LASURC
  0
POLYLINE
  8
W72LASURC
 62
1
 66
     1
 70
     9
  0
VERTEX
  8
W72LASURC
 62
1
 10
1382.613
 20
-5637.112
 30
-1922.706
 70
    32
  0
VERTEX
  8
W72LASURC
 62
1
 10
1379.815
 20
-5633.106
 30
-1923.707
 70
    32
  0
VERTEX
  8
W72LASURC
 62
1
 10
1374.063
 20
-5632.835
 30
-1922.477
 70
    32
  0
VERTEX
  8
W72LASURC
 62
1
 10
1369.892
 20
-5629.833
 30
-1924.166
 70
    32
  0
VERTEX
  8
W72LASURC
 62
1
 10
1364.787
 20
-5622.775
 30
-1925.027
 70
    32
  0
VERTEX
  8
W72LASURC
 62
1
 10
1361.025
 20
-5604.503
 30
-1925.814
 70
    32
  0
VERTEX
  8
W72LASURC
 62
1
 10
1353.369
 20
-5609.566
 30
-1926.033
 70
    32
  0
VERTEX
  8
W72LASURC
 62
1
 10
1349.646
 20
-5612.006
 30
-1925.368
 70
    32
  0
VERTEX
  8
W72LASURC
 62
1
 10
1350.893
 20
-5621.048
 30
-1925.655
 70
    32
  0
VERTEX
  8
W72LASURC
 62
1
 10
1353.036
 20
-5626.119
 30
-1925.803
 70
    32
  0
VERTEX
  8
W72LASURC
 62
1
 10
1354.939
 20
-5633.735
 30
-1925.964
 70
    32
  0
VERTEX
  8
W72LASURC
 62
1
 10
1352.361
 20
-5638.702
 30
-1924.763
 70
    32
  0
VERTEX
  8
W72LASURC
 62
1
 10
1352.285
 20
-5647.619
 30
-1923.416
 70
    32
  0
VERTEX
  8
W72LASURC
 62
1
 10
1355.518
 20
-5654.302
 30
-1924.467
 70
    32
  0
VERTEX
  8
W72LASURC
 62
1
 10
1358.955
 20
-5664.272
 30
-1923.437
 70
    32
  0
VERTEX
  8
W72LASURC
 62
1
 10
1363.733
 20
-5665.294
 30
-1923.077
 70
    32
  0
VERTEX
  8
W72LASURC
 62
1
 10
1370.085
 20
-5665.975
 30
-1922.407
 70
    32
  0
VERTEX
  8
W72LASURC
 62
1
 10
1369.534
 20
-5655.557
 30
-1923.781
 70
    32
  0
VERTEX
  8
W72LASURC
 62
1
 10
1377.711
 20
-5651.595
 30
-1923.242
 70
    32
  0
VERTEX
  8
W72LASURC
 62
1
 10
1369.534
 20
-5655.597
 30
-1922.459
 70
    32
  0
VERTEX
  8
W72LASURC
 62
1
 10
1369.534
 20
-5656.547
 30
-1921.610
 70
    32
  0
VERTEX
  8
W72LASURC
 62
1
 10
1366.574
 20
-5655.655
 30
-1921.720
 70
    32
  0
VERTEX
  8
W72LASURC
 62
1
 10
1355.798
 20
-5652.399
 30
-1921.829
 70
    32
  0
VERTEX
  8
W72LASURC
 62
1
 10
1351.938
 20
-5648.178
 30
-1921.939
 70
    32
  0
VERTEX
  8
W72LASURC
 62
1
 10
1353.265
 20
-5642.430
 30
-1922.048
 70
    32
  0
VERTEX
  8
W72LASURC
 62
1
 10
1355.838
 20
-5638.370
 30
-1922.158
 70
    32
  0
VERTEX
  8
W72LASURC
 62
1
 10
1361.186
 20
-5633.948
 30
-1922.268
 70
    32
  0
VERTEX
  8
W72LASURC
 62
1
 10
1371.037
 20
-5632.340
 30
-1922.377
 70
    32
  0
VERTEX
  8
W72LASURC
 62
1
 10
1380.244
 20
-5635.516
 30
-1922.487
 70
    32
  0
VERTEX
  8
W72LASURC
 62
1
 10
1383.420
 20
-5638.289
 30
-1922.596
 70
    32
  0
SEQEND
  8
W72LASURC
  0
POLYLINE
  8
W72LASURC
 62
1
 66
     1
 70
     9
  0
VERTEX
  8
W72LASURC
 62
1
 10
2423.533
 20
-9023.837
 30
-1873.943
 70
    32
  0
VERTEX
  8
W72LASURC
 62
1
 10
2416.127
 20
-9026.696
 30
-1873.094
 70
    32
  0
VERTEX
  8
W72LASURC
 62
1
 10
2411.619
 20
-9025.435
 30
-1874.702
 70
    32
  0
VERTEX
  8
W72LASURC
 62
1
 10
2403.536
 20
-9024.787
 30
-1874.566
 70
    32
  0
VERTEX
  8
W72LASURC
 62
1
 10
2388.966
 20
-9021.243
 30
-1872.472
 70
    32
  0
VERTEX
  8
W72LASURC
 62
1
 10
2387.860
 20
-9030.779
 30
-1872.478
 70
    32
  0
VERTEX
  8
W72LASURC
 62
1
 10
2398.219
 20
-9034.140
 30
-1872.822
 70
    32
  0
VERTEX
  8
W72LASURC
 62
1
 10
2410.228
 20
-9036.738
 30
-1874.907
 70
    32
  0
VERTEX
  8
W72LASURC
 62
1
 10
2420.316
 20
-9037.347
 30
-1876.956
 70
    32
  0
VERTEX
  8
W72LASURC
 62
1
 10
2431.630
 20
-9036.782
 30
-1877.613
 70
    32
  0
VERTEX
  8
W72LASURC
 62
1
 10
2444.399
 20
-9038.304
 30
-1879.256
 70
    32
  0
VERTEX
  8
W72LASURC
 62
1
 10
2424.468
 20
-9021.630
 30
-1876.600
 70
    32
  0
SEQEND
  8
W72LASURC
  0
POLYLINE
  8
W72LASURC
 62
1
 66
     1
 70
     9
  0
VERTEX
  8
W72LASURC
 62
1
 10
1514.515
 20
-6472.695
 30
-1896.665
 70
    32
  0
VERTEX
  8
W72LASURC
 62
1
 10
1520.262
 20
-6476.335
 30
-1896.665
 70
    32
  0
VERTEX
  8
W72LASURC
 62
1
 10
1529.983
 20
-6484.890
 30
-1896.630
 70
    32
  0
VERTEX
  8
W72LASURC
 62
1
 10
1535.339
 20
-6489.267
 30
-1896.595
 70
    32
  0
VERTEX
  8
W72LASURC
 62
1
 10
1538.315
 20
-6493.047
 30
-1896.559
 70
    32
  0
VERTEX
  8
W72LASURC
 62
1
 10
1533.355
 20
-6499.612
 30
-1896.524
 70
    32
  0
VERTEX
  8
W72LASURC
 62
1
 10
1522.246
 20
-6511.152
 30
-1896.489
 70
    32
  0
VERTEX
  8
W72LASURC
 62
1
 10
1518.873
 20
-6514.534
 30
-1896.453
 70
    32
  0
VERTEX
  8
W72LASURC
 62
1
 10
1507.367
 20
-6498.817
 30
-1896.418
 70
    32
  0
VERTEX
  8
W72LASURC
 62
1
 10
1500.026
 20
-6494.639
 30
-1896.383
 70
    32
  0
VERTEX
  8
W72LASURC
 62
1
 10
1498.241
 20
-6493.047
 30
-1896.347
 70
    32
  0
VERTEX
  8
W72LASURC
 62
1
 10
1490.088
 20
-6490.414
 30
-1896.321
 70
    32
  0
VERTEX
  8
W72LASURC
 62
1
 10
1495.898
 20
-6490.940
 30
-1896.436
 70
    32
  0
VERTEX
  8
W72LASURC
 62
1
 10
1501.136
 20
-6490.558
 30
-1896.550
 70
    32
  0
VERTEX
  8
W72LASURC
 62
1
 10
1512.610
 20
-6477.853
 30
-1896.608
 70
    32
  0
SEQEND
  8
W72LASURC
  0
POLYLINE
  8
W72LASURC
 62
1
 66
     1
 70
     9
  0
VERTEX
  8
W72LASURC
 62
1
 10
2378.773
 20
-8734.422
 30
-1788.201
 70
    32
  0
VERTEX
  8
W72LASURC
 62
1
 10
2371.990
 20
-8730.233
 30
-1787.904
 70
    32
  0
VERTEX
  8
W72LASURC
 62
1
 10
2366.337
 20
-8721.238
 30
-1784.721
 70
    32
  0
VERTEX
  8
W72LASURC
 62
1
 10
2357.138
 20
-8717.300
 30
-1782.666
 70
    32
  0
VERTEX
  8
W72LASURC
 62
1
 10
2353.321
 20
-8722.817
 30
-1784.046
 70
    32
  0
VERTEX
  8
W72LASURC
 62
1
 10
2351.335
 20
-8722.936
 30
-1784.424
 70
    32
  0
VERTEX
  8
W72LASURC
 62
1
 10
2348.816
 20
-8735.524
 30
-1785.626
 70
    32
  0
VERTEX
  8
W72LASURC
 62
1
 10
2357.034
 20
-8742.252
 30
-1788.062
 70
    32
  0
VERTEX
  8
W72LASURC
 62
1
 10
2369.688
 20
-8752.913
 30
-1790.007
 70
    32
  0
VERTEX
  8
W72LASURC
 62
1
 10
2368.082
 20
-8750.836
 30
-1789.555
 70
    32
  0
VERTEX
  8
W72LASURC
 62
1
 10
2365.974
 20
-8747.088
 30
-1789.104
 70
    32
  0
VERTEX
  8
W72LASURC
 62
1
 10
2367.128
 20
-8739.488
 30
-1788.653
 70
    32
  0
SEQEND
  8
W72LASURC
  0
LINE
  8
W72LASURC
 62
1
 10
2569.011
 20
-8868.745
 30
1000.000
 11
2559.940
 21
-8844.379
 31
1000.000
  0
POLYLINE
  8
W72LASURC
 62
1
 66
     1
 70
     9
  0
VERTEX
  8
W72LASURC
 62
1
 10
2559.001
 20
-8845.016
 30
-1922.637
 70
    32
  0
VERTEX
  8
W72LASURC
 62
1
 10
2554.707
 20
-8840.457
 30
-1922.816
 70
    32
  0
VERTEX
  8
W72LASURC
 62
1
 10
2551.440
 20
-8832.820
 30
-1923.168
 70
    32
  0
VERTEX
  8
W72LASURC
 62
1
 10
2547.602
 20
-8827.588
 30
-1924.391
 70
    32
  0
VERTEX
  8
W72LASURC
 62
1
 10
2541.929
 20
-8812.921
 30
-1924.545
 70
    32
  0
VERTEX
  8
W72LASURC
 62
1
 10
2537.941
 20
-8802.691
 30
-1925.077
 70
    32
  0
VERTEX
  8
W72LASURC
 62
1
 10
2534.553
 20
-8791.866
 30
-1926.908
 70
    32
  0
VERTEX
  8
W72LASURC
 62
1
 10
2529.862
 20
-8778.513
 30
-1927.926
 70
    32
  0
VERTEX
  8
W72LASURC
 62
1
 10
2519.161
 20
-8784.815
 30
-1928.638
 70
    32
  0
VERTEX
  8
W72LASURC
 62
1
 10
2526.170
 20
-8801.641
 30
-1927.217
 70
    32
  0
VERTEX
  8
W72LASURC
 62
1
 10
2527.981
 20
-8810.028
 30
-1926.278
 70
    32
  0
VERTEX
  8
W72LASURC
 62
1
 10
2532.515
 20
-8819.262
 30
-1926.008
 70
    32
  0
VERTEX
  8
W72LASURC
 62
1
 10
2531.227
 20
-8826.169
 30
-1925.988
 70
    32
  0
VERTEX
  8
W72LASURC
 62
1
 10
2537.142
 20
-8834.753
 30
-1924.916
 70
    32
  0
VERTEX
  8
W72LASURC
 62
1
 10
2542.836
 20
-8846.810
 30
-1924.001
 70
    32
  0
SEQEND
  8
W72LASURC
  0
POLYLINE
  8
W72LASURC
 62
1
 66
     1
 70
     9
  0
VERTEX
  8
W72LASURC
 62
1
 10
1534.293
 20
-6446.954
 30
-1966.574
 70
    32
  0
VERTEX
  8
W72LASURC
 62
1
 10
1530.322
 20
-6449.869
 30
-1967.218
 70
    32
  0
VERTEX
  8
W72LASURC
 62
1
 10
1525.408
 20
-6452.233
 30
-1967.218
 70
    32
  0
VERTEX
  8
W72LASURC
 62
1
 10
1524.282
 20
-6454.904
 30
-1965.474
 70
    32
  0
VERTEX
  8
W72LASURC
 62
1
 10
1525.092
 20
-6458.856
 30
-1966.161
 70
    32
  0
VERTEX
  8
W72LASURC
 62
1
 10
1527.439
 20
-6466.273
 30
-1965.123
 70
    32
  0
VERTEX
  8
W72LASURC
 62
1
 10
1530.165
 20
-6470.131
 30
-1965.412
 70
    32
  0
VERTEX
  8
W72LASURC
 62
1
 10
1530.730
 20
-6473.971
 30
-1965.200
 70
    32
  0
VERTEX
  8
W72LASURC
 62
1
 10
1533.493
 20
-6482.601
 30
-1964.827
 70
    32
  0
VERTEX
  8
W72LASURC
 62
1
 10
1535.271
 20
-6492.360
 30
-1965.042
 70
    32
  0
VERTEX
  8
W72LASURC
 62
1
 10
1538.647
 20
-6494.752
 30
-1965.112
 70
    32
  0
VERTEX
  8
W72LASURC
 62
1
 10
1542.323
 20
-6497.365
 30
-1965.258
 70
    32
  0
VERTEX
  8
W72LASURC
 62
1
 10
1545.210
 20
-6505.346
 30
-1963.987
 70
    32
  0
VERTEX
  8
W72LASURC
 62
1
 10
1547.223
 20
-6510.152
 30
-1963.954
 70
    32
  0
VERTEX
  8
W72LASURC
 62
1
 10
1550.013
 20
-6510.594
 30
-1965.375
 70
    32
  0
VERTEX
  8
W72LASURC
 62
1
 10
1552.392
 20
-6509.999
 30
-1964.722
 70
    32
  0
VERTEX
  8
W72LASURC
 62
1
 10
1554.795
 20
-6516.421
 30
-1964.680
 70
    32
  0
VERTEX
  8
W72LASURC
 62
1
 10
1552.623
 20
-6508.381
 30
-1964.825
 70
    32
  0
VERTEX
  8
W72LASURC
 62
1
 10
1550.872
 20
-6504.611
 30
-1964.971
 70
    32
  0
VERTEX
  8
W72LASURC
 62
1
 10
1549.805
 20
-6502.092
 30
-1965.117
 70
    32
  0
VERTEX
  8
W72LASURC
 62
1
 10
1548.798
 20
-6499.908
 30
-1965.262
 70
    32
  0
VERTEX
  8
W72LASURC
 62
1
 10
1547.237
 20
-6499.469
 30
-1965.408
 70
    32
  0
VERTEX
  8
W72LASURC
 62
1
 10
1545.236
 20
-6490.733
 30
-1965.554
 70
    32
  0
VERTEX
  8
W72LASURC
 62
1
 10
1539.417
 20
-6487.848
 30
-1965.700
 70
    32
  0
VERTEX
  8
W72LASURC
 62
1
 10
1539.508
 20
-6478.326
 30
-1965.845
 70
    32
  0
VERTEX
  8
W72LASURC
 62
1
 10
1537.593
 20
-6474.392
 30
-1965.991
 70
    32
  0
VERTEX
  8
W72LASURC
 62
1
 10
1537.074
 20
-6465.303
 30
-1966.137
 70
    32
  0
VERTEX
  8
W72LASURC
 62
1
 10
1534.903
 20
-6457.354
 30
-1966.282
 70
    32
  0
VERTEX
  8
W72LASURC
 62
1
 10
1534.122
 20
-6452.371
 30
-1966.428
 70
    32
  0
SEQEND
  8
W72LASURC
  0
POLYLINE
  8
W72LASURC
 62
1
 66
     1
 70
     9
  0
VERTEX
  8
W72LASURC
 62
1
 10
1529.315
 20
-5877.165
 30
-1910.055
 70
    32
  0
VERTEX
  8
W72LASURC
 62
1
 10
1530.645
 20
-5881.352
 30
-1909.924
 70
    32
  0
VERTEX
  8
W72LASURC
 62
1
 10
1538.709
 20
-5882.313
 30
-1908.994
 70
    32
  0
VERTEX
  8
W72LASURC
 62
1
 10
1548.468
 20
-5885.664
 30
-1907.194
 70
    32
  0
VERTEX
  8
W72LASURC
 62
1
 10
1544.463
 20
-5893.429
 30
-1907.305
 70
    32
  0
VERTEX
  8
W72LASURC
 62
1
 10
1544.132
 20
-5896.163
 30
-1908.549
 70
    32
  0
VERTEX
  8
W72LASURC
 62
1
 10
1551.703
 20
-5898.164
 30
-1906.941
 70
    32
  0
VERTEX
  8
W72LASURC
 62
1
 10
1557.756
 20
-5901.098
 30
-1907.498
 70
    32
  0
VERTEX
  8
W72LASURC
 62
1
 10
1568.794
 20
-5899.924
 30
-1907.527
 70
    32
  0
VERTEX
  8
W72LASURC
 62
1
 10
1585.392
 20
-5895.807
 30
-1907.557
 70
    32
  0
VERTEX
  8
W72LASURC
 62
1
 10
1585.935
 20
-5907.769
 30
-1907.675
 70
    32
  0
VERTEX
  8
W72LASURC
 62
1
 10
1585.783
 20
-5910.642
 30
-1907.705
 70
    32
  0
VERTEX
  8
W72LASURC
 62
1
 10
1568.715
 20
-5912.893
 30
-1907.705
 70
    32
  0
VERTEX
  8
W72LASURC
 62
1
 10
1567.477
 20
-5913.436
 30
-1906.641
 70
    32
  0
VERTEX
  8
W72LASURC
 62
1
 10
1562.204
 20
-5915.827
 30
-1907.053
 70
    32
  0
VERTEX
  8
W72LASURC
 62
1
 10
1552.088
 20
-5913.210
 30
-1907.568
 70
    32
  0
VERTEX
  8
W72LASURC
 62
1
 10
1540.867
 20
-5916.279
 30
-1907.973
 70
    32
  0
VERTEX
  8
W72LASURC
 62
1
 10
1532.305
 20
-5906.897
 30
-1909.104
 70
    32
  0
VERTEX
  8
W72LASURC
 62
1
 10
1520.524
 20
-5893.726
 30
-1910.089
 70
    32
  0
VERTEX
  8
W72LASURC
 62
1
 10
1517.370
 20
-5896.531
 30
-1910.530
 70
    32
  0
VERTEX
  8
W72LASURC
 62
1
 10
1508.374
 20
-5894.800
 30
-1911.125
 70
    32
  0
VERTEX
  8
W72LASURC
 62
1
 10
1520.238
 20
-5888.584
 30
-1910.857
 70
    32
  0
VERTEX
  8
W72LASURC
 62
1
 10
1528.382
 20
-5881.514
 30
-1910.590
 70
    32
  0
VERTEX
  8
W72LASURC
 62
1
 10
1528.693
 20
-5879.965
 30
-1910.322
 70
    32
  0
SEQEND
  8
W72LASURC
  0
POLYLINE
  8
W72LASURC
 62
1
 66
     1
 70
     9
  0
VERTEX
  8
W72LASURC
 62
1
 10
2520.620
 20
-8854.551
 30
-1919.264
 70
    32
  0
VERTEX
  8
W72LASURC
 62
1
 10
2518.717
 20
-8854.798
 30
-1919.143
 70
    32
  0
VERTEX
  8
W72LASURC
 62
1
 10
2513.777
 20
-8840.058
 30
-1916.779
 70
    32
  0
VERTEX
  8
W72LASURC
 62
1
 10
2508.127
 20
-8825.825
 30
-1916.134
 70
    32
  0
VERTEX
  8
W72LASURC
 62
1
 10
2501.794
 20
-8819.143
 30
-1915.190
 70
    32
  0
VERTEX
  8
W72LASURC
 62
1
 10
2491.610
 20
-8798.793
 30
-1915.058
 70
    32
  0
VERTEX
  8
W72LASURC
 62
1
 10
2480.343
 20
-8792.079
 30
-1914.241
 70
    32
  0
VERTEX
  8
W72LASURC
 62
1
 10
2476.289
 20
-8796.444
 30
-1913.325
 70
    32
  0
VERTEX
  8
W72LASURC
 62
1
 10
2471.568
 20
-8798.755
 30
-1914.422
 70
    32
  0
VERTEX
  8
W72LASURC
 62
1
 10
2471.113
 20
-8801.928
 30
-1914.971
 70
    32
  0
VERTEX
  8
W72LASURC
 62
1
 10
2477.259
 20
-8812.098
 30
-1914.489
 70
    32
  0
VERTEX
  8
W72LASURC
 62
1
 10
2479.016
 20
-8816.773
 30
-1913.311
 70
    32
  0
VERTEX
  8
W72LASURC
 62
1
 10
2482.898
 20
-8820.344
 30
-1914.312
 70
    32
  0
VERTEX
  8
W72LASURC
 62
1
 10
2488.057
 20
-8823.522
 30
-1915.025
 70
    32
  0
VERTEX
  8
W72LASURC
 62
1
 10
2494.735
 20
-8834.659
 30
-1916.301
 70
    32
  0
VERTEX
  8
W72LASURC
 62
1
 10
2499.360
 20
-8843.128
 30
-1915.690
 70
    32
  0
VERTEX
  8
W72LASURC
 62
1
 10
2509.176
 20
-8862.011
 30
-1918.031
 70
    32
  0
SEQEND
  8
W72LASURC
  0
POLYLINE
  8
W72LASURC
 62
1
 66
     1
 70
     9
  0
VERTEX
  8
W72LASURC
 62
1
 10
2491.610
 20
-8798.793
 30
-1915.058
 70
    32
  0
VERTEX
  8
W72LASURC
 62
1
 10
2492.670
 20
-8795.488
 30
-1915.016
 70
    32
  0
VERTEX
  8
W72LASURC
 62
1
 10
2493.024
 20
-8794.386
 30
-1915.002
 70
    32
  0
VERTEX
  8
W72LASURC
 62
1
 10
2493.957
 20
-8792.141
 30
-1915.506
 70
    32
  0
VERTEX
  8
W72LASURC
 62
1
 10
2494.193
 20
-8776.057
 30
-1914.088
 70
    32
  0
VERTEX
  8
W72LASURC
 62
1
 10
2494.514
 20
-8770.723
 30
-1914.208
 70
    32
  0
VERTEX
  8
W72LASURC
 62
1
 10
2494.155
 20
-8764.301
 30
-1914.258
 70
    32
  0
VERTEX
  8
W72LASURC
 62
1
 10
2482.934
 20
-8749.977
 30
-1912.970
 70
    32
  0
VERTEX
  8
W72LASURC
 62
1
 10
2476.416
 20
-8740.014
 30
-1912.358
 70
    32
  0
VERTEX
  8
W72LASURC
 62
1
 10
2477.136
 20
-8733.990
 30
-1911.390
 70
    32
  0
VERTEX
  8
W72LASURC
 62
1
 10
2473.918
 20
-8728.832
 30
-1911.788
 70
    32
  0
VERTEX
  8
W72LASURC
 62
1
 10
2477.374
 20
-8723.549
 30
-1910.683
 70
    32
  0
VERTEX
  8
W72LASURC
 62
1
 10
2483.564
 20
-8719.945
 30
-1911.142
 70
    32
  0
VERTEX
  8
W72LASURC
 62
1
 10
2492.879
 20
-8722.861
 30
-1912.688
 70
    32
  0
VERTEX
  8
W72LASURC
 62
1
 10
2496.788
 20
-8732.209
 30
-1913.041
 70
    32
  0
VERTEX
  8
W72LASURC
 62
1
 10
2501.068
 20
-8739.146
 30
-1911.953
 70
    32
  0
VERTEX
  8
W72LASURC
 62
1
 10
2507.431
 20
-8749.648
 30
-1911.536
 70
    32
  0
VERTEX
  8
W72LASURC
 62
1
 10
2507.546
 20
-8759.521
 30
-1914.206
 70
    32
  0
VERTEX
  8
W72LASURC
 62
1
 10
2506.572
 20
-8770.914
 30
-1913.597
 70
    32
  0
VERTEX
  8
W72LASURC
 62
1
 10
2503.927
 20
-8792.294
 30
-1913.741
 70
    32
  0
VERTEX
  8
W72LASURC
 62
1
 10
2502.187
 20
-8804.876
 30
-1914.766
 70
    32
  0
VERTEX
  8
W72LASURC
 62
1
 10
2501.538
 20
-8812.817
 30
-1913.488
 70
    32
  0
VERTEX
  8
W72LASURC
 62
1
 10
2501.632
 20
-8815.135
 30
-1914.112
 70
    32
  0
VERTEX
  8
W72LASURC
 62
1
 10
2501.794
 20
-8819.143
 30
-1915.190
 70
    32
  0
SEQEND
  8
W72LASURC
  0
POLYLINE
  8
W72LASURC
 62
1
 66
     1
 70
     9
  0
VERTEX
  8
W72LASURC
 62
1
 10
2498.082
 20
-8729.404
 30
-1911.414
 70
    32
  0
VERTEX
  8
W72LASURC
 62
1
 10
2496.131
 20
-8730.636
 30
-1912.982
 70
    32
  0
VERTEX
  8
W72LASURC
 62
1
 10
2493.152
 20
-8723.513
 30
-1912.712
 70
    32
  0
VERTEX
  8
W72LASURC
 62
1
 10
2484.044
 20
-8720.095
 30
-1911.222
 70
    32
  0
VERTEX
  8
W72LASURC
 62
1
 10
2477.794
 20
-8723.304
 30
-1910.714
 70
    32
  0
VERTEX
  8
W72LASURC
 62
1
 10
2474.423
 20
-8727.427
 30
-1911.414
 70
    32
  0
VERTEX
  8
W72LASURC
 62
1
 10
2467.615
 20
-8716.347
 30
-1911.414
 70
    32
  0
VERTEX
  8
W72LASURC
 62
1
 10
2469.620
 20
-8711.596
 30
-1911.414
 70
    32
  0
VERTEX
  8
W72LASURC
 62
1
 10
2464.317
 20
-8701.780
 30
-1911.414
 70
    32
  0
VERTEX
  8
W72LASURC
 62
1
 10
2451.936
 20
-8693.521
 30
-1911.414
 70
    32
  0
VERTEX
  8
W72LASURC
 62
1
 10
2457.201
 20
-8686.506
 30
-1911.414
 70
    32
  0
VERTEX
  8
W72LASURC
 62
1
 10
2465.266
 20
-8682.674
 30
-1911.414
 70
    32
  0
VERTEX
  8
W72LASURC
 62
1
 10
2473.255
 20
-8687.315
 30
-1911.414
 70
    32
  0
VERTEX
  8
W72LASURC
 62
1
 10
2479.802
 20
-8689.117
 30
-1911.414
 70
    32
  0
VERTEX
  8
W72LASURC
 62
1
 10
2488.685
 20
-8712.531
 30
-1911.414
 70
    32
  0
VERTEX
  8
W72LASURC
 62
1
 10
2495.178
 20
-8719.545
 30
-1911.414
 70
    32
  0
VERTEX
  8
W72LASURC
 62
1
 10
2496.630
 20
-8724.476
 30
-1911.414
 70
    32
  0
SEQEND
  8
W72LASURC
  0
POLYLINE
  8
W72LASURC
 62
1
 66
     1
 70
     9
  0
VERTEX
  8
W72LASURC
 62
1
 10
2475.887
 20
-8796.641
 30
-1913.418
 70
    32
  0
VERTEX
  8
W72LASURC
 62
1
 10
2471.501
 20
-8799.223
 30
-1914.503
 70
    32
  0
VERTEX
  8
W72LASURC
 62
1
 10
2466.946
 20
-8790.696
 30
-1913.414
 70
    32
  0
VERTEX
  8
W72LASURC
 62
1
 10
2465.369
 20
-8787.874
 30
-1913.414
 70
    32
  0
VERTEX
  8
W72LASURC
 62
1
 10
2463.360
 20
-8780.968
 30
-1913.414
 70
    32
  0
VERTEX
  8
W72LASURC
 62
1
 10
2477.563
 20
-8771.781
 30
-1913.414
 70
    32
  0
VERTEX
  8
W72LASURC
 62
1
 10
2478.892
 20
-8773.995
 30
-1913.414
 70
    32
  0
VERTEX
  8
W72LASURC
 62
1
 10
2482.056
 20
-8789.055
 30
-1913.414
 70
    32
  0
VERTEX
  8
W72LASURC
 62
1
 10
2482.056
 20
-8791.867
 30
-1914.241
 70
    32
  0
SEQEND
  8
W72LASURC
  0
TEXT
  8
W72LASURC
 62
1
 10
2518.918
 20
-8803.250
 30
1000.000
 40
1.575
  1
17A 19L 7250
 41
 1.0 
  0
TEXT
  8
W72LASURC
 62
1
 10
2519.046
 20
-8806.367
 30
1000.000
 40
1.575
  1
785 SQ'
 50
-0.389
 41
 1.0 
  0
TEXT
  8
W72LASURC
 62
1
 10
2519.308
 20
-8809.350
 30
1000.000
 40
1.575
  1
X 8' BACK
 50
-0.644
 41
 1.0 
  0
TEXT
  8
W72LASURC
 62
1
 10
2519.046
 20
-8810.777
 30
1000.000
 40
1.575
  1
--------
 50
-0.445
 41
 1.0 
  0
TEXT
  8
W72LASURC
 62
1
 10
2518.784
 20
-8812.857
 30
1000.000
 40
1.575
  1
6280 CU' ORE
 50
-0.818
 41
 1.0 
  0
POLYLINE
  8
W72LASURC
 62
3
 66
     1
 70
     9
  0
VERTEX
  8
W72LASURC
 62
3
 10
2503.601
 20
-8822.715
 30
1000.000
 70
    32
  0
VERTEX
  8
W72LASURC
 62
3
 10
2502.948
 20
-8812.076
 30
1000.000
 70
    32
  0
VERTEX
  8
W72LASURC
 62
3
 10
2505.303
 20
-8786.505
 30
1000.000
 70
    32
  0
VERTEX
  8
W72LASURC
 62
3
 10
2497.452
 20
-8784.041
 30
1000.000
 70
    32
  0
VERTEX
  8
W72LASURC
 62
3
 10
2494.573
 20
-8789.232
 30
1000.000
 70
    32
  0
VERTEX
  8
W72LASURC
 62
3
 10
2494.048
 20
-8792.087
 30
1000.000
 70
    32
  0
VERTEX
  8
W72LASURC
 62
3
 10
2492.871
 20
-8794.551
 30
1000.000
 70
    32
  0
VERTEX
  8
W72LASURC
 62
3
 10
2472.192
 20
-8800.132
 30
1000.000
 70
    32
  0
VERTEX
  8
W72LASURC
 62
3
 10
2480.439
 20
-8819.732
 30
1000.000
 70
    32
  0
VERTEX
  8
W72LASURC
 62
3
 10
2502.424
 20
-8822.849
 30
1000.000
 70
    32
  0
SEQEND
  8
W72LASURC
  0
ENDSEC
  0
EOF
