999
********************************
999
*   DXF File - Entities Only   *
999
*        3D Data Format        *
999
*     Output from ENVISAGE     *
999
*     02-Jan-2008 11:29:28     *
999
********************************
  0
SECTION 
  2
HEADER
  9
$ACADVER
  1
AC1009
  9
$EXTMIN
 10
-290000.000
 20
-250000.000
 30
-4000.000
  9
$EXTMAX
 10
320000.000
 20
160000.000
 30
6000.000
  0
ENDSEC
  0
SECTION
  2
ENTITIES
  0
POLYLINE
  8
W72LPLIFT
 62
7
 66
     1
 70
     9
  0
VERTEX
  8
W72LPLIFT
 62
7
 10
1756.450
 20
-6649.884
 30
-1885.205
 70
    32
  0
VERTEX
  8
W72LPLIFT
 62
7
 10
1756.635
 20
-6648.766
 30
-1885.399
 70
    32
  0
VERTEX
  8
W72LPLIFT
 62
7
 10
1761.017
 20
-6643.182
 30
-1886.525
 70
    32
  0
VERTEX
  8
W72LPLIFT
 62
7
 10
1762.591
 20
-6641.177
 30
-1886.929
 70
    32
  0
VERTEX
  8
W72LPLIFT
 62
7
 10
1768.407
 20
-6640.815
 30
-1887.253
 70
    32
  0
VERTEX
  8
W72LPLIFT
 62
7
 10
1770.606
 20
-6640.678
 30
-1887.376
 70
    32
  0
VERTEX
  8
W72LPLIFT
 62
7
 10
1779.481
 20
-6640.124
 30
-1887.518
 70
    32
  0
VERTEX
  8
W72LPLIFT
 62
7
 10
1779.559
 20
-6640.607
 30
-1887.463
 70
    32
  0
VERTEX
  8
W72LPLIFT
 62
7
 10
1780.718
 20
-6647.825
 30
-1886.650
 70
    32
  0
VERTEX
  8
W72LPLIFT
 62
7
 10
1780.905
 20
-6648.990
 30
-1886.465
 70
    32
  0
VERTEX
  8
W72LPLIFT
 62
7
 10
1780.516
 20
-6649.944
 30
-1886.289
 70
    32
  0
VERTEX
  8
W72LPLIFT
 62
7
 10
1781.473
 20
-6654.568
 30
-1885.565
 70
    32
  0
VERTEX
  8
W72LPLIFT
 62
7
 10
1782.337
 20
-6658.746
 30
-1884.911
 70
    32
  0
VERTEX
  8
W72LPLIFT
 62
7
 10
1780.988
 20
-6667.700
 30
-1883.364
 70
    32
  0
VERTEX
  8
W72LPLIFT
 62
7
 10
1778.843
 20
-6667.737
 30
-1883.261
 70
    32
  0
VERTEX
  8
W72LPLIFT
 62
7
 10
1775.773
 20
-6667.789
 30
-1883.113
 70
    32
  0
VERTEX
  8
W72LPLIFT
 62
7
 10
1763.897
 20
-6662.530
 30
-1883.446
 70
    32
  0
VERTEX
  8
W72LPLIFT
 62
7
 10
1759.137
 20
-6659.350
 30
-1883.757
 70
    32
  0
VERTEX
  8
W72LPLIFT
 62
7
 10
1758.728
 20
-6659.077
 30
-1883.784
 70
    32
  0
VERTEX
  8
W72LPLIFT
 62
7
 10
1757.456
 20
-6656.687
 30
-1884.122
 70
    32
  0
VERTEX
  8
W72LPLIFT
 62
7
 10
1756.633
 20
-6655.141
 30
-1884.342
 70
    32
  0
VERTEX
  8
W72LPLIFT
 62
7
 10
1756.096
 20
-6654.131
 30
-1884.485
 70
    32
  0
VERTEX
  8
W72LPLIFT
 62
7
 10
1756.450
 20
-6649.884
 30
-1885.205
 70
    32
  0
SEQEND
  8
W72LPLIFT
  0
POLYLINE
  8
W72LPLIFT
 62
4
 66
     1
 70
     9
  0
VERTEX
  8
W72LPLIFT
 62
4
 10
2133.986
 20
-7981.755
 30
-1826.557
 70
    32
  0
VERTEX
  8
W72LPLIFT
 62
4
 10
2130.515
 20
-7972.309
 30
-1824.872
 70
    32
  0
VERTEX
  8
W72LPLIFT
 62
4
 10
2146.054
 20
-7963.574
 30
-1821.187
 70
    32
  0
VERTEX
  8
W72LPLIFT
 62
4
 10
2153.241
 20
-7956.560
 30
-1820.135
 70
    32
  0
VERTEX
  8
W72LPLIFT
 62
4
 10
2158.308
 20
-7949.747
 30
-1818.654
 70
    32
  0
VERTEX
  8
W72LPLIFT
 62
4
 10
2170.325
 20
-7946.897
 30
-1816.514
 70
    32
  0
VERTEX
  8
W72LPLIFT
 62
4
 10
2181.657
 20
-7933.843
 30
-1815.575
 70
    32
  0
VERTEX
  8
W72LPLIFT
 62
4
 10
2191.390
 20
-7940.825
 30
-1816.298
 70
    32
  0
VERTEX
  8
W72LPLIFT
 62
4
 10
2195.073
 20
-7945.957
 30
-1816.217
 70
    32
  0
VERTEX
  8
W72LPLIFT
 62
4
 10
2199.861
 20
-7946.327
 30
-1818.745
 70
    32
  0
VERTEX
  8
W72LPLIFT
 62
4
 10
2207.937
 20
-7939.170
 30
-1819.573
 70
    32
  0
VERTEX
  8
W72LPLIFT
 62
4
 10
2216.918
 20
-7945.671
 30
-1818.549
 70
    32
  0
VERTEX
  8
W72LPLIFT
 62
4
 10
2225.226
 20
-7948.553
 30
-1817.677
 70
    32
  0
VERTEX
  8
W72LPLIFT
 62
4
 10
2229.646
 20
-7951.367
 30
-1818.435
 70
    32
  0
VERTEX
  8
W72LPLIFT
 62
4
 10
2237.906
 20
-7954.219
 30
-1818.707
 70
    32
  0
VERTEX
  8
W72LPLIFT
 62
4
 10
2256.916
 20
-7955.021
 30
-1819.255
 70
    32
  0
VERTEX
  8
W72LPLIFT
 62
4
 10
2258.196
 20
-7967.575
 30
-1819.461
 70
    32
  0
VERTEX
  8
W72LPLIFT
 62
4
 10
2252.793
 20
-7990.217
 30
-1819.615
 70
    32
  0
VERTEX
  8
W72LPLIFT
 62
4
 10
2249.202
 20
-7998.776
 30
-1819.298
 70
    32
  0
VERTEX
  8
W72LPLIFT
 62
4
 10
2246.864
 20
-8014.939
 30
-1819.209
 70
    32
  0
VERTEX
  8
W72LPLIFT
 62
4
 10
2248.395
 20
-8034.677
 30
-1819.097
 70
    32
  0
VERTEX
  8
W72LPLIFT
 62
4
 10
2242.785
 20
-8038.111
 30
-1819.081
 70
    32
  0
VERTEX
  8
W72LPLIFT
 62
4
 10
2227.441
 20
-8041.266
 30
-1819.072
 70
    32
  0
VERTEX
  8
W72LPLIFT
 62
4
 10
2221.150
 20
-8038.577
 30
-1819.123
 70
    32
  0
VERTEX
  8
W72LPLIFT
 62
4
 10
2216.254
 20
-8048.655
 30
-1819.123
 70
    32
  0
VERTEX
  8
W72LPLIFT
 62
4
 10
2210.988
 20
-8047.992
 30
-1819.123
 70
    32
  0
VERTEX
  8
W72LPLIFT
 62
4
 10
2202.160
 20
-8041.591
 30
-1819.123
 70
    32
  0
VERTEX
  8
W72LPLIFT
 62
4
 10
2205.611
 20
-8033.888
 30
-1819.123
 70
    32
  0
VERTEX
  8
W72LPLIFT
 62
4
 10
2208.537
 20
-8027.514
 30
-1819.123
 70
    32
  0
VERTEX
  8
W72LPLIFT
 62
4
 10
2206.954
 20
-8020.918
 30
-1819.199
 70
    32
  0
VERTEX
  8
W72LPLIFT
 62
4
 10
2207.953
 20
-7988.361
 30
-1819.381
 70
    32
  0
VERTEX
  8
W72LPLIFT
 62
4
 10
2196.841
 20
-7964.651
 30
-1819.955
 70
    32
  0
VERTEX
  8
W72LPLIFT
 62
4
 10
2191.643
 20
-7961.118
 30
-1820.028
 70
    32
  0
VERTEX
  8
W72LPLIFT
 62
4
 10
2185.906
 20
-7961.486
 30
-1815.724
 70
    32
  0
VERTEX
  8
W72LPLIFT
 62
4
 10
2178.940
 20
-7963.982
 30
-1816.955
 70
    32
  0
VERTEX
  8
W72LPLIFT
 62
4
 10
2170.603
 20
-7969.840
 30
-1818.840
 70
    32
  0
VERTEX
  8
W72LPLIFT
 62
4
 10
2169.093
 20
-7970.975
 30
-1819.178
 70
    32
  0
VERTEX
  8
W72LPLIFT
 62
4
 10
2169.994
 20
-7987.247
 30
-1820.894
 70
    32
  0
VERTEX
  8
W72LPLIFT
 62
4
 10
2161.337
 20
-7993.755
 30
-1822.743
 70
    32
  0
VERTEX
  8
W72LPLIFT
 62
4
 10
2164.951
 20
-8010.879
 30
-1822.619
 70
    32
  0
VERTEX
  8
W72LPLIFT
 62
4
 10
2170.787
 20
-8014.557
 30
-1822.075
 70
    32
  0
VERTEX
  8
W72LPLIFT
 62
4
 10
2172.457
 20
-8023.368
 30
-1821.161
 70
    32
  0
VERTEX
  8
W72LPLIFT
 62
4
 10
2175.396
 20
-8028.967
 30
-1820.521
 70
    32
  0
VERTEX
  8
W72LPLIFT
 62
4
 10
2175.506
 20
-8033.119
 30
-1820.111
 70
    32
  0
VERTEX
  8
W72LPLIFT
 62
4
 10
2178.765
 20
-8042.382
 30
-1817.718
 70
    32
  0
VERTEX
  8
W72LPLIFT
 62
4
 10
2185.275
 20
-8050.019
 30
-1815.649
 70
    32
  0
VERTEX
  8
W72LPLIFT
 62
4
 10
2180.571
 20
-8057.164
 30
-1815.004
 70
    32
  0
VERTEX
  8
W72LPLIFT
 62
4
 10
2172.422
 20
-8058.139
 30
-1815.813
 70
    32
  0
VERTEX
  8
W72LPLIFT
 62
4
 10
2167.723
 20
-8051.762
 30
-1817.452
 70
    32
  0
VERTEX
  8
W72LPLIFT
 62
4
 10
2158.205
 20
-8050.225
 30
-1818.850
 70
    32
  0
VERTEX
  8
W72LPLIFT
 62
4
 10
2157.381
 20
-8040.978
 30
-1819.914
 70
    32
  0
VERTEX
  8
W72LPLIFT
 62
4
 10
2156.400
 20
-8034.454
 30
-1820.583
 70
    32
  0
VERTEX
  8
W72LPLIFT
 62
4
 10
2152.286
 20
-8025.991
 30
-1821.575
 70
    32
  0
VERTEX
  8
W72LPLIFT
 62
4
 10
2147.840
 20
-8021.038
 30
-1822.204
 70
    32
  0
VERTEX
  8
W72LPLIFT
 62
4
 10
2145.507
 20
-8013.636
 30
-1821.703
 70
    32
  0
VERTEX
  8
W72LPLIFT
 62
4
 10
2144.163
 20
-8007.649
 30
-1821.910
 70
    32
  0
VERTEX
  8
W72LPLIFT
 62
4
 10
2139.136
 20
-8005.395
 30
-1823.126
 70
    32
  0
VERTEX
  8
W72LPLIFT
 62
4
 10
2138.581
 20
-7999.283
 30
-1825.688
 70
    32
  0
VERTEX
  8
W72LPLIFT
 62
4
 10
2134.886
 20
-7995.744
 30
-1826.993
 70
    32
  0
SEQEND
  8
W72LPLIFT
  0
TEXT
  8
W72LPLIFT
 62
4
 10
2165.577
 20
-8036.711
 30
-1820.073
 40
1.969
  1
BK -1820.073
 41
 1.0 
  0
TEXT
  8
W72LPLIFT
 62
4
 10
2174.028
 20
-8048.660
 30
-1817.223
 40
1.969
  1
BK -1817.223
 41
 1.0 
  0
TEXT
  8
W72LPLIFT
 62
4
 10
2214.401
 20
-8033.646
 30
-1819.123
 40
1.969
  1
BK -1819.123
 41
 1.0 
  0
TEXT
  8
W72LPLIFT
 62
4
 10
2209.611
 20
-7985.333
 30
-1819.394
 40
1.969
  1
BK -1819.394
 41
 1.0 
  0
TEXT
  8
W72LPLIFT
 62
4
 10
2224.725
 20
-7964.512
 30
-1818.474
 40
1.575
  1
BK -1818.474
 50
-115.000
 41
 1.0 
  0
TEXT
  8
W72LPLIFT
 62
4
 10
2249.364
 20
-7975.661
 30
-1819.321
 40
1.575
  1
BK -1819.321
 50
-115.000
 41
 1.0 
  0
TEXT
  8
W72LPLIFT
 62
4
 10
2213.048
 20
-7961.303
 30
-1818.577
 40
1.969
  1
BK -1818.577
 50
240.960
 41
 1.0 
  0
TEXT
  8
W72LPLIFT
 62
4
 10
2201.351
 20
-7948.698
 30
-1818.498
 40
1.969
  1
BK -1818.498
 41
 1.0 
  0
TEXT
  8
W72LPLIFT
 62
4
 10
2179.386
 20
-7954.613
 30
-1815.919
 40
1.969
  1
BK -1815.919
 41
 1.0 
  0
TEXT
  8
W72LPLIFT
 62
4
 10
2180.611
 20
-7950.877
 30
7.601
 40
1.969
  1
-1816.132
 50
240.960
 41
 1.0 
  0
TEXT
  8
W72LPLIFT
 62
4
 10
2183.289
 20
-7951.918
 30
7.601
 40
1.969
  1
ST-038S
 50
240.960
 41
 1.0 
  0
POINT
  8
W72LPLIFT
 62
4
 10
2184.484
 20
-7950.103
 30
-1816.132
  0
POLYLINE
  8
W72LPLIFT
 62
4
 66
     1
 70
     9
  0
VERTEX
  8
W72LPLIFT
 62
4
 10
2184.484
 20
-7947.893
 30
-1816.132
 70
    32
  0
VERTEX
  8
W72LPLIFT
 62
4
 10
2186.233
 20
-7951.073
 30
-1816.132
 70
    32
  0
VERTEX
  8
W72LPLIFT
 62
4
 10
2182.734
 20
-7951.071
 30
-1816.132
 70
    32
  0
SEQEND
  8
W72LPLIFT
  0
POINT
  8
W72LPLIFT
 62
4
 10
2199.632
 20
-7958.232
 30
-1819.950
  0
POLYLINE
  8
W72LPLIFT
 62
4
 66
     1
 70
     9
  0
VERTEX
  8
W72LPLIFT
 62
4
 10
2199.632
 20
-7956.022
 30
-1819.950
 70
    32
  0
VERTEX
  8
W72LPLIFT
 62
4
 10
2201.381
 20
-7959.202
 30
-1819.950
 70
    32
  0
VERTEX
  8
W72LPLIFT
 62
4
 10
2197.882
 20
-7959.200
 30
-1819.950
 70
    32
  0
SEQEND
  8
W72LPLIFT
  0
TEXT
  8
W72LPLIFT
 62
4
 10
2196.256
 20
-7960.089
 30
-1819.950
 40
1.969
  1
ST-038T
 50
240.960
 41
 1.0 
  0
TEXT
  8
W72LPLIFT
 62
4
 10
2198.576
 20
-7961.568
 30
-1819.950
 40
1.969
  1
-1819.950
 50
240.960
 41
 1.0 
  0
TEXT
  8
W72LPLIFT
 62
4
 10
2141.830
 20
-7958.608
 30
-0.929
 40
1.969
  1
-1822.356
 50
307.480
 41
 1.0 
  0
TEXT
  8
W72LPLIFT
 62
4
 10
2141.875
 20
-7964.166
 30
-1822.356
 40
1.969
  1
ST-009T
 50
307.480
 41
 1.0 
  0
POINT
  8
W72LPLIFT
 62
4
 10
2151.430
 20
-7977.697
 30
-1822.356
  0
POLYLINE
  8
W72LPLIFT
 62
4
 66
     1
 70
     9
  0
VERTEX
  8
W72LPLIFT
 62
4
 10
2151.430
 20
-7975.487
 30
-1822.356
 70
    32
  0
VERTEX
  8
W72LPLIFT
 62
4
 10
2153.179
 20
-7978.667
 30
-1822.356
 70
    32
  0
VERTEX
  8
W72LPLIFT
 62
4
 10
2149.680
 20
-7978.665
 30
-1822.356
 70
    32
  0
SEQEND
  8
W72LPLIFT
  0
TEXT
  8
W72LPLIFT
 62
8
 10
2413.456
 20
-9235.491
 30
-1806.190
 40
1.969
  1
ST-307S
 50
27.020
 41
 1.0 
  0
TEXT
  8
W72LPLIFT
 62
8
 10
2412.030
 20
-9232.584
 30
-1806.190
 40
1.969
  1
-1806.19
 50
27.020
 41
 1.0 
  0
POINT
  8
W72LPLIFT
 62
8
 10
2410.380
 20
-9236.217
 30
-1806.190
  0
POLYLINE
  8
W72LPLIFT
 62
8
 66
     1
 70
     9
  0
VERTEX
  8
W72LPLIFT
 62
8
 10
2410.378
 20
-9234.084
 30
-1806.190
 70
    32
  0
VERTEX
  8
W72LPLIFT
 62
8
 10
2412.127
 20
-9237.264
 30
-1806.190
 70
    32
  0
VERTEX
  8
W72LPLIFT
 62
8
 10
2408.628
 20
-9237.262
 30
-1806.190
 70
    32
  0
SEQEND
  8
W72LPLIFT
  0
TEXT
  8
W72LPLIFT
 62
8
 10
2431.721
 20
-9270.972
 30
-1796.030
 40
1.969
  1
ST-303T
 50
27.020
 41
 1.0 
  0
TEXT
  8
W72LPLIFT
 62
8
 10
2430.295
 20
-9268.065
 30
-1796.030
 40
1.969
  1
-1796.03
 50
27.020
 41
 1.0 
  0
TEXT
  8
W72LPLIFT
 62
8
 10
2437.788
 20
-9281.375
 30
-1794.710
 40
1.969
  1
-1794.71
 50
27.020
 41
 1.0 
  0
TEXT
  8
W72LPLIFT
 62
8
 10
2436.514
 20
-9278.620
 30
-1794.710
 40
1.969
  1
ST-303S
 50
27.020
 41
 1.0 
  0
POINT
  8
W72LPLIFT
 62
8
 10
2433.500
 20
-9279.590
 30
-1794.710
  0
POLYLINE
  8
W72LPLIFT
 62
8
 66
     1
 70
     9
  0
VERTEX
  8
W72LPLIFT
 62
8
 10
2433.508
 20
-9277.404
 30
-1794.710
 70
    32
  0
VERTEX
  8
W72LPLIFT
 62
8
 10
2435.257
 20
-9280.584
 30
-1794.710
 70
    32
  0
VERTEX
  8
W72LPLIFT
 62
8
 10
2431.758
 20
-9280.582
 30
-1794.710
 70
    32
  0
SEQEND
  8
W72LPLIFT
  0
POLYLINE
  8
W72LPLIFT
 62
8
 66
     1
 70
     9
  0
VERTEX
  8
W72LPLIFT
 62
8
 10
2429.322
 20
-9269.449
 30
-1796.030
 70
    32
  0
VERTEX
  8
W72LPLIFT
 62
8
 10
2431.072
 20
-9272.629
 30
-1796.030
 70
    32
  0
VERTEX
  8
W72LPLIFT
 62
8
 10
2427.572
 20
-9272.628
 30
-1796.030
 70
    32
  0
SEQEND
  8
W72LPLIFT
  0
POINT
  8
W72LPLIFT
 62
8
 10
2429.330
 20
-9271.620
 30
-1796.030
  0
POLYLINE
  8
W72LPLIFT
 62
8
 66
     1
 70
     8
  0
VERTEX
  8
W72LPLIFT
 62
8
 10
2418.987
 20
-9241.688
 30
-1803.419
 70
    32
  0
VERTEX
  8
W72LPLIFT
 62
8
 10
2420.543
 20
-9243.100
 30
-1801.987
 70
    32
  0
VERTEX
  8
W72LPLIFT
 62
8
 10
2426.974
 20
-9252.620
 30
-1800.555
 70
    32
  0
VERTEX
  8
W72LPLIFT
 62
8
 10
2433.477
 20
-9261.304
 30
-1795.553
 70
    32
  0
VERTEX
  8
W72LPLIFT
 62
8
 10
2441.528
 20
-9273.859
 30
-1793.890
 70
    32
  0
VERTEX
  8
W72LPLIFT
 62
8
 10
2448.468
 20
-9279.023
 30
-1796.122
 70
    32
  0
VERTEX
  8
W72LPLIFT
 62
8
 10
2451.093
 20
-9287.770
 30
-1794.351
 70
    32
  0
VERTEX
  8
W72LPLIFT
 62
8
 10
2450.427
 20
-9293.597
 30
-1793.655
 70
    32
  0
VERTEX
  8
W72LPLIFT
 62
8
 10
2452.905
 20
-9296.111
 30
-1794.558
 70
    32
  0
VERTEX
  8
W72LPLIFT
 62
8
 10
2461.865
 20
-9313.129
 30
-1793.030
 70
    32
  0
VERTEX
  8
W72LPLIFT
 62
8
 10
2469.287
 20
-9327.851
 30
-1793.367
 70
    32
  0
VERTEX
  8
W72LPLIFT
 62
8
 10
2478.496
 20
-9341.570
 30
-1792.941
 70
    32
  0
VERTEX
  8
W72LPLIFT
 62
8
 10
2491.105
 20
-9364.596
 30
-1792.755
 70
    32
  0
VERTEX
  8
W72LPLIFT
 62
8
 10
2500.464
 20
-9383.498
 30
-1788.610
 70
    32
  0
VERTEX
  8
W72LPLIFT
 62
8
 10
2508.920
 20
-9401.346
 30
-1790.095
 70
    32
  0
VERTEX
  8
W72LPLIFT
 62
8
 10
2515.520
 20
-9421.080
 30
-1790.698
 70
    32
  0
VERTEX
  8
W72LPLIFT
 62
8
 10
2519.168
 20
-9431.849
 30
-1789.730
 70
    32
  0
VERTEX
  8
W72LPLIFT
 62
8
 10
2519.782
 20
-9441.595
 30
-1790.566
 70
    32
  0
VERTEX
  8
W72LPLIFT
 62
8
 10
2505.887
 20
-9443.784
 30
-1790.286
 70
    32
  0
VERTEX
  8
W72LPLIFT
 62
8
 10
2500.498
 20
-9434.425
 30
-1790.722
 70
    32
  0
VERTEX
  8
W72LPLIFT
 62
8
 10
2497.737
 20
-9423.146
 30
-1791.787
 70
    32
  0
VERTEX
  8
W72LPLIFT
 62
8
 10
2493.017
 20
-9415.072
 30
-1794.536
 70
    32
  0
VERTEX
  8
W72LPLIFT
 62
8
 10
2487.058
 20
-9412.174
 30
-1791.716
 70
    32
  0
VERTEX
  8
W72LPLIFT
 62
8
 10
2483.439
 20
-9401.189
 30
-1792.534
 70
    32
  0
VERTEX
  8
W72LPLIFT
 62
8
 10
2481.891
 20
-9391.442
 30
-1794.300
 70
    32
  0
VERTEX
  8
W72LPLIFT
 62
8
 10
2476.835
 20
-9380.514
 30
-1794.106
 70
    32
  0
VERTEX
  8
W72LPLIFT
 62
8
 10
2468.471
 20
-9381.371
 30
-1794.350
 70
    32
  0
VERTEX
  8
W72LPLIFT
 62
8
 10
2465.496
 20
-9373.302
 30
-1794.295
 70
    32
  0
VERTEX
  8
W72LPLIFT
 62
8
 10
2458.577
 20
-9372.371
 30
-1793.355
 70
    32
  0
VERTEX
  8
W72LPLIFT
 62
8
 10
2457.206
 20
-9364.551
 30
-1793.766
 70
    32
  0
VERTEX
  8
W72LPLIFT
 62
8
 10
2453.346
 20
-9359.612
 30
-1794.431
 70
    32
  0
VERTEX
  8
W72LPLIFT
 62
8
 10
2449.995
 20
-9344.734
 30
-1796.085
 70
    32
  0
VERTEX
  8
W72LPLIFT
 62
8
 10
2446.446
 20
-9338.175
 30
-1795.737
 70
    32
  0
VERTEX
  8
W72LPLIFT
 62
8
 10
2440.234
 20
-9328.815
 30
-1795.296
 70
    32
  0
VERTEX
  8
W72LPLIFT
 62
8
 10
2436.751
 20
-9320.325
 30
-1794.300
 70
    32
  0
VERTEX
  8
W72LPLIFT
 62
8
 10
2433.327
 20
-9309.717
 30
-1795.820
 70
    32
  0
VERTEX
  8
W72LPLIFT
 62
8
 10
2419.325
 20
-9307.287
 30
-1795.342
 70
    32
  0
VERTEX
  8
W72LPLIFT
 62
8
 10
2418.343
 20
-9290.866
 30
-1796.442
 70
    32
  0
VERTEX
  8
W72LPLIFT
 62
8
 10
2424.809
 20
-9286.643
 30
-1795.052
 70
    32
  0
VERTEX
  8
W72LPLIFT
 62
8
 10
2428.536
 20
-9285.559
 30
-1796.946
 70
    32
  0
VERTEX
  8
W72LPLIFT
 62
8
 10
2429.088
 20
-9283.006
 30
-1794.402
 70
    32
  0
VERTEX
  8
W72LPLIFT
 62
8
 10
2427.416
 20
-9275.923
 30
-1795.482
 70
    32
  0
VERTEX
  8
W72LPLIFT
 62
8
 10
2422.480
 20
-9262.683
 30
-1797.934
 70
    32
  0
VERTEX
  8
W72LPLIFT
 62
8
 10
2409.903
 20
-9248.445
 30
-1804.232
 70
    32
  0
SEQEND
  8
W72LPLIFT
  0
TEXT
  8
W72LPLIFT
 62
6
 10
2231.777
 20
-8109.037
 30
-1794.168
 40
1.969
  1
-1794.1678
 41
 1.0 
  0
TEXT
  8
W72LPLIFT
 62
6
 10
2233.423
 20
-8111.996
 30
-1794.168
 40
1.969
  1
ST-504S
 41
 1.0 
  0
POLYLINE
  8
W72LPLIFT
 62
6
 66
     1
 70
     9
  0
VERTEX
  8
W72LPLIFT
 62
6
 10
2226.944
 20
-8109.164
 30
-1794.168
 70
    32
  0
VERTEX
  8
W72LPLIFT
 62
6
 10
2224.944
 20
-8112.631
 30
-1794.168
 70
    32
  0
VERTEX
  8
W72LPLIFT
 62
6
 10
2228.944
 20
-8112.631
 30
-1794.168
 70
    32
  0
SEQEND
  8
W72LPLIFT
  0
POINT
  8
W72LPLIFT
 62
6
 10
2227.008
 20
-8111.380
 30
-1794.168
  0
TEXT
  8
W72LPLIFT
 62
6
 10
2234.286
 20
-8122.607
 30
-1793.047
 40
1.969
  1
ST-504T
 41
 1.0 
  0
TEXT
  8
W72LPLIFT
 62
6
 10
2231.779
 20
-8126.059
 30
-1793.047
 40
1.969
  1
-1793.0473
 41
 1.0 
  0
POLYLINE
  8
W72LPLIFT
 62
6
 66
     1
 70
     9
  0
VERTEX
  8
W72LPLIFT
 62
6
 10
2226.732
 20
-8120.054
 30
-1793.047
 70
    32
  0
VERTEX
  8
W72LPLIFT
 62
6
 10
2224.732
 20
-8123.520
 30
-1793.047
 70
    32
  0
VERTEX
  8
W72LPLIFT
 62
6
 10
2228.732
 20
-8123.520
 30
-1793.047
 70
    32
  0
SEQEND
  8
W72LPLIFT
  0
POINT
  8
W72LPLIFT
 62
6
 10
2226.764
 20
-8122.237
 30
-1793.047
  0
TEXT
  8
W72LPLIFT
 62
6
 10
2213.910
 20
-8204.891
 30
-1788.818
 40
1.969
  1
-1792.7307
 41
 1.0 
  0
TEXT
  8
W72LPLIFT
 62
6
 10
2213.464
 20
-8208.315
 30
-1790.696
 40
1.969
  1
ST-536T
 41
 1.0 
  0
POINT
  8
W72LPLIFT
 62
6
 10
2212.770
 20
-8211.895
 30
-1792.731
  0
POLYLINE
  8
W72LPLIFT
 62
6
 66
     1
 70
     9
  0
VERTEX
  8
W72LPLIFT
 62
6
 10
2212.770
 20
-8210.162
 30
-1792.731
 70
    32
  0
VERTEX
  8
W72LPLIFT
 62
6
 10
2210.770
 20
-8213.628
 30
-1792.731
 70
    32
  0
VERTEX
  8
W72LPLIFT
 62
6
 10
2214.770
 20
-8213.628
 30
-1792.731
 70
    32
  0
SEQEND
  8
W72LPLIFT
  0
POINT
  8
W72LPLIFT
 62
6
 10
2215.575
 20
-8220.548
 30
-1794.175
  0
POLYLINE
  8
W72LPLIFT
 62
6
 66
     1
 70
     9
  0
VERTEX
  8
W72LPLIFT
 62
6
 10
2215.575
 20
-8218.815
 30
-1794.175
 70
    32
  0
VERTEX
  8
W72LPLIFT
 62
6
 10
2213.575
 20
-8222.281
 30
-1794.175
 70
    32
  0
VERTEX
  8
W72LPLIFT
 62
6
 10
2217.575
 20
-8222.281
 30
-1794.175
 70
    32
  0
SEQEND
  8
W72LPLIFT
  0
TEXT
  8
W72LPLIFT
 62
6
 10
2217.204
 20
-8221.926
 30
-1794.958
 40
1.969
  1
ST-536S
 41
 1.0 
  0
TEXT
  8
W72LPLIFT
 62
6
 10
2216.365
 20
-8226.210
 30
-1797.462
 40
1.969
  1
-1794.1751
 41
 1.0 
  0
POLYLINE
  8
W72LPLIFT
 62
6
 66
     1
 70
     8
  0
VERTEX
  8
W72LPLIFT
 62
6
 10
2230.219
 20
-8141.297
 30
-1794.501
 70
    32
  0
VERTEX
  8
W72LPLIFT
 62
6
 10
2231.459
 20
-8175.441
 30
-1797.034
 70
    32
  0
VERTEX
  8
W72LPLIFT
 62
6
 10
2225.946
 20
-8187.147
 30
-1790.762
 70
    32
  0
VERTEX
  8
W72LPLIFT
 62
6
 10
2223.946
 20
-8199.645
 30
-1789.585
 70
    32
  0
VERTEX
  8
W72LPLIFT
 62
6
 10
2226.815
 20
-8206.390
 30
-1794.555
 70
    32
  0
VERTEX
  8
W72LPLIFT
 62
6
 10
2226.550
 20
-8213.319
 30
-1794.801
 70
    32
  0
VERTEX
  8
W72LPLIFT
 62
6
 10
2228.248
 20
-8220.693
 30
-1793.971
 70
    32
  0
VERTEX
  8
W72LPLIFT
 62
6
 10
2233.670
 20
-8237.115
 30
-1793.103
 70
    32
  0
VERTEX
  8
W72LPLIFT
 62
6
 10
2243.329
 20
-8250.922
 30
-1791.630
 70
    32
  0
VERTEX
  8
W72LPLIFT
 62
6
 10
2244.500
 20
-8263.924
 30
-1789.691
 70
    32
  0
VERTEX
  8
W72LPLIFT
 62
6
 10
2246.771
 20
-8279.086
 30
-1790.246
 70
    32
  0
VERTEX
  8
W72LPLIFT
 62
6
 10
2235.075
 20
-8276.645
 30
-1788.547
 70
    32
  0
VERTEX
  8
W72LPLIFT
 62
6
 10
2224.247
 20
-8282.477
 30
-1789.390
 70
    32
  0
VERTEX
  8
W72LPLIFT
 62
6
 10
2221.827
 20
-8272.879
 30
-1791.165
 70
    32
  0
VERTEX
  8
W72LPLIFT
 62
6
 10
2212.161
 20
-8272.669
 30
-1792.711
 70
    32
  0
VERTEX
  8
W72LPLIFT
 62
6
 10
2209.973
 20
-8259.553
 30
-1793.155
 70
    32
  0
VERTEX
  8
W72LPLIFT
 62
6
 10
2207.026
 20
-8249.996
 30
-1795.195
 70
    32
  0
VERTEX
  8
W72LPLIFT
 62
6
 10
2206.352
 20
-8236.414
 30
-1793.530
 70
    32
  0
VERTEX
  8
W72LPLIFT
 62
6
 10
2202.992
 20
-8230.121
 30
-1792.432
 70
    32
  0
VERTEX
  8
W72LPLIFT
 62
6
 10
2207.182
 20
-8216.620
 30
-1793.289
 70
    32
  0
VERTEX
  8
W72LPLIFT
 62
6
 10
2207.479
 20
-8207.656
 30
-1792.351
 70
    32
  0
VERTEX
  8
W72LPLIFT
 62
6
 10
2209.346
 20
-8196.498
 30
-1791.963
 70
    32
  0
VERTEX
  8
W72LPLIFT
 62
6
 10
2210.974
 20
-8186.512
 30
-1791.417
 70
    32
  0
VERTEX
  8
W72LPLIFT
 62
6
 10
2212.905
 20
-8180.388
 30
-1791.216
 70
    32
  0
VERTEX
  8
W72LPLIFT
 62
6
 10
2214.807
 20
-8168.249
 30
-1792.631
 70
    32
  0
VERTEX
  8
W72LPLIFT
 62
6
 10
2216.490
 20
-8154.233
 30
-1792.930
 70
    32
  0
VERTEX
  8
W72LPLIFT
 62
6
 10
2217.403
 20
-8140.832
 30
-1794.400
 70
    32
  0
SEQEND
  8
W72LPLIFT
  0
POLYLINE
  8
W72LPLIFT
 62
6
 66
     1
 70
     8
  0
VERTEX
  8
W72LPLIFT
 62
6
 10
2212.053
 20
-8107.413
 30
-1793.120
 70
    32
  0
VERTEX
  8
W72LPLIFT
 62
6
 10
2218.783
 20
-8114.573
 30
-1793.308
 70
    32
  0
VERTEX
  8
W72LPLIFT
 62
6
 10
2220.378
 20
-8127.773
 30
-1792.592
 70
    32
  0
VERTEX
  8
W72LPLIFT
 62
6
 10
2217.403
 20
-8140.832
 30
-1794.400
 70
    32
  0
SEQEND
  8
W72LPLIFT
  0
POLYLINE
  8
W72LPLIFT
 62
6
 66
     1
 70
     8
  0
VERTEX
  8
W72LPLIFT
 62
6
 10
2230.219
 20
-8141.297
 30
-1794.501
 70
    32
  0
VERTEX
  8
W72LPLIFT
 62
6
 10
2232.728
 20
-8128.756
 30
-1792.276
 70
    32
  0
VERTEX
  8
W72LPLIFT
 62
6
 10
2232.835
 20
-8118.265
 30
-1792.051
 70
    32
  0
VERTEX
  8
W72LPLIFT
 62
6
 10
2231.587
 20
-8111.898
 30
-1792.460
 70
    32
  0
VERTEX
  8
W72LPLIFT
 62
6
 10
2227.423
 20
-8107.796
 30
-1794.695
 70
    32
  0
SEQEND
  8
W72LPLIFT
  0
POLYLINE
  8
W72LPLIFT
 62
7
 66
     1
 70
     8
  0
VERTEX
  8
W72LPLIFT
 62
7
 10
2462.445
 20
-8854.976
 30
-1820.555
 70
    32
  0
VERTEX
  8
W72LPLIFT
 62
7
 10
2451.808
 20
-8848.588
 30
-1816.534
 70
    32
  0
VERTEX
  8
W72LPLIFT
 62
7
 10
2445.811
 20
-8845.548
 30
-1812.573
 70
    32
  0
VERTEX
  8
W72LPLIFT
 62
7
 10
2439.274
 20
-8842.032
 30
-1809.715
 70
    32
  0
VERTEX
  8
W72LPLIFT
 62
7
 10
2427.906
 20
-8833.256
 30
-1806.723
 70
    32
  0
VERTEX
  8
W72LPLIFT
 62
7
 10
2422.295
 20
-8829.164
 30
-1807.064
 70
    32
  0
VERTEX
  8
W72LPLIFT
 62
7
 10
2412.949
 20
-8822.651
 30
-1806.880
 70
    32
  0
VERTEX
  8
W72LPLIFT
 62
7
 10
2397.185
 20
-8793.268
 30
-1800.227
 70
    32
  0
VERTEX
  8
W72LPLIFT
 62
7
 10
2395.044
 20
-8783.116
 30
-1802.460
 70
    32
  0
VERTEX
  8
W72LPLIFT
 62
7
 10
2391.012
 20
-8778.603
 30
-1802.970
 70
    32
  0
VERTEX
  8
W72LPLIFT
 62
7
 10
2383.142
 20
-8769.105
 30
-1801.387
 70
    32
  0
VERTEX
  8
W72LPLIFT
 62
7
 10
2375.756
 20
-8765.968
 30
-1802.944
 70
    32
  0
VERTEX
  8
W72LPLIFT
 62
7
 10
2371.491
 20
-8762.350
 30
-1803.448
 70
    32
  0
VERTEX
  8
W72LPLIFT
 62
7
 10
2362.861
 20
-8759.174
 30
-1801.422
 70
    32
  0
VERTEX
  8
W72LPLIFT
 62
7
 10
2361.870
 20
-8756.414
 30
-1802.222
 70
    32
  0
VERTEX
  8
W72LPLIFT
 62
7
 10
2350.830
 20
-8751.838
 30
-1801.983
 70
    32
  0
VERTEX
  8
W72LPLIFT
 62
7
 10
2348.732
 20
-8745.926
 30
-1800.306
 70
    32
  0
VERTEX
  8
W72LPLIFT
 62
7
 10
2349.231
 20
-8740.329
 30
-1800.624
 70
    32
  0
VERTEX
  8
W72LPLIFT
 62
7
 10
2354.633
 20
-8737.730
 30
-1801.396
 70
    32
  0
VERTEX
  8
W72LPLIFT
 62
7
 10
2365.311
 20
-8745.102
 30
-1802.082
 70
    32
  0
VERTEX
  8
W72LPLIFT
 62
7
 10
2370.498
 20
-8747.764
 30
-1802.945
 70
    32
  0
VERTEX
  8
W72LPLIFT
 62
7
 10
2374.049
 20
-8744.889
 30
-1802.109
 70
    32
  0
VERTEX
  8
W72LPLIFT
 62
7
 10
2376.707
 20
-8744.214
 30
-1802.463
 70
    32
  0
VERTEX
  8
W72LPLIFT
 62
7
 10
2382.458
 20
-8750.141
 30
-1801.251
 70
    32
  0
VERTEX
  8
W72LPLIFT
 62
7
 10
2388.120
 20
-8751.096
 30
-1799.692
 70
    32
  0
VERTEX
  8
W72LPLIFT
 62
7
 10
2395.956
 20
-8761.530
 30
-1802.040
 70
    32
  0
VERTEX
  8
W72LPLIFT
 62
7
 10
2407.602
 20
-8777.399
 30
-1802.986
 70
    32
  0
VERTEX
  8
W72LPLIFT
 62
7
 10
2406.708
 20
-8780.789
 30
-1803.134
 70
    32
  0
VERTEX
  8
W72LPLIFT
 62
7
 10
2411.429
 20
-8788.575
 30
-1803.337
 70
    32
  0
VERTEX
  8
W72LPLIFT
 62
7
 10
2426.503
 20
-8808.453
 30
-1804.928
 70
    32
  0
VERTEX
  8
W72LPLIFT
 62
7
 10
2431.761
 20
-8815.743
 30
-1806.340
 70
    32
  0
VERTEX
  8
W72LPLIFT
 62
7
 10
2438.657
 20
-8822.947
 30
-1806.516
 70
    32
  0
VERTEX
  8
W72LPLIFT
 62
7
 10
2444.950
 20
-8829.023
 30
-1808.903
 70
    32
  0
VERTEX
  8
W72LPLIFT
 62
7
 10
2449.604
 20
-8832.408
 30
-1810.520
 70
    32
  0
VERTEX
  8
W72LPLIFT
 62
7
 10
2455.944
 20
-8838.250
 30
-1815.360
 70
    32
  0
VERTEX
  8
W72LPLIFT
 62
7
 10
2466.227
 20
-8845.401
 30
-1817.553
 70
    32
  0
SEQEND
  8
W72LPLIFT
  0
POINT
  8
W72LPLIFT
 62
7
 10
2392.769
 20
-8765.195
 30
-1803.110
  0
POLYLINE
  8
W72LPLIFT
 62
7
 66
     1
 70
     9
  0
VERTEX
  8
W72LPLIFT
 62
7
 10
2392.769
 20
-8763.462
 30
-1803.110
 70
    32
  0
VERTEX
  8
W72LPLIFT
 62
7
 10
2390.769
 20
-8766.928
 30
-1803.110
 70
    32
  0
VERTEX
  8
W72LPLIFT
 62
7
 10
2394.769
 20
-8766.928
 30
-1803.110
 70
    32
  0
SEQEND
  8
W72LPLIFT
  0
TEXT
  8
W72LPLIFT
 62
7
 10
2399.286
 20
-8763.285
 30
-1803.110
 40
1.969
  1
ST-743S
 50
39.637
 41
 1.0 
  0
TEXT
  8
W72LPLIFT
 62
7
 10
2402.738
 20
-8767.625
 30
-1803.110
 40
1.969
  1
-1803.1096
 50
39.637
 41
 1.0 
  0
TEXT
  8
W72LPLIFT
 62
7
 10
2428.866
 20
-8813.193
 30
-1806.421
 40
1.969
  1
-1806.4208
 50
41.133
 41
 1.0 
  0
TEXT
  8
W72LPLIFT
 62
7
 10
2431.779
 20
-8815.483
 30
-1806.421
 40
1.969
  1
ST-718T
 50
41.133
 41
 1.0 
  0
POLYLINE
  8
W72LPLIFT
 62
7
 66
     1
 70
     9
  0
VERTEX
  8
W72LPLIFT
 62
7
 10
2426.216
 20
-8817.758
 30
-1806.421
 70
    32
  0
VERTEX
  8
W72LPLIFT
 62
7
 10
2424.216
 20
-8821.224
 30
-1806.421
 70
    32
  0
VERTEX
  8
W72LPLIFT
 62
7
 10
2428.216
 20
-8821.224
 30
-1806.421
 70
    32
  0
SEQEND
  8
W72LPLIFT
  0
POINT
  8
W72LPLIFT
 62
7
 10
2426.216
 20
-8819.491
 30
-1806.421
  0
POLYLINE
  8
W72LPLIFT
 62
7
 66
     1
 70
     9
  0
VERTEX
  8
W72LPLIFT
 62
7
 10
2436.344
 20
-8833.066
 30
-1808.244
 70
    32
  0
VERTEX
  8
W72LPLIFT
 62
7
 10
2434.344
 20
-8836.532
 30
-1808.244
 70
    32
  0
VERTEX
  8
W72LPLIFT
 62
7
 10
2438.344
 20
-8836.532
 30
-1808.244
 70
    32
  0
SEQEND
  8
W72LPLIFT
  0
POINT
  8
W72LPLIFT
 62
7
 10
2436.344
 20
-8834.799
 30
-1808.244
  0
TEXT
  8
W72LPLIFT
 62
7
 10
2443.428
 20
-8830.600
 30
-1808.244
 40
1.969
  1
ST-718s
 50
41.133
 41
 1.0 
  0
TEXT
  8
W72LPLIFT
 62
7
 10
2445.459
 20
-8834.227
 30
-1808.244
 40
1.969
  1
-1808.2437
 50
41.133
 41
 1.0 
  0
TEXT
  8
W72LPLIFT
 62
2
 10
2576.158
 20
-8848.425
 30
-1933.415
 40
1.969
  1
-1933.4149
 50
24.534
 41
 1.0 
  0
TEXT
  8
W72LPLIFT
 62
2
 10
2578.681
 20
-8851.043
 30
-1933.415
 40
1.969
  1
ST-931S
 50
24.534
 41
 1.0 
  0
TEXT
  8
W72LPLIFT
 62
2
 10
2583.253
 20
-8858.570
 30
-1933.298
 40
1.969
  1
ST-931T
 50
24.534
 41
 1.0 
  0
TEXT
  8
W72LPLIFT
 62
2
 10
2584.897
 20
-8861.902
 30
-1933.298
 40
1.969
  1
-1933.2981
 50
24.534
 41
 1.0 
  0
POINT
  8
W72LPLIFT
 62
2
 10
2570.819
 20
-8863.569
 30
-1933.298
  0
POLYLINE
  8
W72LPLIFT
 62
2
 66
     1
 70
     9
  0
VERTEX
  8
W72LPLIFT
 62
2
 10
2570.819
 20
-8861.836
 30
-1933.298
 70
    32
  0
VERTEX
  8
W72LPLIFT
 62
2
 10
2568.819
 20
-8865.302
 30
-1933.298
 70
    32
  0
VERTEX
  8
W72LPLIFT
 62
2
 10
2572.819
 20
-8865.302
 30
-1933.298
 70
    32
  0
SEQEND
  8
W72LPLIFT
  0
POLYLINE
  8
W72LPLIFT
 62
2
 66
     1
 70
     9
  0
VERTEX
  8
W72LPLIFT
 62
2
 10
2566.962
 20
-8855.023
 30
-1933.415
 70
    32
  0
VERTEX
  8
W72LPLIFT
 62
2
 10
2564.962
 20
-8858.490
 30
-1933.415
 70
    32
  0
VERTEX
  8
W72LPLIFT
 62
2
 10
2568.962
 20
-8858.490
 30
-1933.415
 70
    32
  0
SEQEND
  8
W72LPLIFT
  0
POINT
  8
W72LPLIFT
 62
2
 10
2566.962
 20
-8856.757
 30
-1933.415
  0
POLYLINE
  8
W72LPLIFT
 62
2
 66
     1
 70
     8
  0
VERTEX
  8
W72LPLIFT
 62
2
 10
2559.212
 20
-8819.900
 30
-1938.648
 70
    32
  0
VERTEX
  8
W72LPLIFT
 62
2
 10
2562.006
 20
-8818.252
 30
-1937.915
 70
    32
  0
VERTEX
  8
W72LPLIFT
 62
2
 10
2566.747
 20
-8821.257
 30
-1937.705
 70
    32
  0
VERTEX
  8
W72LPLIFT
 62
2
 10
2569.686
 20
-8824.943
 30
-1936.513
 70
    32
  0
VERTEX
  8
W72LPLIFT
 62
2
 10
2565.376
 20
-8828.482
 30
-1936.975
 70
    32
  0
VERTEX
  8
W72LPLIFT
 62
2
 10
2569.642
 20
-8839.302
 30
-1933.536
 70
    32
  0
VERTEX
  8
W72LPLIFT
 62
2
 10
2574.570
 20
-8846.590
 30
-1932.681
 70
    32
  0
VERTEX
  8
W72LPLIFT
 62
2
 10
2576.639
 20
-8854.073
 30
-1933.940
 70
    32
  0
VERTEX
  8
W72LPLIFT
 62
2
 10
2586.290
 20
-8864.982
 30
-1931.920
 70
    32
  0
VERTEX
  8
W72LPLIFT
 62
2
 10
2585.351
 20
-8866.028
 30
-1931.568
 70
    32
  0
VERTEX
  8
W72LPLIFT
 62
2
 10
2584.320
 20
-8871.409
 30
-1932.073
 70
    32
  0
VERTEX
  8
W72LPLIFT
 62
2
 10
2587.937
 20
-8876.870
 30
-1931.757
 70
    32
  0
VERTEX
  8
W72LPLIFT
 62
2
 10
2591.038
 20
-8885.597
 30
-1932.939
 70
    32
  0
VERTEX
  8
W72LPLIFT
 62
2
 10
2595.202
 20
-8892.739
 30
-1932.974
 70
    32
  0
VERTEX
  8
W72LPLIFT
 62
2
 10
2598.751
 20
-8896.145
 30
-1932.734
 70
    32
  0
VERTEX
  8
W72LPLIFT
 62
2
 10
2596.060
 20
-8899.503
 30
-1933.098
 70
    32
  0
VERTEX
  8
W72LPLIFT
 62
2
 10
2593.039
 20
-8901.354
 30
-1933.175
 70
    32
  0
VERTEX
  8
W72LPLIFT
 62
2
 10
2587.082
 20
-8902.831
 30
-1933.750
 70
    32
  0
VERTEX
  8
W72LPLIFT
 62
2
 10
2580.953
 20
-8891.572
 30
-1933.893
 70
    32
  0
VERTEX
  8
W72LPLIFT
 62
2
 10
2574.533
 20
-8881.127
 30
-1931.335
 70
    32
  0
VERTEX
  8
W72LPLIFT
 62
2
 10
2572.350
 20
-8876.293
 30
-1931.495
 70
    32
  0
VERTEX
  8
W72LPLIFT
 62
2
 10
2566.904
 20
-8874.820
 30
-1932.456
 70
    32
  0
VERTEX
  8
W72LPLIFT
 62
2
 10
2566.589
 20
-8868.138
 30
-1933.411
 70
    32
  0
VERTEX
  8
W72LPLIFT
 62
2
 10
2563.439
 20
-8855.074
 30
-1933.857
 70
    32
  0
VERTEX
  8
W72LPLIFT
 62
2
 10
2561.262
 20
-8853.063
 30
-1932.776
 70
    32
  0
VERTEX
  8
W72LPLIFT
 62
2
 10
2555.358
 20
-8844.810
 30
-1935.361
 70
    32
  0
VERTEX
  8
W72LPLIFT
 62
2
 10
2551.811
 20
-8848.243
 30
-1934.712
 70
    32
  0
SEQEND
  8
W72LPLIFT
  0
POLYLINE
  8
W72LPLIFT
 62
6
 66
     1
 70
     8
  0
VERTEX
  8
W72LPLIFT
 62
6
 10
2535.733
 20
-8870.381
 30
-1930.354
 70
    32
  0
VERTEX
  8
W72LPLIFT
 62
6
 10
2529.236
 20
-8861.625
 30
-1930.466
 70
    32
  0
VERTEX
  8
W72LPLIFT
 62
6
 10
2527.874
 20
-8858.985
 30
-1930.577
 70
    32
  0
VERTEX
  8
W72LPLIFT
 62
6
 10
2526.491
 20
-8855.746
 30
-1929.829
 70
    32
  0
VERTEX
  8
W72LPLIFT
 62
6
 10
2523.659
 20
-8836.503
 30
-1929.449
 70
    32
  0
VERTEX
  8
W72LPLIFT
 62
6
 10
2521.344
 20
-8826.287
 30
-1927.444
 70
    32
  0
VERTEX
  8
W72LPLIFT
 62
6
 10
2519.205
 20
-8823.631
 30
-1927.884
 70
    32
  0
VERTEX
  8
W72LPLIFT
 62
6
 10
2518.155
 20
-8815.331
 30
-1928.693
 70
    32
  0
VERTEX
  8
W72LPLIFT
 62
6
 10
2510.519
 20
-8816.083
 30
-1929.268
 70
    32
  0
VERTEX
  8
W72LPLIFT
 62
6
 10
2507.416
 20
-8807.015
 30
-1928.874
 70
    32
  0
VERTEX
  8
W72LPLIFT
 62
6
 10
2499.471
 20
-8810.082
 30
-1929.065
 70
    32
  0
VERTEX
  8
W72LPLIFT
 62
6
 10
2497.345
 20
-8814.569
 30
-1929.461
 70
    32
  0
VERTEX
  8
W72LPLIFT
 62
6
 10
2504.519
 20
-8826.361
 30
-1928.875
 70
    32
  0
VERTEX
  8
W72LPLIFT
 62
6
 10
2505.825
 20
-8830.799
 30
-1929.013
 70
    32
  0
VERTEX
  8
W72LPLIFT
 62
6
 10
2513.397
 20
-8838.653
 30
-1929.011
 70
    32
  0
VERTEX
  8
W72LPLIFT
 62
6
 10
2514.329
 20
-8844.602
 30
-1929.754
 70
    32
  0
VERTEX
  8
W72LPLIFT
 62
6
 10
2512.142
 20
-8849.144
 30
-1929.998
 70
    32
  0
VERTEX
  8
W72LPLIFT
 62
6
 10
2515.243
 20
-8855.618
 30
-1929.681
 70
    32
  0
VERTEX
  8
W72LPLIFT
 62
6
 10
2516.451
 20
-8858.698
 30
-1928.949
 70
    32
  0
VERTEX
  8
W72LPLIFT
 62
6
 10
2516.046
 20
-8863.790
 30
-1929.574
 70
    32
  0
VERTEX
  8
W72LPLIFT
 62
6
 10
2523.342
 20
-8872.070
 30
-1929.676
 70
    32
  0
VERTEX
  8
W72LPLIFT
 62
6
 10
2523.665
 20
-8874.095
 30
-1929.267
 70
    32
  0
VERTEX
  8
W72LPLIFT
 62
6
 10
2531.919
 20
-8880.575
 30
-1929.921
 70
    32
  0
SEQEND
  8
W72LPLIFT
  0
POLYLINE
  8
W72LPLIFT
 62
8
 66
     1
 70
     8
  0
VERTEX
  8
W72LPLIFT
 62
8
 10
2556.877
 20
-8820.138
 30
-1939.616
 70
    32
  0
VERTEX
  8
W72LPLIFT
 62
8
 10
2552.290
 20
-8815.228
 30
-1938.908
 70
    32
  0
VERTEX
  8
W72LPLIFT
 62
8
 10
2550.135
 20
-8805.737
 30
-1939.284
 70
    32
  0
VERTEX
  8
W72LPLIFT
 62
8
 10
2545.960
 20
-8798.275
 30
-1939.923
 70
    32
  0
VERTEX
  8
W72LPLIFT
 62
8
 10
2540.198
 20
-8787.716
 30
-1938.929
 70
    32
  0
VERTEX
  8
W72LPLIFT
 62
8
 10
2537.017
 20
-8786.943
 30
-1940.163
 70
    32
  0
VERTEX
  8
W72LPLIFT
 62
8
 10
2533.973
 20
-8778.620
 30
-1939.849
 70
    32
  0
VERTEX
  8
W72LPLIFT
 62
8
 10
2525.659
 20
-8770.399
 30
-1940.214
 70
    32
  0
VERTEX
  8
W72LPLIFT
 62
8
 10
2517.968
 20
-8764.191
 30
-1939.599
 70
    32
  0
VERTEX
  8
W72LPLIFT
 62
8
 10
2508.809
 20
-8746.341
 30
-1938.589
 70
    32
  0
VERTEX
  8
W72LPLIFT
 62
8
 10
2503.262
 20
-8737.871
 30
-1938.468
 70
    32
  0
VERTEX
  8
W72LPLIFT
 62
8
 10
2498.147
 20
-8730.261
 30
-1938.584
 70
    32
  0
VERTEX
  8
W72LPLIFT
 62
8
 10
2495.423
 20
-8721.212
 30
-1937.453
 70
    32
  0
VERTEX
  8
W72LPLIFT
 62
8
 10
2495.407
 20
-8710.451
 30
-1936.845
 70
    32
  0
VERTEX
  8
W72LPLIFT
 62
8
 10
2496.461
 20
-8699.501
 30
-1937.019
 70
    32
  0
VERTEX
  8
W72LPLIFT
 62
8
 10
2497.055
 20
-8693.278
 30
-1937.527
 70
    32
  0
VERTEX
  8
W72LPLIFT
 62
8
 10
2499.920
 20
-8682.233
 30
-1936.486
 70
    32
  0
VERTEX
  8
W72LPLIFT
 62
8
 10
2497.613
 20
-8679.166
 30
-1936.306
 70
    32
  0
VERTEX
  8
W72LPLIFT
 62
8
 10
2494.989
 20
-8678.493
 30
-1936.594
 70
    32
  0
VERTEX
  8
W72LPLIFT
 62
8
 10
2491.441
 20
-8679.277
 30
-1936.747
 70
    32
  0
VERTEX
  8
W72LPLIFT
 62
8
 10
2489.594
 20
-8679.275
 30
-1936.300
 70
    32
  0
VERTEX
  8
W72LPLIFT
 62
8
 10
2488.340
 20
-8673.295
 30
-1936.112
 70
    32
  0
VERTEX
  8
W72LPLIFT
 62
8
 10
2485.106
 20
-8670.282
 30
-1936.009
 70
    32
  0
VERTEX
  8
W72LPLIFT
 62
8
 10
2483.294
 20
-8667.183
 30
-1936.051
 70
    32
  0
VERTEX
  8
W72LPLIFT
 62
8
 10
2477.560
 20
-8669.928
 30
-1936.093
 70
    32
  0
VERTEX
  8
W72LPLIFT
 62
8
 10
2471.960
 20
-8672.533
 30
-1936.135
 70
    32
  0
VERTEX
  8
W72LPLIFT
 62
8
 10
2465.549
 20
-8675.961
 30
-1935.846
 70
    32
  0
VERTEX
  8
W72LPLIFT
 62
8
 10
2475.785
 20
-8689.259
 30
-1935.847
 70
    32
  0
VERTEX
  8
W72LPLIFT
 62
8
 10
2477.420
 20
-8692.138
 30
-1936.652
 70
    32
  0
VERTEX
  8
W72LPLIFT
 62
8
 10
2478.983
 20
-8694.578
 30
-1937.408
 70
    32
  0
VERTEX
  8
W72LPLIFT
 62
8
 10
2483.905
 20
-8702.671
 30
-1938.386
 70
    32
  0
VERTEX
  8
W72LPLIFT
 62
8
 10
2485.664
 20
-8711.436
 30
-1937.842
 70
    32
  0
VERTEX
  8
W72LPLIFT
 62
8
 10
2484.435
 20
-8712.687
 30
-1937.643
 70
    32
  0
VERTEX
  8
W72LPLIFT
 62
8
 10
2486.203
 20
-8725.417
 30
-1938.577
 70
    32
  0
VERTEX
  8
W72LPLIFT
 62
8
 10
2488.135
 20
-8734.882
 30
-1938.261
 70
    32
  0
VERTEX
  8
W72LPLIFT
 62
8
 10
2493.442
 20
-8743.721
 30
-1938.766
 70
    32
  0
VERTEX
  8
W72LPLIFT
 62
8
 10
2504.566
 20
-8762.391
 30
-1938.589
 70
    32
  0
VERTEX
  8
W72LPLIFT
 62
8
 10
2509.875
 20
-8771.385
 30
-1937.933
 70
    32
  0
VERTEX
  8
W72LPLIFT
 62
8
 10
2519.570
 20
-8779.148
 30
-1938.710
 70
    32
  0
VERTEX
  8
W72LPLIFT
 62
8
 10
2524.319
 20
-8783.295
 30
-1939.646
 70
    32
  0
VERTEX
  8
W72LPLIFT
 62
8
 10
2528.889
 20
-8794.192
 30
-1940.016
 70
    32
  0
VERTEX
  8
W72LPLIFT
 62
8
 10
2528.741
 20
-8799.592
 30
-1939.220
 70
    32
  0
VERTEX
  8
W72LPLIFT
 62
8
 10
2532.026
 20
-8808.647
 30
-1940.409
 70
    32
  0
VERTEX
  8
W72LPLIFT
 62
8
 10
2531.080
 20
-8812.776
 30
-1940.355
 70
    32
  0
VERTEX
  8
W72LPLIFT
 62
8
 10
2540.645
 20
-8826.709
 30
-1938.139
 70
    32
  0
SEQEND
  8
W72LPLIFT
  0
ENDSEC
  0
EOF
