999
********************************
999
*   DXF File - Entities Only   *
999
*        3D Data Format        *
999
*     Output from ENVISAGE     *
999
*     02-Jan-2008 11:33:06     *
999
********************************
  0
SECTION 
  2
HEADER
  9
$ACADVER
  1
AC1009
  9
$EXTMIN
 10
-290000.000
 20
-250000.000
 30
-4000.000
  9
$EXTMAX
 10
320000.000
 20
160000.000
 30
6000.000
  0
ENDSEC
  0
SECTION
  2
ENTITIES
  0
POLYLINE
  8
W74LASURC
 62
6
 66
     1
 70
     9
  0
VERTEX
  8
W74LASURC
 62
6
 10
2284.955
 20
-7815.050
 30
-2020.948
 70
    32
  0
VERTEX
  8
W74LASURC
 62
6
 10
2285.204
 20
-7815.723
 30
-2020.932
 70
    32
  0
VERTEX
  8
W74LASURC
 62
6
 10
2286.292
 20
-7826.310
 30
-2021.264
 70
    32
  0
VERTEX
  8
W74LASURC
 62
6
 10
2285.387
 20
-7829.061
 30
-2021.331
 70
    32
  0
VERTEX
  8
W74LASURC
 62
6
 10
2289.731
 20
-7839.744
 30
-2021.724
 70
    32
  0
VERTEX
  8
W74LASURC
 62
6
 10
2294.873
 20
-7856.436
 30
-2022.309
 70
    32
  0
VERTEX
  8
W74LASURC
 62
6
 10
2298.133
 20
-7866.278
 30
-2022.658
 70
    32
  0
VERTEX
  8
W74LASURC
 62
6
 10
2298.658
 20
-7871.548
 30
-2022.135
 70
    32
  0
VERTEX
  8
W74LASURC
 62
6
 10
2302.243
 20
-7885.264
 30
-2022.170
 70
    32
  0
VERTEX
  8
W74LASURC
 62
6
 10
2292.123
 20
-7889.607
 30
-2022.173
 70
    32
  0
VERTEX
  8
W74LASURC
 62
6
 10
2286.950
 20
-7870.165
 30
-2022.123
 70
    32
  0
VERTEX
  8
W74LASURC
 62
6
 10
2280.675
 20
-7855.621
 30
-2022.051
 70
    32
  0
VERTEX
  8
W74LASURC
 62
6
 10
2273.768
 20
-7845.035
 30
-2021.620
 70
    32
  0
VERTEX
  8
W74LASURC
 62
6
 10
2268.510
 20
-7835.514
 30
-2021.248
 70
    32
  0
VERTEX
  8
W74LASURC
 62
6
 10
2265.235
 20
-7832.334
 30
-2021.131
 70
    32
  0
VERTEX
  8
W74LASURC
 62
6
 10
2260.162
 20
-7829.180
 30
-2021.014
 70
    32
  0
VERTEX
  8
W74LASURC
 62
6
 10
2259.631
 20
-7814.121
 30
-2020.863
 70
    32
  0
VERTEX
  8
W74LASURC
 62
6
 10
2263.428
 20
-7810.694
 30
-2021.037
 70
    32
  0
VERTEX
  8
W74LASURC
 62
6
 10
2261.742
 20
-7802.106
 30
-2021.507
 70
    32
  0
VERTEX
  8
W74LASURC
 62
6
 10
2263.200
 20
-7798.743
 30
-2021.684
 70
    32
  0
VERTEX
  8
W74LASURC
 62
6
 10
2260.393
 20
-7788.818
 30
-2021.786
 70
    32
  0
VERTEX
  8
W74LASURC
 62
6
 10
2254.719
 20
-7776.171
 30
-2021.421
 70
    32
  0
VERTEX
  8
W74LASURC
 62
6
 10
2266.059
 20
-7773.610
 30
-2021.436
 70
    32
  0
VERTEX
  8
W74LASURC
 62
6
 10
2273.711
 20
-7790.633
 30
-2022.089
 70
    32
  0
VERTEX
  8
W74LASURC
 62
6
 10
2277.189
 20
-7805.705
 30
-2021.262
 70
    32
  0
VERTEX
  8
W74LASURC
 62
6
 10
2282.465
 20
-7808.327
 30
-2021.103
 70
    32
  0
VERTEX
  8
W74LASURC
 62
6
 10
2282.574
 20
-7808.620
 30
-2021.096
 70
    32
  0
SEQEND
  8
W74LASURC
  0
POLYLINE
  8
W74LASURC
 62
4
 66
     1
 70
     9
  0
VERTEX
  8
W74LASURC
 62
4
 10
2031.658
 20
-6581.639
 30
-2067.843
 70
    32
  0
VERTEX
  8
W74LASURC
 62
4
 10
2020.203
 20
-6585.823
 30
-2068.268
 70
    32
  0
VERTEX
  8
W74LASURC
 62
4
 10
2014.607
 20
-6570.998
 30
-2065.518
 70
    32
  0
VERTEX
  8
W74LASURC
 62
4
 10
2009.771
 20
-6543.179
 30
-2060.509
 70
    32
  0
VERTEX
  8
W74LASURC
 62
4
 10
2026.599
 20
-6540.859
 30
-2060.557
 70
    32
  0
VERTEX
  8
W74LASURC
 62
4
 10
2026.528
 20
-6562.779
 30
-2064.398
 70
    32
  0
SEQEND
  8
W74LASURC
  0
POLYLINE
  8
W74LASURC
 62
1
 66
     1
 70
     9
  0
VERTEX
  8
W74LASURC
 62
1
 10
2013.646
 20
-6542.712
 30
-2062.553
 70
    32
  0
VERTEX
  8
W74LASURC
 62
1
 10
2013.728
 20
-6536.684
 30
-2061.801
 70
    32
  0
VERTEX
  8
W74LASURC
 62
1
 10
2014.991
 20
-6529.007
 30
-2060.691
 70
    32
  0
VERTEX
  8
W74LASURC
 62
1
 10
2012.209
 20
-6515.298
 30
-2059.714
 70
    32
  0
VERTEX
  8
W74LASURC
 62
1
 10
2012.173
 20
-6515.362
 30
-2059.762
 70
    32
  0
VERTEX
  8
W74LASURC
 62
1
 10
2007.474
 20
-6509.241
 30
-2059.276
 70
    32
  0
VERTEX
  8
W74LASURC
 62
1
 10
2001.005
 20
-6504.760
 30
-2058.857
 70
    32
  0
VERTEX
  8
W74LASURC
 62
1
 10
1998.395
 20
-6498.981
 30
-2058.363
 70
    32
  0
VERTEX
  8
W74LASURC
 62
1
 10
1994.530
 20
-6496.490
 30
-2058.082
 70
    32
  0
VERTEX
  8
W74LASURC
 62
1
 10
1992.309
 20
-6490.427
 30
-2057.614
 70
    32
  0
VERTEX
  8
W74LASURC
 62
1
 10
1985.286
 20
-6481.918
 30
-2056.840
 70
    32
  0
VERTEX
  8
W74LASURC
 62
1
 10
1995.604
 20
-6472.565
 30
-2056.531
 70
    32
  0
VERTEX
  8
W74LASURC
 62
1
 10
2007.726
 20
-6467.870
 30
-2056.584
 70
    32
  0
VERTEX
  8
W74LASURC
 62
1
 10
2011.339
 20
-6480.250
 30
-2057.512
 70
    32
  0
VERTEX
  8
W74LASURC
 62
1
 10
2019.000
 20
-6492.728
 30
-2058.464
 70
    32
  0
VERTEX
  8
W74LASURC
 62
1
 10
2021.735
 20
-6499.750
 30
-2058.967
 70
    32
  0
VERTEX
  8
W74LASURC
 62
1
 10
2022.698
 20
-6506.046
 30
-2059.387
 70
    32
  0
VERTEX
  8
W74LASURC
 62
1
 10
2026.267
 20
-6513.686
 30
-2059.946
 70
    32
  0
VERTEX
  8
W74LASURC
 62
1
 10
2027.247
 20
-6523.903
 30
-2060.593
 70
    32
  0
VERTEX
  8
W74LASURC
 62
1
 10
2030.950
 20
-6535.661
 30
-2061.992
 70
    32
  0
VERTEX
  8
W74LASURC
 62
1
 10
2029.977
 20
-6540.389
 30
-2062.674
 70
    32
  0
SEQEND
  8
W74LASURC
  0
POLYLINE
  8
W74LASURC
 62
1
 66
     1
 70
     9
  0
VERTEX
  8
W74LASURC
 62
1
 10
2263.428
 20
-7810.694
 30
-2011.037
 70
    32
  0
VERTEX
  8
W74LASURC
 62
1
 10
2261.742
 20
-7802.106
 30
-2011.507
 70
    32
  0
VERTEX
  8
W74LASURC
 62
1
 10
2264.376
 20
-7798.526
 30
-2011.684
 70
    32
  0
VERTEX
  8
W74LASURC
 62
1
 10
2261.839
 20
-7788.415
 30
-2011.786
 70
    32
  0
VERTEX
  8
W74LASURC
 62
1
 10
2260.396
 20
-7783.388
 30
-2011.421
 70
    32
  0
VERTEX
  8
W74LASURC
 62
1
 10
2267.722
 20
-7781.597
 30
-2011.436
 70
    32
  0
VERTEX
  8
W74LASURC
 62
1
 10
2272.048
 20
-7791.073
 30
-2012.089
 70
    32
  0
VERTEX
  8
W74LASURC
 62
1
 10
2275.682
 20
-7806.326
 30
-2011.262
 70
    32
  0
VERTEX
  8
W74LASURC
 62
1
 10
2277.073
 20
-7808.685
 30
-2011.103
 70
    32
  0
VERTEX
  8
W74LASURC
 62
1
 10
2277.996
 20
-7810.072
 30
-2011.096
 70
    32
  0
VERTEX
  8
W74LASURC
 62
1
 10
2280.765
 20
-7815.734
 30
-2010.948
 70
    32
  0
VERTEX
  8
W74LASURC
 62
1
 10
2281.919
 20
-7818.276
 30
-2010.932
 70
    32
  0
VERTEX
  8
W74LASURC
 62
1
 10
2284.572
 20
-7826.481
 30
-2011.264
 70
    32
  0
VERTEX
  8
W74LASURC
 62
1
 10
2285.387
 20
-7829.061
 30
-2011.331
 70
    32
  0
VERTEX
  8
W74LASURC
 62
1
 10
2289.731
 20
-7839.744
 30
-2011.724
 70
    32
  0
VERTEX
  8
W74LASURC
 62
1
 10
2294.873
 20
-7856.436
 30
-2012.309
 70
    32
  0
VERTEX
  8
W74LASURC
 62
1
 10
2298.133
 20
-7866.278
 30
-2012.658
 70
    32
  0
VERTEX
  8
W74LASURC
 62
1
 10
2298.658
 20
-7871.548
 30
-2012.135
 70
    32
  0
VERTEX
  8
W74LASURC
 62
1
 10
2288.379
 20
-7875.358
 30
-2012.173
 70
    32
  0
VERTEX
  8
W74LASURC
 62
1
 10
2286.950
 20
-7870.165
 30
-2012.123
 70
    32
  0
VERTEX
  8
W74LASURC
 62
1
 10
2280.675
 20
-7855.621
 30
-2012.051
 70
    32
  0
VERTEX
  8
W74LASURC
 62
1
 10
2273.768
 20
-7845.035
 30
-2011.620
 70
    32
  0
VERTEX
  8
W74LASURC
 62
1
 10
2268.510
 20
-7835.514
 30
-2011.248
 70
    32
  0
SEQEND
  8
W74LASURC
  0
POLYLINE
  8
W74LASURC
 62
1
 66
     1
 70
     9
  0
VERTEX
  8
W74LASURC
 62
1
 10
1995.561
 20
-6499.116
 30
-2057.547
 70
    32
  0
VERTEX
  8
W74LASURC
 62
1
 10
1989.694
 20
-6489.391
 30
-2056.951
 70
    32
  0
VERTEX
  8
W74LASURC
 62
1
 10
1969.379
 20
-6473.966
 30
-2056.881
 70
    32
  0
VERTEX
  8
W74LASURC
 62
1
 10
1967.935
 20
-6469.543
 30
-2056.868
 70
    32
  0
VERTEX
  8
W74LASURC
 62
1
 10
1961.044
 20
-6462.956
 30
-2056.830
 70
    32
  0
VERTEX
  8
W74LASURC
 62
1
 10
1962.952
 20
-6456.849
 30
-2056.819
 70
    32
  0
VERTEX
  8
W74LASURC
 62
1
 10
1950.983
 20
-6441.320
 30
-2056.775
 70
    32
  0
VERTEX
  8
W74LASURC
 62
1
 10
1951.536
 20
-6434.639
 30
-2056.761
 70
    32
  0
VERTEX
  8
W74LASURC
 62
1
 10
1940.656
 20
-6422.026
 30
-2056.689
 70
    32
  0
VERTEX
  8
W74LASURC
 62
1
 10
1957.684
 20
-6404.522
 30
-2056.636
 70
    32
  0
VERTEX
  8
W74LASURC
 62
1
 10
1968.357
 20
-6398.327
 30
-2056.628
 70
    32
  0
VERTEX
  8
W74LASURC
 62
1
 10
1977.146
 20
-6415.195
 30
-2056.734
 70
    32
  0
VERTEX
  8
W74LASURC
 62
1
 10
1987.746
 20
-6436.397
 30
-2056.801
 70
    32
  0
VERTEX
  8
W74LASURC
 62
1
 10
1992.622
 20
-6446.247
 30
-2056.827
 70
    32
  0
VERTEX
  8
W74LASURC
 62
1
 10
1996.268
 20
-6450.881
 30
-2056.839
 70
    32
  0
VERTEX
  8
W74LASURC
 62
1
 10
2002.217
 20
-6464.402
 30
-2056.881
 70
    32
  0
VERTEX
  8
W74LASURC
 62
1
 10
2005.860
 20
-6466.929
 30
-2056.890
 70
    32
  0
VERTEX
  8
W74LASURC
 62
1
 10
2006.755
 20
-6468.277
 30
-2056.891
 70
    32
  0
VERTEX
  8
W74LASURC
 62
1
 10
1995.622
 20
-6472.535
 30
-2057.055
 70
    32
  0
VERTEX
  8
W74LASURC
 62
1
 10
1985.336
 20
-6481.902
 30
-2057.219
 70
    32
  0
VERTEX
  8
W74LASURC
 62
1
 10
1992.354
 20
-6490.539
 30
-2057.383
 70
    32
  0
SEQEND
  8
W74LASURC
  0
POLYLINE
  8
W74LASURC
 62
1
 66
     1
 70
     9
  0
VERTEX
  8
W74LASURC
 62
1
 10
1940.988
 20
-6422.208
 30
-2057.566
 70
    32
  0
VERTEX
  8
W74LASURC
 62
1
 10
1934.300
 20
-6405.508
 30
-2059.133
 70
    32
  0
VERTEX
  8
W74LASURC
 62
1
 10
1930.643
 20
-6397.117
 30
-2058.330
 70
    32
  0
VERTEX
  8
W74LASURC
 62
1
 10
1934.991
 20
-6392.237
 30
-2058.100
 70
    32
  0
VERTEX
  8
W74LASURC
 62
1
 10
1931.589
 20
-6382.698
 30
-2059.387
 70
    32
  0
VERTEX
  8
W74LASURC
 62
1
 10
1936.002
 20
-6379.465
 30
-2059.180
 70
    32
  0
VERTEX
  8
W74LASURC
 62
1
 10
1936.381
 20
-6377.516
 30
-2057.924
 70
    32
  0
VERTEX
  8
W74LASURC
 62
1
 10
1935.162
 20
-6369.866
 30
-2057.999
 70
    32
  0
VERTEX
  8
W74LASURC
 62
1
 10
1940.262
 20
-6367.099
 30
-2057.604
 70
    32
  0
VERTEX
  8
W74LASURC
 62
1
 10
1947.429
 20
-6362.575
 30
-2057.352
 70
    32
  0
VERTEX
  8
W74LASURC
 62
1
 10
1955.921
 20
-6375.347
 30
-2058.140
 70
    32
  0
VERTEX
  8
W74LASURC
 62
1
 10
1961.096
 20
-6376.776
 30
-2056.626
 70
    32
  0
VERTEX
  8
W74LASURC
 62
1
 10
1965.488
 20
-6389.633
 30
-2056.290
 70
    32
  0
VERTEX
  8
W74LASURC
 62
1
 10
1969.249
 20
-6397.924
 30
-2056.398
 70
    32
  0
VERTEX
  8
W74LASURC
 62
1
 10
1957.832
 20
-6404.389
 30
-2056.982
 70
    32
  0
SEQEND
  8
W74LASURC
  0
POLYLINE
  8
W74LASURC
 62
1
 66
     1
 70
     9
  0
VERTEX
  8
W74LASURC
 62
1
 10
1976.860
 20
-6414.614
 30
-2057.310
 70
    32
  0
VERTEX
  8
W74LASURC
 62
1
 10
1980.717
 20
-6420.022
 30
-2058.112
 70
    32
  0
VERTEX
  8
W74LASURC
 62
1
 10
1984.629
 20
-6419.761
 30
-2057.562
 70
    32
  0
VERTEX
  8
W74LASURC
 62
1
 10
1989.724
 20
-6417.861
 30
-2056.028
 70
    32
  0
VERTEX
  8
W74LASURC
 62
1
 10
1992.252
 20
-6414.956
 30
-2054.509
 70
    32
  0
VERTEX
  8
W74LASURC
 62
1
 10
1999.072
 20
-6420.718
 30
-2055.463
 70
    32
  0
VERTEX
  8
W74LASURC
 62
1
 10
1995.418
 20
-6424.813
 30
-2056.311
 70
    32
  0
VERTEX
  8
W74LASURC
 62
1
 10
1989.255
 20
-6433.852
 30
-2056.687
 70
    32
  0
VERTEX
  8
W74LASURC
 62
1
 10
1988.512
 20
-6437.956
 30
-2057.114
 70
    32
  0
SEQEND
  8
W74LASURC
  0
POLYLINE
  8
W74LASURC
 62
1
 66
     1
 70
     9
  0
VERTEX
  8
W74LASURC
 62
1
 10
1969.436
 20
-6474.021
 30
-2057.279
 70
    32
  0
VERTEX
  8
W74LASURC
 62
1
 10
1960.072
 20
-6471.725
 30
-2058.762
 70
    32
  0
VERTEX
  8
W74LASURC
 62
1
 10
1953.902
 20
-6464.153
 30
-2059.021
 70
    32
  0
VERTEX
  8
W74LASURC
 62
1
 10
1944.713
 20
-6465.692
 30
-2058.992
 70
    32
  0
VERTEX
  8
W74LASURC
 62
1
 10
1941.859
 20
-6459.893
 30
-2059.379
 70
    32
  0
VERTEX
  8
W74LASURC
 62
1
 10
1933.407
 20
-6455.637
 30
-2058.907
 70
    32
  0
VERTEX
  8
W74LASURC
 62
1
 10
1933.221
 20
-6452.734
 30
-2058.289
 70
    32
  0
VERTEX
  8
W74LASURC
 62
1
 10
1933.060
 20
-6449.738
 30
-2058.288
 70
    32
  0
VERTEX
  8
W74LASURC
 62
1
 10
1936.781
 20
-6447.252
 30
-2058.501
 70
    32
  0
VERTEX
  8
W74LASURC
 62
1
 10
1938.634
 20
-6445.856
 30
-2058.523
 70
    32
  0
VERTEX
  8
W74LASURC
 62
1
 10
1949.406
 20
-6451.701
 30
-2058.720
 70
    32
  0
VERTEX
  8
W74LASURC
 62
1
 10
1952.377
 20
-6449.296
 30
-2057.997
 70
    32
  0
VERTEX
  8
W74LASURC
 62
1
 10
1951.100
 20
-6441.407
 30
-2058.073
 70
    32
  0
VERTEX
  8
W74LASURC
 62
1
 10
1962.936
 20
-6456.943
 30
-2057.875
 70
    32
  0
VERTEX
  8
W74LASURC
 62
1
 10
1961.087
 20
-6463.008
 30
-2057.676
 70
    32
  0
VERTEX
  8
W74LASURC
 62
1
 10
1967.956
 20
-6469.605
 30
-2057.478
 70
    32
  0
SEQEND
  8
W74LASURC
  0
POLYLINE
  8
W74LASURC
 62
1
 66
     1
 70
     9
  0
VERTEX
  8
W74LASURC
 62
1
 10
2241.007
 20
-7812.894
 30
-1999.934
 70
    32
  0
VERTEX
  8
W74LASURC
 62
1
 10
2246.457
 20
-7810.553
 30
-1999.090
 70
    32
  0
VERTEX
  8
W74LASURC
 62
1
 10
2257.123
 20
-7803.869
 30
-1997.182
 70
    32
  0
VERTEX
  8
W74LASURC
 62
1
 10
2263.862
 20
-7799.631
 30
-1995.975
 70
    32
  0
VERTEX
  8
W74LASURC
 62
1
 10
2270.818
 20
-7796.912
 30
-1994.821
 70
    32
  0
VERTEX
  8
W74LASURC
 62
1
 10
2272.192
 20
-7799.579
 30
-1994.770
 70
    32
  0
VERTEX
  8
W74LASURC
 62
1
 10
2276.185
 20
-7816.817
 30
-1995.145
 70
    32
  0
VERTEX
  8
W74LASURC
 62
1
 10
2271.875
 20
-7822.401
 30
-1996.076
 70
    32
  0
VERTEX
  8
W74LASURC
 62
1
 10
2261.381
 20
-7818.686
 30
-1997.385
 70
    32
  0
VERTEX
  8
W74LASURC
 62
1
 10
2253.860
 20
-7819.601
 30
-1998.521
 70
    32
  0
VERTEX
  8
W74LASURC
 62
1
 10
2246.360
 20
-7822.137
 30
-1999.609
 70
    32
  0
SEQEND
  8
W74LASURC
  0
POLYLINE
  8
W74LASURC
 62
1
 66
     1
 70
     9
  0
VERTEX
  8
W74LASURC
 62
1
 10
2247.737
 20
-7809.737
 30
-1996.389
 70
    32
  0
VERTEX
  8
W74LASURC
 62
1
 10
2253.225
 20
-7804.963
 30
-1996.283
 70
    32
  0
VERTEX
  8
W74LASURC
 62
1
 10
2255.454
 20
-7802.934
 30
-1996.527
 70
    32
  0
VERTEX
  8
W74LASURC
 62
1
 10
2254.697
 20
-7798.988
 30
-1996.438
 70
    32
  0
VERTEX
  8
W74LASURC
 62
1
 10
2246.653
 20
-7780.890
 30
-1997.559
 70
    32
  0
VERTEX
  8
W74LASURC
 62
1
 10
2253.146
 20
-7776.067
 30
-1997.271
 70
    32
  0
VERTEX
  8
W74LASURC
 62
1
 10
2259.200
 20
-7776.347
 30
-1996.377
 70
    32
  0
VERTEX
  8
W74LASURC
 62
1
 10
2264.131
 20
-7786.854
 30
-1996.596
 70
    32
  0
VERTEX
  8
W74LASURC
 62
1
 10
2266.592
 20
-7796.364
 30
-1996.208
 70
    32
  0
VERTEX
  8
W74LASURC
 62
1
 10
2267.312
 20
-7798.337
 30
-1996.243
 70
    32
  0
VERTEX
  8
W74LASURC
 62
1
 10
2263.948
 20
-7799.569
 30
-1996.316
 70
    32
  0
SEQEND
  8
W74LASURC
  0
POLYLINE
  8
W74LASURC
 62
1
 66
     1
 70
     9
  0
VERTEX
  8
W74LASURC
 62
1
 10
2273.277
 20
-7820.751
 30
-1996.720
 70
    32
  0
VERTEX
  8
W74LASURC
 62
1
 10
2273.048
 20
-7822.446
 30
-1996.711
 70
    32
  0
VERTEX
  8
W74LASURC
 62
1
 10
2276.680
 20
-7831.414
 30
-1996.850
 70
    32
  0
VERTEX
  8
W74LASURC
 62
1
 10
2282.282
 20
-7838.434
 30
-1996.302
 70
    32
  0
VERTEX
  8
W74LASURC
 62
1
 10
2285.332
 20
-7860.763
 30
-1996.008
 70
    32
  0
VERTEX
  8
W74LASURC
 62
1
 10
2287.717
 20
-7868.115
 30
-1995.288
 70
    32
  0
VERTEX
  8
W74LASURC
 62
1
 10
2274.231
 20
-7872.643
 30
-1996.044
 70
    32
  0
VERTEX
  8
W74LASURC
 62
1
 10
2273.384
 20
-7869.549
 30
-1996.603
 70
    32
  0
VERTEX
  8
W74LASURC
 62
1
 10
2271.890
 20
-7860.429
 30
-1997.092
 70
    32
  0
VERTEX
  8
W74LASURC
 62
1
 10
2267.149
 20
-7843.132
 30
-1996.603
 70
    32
  0
VERTEX
  8
W74LASURC
 62
1
 10
2265.453
 20
-7836.647
 30
-1996.681
 70
    32
  0
VERTEX
  8
W74LASURC
 62
1
 10
2261.057
 20
-7828.660
 30
-1998.229
 70
    32
  0
VERTEX
  8
W74LASURC
 62
1
 10
2256.778
 20
-7825.508
 30
-1998.458
 70
    32
  0
VERTEX
  8
W74LASURC
 62
1
 10
2246.360
 20
-7822.214
 30
-1997.091
 70
    32
  0
VERTEX
  8
W74LASURC
 62
1
 10
2253.854
 20
-7819.673
 30
-1996.998
 70
    32
  0
VERTEX
  8
W74LASURC
 62
1
 10
2261.348
 20
-7818.825
 30
-1996.906
 70
    32
  0
VERTEX
  8
W74LASURC
 62
1
 10
2271.824
 20
-7822.446
 30
-1996.813
 70
    32
  0
SEQEND
  8
W74LASURC
  0
POLYLINE
  8
W74LASURC
 62
1
 66
     1
 70
     9
  0
VERTEX
  8
W74LASURC
 62
1
 10
2029.589
 20
-6610.553
 30
-2064.768
 70
    32
  0
VERTEX
  8
W74LASURC
 62
1
 10
2020.053
 20
-6572.655
 30
-2054.121
 70
    32
  0
VERTEX
  8
W74LASURC
 62
1
 10
2015.626
 20
-6550.234
 30
-2048.859
 70
    32
  0
VERTEX
  8
W74LASURC
 62
1
 10
2011.964
 20
-6527.993
 30
-2046.541
 70
    32
  0
VERTEX
  8
W74LASURC
 62
1
 10
2013.551
 20
-6522.774
 30
-2045.840
 70
    32
  0
VERTEX
  8
W74LASURC
 62
1
 10
2008.129
 20
-6507.019
 30
-2044.422
 70
    32
  0
VERTEX
  8
W74LASURC
 62
1
 10
2007.506
 20
-6505.650
 30
-2044.384
 70
    32
  0
VERTEX
  8
W74LASURC
 62
1
 10
1995.890
 20
-6489.524
 30
-2043.756
 70
    32
  0
VERTEX
  8
W74LASURC
 62
1
 10
1992.053
 20
-6487.605
 30
-2044.271
 70
    32
  0
VERTEX
  8
W74LASURC
 62
1
 10
1987.566
 20
-6481.760
 30
-2044.984
 70
    32
  0
VERTEX
  8
W74LASURC
 62
1
 10
1986.146
 20
-6477.475
 30
-2043.930
 70
    32
  0
VERTEX
  8
W74LASURC
 62
1
 10
2001.262
 20
-6468.362
 30
-2042.709
 70
    32
  0
VERTEX
  8
W74LASURC
 62
1
 10
2005.182
 20
-6474.633
 30
-2044.079
 70
    32
  0
VERTEX
  8
W74LASURC
 62
1
 10
2014.267
 20
-6479.057
 30
-2043.039
 70
    32
  0
VERTEX
  8
W74LASURC
 62
1
 10
2016.136
 20
-6487.242
 30
-2044.086
 70
    32
  0
VERTEX
  8
W74LASURC
 62
1
 10
2020.598
 20
-6492.961
 30
-2042.469
 70
    32
  0
VERTEX
  8
W74LASURC
 62
1
 10
2021.390
 20
-6505.067
 30
-2043.504
 70
    32
  0
VERTEX
  8
W74LASURC
 62
1
 10
2027.300
 20
-6526.829
 30
-2046.019
 70
    32
  0
VERTEX
  8
W74LASURC
 62
1
 10
2027.566
 20
-6547.600
 30
-2047.306
 70
    32
  0
VERTEX
  8
W74LASURC
 62
1
 10
2030.398
 20
-6570.703
 30
-2053.669
 70
    32
  0
VERTEX
  8
W74LASURC
 62
1
 10
2040.379
 20
-6608.541
 30
-2063.023
 70
    32
  0
SEQEND
  8
W74LASURC
  0
POLYLINE
  8
W74LASURC
 62
1
 66
     1
 70
     9
  0
VERTEX
  8
W74LASURC
 62
1
 10
1986.254
 20
-6477.385
 30
-2043.744
 70
    32
  0
VERTEX
  8
W74LASURC
 62
1
 10
1985.004
 20
-6474.687
 30
-2043.648
 70
    32
  0
VERTEX
  8
W74LASURC
 62
1
 10
1979.658
 20
-6468.577
 30
-2043.283
 70
    32
  0
VERTEX
  8
W74LASURC
 62
1
 10
1971.370
 20
-6467.365
 30
-2043.251
 70
    32
  0
VERTEX
  8
W74LASURC
 62
1
 10
1955.335
 20
-6456.226
 30
-2045.069
 70
    32
  0
VERTEX
  8
W74LASURC
 62
1
 10
1947.127
 20
-6452.494
 30
-2043.833
 70
    32
  0
VERTEX
  8
W74LASURC
 62
1
 10
1936.729
 20
-6446.598
 30
-2043.526
 70
    32
  0
VERTEX
  8
W74LASURC
 62
1
 10
1938.403
 20
-6437.879
 30
-2044.115
 70
    32
  0
VERTEX
  8
W74LASURC
 62
1
 10
1931.989
 20
-6431.289
 30
-2043.837
 70
    32
  0
VERTEX
  8
W74LASURC
 62
1
 10
1936.357
 20
-6425.351
 30
-2044.448
 70
    32
  0
VERTEX
  8
W74LASURC
 62
1
 10
1930.945
 20
-6414.977
 30
-2045.537
 70
    32
  0
VERTEX
  8
W74LASURC
 62
1
 10
1924.920
 20
-6404.108
 30
-2046.029
 70
    32
  0
VERTEX
  8
W74LASURC
 62
1
 10
1922.759
 20
-6391.947
 30
-2045.095
 70
    32
  0
VERTEX
  8
W74LASURC
 62
1
 10
1930.548
 20
-6386.922
 30
-2045.441
 70
    32
  0
VERTEX
  8
W74LASURC
 62
1
 10
1932.392
 20
-6385.878
 30
-2044.723
 70
    32
  0
VERTEX
  8
W74LASURC
 62
1
 10
1939.510
 20
-6385.939
 30
-2045.405
 70
    32
  0
VERTEX
  8
W74LASURC
 62
1
 10
1943.288
 20
-6397.719
 30
-2044.889
 70
    32
  0
VERTEX
  8
W74LASURC
 62
1
 10
1951.240
 20
-6407.600
 30
-2043.960
 70
    32
  0
VERTEX
  8
W74LASURC
 62
1
 10
1955.307
 20
-6405.410
 30
-2043.032
 70
    32
  0
VERTEX
  8
W74LASURC
 62
1
 10
1977.864
 20
-6433.331
 30
-2043.181
 70
    32
  0
VERTEX
  8
W74LASURC
 62
1
 10
1989.812
 20
-6445.779
 30
-2041.935
 70
    32
  0
VERTEX
  8
W74LASURC
 62
1
 10
1997.889
 20
-6462.228
 30
-2042.055
 70
    32
  0
VERTEX
  8
W74LASURC
 62
1
 10
2001.330
 20
-6468.321
 30
-2043.000
 70
    32
  0
SEQEND
  8
W74LASURC
  0
POLYLINE
  8
W74LASURC
 62
1
 66
     1
 70
     9
  0
VERTEX
  8
W74LASURC
 62
1
 10
2380.644
 20
-8263.563
 30
-1989.903
 70
    32
  0
VERTEX
  8
W74LASURC
 62
1
 10
2383.727
 20
-8268.914
 30
-1989.590
 70
    32
  0
VERTEX
  8
W74LASURC
 62
1
 10
2391.877
 20
-8270.952
 30
-1989.503
 70
    32
  0
VERTEX
  8
W74LASURC
 62
1
 10
2393.352
 20
-8270.212
 30
-1989.945
 70
    32
  0
VERTEX
  8
W74LASURC
 62
1
 10
2401.942
 20
-8269.131
 30
-1988.060
 70
    32
  0
VERTEX
  8
W74LASURC
 62
1
 10
2402.010
 20
-8272.859
 30
-1988.896
 70
    32
  0
VERTEX
  8
W74LASURC
 62
1
 10
2404.235
 20
-8273.233
 30
-1988.677
 70
    32
  0
VERTEX
  8
W74LASURC
 62
1
 10
2402.984
 20
-8280.547
 30
-1988.306
 70
    32
  0
VERTEX
  8
W74LASURC
 62
1
 10
2401.561
 20
-8285.593
 30
-1989.366
 70
    32
  0
VERTEX
  8
W74LASURC
 62
1
 10
2393.322
 20
-8282.456
 30
-1990.077
 70
    32
  0
VERTEX
  8
W74LASURC
 62
1
 10
2391.271
 20
-8284.668
 30
-1989.677
 70
    32
  0
VERTEX
  8
W74LASURC
 62
1
 10
2386.104
 20
-8283.346
 30
-1989.373
 70
    32
  0
VERTEX
  8
W74LASURC
 62
1
 10
2379.980
 20
-8279.974
 30
-1990.634
 70
    32
  0
VERTEX
  8
W74LASURC
 62
1
 10
2374.138
 20
-8279.780
 30
-1989.751
 70
    32
  0
VERTEX
  8
W74LASURC
 62
1
 10
2369.300
 20
-8283.873
 30
-1989.865
 70
    32
  0
VERTEX
  8
W74LASURC
 62
1
 10
2367.513
 20
-8284.475
 30
-1990.092
 70
    32
  0
VERTEX
  8
W74LASURC
 62
1
 10
2366.387
 20
-8284.556
 30
-1990.065
 70
    32
  0
VERTEX
  8
W74LASURC
 62
1
 10
2367.884
 20
-8282.585
 30
-1990.038
 70
    32
  0
VERTEX
  8
W74LASURC
 62
1
 10
2371.566
 20
-8280.846
 30
-1990.011
 70
    32
  0
VERTEX
  8
W74LASURC
 62
1
 10
2373.637
 20
-8275.050
 30
-1989.984
 70
    32
  0
VERTEX
  8
W74LASURC
 62
1
 10
2377.665
 20
-8269.253
 30
-1989.957
 70
    32
  0
VERTEX
  8
W74LASURC
 62
1
 10
2377.435
 20
-8258.007
 30
-1989.930
 70
    32
  0
SEQEND
  8
W74LASURC
  0
POLYLINE
  8
W74LASURC
 62
1
 66
     1
 70
     9
  0
VERTEX
  8
W74LASURC
 62
1
 10
2374.444
 20
-8247.183
 30
-1992.248
 70
    32
  0
VERTEX
  8
W74LASURC
 62
1
 10
2377.706
 20
-8258.368
 30
-1991.606
 70
    32
  0
VERTEX
  8
W74LASURC
 62
1
 10
2380.154
 20
-8262.713
 30
-1989.953
 70
    32
  0
VERTEX
  8
W74LASURC
 62
1
 10
2383.727
 20
-8268.914
 30
-1989.590
 70
    32
  0
VERTEX
  8
W74LASURC
 62
1
 10
2391.877
 20
-8270.952
 30
-1989.503
 70
    32
  0
VERTEX
  8
W74LASURC
 62
1
 10
2393.352
 20
-8270.212
 30
-1989.945
 70
    32
  0
VERTEX
  8
W74LASURC
 62
1
 10
2401.942
 20
-8269.131
 30
-1988.060
 70
    32
  0
VERTEX
  8
W74LASURC
 62
1
 10
2402.010
 20
-8272.859
 30
-1988.896
 70
    32
  0
VERTEX
  8
W74LASURC
 62
1
 10
2404.235
 20
-8273.233
 30
-1988.677
 70
    32
  0
VERTEX
  8
W74LASURC
 62
1
 10
2402.984
 20
-8280.547
 30
-1988.306
 70
    32
  0
VERTEX
  8
W74LASURC
 62
1
 10
2401.561
 20
-8285.593
 30
-1989.366
 70
    32
  0
VERTEX
  8
W74LASURC
 62
1
 10
2393.322
 20
-8282.456
 30
-1990.077
 70
    32
  0
VERTEX
  8
W74LASURC
 62
1
 10
2391.271
 20
-8284.668
 30
-1989.677
 70
    32
  0
VERTEX
  8
W74LASURC
 62
1
 10
2386.104
 20
-8283.346
 30
-1989.373
 70
    32
  0
VERTEX
  8
W74LASURC
 62
1
 10
2379.980
 20
-8279.974
 30
-1990.634
 70
    32
  0
VERTEX
  8
W74LASURC
 62
1
 10
2374.138
 20
-8279.780
 30
-1989.751
 70
    32
  0
VERTEX
  8
W74LASURC
 62
1
 10
2369.300
 20
-8283.873
 30
-1989.865
 70
    32
  0
VERTEX
  8
W74LASURC
 62
1
 10
2366.212
 20
-8284.913
 30
-1990.257
 70
    32
  0
VERTEX
  8
W74LASURC
 62
1
 10
2363.944
 20
-8290.149
 30
-1990.603
 70
    32
  0
VERTEX
  8
W74LASURC
 62
1
 10
2358.676
 20
-8298.540
 30
-1990.354
 70
    32
  0
VERTEX
  8
W74LASURC
 62
1
 10
2358.470
 20
-8300.332
 30
-1988.201
 70
    32
  0
VERTEX
  8
W74LASURC
 62
1
 10
2345.988
 20
-8297.438
 30
-1989.006
 70
    32
  0
VERTEX
  8
W74LASURC
 62
1
 10
2355.317
 20
-8281.532
 30
-1991.610
 70
    32
  0
VERTEX
  8
W74LASURC
 62
1
 10
2359.700
 20
-8272.590
 30
-1990.861
 70
    32
  0
VERTEX
  8
W74LASURC
 62
1
 10
2360.239
 20
-8270.383
 30
-1990.377
 70
    32
  0
VERTEX
  8
W74LASURC
 62
1
 10
2359.595
 20
-8264.443
 30
-1991.017
 70
    32
  0
VERTEX
  8
W74LASURC
 62
1
 10
2363.133
 20
-8246.321
 30
-1991.254
 70
    32
  0
SEQEND
  8
W74LASURC
  0
POLYLINE
  8
W74LASURC
 62
1
 66
     1
 70
     8
  0
VERTEX
  8
W74LASURC
 62
1
 10
2364.178
 20
-8237.870
 30
1000.000
 70
    32
  0
VERTEX
  8
W74LASURC
 62
1
 10
2374.974
 20
-8238.930
 30
1000.000
 70
    32
  0
VERTEX
  8
W74LASURC
 62
1
 10
2377.968
 20
-8230.331
 30
1000.000
 70
    32
  0
VERTEX
  8
W74LASURC
 62
1
 10
2377.565
 20
-8227.857
 30
1000.000
 70
    32
  0
VERTEX
  8
W74LASURC
 62
1
 10
2365.358
 20
-8229.448
 30
1000.000
 70
    32
  0
VERTEX
  8
W74LASURC
 62
1
 10
2364.293
 20
-8237.782
 30
1000.000
 70
    32
  0
SEQEND
  8
W74LASURC
  0
POLYLINE
  8
W74LASURC
 62
1
 66
     1
 70
     9
  0
VERTEX
  8
W74LASURC
 62
1
 10
2360.687
 20
-8259.320
 30
-1990.071
 70
    32
  0
VERTEX
  8
W74LASURC
 62
1
 10
2354.199
 20
-8266.098
 30
-1988.719
 70
    32
  0
VERTEX
  8
W74LASURC
 62
1
 10
2351.123
 20
-8275.353
 30
-1988.601
 70
    32
  0
VERTEX
  8
W74LASURC
 62
1
 10
2350.719
 20
-8281.158
 30
-1989.495
 70
    32
  0
VERTEX
  8
W74LASURC
 62
1
 10
2352.806
 20
-8284.237
 30
-1990.057
 70
    32
  0
VERTEX
  8
W74LASURC
 62
1
 10
2353.190
 20
-8285.175
 30
-1990.059
 70
    32
  0
VERTEX
  8
W74LASURC
 62
1
 10
2355.014
 20
-8281.927
 30
-1990.061
 70
    32
  0
VERTEX
  8
W74LASURC
 62
1
 10
2359.674
 20
-8272.790
 30
-1990.064
 70
    32
  0
VERTEX
  8
W74LASURC
 62
1
 10
2360.214
 20
-8270.150
 30
-1990.066
 70
    32
  0
VERTEX
  8
W74LASURC
 62
1
 10
2359.606
 20
-8264.397
 30
-1990.069
 70
    32
  0
SEQEND
  8
W74LASURC
  0
POLYLINE
  8
W74LASURC
 62
1
 66
     1
 70
     9
  0
VERTEX
  8
W74LASURC
 62
1
 10
2400.536
 20
-8287.002
 30
-1989.394
 70
    32
  0
VERTEX
  8
W74LASURC
 62
1
 10
2399.793
 20
-8288.355
 30
-1989.414
 70
    32
  0
VERTEX
  8
W74LASURC
 62
1
 10
2398.582
 20
-8290.706
 30
-1988.724
 70
    32
  0
VERTEX
  8
W74LASURC
 62
1
 10
2394.470
 20
-8292.843
 30
-1989.125
 70
    32
  0
VERTEX
  8
W74LASURC
 62
1
 10
2383.988
 20
-8282.333
 30
-1990.671
 70
    32
  0
VERTEX
  8
W74LASURC
 62
1
 10
2386.149
 20
-8283.416
 30
-1990.415
 70
    32
  0
VERTEX
  8
W74LASURC
 62
1
 10
2391.215
 20
-8284.567
 30
-1990.160
 70
    32
  0
VERTEX
  8
W74LASURC
 62
1
 10
2393.241
 20
-8282.468
 30
-1989.905
 70
    32
  0
VERTEX
  8
W74LASURC
 62
1
 10
2401.548
 20
-8285.582
 30
-1989.649
 70
    32
  0
SEQEND
  8
W74LASURC
  0
POLYLINE
  8
W74LASURC
 62
1
 66
     1
 70
     9
  0
VERTEX
  8
W74LASURC
 62
1
 10
2636.240
 20
-8930.676
 30
-2030.468
 70
    32
  0
VERTEX
  8
W74LASURC
 62
1
 10
2636.283
 20
-8929.768
 30
-2030.466
 70
    32
  0
VERTEX
  8
W74LASURC
 62
1
 10
2633.806
 20
-8926.099
 30
-2029.184
 70
    32
  0
VERTEX
  8
W74LASURC
 62
1
 10
2634.264
 20
-8919.288
 30
-2029.762
 70
    32
  0
VERTEX
  8
W74LASURC
 62
1
 10
2635.881
 20
-8910.321
 30
-2029.079
 70
    32
  0
VERTEX
  8
W74LASURC
 62
1
 10
2632.903
 20
-8898.702
 30
-2027.894
 70
    32
  0
VERTEX
  8
W74LASURC
 62
1
 10
2629.325
 20
-8896.340
 30
-2028.632
 70
    32
  0
VERTEX
  8
W74LASURC
 62
1
 10
2620.756
 20
-8894.872
 30
-2029.507
 70
    32
  0
VERTEX
  8
W74LASURC
 62
1
 10
2621.079
 20
-8879.956
 30
-2028.950
 70
    32
  0
VERTEX
  8
W74LASURC
 62
1
 10
2619.022
 20
-8874.132
 30
-2031.336
 70
    32
  0
VERTEX
  8
W74LASURC
 62
1
 10
2616.210
 20
-8863.627
 30
-2031.095
 70
    32
  0
VERTEX
  8
W74LASURC
 62
1
 10
2613.026
 20
-8863.337
 30
-2030.736
 70
    32
  0
VERTEX
  8
W74LASURC
 62
1
 10
2610.392
 20
-8860.079
 30
-2031.559
 70
    32
  0
VERTEX
  8
W74LASURC
 62
1
 10
2606.879
 20
-8854.528
 30
-2030.496
 70
    32
  0
VERTEX
  8
W74LASURC
 62
1
 10
2602.151
 20
-8845.141
 30
-2029.253
 70
    32
  0
VERTEX
  8
W74LASURC
 62
1
 10
2599.055
 20
-8845.838
 30
-2029.579
 70
    32
  0
VERTEX
  8
W74LASURC
 62
1
 10
2592.577
 20
-8851.729
 30
-2028.631
 70
    32
  0
VERTEX
  8
W74LASURC
 62
1
 10
2595.960
 20
-8860.523
 30
-2029.707
 70
    32
  0
VERTEX
  8
W74LASURC
 62
1
 10
2595.809
 20
-8863.086
 30
-2029.581
 70
    32
  0
VERTEX
  8
W74LASURC
 62
1
 10
2599.778
 20
-8871.820
 30
-2031.218
 70
    32
  0
VERTEX
  8
W74LASURC
 62
1
 10
2601.072
 20
-8884.397
 30
-2030.150
 70
    32
  0
VERTEX
  8
W74LASURC
 62
1
 10
2601.182
 20
-8889.990
 30
-2029.873
 70
    32
  0
VERTEX
  8
W74LASURC
 62
1
 10
2600.030
 20
-8896.664
 30
-2030.477
 70
    32
  0
VERTEX
  8
W74LASURC
 62
1
 10
2602.080
 20
-8903.622
 30
-2028.878
 70
    32
  0
VERTEX
  8
W74LASURC
 62
1
 10
2602.592
 20
-8910.669
 30
-2030.288
 70
    32
  0
VERTEX
  8
W74LASURC
 62
1
 10
2589.351
 20
-8914.060
 30
-2026.777
 70
    32
  0
VERTEX
  8
W74LASURC
 62
1
 10
2592.734
 20
-8925.366
 30
-2026.678
 70
    32
  0
VERTEX
  8
W74LASURC
 62
1
 10
2595.311
 20
-8931.951
 30
-2027.679
 70
    32
  0
VERTEX
  8
W74LASURC
 62
1
 10
2602.439
 20
-8932.546
 30
-2030.620
 70
    32
  0
VERTEX
  8
W74LASURC
 62
1
 10
2605.095
 20
-8937.528
 30
-2029.040
 70
    32
  0
VERTEX
  8
W74LASURC
 62
1
 10
2604.809
 20
-8933.814
 30
-2029.199
 70
    32
  0
VERTEX
  8
W74LASURC
 62
1
 10
2598.588
 20
-8924.061
 30
-2029.358
 70
    32
  0
VERTEX
  8
W74LASURC
 62
1
 10
2604.809
 20
-8922.375
 30
-2029.516
 70
    32
  0
VERTEX
  8
W74LASURC
 62
1
 10
2613.663
 20
-8917.198
 30
-2029.675
 70
    32
  0
VERTEX
  8
W74LASURC
 62
1
 10
2621.200
 20
-8914.910
 30
-2029.834
 70
    32
  0
VERTEX
  8
W74LASURC
 62
1
 10
2624.311
 20
-8914.790
 30
-2029.992
 70
    32
  0
VERTEX
  8
W74LASURC
 62
1
 10
2629.575
 20
-8918.402
 30
-2030.151
 70
    32
  0
VERTEX
  8
W74LASURC
 62
1
 10
2634.122
 20
-8928.998
 30
-2030.310
 70
    32
  0
SEQEND
  8
W74LASURC
  0
POLYLINE
  8
W74LASURC
 62
1
 66
     1
 70
     9
  0
VERTEX
  8
W74LASURC
 62
1
 10
2667.160
 20
-9076.499
 30
-2025.457
 70
    32
  0
VERTEX
  8
W74LASURC
 62
1
 10
2670.415
 20
-9087.289
 30
-2024.478
 70
    32
  0
VERTEX
  8
W74LASURC
 62
1
 10
2667.758
 20
-9091.125
 30
-2024.530
 70
    32
  0
VERTEX
  8
W74LASURC
 62
1
 10
2671.548
 20
-9098.015
 30
-2022.999
 70
    32
  0
VERTEX
  8
W74LASURC
 62
1
 10
2672.013
 20
-9102.660
 30
-2024.994
 70
    32
  0
VERTEX
  8
W74LASURC
 62
1
 10
2670.203
 20
-9107.139
 30
-2024.165
 70
    32
  0
VERTEX
  8
W74LASURC
 62
1
 10
2667.140
 20
-9110.739
 30
-2024.299
 70
    32
  0
VERTEX
  8
W74LASURC
 62
1
 10
2667.619
 20
-9120.938
 30
-2024.338
 70
    32
  0
VERTEX
  8
W74LASURC
 62
1
 10
2661.720
 20
-9124.439
 30
-2024.623
 70
    32
  0
VERTEX
  8
W74LASURC
 62
1
 10
2655.767
 20
-9122.042
 30
-2023.409
 70
    32
  0
VERTEX
  8
W74LASURC
 62
1
 10
2651.506
 20
-9118.960
 30
-2023.241
 70
    32
  0
VERTEX
  8
W74LASURC
 62
1
 10
2650.658
 20
-9106.548
 30
-2023.761
 70
    32
  0
VERTEX
  8
W74LASURC
 62
1
 10
2651.281
 20
-9099.368
 30
-2024.197
 70
    32
  0
VERTEX
  8
W74LASURC
 62
1
 10
2646.555
 20
-9093.234
 30
-2024.892
 70
    32
  0
VERTEX
  8
W74LASURC
 62
1
 10
2651.198
 20
-9086.613
 30
-2025.552
 70
    32
  0
VERTEX
  8
W74LASURC
 62
1
 10
2653.802
 20
-9079.675
 30
-2025.756
 70
    32
  0
VERTEX
  8
W74LASURC
 62
1
 10
2655.088
 20
-9071.601
 30
-2026.735
 70
    32
  0
VERTEX
  8
W74LASURC
 62
1
 10
2658.456
 20
-9080.446
 30
-2026.096
 70
    32
  0
SEQEND
  8
W74LASURC
  0
POLYLINE
  8
W74LASURC
 62
1
 66
     1
 70
     9
  0
VERTEX
  8
W74LASURC
 62
1
 10
2563.161
 20
-9064.586
 30
-1999.465
 70
    32
  0
VERTEX
  8
W74LASURC
 62
1
 10
2569.161
 20
-9059.208
 30
-1999.574
 70
    32
  0
VERTEX
  8
W74LASURC
 62
1
 10
2570.319
 20
-9050.739
 30
-2000.444
 70
    32
  0
VERTEX
  8
W74LASURC
 62
1
 10
2583.492
 20
-9047.878
 30
-2000.648
 70
    32
  0
VERTEX
  8
W74LASURC
 62
1
 10
2585.904
 20
-9063.260
 30
-2004.398
 70
    32
  0
VERTEX
  8
W74LASURC
 62
1
 10
2598.850
 20
-9059.791
 30
-2007.559
 70
    32
  0
VERTEX
  8
W74LASURC
 62
1
 10
2600.994
 20
-9059.974
 30
-2007.056
 70
    32
  0
VERTEX
  8
W74LASURC
 62
1
 10
2609.037
 20
-9054.098
 30
-2007.547
 70
    32
  0
VERTEX
  8
W74LASURC
 62
1
 10
2633.702
 20
-9030.566
 30
-2006.558
 70
    32
  0
VERTEX
  8
W74LASURC
 62
1
 10
2642.342
 20
-9043.576
 30
-2005.615
 70
    32
  0
VERTEX
  8
W74LASURC
 62
1
 10
2609.656
 20
-9066.776
 30
-2006.974
 70
    32
  0
VERTEX
  8
W74LASURC
 62
1
 10
2610.054
 20
-9068.930
 30
-2005.989
 70
    32
  0
VERTEX
  8
W74LASURC
 62
1
 10
2599.524
 20
-9072.064
 30
-2006.865
 70
    32
  0
VERTEX
  8
W74LASURC
 62
1
 10
2594.143
 20
-9078.556
 30
-2004.621
 70
    32
  0
VERTEX
  8
W74LASURC
 62
1
 10
2594.532
 20
-9085.799
 30
-2003.231
 70
    32
  0
VERTEX
  8
W74LASURC
 62
1
 10
2589.722
 20
-9096.127
 30
-1999.686
 70
    32
  0
VERTEX
  8
W74LASURC
 62
1
 10
2578.725
 20
-9095.513
 30
-1999.809
 70
    32
  0
VERTEX
  8
W74LASURC
 62
1
 10
2569.814
 20
-9093.701
 30
-1998.080
 70
    32
  0
VERTEX
  8
W74LASURC
 62
1
 10
2569.157
 20
-9078.450
 30
-2001.633
 70
    32
  0
VERTEX
  8
W74LASURC
 62
1
 10
2566.840
 20
-9075.285
 30
-2000.797
 70
    32
  0
SEQEND
  8
W74LASURC
  0
POLYLINE
  8
W74LASURC
 62
1
 66
     1
 70
     9
  0
VERTEX
  8
W74LASURC
 62
1
 10
2570.319
 20
-9050.739
 30
-2000.444
 70
    32
  0
VERTEX
  8
W74LASURC
 62
1
 10
2571.199
 20
-9047.620
 30
-2000.719
 70
    32
  0
VERTEX
  8
W74LASURC
 62
1
 10
2570.182
 20
-9038.996
 30
-2000.062
 70
    32
  0
VERTEX
  8
W74LASURC
 62
1
 10
2567.489
 20
-9031.739
 30
-1998.854
 70
    32
  0
VERTEX
  8
W74LASURC
 62
1
 10
2562.338
 20
-9021.439
 30
-1997.827
 70
    32
  0
VERTEX
  8
W74LASURC
 62
1
 10
2557.289
 20
-9012.475
 30
-1997.822
 70
    32
  0
VERTEX
  8
W74LASURC
 62
1
 10
2555.211
 20
-9003.208
 30
-1996.826
 70
    32
  0
VERTEX
  8
W74LASURC
 62
1
 10
2567.964
 20
-8996.534
 30
-1997.614
 70
    32
  0
VERTEX
  8
W74LASURC
 62
1
 10
2574.571
 20
-9021.851
 30
-1998.486
 70
    32
  0
VERTEX
  8
W74LASURC
 62
1
 10
2582.408
 20
-9030.281
 30
-1999.307
 70
    32
  0
VERTEX
  8
W74LASURC
 62
1
 10
2582.797
 20
-9046.993
 30
-2004.051
 70
    32
  0
VERTEX
  8
W74LASURC
 62
1
 10
2583.492
 20
-9047.878
 30
-2000.648
 70
    32
  0
SEQEND
  8
W74LASURC
  0
POLYLINE
  8
W74LASURC
 62
1
 66
     1
 70
     9
  0
VERTEX
  8
W74LASURC
 62
1
 10
2569.579
 20
-9093.140
 30
-1998.080
 70
    32
  0
VERTEX
  8
W74LASURC
 62
1
 10
2567.827
 20
-9100.699
 30
-1998.657
 70
    32
  0
VERTEX
  8
W74LASURC
 62
1
 10
2566.099
 20
-9108.929
 30
-1997.507
 70
    32
  0
VERTEX
  8
W74LASURC
 62
1
 10
2565.993
 20
-9121.104
 30
-1998.429
 70
    32
  0
VERTEX
  8
W74LASURC
 62
1
 10
2577.061
 20
-9124.424
 30
-1997.807
 70
    32
  0
VERTEX
  8
W74LASURC
 62
1
 10
2586.466
 20
-9122.725
 30
-1997.833
 70
    32
  0
VERTEX
  8
W74LASURC
 62
1
 10
2588.668
 20
-9102.477
 30
-2000.898
 70
    32
  0
VERTEX
  8
W74LASURC
 62
1
 10
2588.791
 20
-9102.048
 30
-2000.973
 70
    32
  0
VERTEX
  8
W74LASURC
 62
1
 10
2589.722
 20
-9096.127
 30
-1999.686
 70
    32
  0
SEQEND
  8
W74LASURC
  0
POLYLINE
  8
W74LASURC
 62
1
 66
     1
 70
     9
  0
VERTEX
  8
W74LASURC
 62
1
 10
2633.702
 20
-9030.566
 30
-2006.558
 70
    32
  0
VERTEX
  8
W74LASURC
 62
1
 10
2628.554
 20
-9035.477
 30
-2006.764
 70
    32
  0
VERTEX
  8
W74LASURC
 62
1
 10
2629.431
 20
-9031.603
 30
-2004.995
 70
    32
  0
VERTEX
  8
W74LASURC
 62
1
 10
2628.173
 20
-9028.981
 30
-2004.237
 70
    32
  0
VERTEX
  8
W74LASURC
 62
1
 10
2625.883
 20
-9024.210
 30
-2002.858
 70
    32
  0
VERTEX
  8
W74LASURC
 62
1
 10
2620.664
 20
-9015.757
 30
-2002.511
 70
    32
  0
VERTEX
  8
W74LASURC
 62
1
 10
2625.786
 20
-9007.257
 30
-2002.066
 70
    32
  0
VERTEX
  8
W74LASURC
 62
1
 10
2635.273
 20
-9005.475
 30
-2002.006
 70
    32
  0
VERTEX
  8
W74LASURC
 62
1
 10
2647.110
 20
-9008.902
 30
-2002.531
 70
    32
  0
VERTEX
  8
W74LASURC
 62
1
 10
2649.598
 20
-9016.054
 30
-2003.548
 70
    32
  0
VERTEX
  8
W74LASURC
 62
1
 10
2650.607
 20
-9020.611
 30
-2003.051
 70
    32
  0
VERTEX
  8
W74LASURC
 62
1
 10
2653.894
 20
-9025.135
 30
-2003.178
 70
    32
  0
VERTEX
  8
W74LASURC
 62
1
 10
2655.478
 20
-9029.528
 30
-2002.788
 70
    32
  0
VERTEX
  8
W74LASURC
 62
1
 10
2657.559
 20
-9036.394
 30
-2002.213
 70
    32
  0
VERTEX
  8
W74LASURC
 62
1
 10
2651.938
 20
-9045.668
 30
-2002.758
 70
    32
  0
VERTEX
  8
W74LASURC
 62
1
 10
2645.031
 20
-9047.681
 30
-2004.599
 70
    32
  0
VERTEX
  8
W74LASURC
 62
1
 10
2639.920
 20
-9046.704
 30
-2006.230
 70
    32
  0
VERTEX
  8
W74LASURC
 62
1
 10
2642.342
 20
-9043.576
 30
-2005.615
 70
    32
  0
SEQEND
  8
W74LASURC
  0
POLYLINE
  8
W74LASURC
 62
3
 66
     1
 70
     9
  0
VERTEX
  8
W74LASURC
 62
3
 10
2646.957
 20
-9008.576
 30
1000.000
 70
    32
  0
VERTEX
  8
W74LASURC
 62
3
 10
2646.957
 20
-9006.697
 30
1000.000
 70
    32
  0
VERTEX
  8
W74LASURC
 62
3
 10
2641.369
 20
-9000.694
 30
1000.000
 70
    32
  0
VERTEX
  8
W74LASURC
 62
3
 10
2640.253
 20
-8986.054
 30
1000.000
 70
    32
  0
VERTEX
  8
W74LASURC
 62
3
 10
2628.706
 20
-8963.155
 30
1000.000
 70
    32
  0
VERTEX
  8
W74LASURC
 62
3
 10
2626.845
 20
-8935.003
 30
1000.000
 70
    32
  0
VERTEX
  8
W74LASURC
 62
3
 10
2626.845
 20
-8911.732
 30
1000.000
 70
    32
  0
VERTEX
  8
W74LASURC
 62
3
 10
2615.670
 20
-8912.482
 30
1000.000
 70
    32
  0
VERTEX
  8
W74LASURC
 62
3
 10
2599.286
 20
-8920.742
 30
1000.000
 70
    32
  0
VERTEX
  8
W74LASURC
 62
3
 10
2604.873
 20
-8953.023
 30
1000.000
 70
    32
  0
VERTEX
  8
W74LASURC
 62
3
 10
2613.810
 20
-8970.286
 30
1000.000
 70
    32
  0
VERTEX
  8
W74LASURC
 62
3
 10
2610.461
 20
-8976.666
 30
1000.000
 70
    32
  0
VERTEX
  8
W74LASURC
 62
3
 10
2608.594
 20
-8989.806
 30
1000.000
 70
    32
  0
VERTEX
  8
W74LASURC
 62
3
 10
2611.949
 20
-8996.565
 30
1000.000
 70
    32
  0
VERTEX
  8
W74LASURC
 62
3
 10
2620.886
 20
-9015.334
 30
1000.000
 70
    32
  0
VERTEX
  8
W74LASURC
 62
3
 10
2625.357
 20
-9007.075
 30
1000.000
 70
    32
  0
VERTEX
  8
W74LASURC
 62
3
 10
2635.410
 20
-9005.574
 30
1000.000
 70
    32
  0
VERTEX
  8
W74LASURC
 62
3
 10
2646.213
 20
-9008.576
 30
1000.000
 70
    32
  0
SEQEND
  8
W74LASURC
  0
POLYLINE
  8
W74LASURC
 62
3
 66
     1
 70
     9
  0
VERTEX
  8
W74LASURC
 62
3
 10
2567.291
 20
-8996.186
 30
1000.000
 70
    32
  0
VERTEX
  8
W74LASURC
 62
3
 10
2564.729
 20
-8986.030
 30
1000.000
 70
    32
  0
VERTEX
  8
W74LASURC
 62
3
 10
2551.529
 20
-8992.478
 30
1000.000
 70
    32
  0
VERTEX
  8
W74LASURC
 62
3
 10
2555.079
 20
-9001.268
 30
1000.000
 70
    32
  0
VERTEX
  8
W74LASURC
 62
3
 10
2555.274
 20
-9002.634
 30
1000.000
 70
    32
  0
VERTEX
  8
W74LASURC
 62
3
 10
2566.504
 20
-8996.772
 30
1000.000
 70
    32
  0
SEQEND
  8
W74LASURC
  0
POLYLINE
  8
W74LASURC
 62
3
 66
     1
 70
     9
  0
VERTEX
  8
W74LASURC
 62
3
 10
2565.717
 20
-9121.621
 30
1000.000
 70
    32
  0
VERTEX
  8
W74LASURC
 62
3
 10
2566.901
 20
-9131.777
 30
1000.000
 70
    32
  0
VERTEX
  8
W74LASURC
 62
3
 10
2576.551
 20
-9134.120
 30
1000.000
 70
    32
  0
VERTEX
  8
W74LASURC
 62
3
 10
2586.012
 20
-9132.168
 30
1000.000
 70
    32
  0
VERTEX
  8
W74LASURC
 62
3
 10
2586.207
 20
-9122.987
 30
1000.000
 70
    32
  0
VERTEX
  8
W74LASURC
 62
3
 10
2577.539
 20
-9124.744
 30
1000.000
 70
    32
  0
VERTEX
  8
W74LASURC
 62
3
 10
2566.699
 20
-9122.011
 30
1000.000
 70
    32
  0
SEQEND
  8
W74LASURC
  0
TEXT
  8
W74LASURC
 62
1
 10
2643.633
 20
-8981.492
 30
1000.000
 40
1.575
  1
14B 19L 7400
 50
-0.648
 41
 1.0 
  0
TEXT
  8
W74LASURC
 62
1
 10
2644.395
 20
-8983.895
 30
1000.000
 40
1.575
  1
2374 SQ'
 50
-0.758
 41
 1.0 
  0
TEXT
  8
W74LASURC
 62
1
 10
2644.529
 20
-8986.097
 30
1000.000
 40
1.575
  1
X 22'
 50
-0.934
 41
 1.0 
  0
TEXT
  8
W74LASURC
 62
1
 10
2641.851
 20
-8987.707
 30
1000.000
 40
1.575
  1
--------------
 50
-0.445
 41
 1.0 
  0
TEXT
  8
W74LASURC
 62
1
 10
2642.486
 20
-8989.361
 30
1000.000
 40
1.575
  1
52228 CU' ORE
 50
-0.428
 41
 1.0 
  0
TEXT
  8
W74LASURC
 62
1
 10
2642.681
 20
-8991.807
 30
1000.000
 40
1.575
  1
26114 MINED & MUCKED
 50
-0.545
 41
 1.0 
  0
TEXT
  8
W74LASURC
 62
1
 10
2642.864
 20
-8994.448
 30
1000.000
 40
1.575
  1
26114 MUCKED ONLY
 50
-0.467
 41
 1.0 
  0
TEXT
  8
W74LASURC
 62
1
 10
2573.574
 20
-8991.038
 30
1000.000
 40
1.575
  1
3996 CU' ORE
 50
-0.760
 41
 1.0 
  0
TEXT
  8
W74LASURC
 62
1
 10
2574.019
 20
-8988.507
 30
1000.000
 40
1.575
  1
______
 50
-0.687
 41
 1.0 
  0
TEXT
  8
W74LASURC
 62
1
 10
2574.086
 20
-8987.341
 30
1000.000
 40
1.575
  1
X 12' BACK
 41
 1.0 
  0
TEXT
  8
W74LASURC
 62
1
 10
2574.086
 20
-8985.182
 30
1000.000
 40
1.575
  1
333 SQ'
 50
3.213
 41
 1.0 
  0
ENDSEC
  0
EOF
