999
********************************
999
*   DXF File - Entities Only   *
999
*        3D Data Format        *
999
*     Output from ENVISAGE     *
999
*     02-Jan-2008 11:34:00     *
999
********************************
  0
SECTION 
  2
HEADER
  9
$ACADVER
  1
AC1009
  9
$EXTMIN
 10
-290000.000
 20
-250000.000
 30
-4000.000
  9
$EXTMAX
 10
320000.000
 20
160000.000
 30
6000.000
  0
ENDSEC
  0
SECTION
  2
ENTITIES
  0
POLYLINE
  8
W74XLIFTS
 62
3
 66
     1
 70
     9
  0
VERTEX
  8
W74XLIFTS
 62
3
 10
1647.687
 20
-6306.667
 30
-2120.752
 70
    32
  0
VERTEX
  8
W74XLIFTS
 62
3
 10
1656.567
 20
-6299.152
 30
-2120.411
 70
    32
  0
VERTEX
  8
W74XLIFTS
 62
3
 10
1658.813
 20
-6297.252
 30
-2119.967
 70
    32
  0
VERTEX
  8
W74XLIFTS
 62
3
 10
1665.997
 20
-6291.173
 30
-2121.021
 70
    32
  0
VERTEX
  8
W74XLIFTS
 62
3
 10
1674.571
 20
-6287.016
 30
-2121.413
 70
    32
  0
VERTEX
  8
W74XLIFTS
 62
3
 10
1674.430
 20
-6286.739
 30
-2121.503
 70
    32
  0
VERTEX
  8
W74XLIFTS
 62
3
 10
1662.086
 20
-6262.488
 30
-2129.394
 70
    32
  0
VERTEX
  8
W74XLIFTS
 62
3
 10
1662.643
 20
-6269.636
 30
-2127.345
 70
    32
  0
VERTEX
  8
W74XLIFTS
 62
3
 10
1660.524
 20
-6276.961
 30
-2125.487
 70
    32
  0
VERTEX
  8
W74XLIFTS
 62
3
 10
1658.177
 20
-6281.540
 30
-2124.418
 70
    32
  0
VERTEX
  8
W74XLIFTS
 62
3
 10
1655.036
 20
-6282.361
 30
-2124.470
 70
    32
  0
VERTEX
  8
W74XLIFTS
 62
3
 10
1648.836
 20
-6283.755
 30
-2125.240
 70
    32
  0
VERTEX
  8
W74XLIFTS
 62
3
 10
1641.040
 20
-6284.566
 30
-2125.240
 70
    32
  0
VERTEX
  8
W74XLIFTS
 62
3
 10
1624.354
 20
-6282.316
 30
-2125.240
 70
    32
  0
VERTEX
  8
W74XLIFTS
 62
3
 10
1622.341
 20
-6282.257
 30
-2125.240
 70
    32
  0
VERTEX
  8
W74XLIFTS
 62
3
 10
1615.330
 20
-6282.052
 30
-2125.240
 70
    32
  0
VERTEX
  8
W74XLIFTS
 62
3
 10
1612.009
 20
-6293.142
 30
-2125.240
 70
    32
  0
VERTEX
  8
W74XLIFTS
 62
3
 10
1621.295
 20
-6293.854
 30
-2125.240
 70
    32
  0
VERTEX
  8
W74XLIFTS
 62
3
 10
1626.370
 20
-6294.244
 30
-2125.240
 70
    32
  0
VERTEX
  8
W74XLIFTS
 62
3
 10
1628.115
 20
-6299.577
 30
-2125.240
 70
    32
  0
VERTEX
  8
W74XLIFTS
 62
3
 10
1631.544
 20
-6305.005
 30
-2123.436
 70
    32
  0
VERTEX
  8
W74XLIFTS
 62
3
 10
1630.336
 20
-6307.609
 30
-2122.818
 70
    32
  0
VERTEX
  8
W74XLIFTS
 62
3
 10
1624.908
 20
-6319.314
 30
-2119.726
 70
    32
  0
VERTEX
  8
W74XLIFTS
 62
3
 10
1632.825
 20
-6331.356
 30
-2114.746
 70
    32
  0
VERTEX
  8
W74XLIFTS
 62
3
 10
1636.009
 20
-6322.195
 30
-2117.305
 70
    32
  0
VERTEX
  8
W74XLIFTS
 62
3
 10
1641.239
 20
-6316.214
 30
-2118.532
 70
    32
  0
SEQEND
  8
W74XLIFTS
  0
POLYLINE
  8
W74XLIFTS
 62
2
 66
     1
 70
     9
  0
VERTEX
  8
W74XLIFTS
 62
2
 10
1884.684
 20
-6745.546
 30
-1998.884
 70
    32
  0
VERTEX
  8
W74XLIFTS
 62
2
 10
1885.372
 20
-6745.944
 30
-1998.867
 70
    32
  0
VERTEX
  8
W74XLIFTS
 62
2
 10
1886.292
 20
-6745.888
 30
-1998.852
 70
    32
  0
VERTEX
  8
W74XLIFTS
 62
2
 10
1891.116
 20
-6745.595
 30
-1998.784
 70
    32
  0
VERTEX
  8
W74XLIFTS
 62
2
 10
1891.541
 20
-6745.031
 30
-1998.783
 70
    32
  0
VERTEX
  8
W74XLIFTS
 62
2
 10
1891.926
 20
-6744.520
 30
-1998.763
 70
    32
  0
VERTEX
  8
W74XLIFTS
 62
2
 10
1893.722
 20
-6738.719
 30
-1998.640
 70
    32
  0
VERTEX
  8
W74XLIFTS
 62
2
 10
1894.835
 20
-6735.124
 30
-1998.640
 70
    32
  0
VERTEX
  8
W74XLIFTS
 62
2
 10
1891.783
 20
-6724.412
 30
-1998.640
 70
    32
  0
VERTEX
  8
W74XLIFTS
 62
2
 10
1891.525
 20
-6723.508
 30
-1998.640
 70
    32
  0
VERTEX
  8
W74XLIFTS
 62
2
 10
1888.784
 20
-6713.887
 30
-1998.640
 70
    32
  0
VERTEX
  8
W74XLIFTS
 62
2
 10
1873.975
 20
-6677.758
 30
-1998.640
 70
    32
  0
VERTEX
  8
W74XLIFTS
 62
2
 10
1875.921
 20
-6674.222
 30
-1998.640
 70
    32
  0
VERTEX
  8
W74XLIFTS
 62
2
 10
1876.701
 20
-6672.803
 30
-1998.640
 70
    32
  0
VERTEX
  8
W74XLIFTS
 62
2
 10
1886.054
 20
-6662.164
 30
-1998.640
 70
    32
  0
VERTEX
  8
W74XLIFTS
 62
2
 10
1886.705
 20
-6659.226
 30
-1998.640
 70
    32
  0
VERTEX
  8
W74XLIFTS
 62
2
 10
1887.126
 20
-6657.321
 30
-1998.640
 70
    32
  0
VERTEX
  8
W74XLIFTS
 62
2
 10
1888.177
 20
-6652.572
 30
-1998.640
 70
    32
  0
VERTEX
  8
W74XLIFTS
 62
2
 10
1887.212
 20
-6645.608
 30
-1998.640
 70
    32
  0
VERTEX
  8
W74XLIFTS
 62
2
 10
1887.670
 20
-6641.403
 30
-1998.640
 70
    32
  0
VERTEX
  8
W74XLIFTS
 62
2
 10
1888.156
 20
-6638.147
 30
-1998.640
 70
    32
  0
VERTEX
  8
W74XLIFTS
 62
2
 10
1889.474
 20
-6635.418
 30
-1998.640
 70
    32
  0
VERTEX
  8
W74XLIFTS
 62
2
 10
1889.899
 20
-6634.537
 30
-1998.640
 70
    32
  0
VERTEX
  8
W74XLIFTS
 62
2
 10
1895.275
 20
-6631.792
 30
-1998.640
 70
    32
  0
VERTEX
  8
W74XLIFTS
 62
2
 10
1901.923
 20
-6630.836
 30
-1998.640
 70
    32
  0
VERTEX
  8
W74XLIFTS
 62
2
 10
1905.347
 20
-6633.681
 30
-1998.640
 70
    32
  0
VERTEX
  8
W74XLIFTS
 62
2
 10
1908.776
 20
-6639.109
 30
-1998.640
 70
    32
  0
VERTEX
  8
W74XLIFTS
 62
2
 10
1908.770
 20
-6639.540
 30
-1998.640
 70
    32
  0
VERTEX
  8
W74XLIFTS
 62
2
 10
1908.720
 20
-6643.313
 30
-1998.640
 70
    32
  0
VERTEX
  8
W74XLIFTS
 62
2
 10
1908.679
 20
-6646.398
 30
-1998.640
 70
    32
  0
VERTEX
  8
W74XLIFTS
 62
2
 10
1911.971
 20
-6653.755
 30
-1998.640
 70
    32
  0
VERTEX
  8
W74XLIFTS
 62
2
 10
1917.183
 20
-6660.933
 30
-1998.640
 70
    32
  0
VERTEX
  8
W74XLIFTS
 62
2
 10
1922.647
 20
-6669.979
 30
-1998.640
 70
    32
  0
VERTEX
  8
W74XLIFTS
 62
2
 10
1923.162
 20
-6671.203
 30
-1998.640
 70
    32
  0
VERTEX
  8
W74XLIFTS
 62
2
 10
1923.650
 20
-6672.365
 30
-1998.640
 70
    32
  0
VERTEX
  8
W74XLIFTS
 62
2
 10
1924.664
 20
-6674.773
 30
-1998.640
 70
    32
  0
VERTEX
  8
W74XLIFTS
 62
2
 10
1925.613
 20
-6677.029
 30
-1998.640
 70
    32
  0
VERTEX
  8
W74XLIFTS
 62
2
 10
1931.172
 20
-6694.089
 30
-1998.640
 70
    32
  0
VERTEX
  8
W74XLIFTS
 62
2
 10
1935.485
 20
-6711.065
 30
-1998.640
 70
    32
  0
VERTEX
  8
W74XLIFTS
 62
2
 10
1938.288
 20
-6723.189
 30
-1998.640
 70
    32
  0
VERTEX
  8
W74XLIFTS
 62
2
 10
1938.312
 20
-6723.244
 30
-1998.640
 70
    32
  0
VERTEX
  8
W74XLIFTS
 62
2
 10
1938.808
 20
-6724.340
 30
-1998.640
 70
    32
  0
VERTEX
  8
W74XLIFTS
 62
2
 10
1943.744
 20
-6735.257
 30
-1998.640
 70
    32
  0
VERTEX
  8
W74XLIFTS
 62
2
 10
1945.208
 20
-6743.376
 30
-1998.640
 70
    32
  0
VERTEX
  8
W74XLIFTS
 62
2
 10
1945.680
 20
-6748.780
 30
-1998.640
 70
    32
  0
VERTEX
  8
W74XLIFTS
 62
2
 10
1945.766
 20
-6749.768
 30
-1998.640
 70
    32
  0
VERTEX
  8
W74XLIFTS
 62
2
 10
1945.405
 20
-6756.382
 30
-1998.640
 70
    32
  0
VERTEX
  8
W74XLIFTS
 62
2
 10
1943.069
 20
-6765.371
 30
-1998.640
 70
    32
  0
VERTEX
  8
W74XLIFTS
 62
2
 10
1939.217
 20
-6771.774
 30
-1998.640
 70
    32
  0
VERTEX
  8
W74XLIFTS
 62
2
 10
1940.270
 20
-6775.983
 30
-1998.640
 70
    32
  0
VERTEX
  8
W74XLIFTS
 62
2
 10
1938.950
 20
-6779.392
 30
-1998.640
 70
    32
  0
VERTEX
  8
W74XLIFTS
 62
2
 10
1938.484
 20
-6780.593
 30
-1998.640
 70
    32
  0
VERTEX
  8
W74XLIFTS
 62
2
 10
1938.496
 20
-6780.664
 30
-1998.640
 70
    32
  0
VERTEX
  8
W74XLIFTS
 62
2
 10
1938.819
 20
-6782.622
 30
-1998.640
 70
    32
  0
VERTEX
  8
W74XLIFTS
 62
2
 10
1939.200
 20
-6784.933
 30
-1998.640
 70
    32
  0
VERTEX
  8
W74XLIFTS
 62
2
 10
1939.285
 20
-6785.394
 30
-1998.640
 70
    32
  0
VERTEX
  8
W74XLIFTS
 62
2
 10
1939.987
 20
-6789.223
 30
-1998.640
 70
    32
  0
VERTEX
  8
W74XLIFTS
 62
2
 10
1941.112
 20
-6798.229
 30
-1998.640
 70
    32
  0
VERTEX
  8
W74XLIFTS
 62
2
 10
1940.913
 20
-6805.375
 30
-1998.640
 70
    32
  0
VERTEX
  8
W74XLIFTS
 62
2
 10
1940.378
 20
-6810.982
 30
-1998.640
 70
    32
  0
VERTEX
  8
W74XLIFTS
 62
2
 10
1940.339
 20
-6811.387
 30
-1998.640
 70
    32
  0
VERTEX
  8
W74XLIFTS
 62
2
 10
1943.394
 20
-6819.774
 30
-1998.640
 70
    32
  0
VERTEX
  8
W74XLIFTS
 62
2
 10
1947.111
 20
-6824.243
 30
-1998.640
 70
    32
  0
VERTEX
  8
W74XLIFTS
 62
2
 10
1951.985
 20
-6832.308
 30
-1998.640
 70
    32
  0
VERTEX
  8
W74XLIFTS
 62
2
 10
1952.454
 20
-6833.148
 30
-1998.640
 70
    32
  0
VERTEX
  8
W74XLIFTS
 62
2
 10
1954.605
 20
-6836.994
 30
-1998.640
 70
    32
  0
VERTEX
  8
W74XLIFTS
 62
2
 10
1955.951
 20
-6839.402
 30
-1998.640
 70
    32
  0
VERTEX
  8
W74XLIFTS
 62
2
 10
1958.537
 20
-6847.584
 30
-1998.640
 70
    32
  0
VERTEX
  8
W74XLIFTS
 62
2
 10
1960.327
 20
-6856.010
 30
-1998.640
 70
    32
  0
VERTEX
  8
W74XLIFTS
 62
2
 10
1960.473
 20
-6864.096
 30
-1998.640
 70
    32
  0
VERTEX
  8
W74XLIFTS
 62
2
 10
1960.603
 20
-6865.240
 30
-1998.640
 70
    32
  0
VERTEX
  8
W74XLIFTS
 62
2
 10
1960.999
 20
-6868.731
 30
-1998.640
 70
    32
  0
VERTEX
  8
W74XLIFTS
 62
2
 10
1961.435
 20
-6872.571
 30
-1998.640
 70
    32
  0
VERTEX
  8
W74XLIFTS
 62
2
 10
1960.400
 20
-6879.450
 30
-1998.640
 70
    32
  0
VERTEX
  8
W74XLIFTS
 62
2
 10
1958.781
 20
-6887.174
 30
-1998.640
 70
    32
  0
VERTEX
  8
W74XLIFTS
 62
2
 10
1958.102
 20
-6889.705
 30
-1998.640
 70
    32
  0
VERTEX
  8
W74XLIFTS
 62
2
 10
1955.085
 20
-6892.281
 30
-1998.640
 70
    32
  0
VERTEX
  8
W74XLIFTS
 62
2
 10
1953.905
 20
-6893.599
 30
-1998.640
 70
    32
  0
VERTEX
  8
W74XLIFTS
 62
2
 10
1953.223
 20
-6894.360
 30
-1998.640
 70
    32
  0
VERTEX
  8
W74XLIFTS
 62
2
 10
1951.669
 20
-6895.357
 30
-1998.640
 70
    32
  0
VERTEX
  8
W74XLIFTS
 62
2
 10
1949.667
 20
-6896.027
 30
-1998.640
 70
    32
  0
VERTEX
  8
W74XLIFTS
 62
2
 10
1947.859
 20
-6896.666
 30
-1998.640
 70
    32
  0
VERTEX
  8
W74XLIFTS
 62
2
 10
1944.784
 20
-6897.344
 30
-1998.640
 70
    32
  0
VERTEX
  8
W74XLIFTS
 62
2
 10
1942.109
 20
-6897.522
 30
-1998.640
 70
    32
  0
VERTEX
  8
W74XLIFTS
 62
2
 10
1939.488
 20
-6896.261
 30
-1998.640
 70
    32
  0
VERTEX
  8
W74XLIFTS
 62
2
 10
1935.972
 20
-6893.589
 30
-1998.640
 70
    32
  0
VERTEX
  8
W74XLIFTS
 62
2
 10
1935.427
 20
-6892.759
 30
-1998.640
 70
    32
  0
VERTEX
  8
W74XLIFTS
 62
2
 10
1934.457
 20
-6891.279
 30
-1998.640
 70
    32
  0
VERTEX
  8
W74XLIFTS
 62
2
 10
1933.417
 20
-6889.694
 30
-1998.640
 70
    32
  0
VERTEX
  8
W74XLIFTS
 62
2
 10
1932.826
 20
-6884.619
 30
-1998.640
 70
    32
  0
VERTEX
  8
W74XLIFTS
 62
2
 10
1929.804
 20
-6874.914
 30
-1998.640
 70
    32
  0
VERTEX
  8
W74XLIFTS
 62
2
 10
1928.353
 20
-6870.450
 30
-1998.640
 70
    32
  0
VERTEX
  8
W74XLIFTS
 62
2
 10
1928.846
 20
-6867.666
 30
-1998.640
 70
    32
  0
VERTEX
  8
W74XLIFTS
 62
2
 10
1929.630
 20
-6863.231
 30
-1998.640
 70
    32
  0
VERTEX
  8
W74XLIFTS
 62
2
 10
1929.727
 20
-6862.684
 30
-1998.640
 70
    32
  0
VERTEX
  8
W74XLIFTS
 62
2
 10
1929.331
 20
-6851.974
 30
-1998.640
 70
    32
  0
VERTEX
  8
W74XLIFTS
 62
2
 10
1928.804
 20
-6845.021
 30
-1998.640
 70
    32
  0
VERTEX
  8
W74XLIFTS
 62
2
 10
1928.020
 20
-6839.221
 30
-1998.640
 70
    32
  0
VERTEX
  8
W74XLIFTS
 62
2
 10
1926.990
 20
-6834.135
 30
-1998.640
 70
    32
  0
VERTEX
  8
W74XLIFTS
 62
2
 10
1926.497
 20
-6830.714
 30
-1998.640
 70
    32
  0
VERTEX
  8
W74XLIFTS
 62
2
 10
1925.528
 20
-6825.260
 30
-1998.640
 70
    32
  0
VERTEX
  8
W74XLIFTS
 62
2
 10
1926.032
 20
-6818.544
 30
-1998.640
 70
    32
  0
VERTEX
  8
W74XLIFTS
 62
2
 10
1926.152
 20
-6815.360
 30
-1998.640
 70
    32
  0
VERTEX
  8
W74XLIFTS
 62
2
 10
1926.194
 20
-6814.226
 30
-1998.640
 70
    32
  0
VERTEX
  8
W74XLIFTS
 62
2
 10
1925.630
 20
-6812.668
 30
-1998.640
 70
    32
  0
VERTEX
  8
W74XLIFTS
 62
2
 10
1925.078
 20
-6811.140
 30
-1998.640
 70
    32
  0
VERTEX
  8
W74XLIFTS
 62
2
 10
1924.482
 20
-6809.998
 30
-1998.640
 70
    32
  0
VERTEX
  8
W74XLIFTS
 62
2
 10
1923.603
 20
-6808.310
 30
-1998.640
 70
    32
  0
VERTEX
  8
W74XLIFTS
 62
2
 10
1920.670
 20
-6804.792
 30
-1998.640
 70
    32
  0
VERTEX
  8
W74XLIFTS
 62
2
 10
1915.818
 20
-6801.453
 30
-1998.640
 70
    32
  0
VERTEX
  8
W74XLIFTS
 62
2
 10
1912.076
 20
-6799.373
 30
-1998.640
 70
    32
  0
VERTEX
  8
W74XLIFTS
 62
2
 10
1907.023
 20
-6799.087
 30
-1998.640
 70
    32
  0
VERTEX
  8
W74XLIFTS
 62
2
 10
1906.341
 20
-6798.279
 30
-1998.640
 70
    32
  0
VERTEX
  8
W74XLIFTS
 62
2
 10
1906.171
 20
-6798.040
 30
-1998.640
 70
    32
  0
VERTEX
  8
W74XLIFTS
 62
2
 10
1904.712
 20
-6795.989
 30
-1998.640
 70
    32
  0
VERTEX
  8
W74XLIFTS
 62
2
 10
1903.756
 20
-6794.190
 30
-1998.640
 70
    32
  0
VERTEX
  8
W74XLIFTS
 62
2
 10
1901.539
 20
-6780.465
 30
-1998.640
 70
    32
  0
VERTEX
  8
W74XLIFTS
 62
2
 10
1901.024
 20
-6777.982
 30
-1998.640
 70
    32
  0
VERTEX
  8
W74XLIFTS
 62
2
 10
1897.304
 20
-6773.806
 30
-1998.640
 70
    32
  0
VERTEX
  8
W74XLIFTS
 62
2
 10
1894.732
 20
-6770.919
 30
-1998.640
 70
    32
  0
VERTEX
  8
W74XLIFTS
 62
2
 10
1891.532
 20
-6767.849
 30
-1998.640
 70
    32
  0
VERTEX
  8
W74XLIFTS
 62
2
 10
1891.474
 20
-6767.795
 30
-1998.640
 70
    32
  0
VERTEX
  8
W74XLIFTS
 62
2
 10
1891.408
 20
-6767.734
 30
-1998.641
 70
    32
  0
SEQEND
  8
W74XLIFTS
  0
POLYLINE
  8
W74XLIFTS
 62
6
 66
     1
 70
     9
  0
VERTEX
  8
W74XLIFTS
 62
6
 10
1995.554
 20
-6885.618
 30
-1986.400
 70
    32
  0
VERTEX
  8
W74XLIFTS
 62
6
 10
2005.411
 20
-6884.384
 30
-1986.400
 70
    32
  0
VERTEX
  8
W74XLIFTS
 62
6
 10
2006.166
 20
-6884.970
 30
-1986.400
 70
    32
  0
VERTEX
  8
W74XLIFTS
 62
6
 10
2009.751
 20
-6887.750
 30
-1986.400
 70
    32
  0
VERTEX
  8
W74XLIFTS
 62
6
 10
2026.582
 20
-6900.805
 30
-1986.400
 70
    32
  0
VERTEX
  8
W74XLIFTS
 62
6
 10
2032.529
 20
-6909.000
 30
-1986.400
 70
    32
  0
VERTEX
  8
W74XLIFTS
 62
6
 10
2036.590
 20
-6914.596
 30
-1986.400
 70
    32
  0
VERTEX
  8
W74XLIFTS
 62
6
 10
2045.903
 20
-6927.430
 30
-1986.400
 70
    32
  0
VERTEX
  8
W74XLIFTS
 62
6
 10
2057.156
 20
-6933.715
 30
-1986.400
 70
    32
  0
VERTEX
  8
W74XLIFTS
 62
6
 10
2057.267
 20
-6934.203
 30
-1986.400
 70
    32
  0
VERTEX
  8
W74XLIFTS
 62
6
 10
2057.877
 20
-6936.895
 30
-1986.400
 70
    32
  0
VERTEX
  8
W74XLIFTS
 62
6
 10
2058.912
 20
-6941.458
 30
-1986.400
 70
    32
  0
VERTEX
  8
W74XLIFTS
 62
6
 10
2065.572
 20
-6950.687
 30
-1986.400
 70
    32
  0
VERTEX
  8
W74XLIFTS
 62
6
 10
2062.973
 20
-6958.355
 30
-1986.400
 70
    32
  0
VERTEX
  8
W74XLIFTS
 62
6
 10
2071.310
 20
-6968.442
 30
-1986.400
 70
    32
  0
VERTEX
  8
W74XLIFTS
 62
6
 10
2066.942
 20
-6973.797
 30
-1986.400
 70
    32
  0
VERTEX
  8
W74XLIFTS
 62
6
 10
2062.749
 20
-6978.936
 30
-1986.400
 70
    32
  0
VERTEX
  8
W74XLIFTS
 62
6
 10
2052.421
 20
-6982.952
 30
-1986.400
 70
    32
  0
VERTEX
  8
W74XLIFTS
 62
6
 10
2048.508
 20
-6981.295
 30
-1986.400
 70
    32
  0
VERTEX
  8
W74XLIFTS
 62
6
 10
2046.823
 20
-6980.582
 30
-1986.400
 70
    32
  0
VERTEX
  8
W74XLIFTS
 62
6
 10
2045.474
 20
-6977.255
 30
-1986.400
 70
    32
  0
VERTEX
  8
W74XLIFTS
 62
6
 10
2039.678
 20
-6962.955
 30
-1986.400
 70
    32
  0
VERTEX
  8
W74XLIFTS
 62
6
 10
2035.976
 20
-6960.638
 30
-1986.400
 70
    32
  0
VERTEX
  8
W74XLIFTS
 62
6
 10
2025.040
 20
-6961.943
 30
-1986.400
 70
    32
  0
VERTEX
  8
W74XLIFTS
 62
6
 10
2024.423
 20
-6959.812
 30
-1986.400
 70
    32
  0
VERTEX
  8
W74XLIFTS
 62
6
 10
2023.731
 20
-6957.425
 30
-1986.400
 70
    32
  0
VERTEX
  8
W74XLIFTS
 62
6
 10
2017.447
 20
-6935.741
 30
-1986.400
 70
    32
  0
VERTEX
  8
W74XLIFTS
 62
6
 10
2005.647
 20
-6912.380
 30
-1986.400
 70
    32
  0
VERTEX
  8
W74XLIFTS
 62
6
 10
2004.839
 20
-6911.699
 30
-1986.400
 70
    32
  0
VERTEX
  8
W74XLIFTS
 62
6
 10
2002.582
 20
-6909.798
 30
-1986.400
 70
    32
  0
VERTEX
  8
W74XLIFTS
 62
6
 10
1990.554
 20
-6899.668
 30
-1986.400
 70
    32
  0
SEQEND
  8
W74XLIFTS
  0
POLYLINE
  8
W74XLIFTS
 62
6
 66
     1
 70
     9
  0
VERTEX
  8
W74XLIFTS
 62
6
 10
2016.198
 20
-7093.481
 30
-2001.915
 70
    32
  0
VERTEX
  8
W74XLIFTS
 62
6
 10
2018.376
 20
-7093.027
 30
-2001.915
 70
    32
  0
VERTEX
  8
W74XLIFTS
 62
6
 10
2019.160
 20
-7092.863
 30
-2001.915
 70
    32
  0
VERTEX
  8
W74XLIFTS
 62
6
 10
2019.752
 20
-7092.740
 30
-2001.915
 70
    32
  0
VERTEX
  8
W74XLIFTS
 62
6
 10
2021.375
 20
-7088.967
 30
-2001.915
 70
    32
  0
VERTEX
  8
W74XLIFTS
 62
6
 10
2023.698
 20
-7083.570
 30
-2001.915
 70
    32
  0
VERTEX
  8
W74XLIFTS
 62
6
 10
2030.399
 20
-7079.349
 30
-2001.915
 70
    32
  0
VERTEX
  8
W74XLIFTS
 62
6
 10
2034.242
 20
-7070.452
 30
-2001.915
 70
    32
  0
VERTEX
  8
W74XLIFTS
 62
6
 10
2048.304
 20
-7068.036
 30
-2001.915
 70
    32
  0
VERTEX
  8
W74XLIFTS
 62
6
 10
2064.849
 20
-7070.765
 30
-2001.915
 70
    32
  0
VERTEX
  8
W74XLIFTS
 62
6
 10
2068.759
 20
-7071.410
 30
-2001.915
 70
    32
  0
VERTEX
  8
W74XLIFTS
 62
6
 10
2068.850
 20
-7072.184
 30
-2001.915
 70
    32
  0
VERTEX
  8
W74XLIFTS
 62
6
 10
2073.663
 20
-7113.088
 30
-2001.915
 70
    32
  0
VERTEX
  8
W74XLIFTS
 62
6
 10
2081.771
 20
-7132.893
 30
-2001.915
 70
    32
  0
VERTEX
  8
W74XLIFTS
 62
6
 10
2081.268
 20
-7134.476
 30
-2001.915
 70
    32
  0
VERTEX
  8
W74XLIFTS
 62
6
 10
2080.013
 20
-7138.427
 30
-2001.915
 70
    32
  0
VERTEX
  8
W74XLIFTS
 62
6
 10
2079.772
 20
-7139.184
 30
-2001.915
 70
    32
  0
VERTEX
  8
W74XLIFTS
 62
6
 10
2073.971
 20
-7145.753
 30
-2001.915
 70
    32
  0
VERTEX
  8
W74XLIFTS
 62
6
 10
2066.577
 20
-7146.215
 30
-2001.915
 70
    32
  0
VERTEX
  8
W74XLIFTS
 62
6
 10
2063.016
 20
-7146.437
 30
-2001.915
 70
    32
  0
VERTEX
  8
W74XLIFTS
 62
6
 10
2056.175
 20
-7143.434
 30
-2001.915
 70
    32
  0
VERTEX
  8
W74XLIFTS
 62
6
 10
2054.027
 20
-7137.309
 30
-2001.915
 70
    32
  0
VERTEX
  8
W74XLIFTS
 62
6
 10
2042.520
 20
-7130.664
 30
-2001.915
 70
    32
  0
VERTEX
  8
W74XLIFTS
 62
6
 10
2042.330
 20
-7130.554
 30
-2001.915
 70
    32
  0
VERTEX
  8
W74XLIFTS
 62
6
 10
2032.651
 20
-7127.892
 30
-2001.915
 70
    32
  0
VERTEX
  8
W74XLIFTS
 62
6
 10
2031.826
 20
-7126.783
 30
-2001.915
 70
    32
  0
VERTEX
  8
W74XLIFTS
 62
6
 10
2027.518
 20
-7120.990
 30
-2001.915
 70
    32
  0
VERTEX
  8
W74XLIFTS
 62
6
 10
2021.211
 20
-7112.508
 30
-2001.915
 70
    32
  0
VERTEX
  8
W74XLIFTS
 62
6
 10
2020.649
 20
-7112.358
 30
-2001.915
 70
    32
  0
VERTEX
  8
W74XLIFTS
 62
6
 10
2018.376
 20
-7111.891
 30
-2001.915
 70
    32
  0
SEQEND
  8
W74XLIFTS
  0
POLYLINE
  8
W74XLIFTS
 62
6
 66
     1
 70
     9
  0
VERTEX
  8
W74XLIFTS
 62
6
 10
1941.910
 20
-7156.608
 30
-1987.560
 70
    32
  0
VERTEX
  8
W74XLIFTS
 62
6
 10
1943.688
 20
-7157.586
 30
-1987.560
 70
    32
  0
VERTEX
  8
W74XLIFTS
 62
6
 10
1943.706
 20
-7157.596
 30
-1987.560
 70
    32
  0
VERTEX
  8
W74XLIFTS
 62
6
 10
1951.432
 20
-7149.943
 30
-1987.560
 70
    32
  0
VERTEX
  8
W74XLIFTS
 62
6
 10
1954.720
 20
-7144.243
 30
-1987.560
 70
    32
  0
VERTEX
  8
W74XLIFTS
 62
6
 10
1958.630
 20
-7137.463
 30
-1987.560
 70
    32
  0
VERTEX
  8
W74XLIFTS
 62
6
 10
1958.703
 20
-7137.336
 30
-1987.560
 70
    32
  0
VERTEX
  8
W74XLIFTS
 62
6
 10
1958.898
 20
-7137.094
 30
-1987.560
 70
    32
  0
VERTEX
  8
W74XLIFTS
 62
6
 10
1962.429
 20
-7132.688
 30
-1987.560
 70
    32
  0
VERTEX
  8
W74XLIFTS
 62
6
 10
1965.521
 20
-7128.831
 30
-1987.560
 70
    32
  0
VERTEX
  8
W74XLIFTS
 62
6
 10
1967.984
 20
-7127.503
 30
-1987.560
 70
    32
  0
VERTEX
  8
W74XLIFTS
 62
6
 10
1968.722
 20
-7127.924
 30
-1987.560
 70
    32
  0
VERTEX
  8
W74XLIFTS
 62
6
 10
1979.326
 20
-7133.985
 30
-1987.560
 70
    32
  0
VERTEX
  8
W74XLIFTS
 62
6
 10
1987.900
 20
-7140.052
 30
-1987.560
 70
    32
  0
VERTEX
  8
W74XLIFTS
 62
6
 10
1988.806
 20
-7140.693
 30
-1987.560
 70
    32
  0
VERTEX
  8
W74XLIFTS
 62
6
 10
1994.054
 20
-7148.872
 30
-1987.560
 70
    32
  0
VERTEX
  8
W74XLIFTS
 62
6
 10
1994.064
 20
-7149.100
 30
-1987.560
 70
    32
  0
VERTEX
  8
W74XLIFTS
 62
6
 10
1994.177
 20
-7151.718
 30
-1987.560
 70
    32
  0
VERTEX
  8
W74XLIFTS
 62
6
 10
1995.251
 20
-7176.646
 30
-1987.560
 70
    32
  0
VERTEX
  8
W74XLIFTS
 62
6
 10
1993.734
 20
-7178.412
 30
-1987.560
 70
    32
  0
VERTEX
  8
W74XLIFTS
 62
6
 10
1992.410
 20
-7179.953
 30
-1987.560
 70
    32
  0
VERTEX
  8
W74XLIFTS
 62
6
 10
1986.758
 20
-7186.532
 30
-1987.560
 70
    32
  0
VERTEX
  8
W74XLIFTS
 62
6
 10
1980.661
 20
-7192.185
 30
-1987.560
 70
    32
  0
VERTEX
  8
W74XLIFTS
 62
6
 10
1977.220
 20
-7191.073
 30
-1987.560
 70
    32
  0
VERTEX
  8
W74XLIFTS
 62
6
 10
1975.363
 20
-7192.530
 30
-1987.560
 70
    32
  0
VERTEX
  8
W74XLIFTS
 62
6
 10
1979.594
 20
-7202.751
 30
-1987.560
 70
    32
  0
VERTEX
  8
W74XLIFTS
 62
6
 10
1978.586
 20
-7207.254
 30
-1987.560
 70
    32
  0
VERTEX
  8
W74XLIFTS
 62
6
 10
1975.471
 20
-7208.591
 30
-1987.560
 70
    32
  0
VERTEX
  8
W74XLIFTS
 62
6
 10
1971.864
 20
-7210.140
 30
-1987.560
 70
    32
  0
VERTEX
  8
W74XLIFTS
 62
6
 10
1970.980
 20
-7210.519
 30
-1987.560
 70
    32
  0
VERTEX
  8
W74XLIFTS
 62
6
 10
1970.122
 20
-7210.050
 30
-1987.560
 70
    32
  0
VERTEX
  8
W74XLIFTS
 62
6
 10
1966.572
 20
-7208.111
 30
-1987.560
 70
    32
  0
VERTEX
  8
W74XLIFTS
 62
6
 10
1966.549
 20
-7201.955
 30
-1987.560
 70
    32
  0
VERTEX
  8
W74XLIFTS
 62
6
 10
1965.793
 20
-7201.241
 30
-1987.560
 70
    32
  0
VERTEX
  8
W74XLIFTS
 62
6
 10
1952.334
 20
-7188.513
 30
-1987.560
 70
    32
  0
VERTEX
  8
W74XLIFTS
 62
6
 10
1951.429
 20
-7187.657
 30
-1987.560
 70
    32
  0
VERTEX
  8
W74XLIFTS
 62
6
 10
1950.172
 20
-7178.957
 30
-1987.560
 70
    32
  0
VERTEX
  8
W74XLIFTS
 62
6
 10
1947.966
 20
-7175.600
 30
-1987.560
 70
    32
  0
VERTEX
  8
W74XLIFTS
 62
6
 10
1947.306
 20
-7174.596
 30
-1987.560
 70
    32
  0
VERTEX
  8
W74XLIFTS
 62
6
 10
1946.268
 20
-7173.016
 30
-1987.560
 70
    32
  0
VERTEX
  8
W74XLIFTS
 62
6
 10
1945.115
 20
-7171.262
 30
-1987.560
 70
    32
  0
VERTEX
  8
W74XLIFTS
 62
6
 10
1944.911
 20
-7170.952
 30
-1987.560
 70
    32
  0
SEQEND
  8
W74XLIFTS
  0
POLYLINE
  8
W74XLIFTS
 62
6
 66
     1
 70
     9
  0
VERTEX
  8
W74XLIFTS
 62
6
 10
1861.196
 20
-7003.217
 30
-1999.514
 70
    32
  0
VERTEX
  8
W74XLIFTS
 62
6
 10
1859.458
 20
-6998.707
 30
-1999.240
 70
    32
  0
VERTEX
  8
W74XLIFTS
 62
6
 10
1855.914
 20
-6989.511
 30
-1999.240
 70
    32
  0
VERTEX
  8
W74XLIFTS
 62
6
 10
1855.784
 20
-6989.174
 30
-1999.240
 70
    32
  0
VERTEX
  8
W74XLIFTS
 62
6
 10
1859.289
 20
-6983.818
 30
-1999.240
 70
    32
  0
VERTEX
  8
W74XLIFTS
 62
6
 10
1868.211
 20
-6977.060
 30
-1999.240
 70
    32
  0
VERTEX
  8
W74XLIFTS
 62
6
 10
1871.016
 20
-6974.936
 30
-1999.240
 70
    32
  0
VERTEX
  8
W74XLIFTS
 62
6
 10
1871.816
 20
-6974.330
 30
-1999.240
 70
    32
  0
VERTEX
  8
W74XLIFTS
 62
6
 10
1872.313
 20
-6971.469
 30
-1999.240
 70
    32
  0
VERTEX
  8
W74XLIFTS
 62
6
 10
1872.780
 20
-6968.782
 30
-1999.240
 70
    32
  0
VERTEX
  8
W74XLIFTS
 62
6
 10
1882.127
 20
-6968.800
 30
-1999.240
 70
    32
  0
VERTEX
  8
W74XLIFTS
 62
6
 10
1891.592
 20
-6968.819
 30
-1999.240
 70
    32
  0
VERTEX
  8
W74XLIFTS
 62
6
 10
1893.095
 20
-6977.642
 30
-1999.240
 70
    32
  0
VERTEX
  8
W74XLIFTS
 62
6
 10
1897.290
 20
-6996.817
 30
-1999.240
 70
    32
  0
VERTEX
  8
W74XLIFTS
 62
6
 10
1898.358
 20
-7001.699
 30
-1999.240
 70
    32
  0
VERTEX
  8
W74XLIFTS
 62
6
 10
1898.738
 20
-7003.439
 30
-1999.240
 70
    32
  0
VERTEX
  8
W74XLIFTS
 62
6
 10
1905.934
 20
-7011.004
 30
-1999.240
 70
    32
  0
VERTEX
  8
W74XLIFTS
 62
6
 10
1908.874
 20
-7014.094
 30
-1999.240
 70
    32
  0
VERTEX
  8
W74XLIFTS
 62
6
 10
1914.512
 20
-7037.001
 30
-1999.240
 70
    32
  0
VERTEX
  8
W74XLIFTS
 62
6
 10
1915.712
 20
-7041.878
 30
-1999.240
 70
    32
  0
VERTEX
  8
W74XLIFTS
 62
6
 10
1917.566
 20
-7043.910
 30
-1999.240
 70
    32
  0
VERTEX
  8
W74XLIFTS
 62
6
 10
1918.112
 20
-7044.508
 30
-1999.240
 70
    32
  0
VERTEX
  8
W74XLIFTS
 62
6
 10
1925.567
 20
-7052.679
 30
-1999.240
 70
    32
  0
VERTEX
  8
W74XLIFTS
 62
6
 10
1927.366
 20
-7058.001
 30
-1999.240
 70
    32
  0
VERTEX
  8
W74XLIFTS
 62
6
 10
1916.194
 20
-7065.606
 30
-1999.240
 70
    32
  0
VERTEX
  8
W74XLIFTS
 62
6
 10
1904.333
 20
-7070.595
 30
-1999.240
 70
    32
  0
VERTEX
  8
W74XLIFTS
 62
6
 10
1902.208
 20
-7071.488
 30
-1999.240
 70
    32
  0
VERTEX
  8
W74XLIFTS
 62
6
 10
1898.716
 20
-7066.863
 30
-1999.240
 70
    32
  0
VERTEX
  8
W74XLIFTS
 62
6
 10
1898.353
 20
-7066.382
 30
-1999.240
 70
    32
  0
VERTEX
  8
W74XLIFTS
 62
6
 10
1895.590
 20
-7065.143
 30
-1999.240
 70
    32
  0
VERTEX
  8
W74XLIFTS
 62
6
 10
1894.559
 20
-7066.593
 30
-1999.240
 70
    32
  0
VERTEX
  8
W74XLIFTS
 62
6
 10
1892.810
 20
-7069.049
 30
-1999.389
 70
    32
  0
VERTEX
  8
W74XLIFTS
 62
6
 10
1888.004
 20
-7058.556
 30
-1999.413
 70
    32
  0
VERTEX
  8
W74XLIFTS
 62
6
 10
1885.308
 20
-7055.672
 30
-1999.493
 70
    32
  0
VERTEX
  8
W74XLIFTS
 62
6
 10
1880.061
 20
-7054.388
 30
-1999.747
 70
    32
  0
VERTEX
  8
W74XLIFTS
 62
6
 10
1872.763
 20
-7032.384
 30
-1999.647
 70
    32
  0
VERTEX
  8
W74XLIFTS
 62
6
 10
1864.758
 20
-7018.430
 30
-1999.765
 70
    32
  0
VERTEX
  8
W74XLIFTS
 62
6
 10
1862.445
 20
-7019.000
 30
-1999.902
 70
    32
  0
SEQEND
  8
W74XLIFTS
  0
POLYLINE
  8
W74XLIFTS
 62
6
 66
     1
 70
     9
  0
VERTEX
  8
W74XLIFTS
 62
6
 10
1777.917
 20
-6879.047
 30
-2009.073
 70
    32
  0
VERTEX
  8
W74XLIFTS
 62
6
 10
1777.696
 20
-6877.007
 30
-2009.144
 70
    32
  0
VERTEX
  8
W74XLIFTS
 62
6
 10
1776.495
 20
-6865.895
 30
-2009.529
 70
    32
  0
VERTEX
  8
W74XLIFTS
 62
6
 10
1776.022
 20
-6863.979
 30
-2009.602
 70
    32
  0
VERTEX
  8
W74XLIFTS
 62
6
 10
1775.905
 20
-6863.810
 30
-2009.610
 70
    32
  0
VERTEX
  8
W74XLIFTS
 62
6
 10
1775.272
 20
-6862.896
 30
-2009.654
 70
    32
  0
VERTEX
  8
W74XLIFTS
 62
6
 10
1775.090
 20
-6862.724
 30
-2009.664
 70
    32
  0
VERTEX
  8
W74XLIFTS
 62
6
 10
1774.733
 20
-6862.387
 30
-2009.683
 70
    32
  0
VERTEX
  8
W74XLIFTS
 62
6
 10
1772.794
 20
-6860.554
 30
-2009.788
 70
    32
  0
VERTEX
  8
W74XLIFTS
 62
6
 10
1770.694
 20
-6858.911
 30
-2009.889
 70
    32
  0
VERTEX
  8
W74XLIFTS
 62
6
 10
1769.977
 20
-6858.339
 30
-2009.925
 70
    32
  0
VERTEX
  8
W74XLIFTS
 62
6
 10
1770.243
 20
-6856.873
 30
-2009.965
 70
    32
  0
VERTEX
  8
W74XLIFTS
 62
6
 10
1780.967
 20
-6845.418
 30
-2010.084
 70
    32
  0
VERTEX
  8
W74XLIFTS
 62
6
 10
1784.486
 20
-6841.659
 30
-2010.123
 70
    32
  0
VERTEX
  8
W74XLIFTS
 62
6
 10
1791.356
 20
-6838.165
 30
-2010.075
 70
    32
  0
VERTEX
  8
W74XLIFTS
 62
6
 10
1794.913
 20
-6836.356
 30
-2010.050
 70
    32
  0
VERTEX
  8
W74XLIFTS
 62
6
 10
1800.703
 20
-6841.318
 30
-2009.756
 70
    32
  0
VERTEX
  8
W74XLIFTS
 62
6
 10
1805.910
 20
-6846.364
 30
-2009.472
 70
    32
  0
VERTEX
  8
W74XLIFTS
 62
6
 10
1808.827
 20
-6848.723
 30
-2009.328
 70
    32
  0
VERTEX
  8
W74XLIFTS
 62
6
 10
1810.972
 20
-6851.509
 30
-2009.189
 70
    32
  0
VERTEX
  8
W74XLIFTS
 62
6
 10
1811.584
 20
-6853.603
 30
-2009.107
 70
    32
  0
VERTEX
  8
W74XLIFTS
 62
6
 10
1811.673
 20
-6853.908
 30
-2009.095
 70
    32
  0
VERTEX
  8
W74XLIFTS
 62
6
 10
1811.933
 20
-6855.289
 30
-2009.045
 70
    32
  0
VERTEX
  8
W74XLIFTS
 62
6
 10
1812.670
 20
-6859.201
 30
-2008.902
 70
    32
  0
VERTEX
  8
W74XLIFTS
 62
6
 10
1813.494
 20
-6863.010
 30
-2008.760
 70
    32
  0
VERTEX
  8
W74XLIFTS
 62
6
 10
1814.622
 20
-6864.792
 30
-2008.676
 70
    32
  0
VERTEX
  8
W74XLIFTS
 62
6
 10
1815.872
 20
-6865.208
 30
-2008.634
 70
    32
  0
VERTEX
  8
W74XLIFTS
 62
6
 10
1817.799
 20
-6865.368
 30
-2008.583
 70
    32
  0
VERTEX
  8
W74XLIFTS
 62
6
 10
1820.255
 20
-6867.833
 30
-2008.447
 70
    32
  0
VERTEX
  8
W74XLIFTS
 62
6
 10
1820.923
 20
-6871.109
 30
-2008.326
 70
    32
  0
VERTEX
  8
W74XLIFTS
 62
6
 10
1822.953
 20
-6875.579
 30
-2008.135
 70
    32
  0
VERTEX
  8
W74XLIFTS
 62
6
 10
1825.403
 20
-6877.727
 30
-2008.009
 70
    32
  0
VERTEX
  8
W74XLIFTS
 62
6
 10
1827.142
 20
-6879.620
 30
-2007.907
 70
    32
  0
VERTEX
  8
W74XLIFTS
 62
6
 10
1826.455
 20
-6880.723
 30
-2007.888
 70
    32
  0
VERTEX
  8
W74XLIFTS
 62
6
 10
1822.337
 20
-6887.331
 30
-2007.771
 70
    32
  0
VERTEX
  8
W74XLIFTS
 62
6
 10
1827.381
 20
-6900.930
 30
-2007.216
 70
    32
  0
VERTEX
  8
W74XLIFTS
 62
6
 10
1827.144
 20
-6901.887
 30
-2007.191
 70
    32
  0
VERTEX
  8
W74XLIFTS
 62
6
 10
1826.677
 20
-6903.769
 30
-2007.141
 70
    32
  0
VERTEX
  8
W74XLIFTS
 62
6
 10
1826.328
 20
-6904.431
 30
-2007.128
 70
    32
  0
VERTEX
  8
W74XLIFTS
 62
6
 10
1819.752
 20
-6916.901
 30
-2006.880
 70
    32
  0
VERTEX
  8
W74XLIFTS
 62
6
 10
1806.713
 20
-6908.092
 30
-2007.467
 70
    32
  0
VERTEX
  8
W74XLIFTS
 62
6
 10
1807.984
 20
-6905.933
 30
-2007.507
 70
    32
  0
VERTEX
  8
W74XLIFTS
 62
6
 10
1804.825
 20
-6898.293
 30
-2007.827
 70
    32
  0
VERTEX
  8
W74XLIFTS
 62
6
 10
1799.007
 20
-6889.582
 30
-2008.243
 70
    32
  0
VERTEX
  8
W74XLIFTS
 62
6
 10
1796.288
 20
-6885.512
 30
-2008.437
 70
    32
  0
VERTEX
  8
W74XLIFTS
 62
6
 10
1794.310
 20
-6883.891
 30
-2008.535
 70
    32
  0
VERTEX
  8
W74XLIFTS
 62
6
 10
1789.598
 20
-6885.467
 30
-2008.594
 70
    32
  0
VERTEX
  8
W74XLIFTS
 62
6
 10
1787.458
 20
-6886.183
 30
-2008.621
 70
    32
  0
SEQEND
  8
W74XLIFTS
  0
POLYLINE
  8
W74XLIFTS
 62
2
 66
     1
 70
     9
  0
VERTEX
  8
W74XLIFTS
 62
2
 10
2008.395
 20
-7029.374
 30
-2055.330
 70
    32
  0
VERTEX
  8
W74XLIFTS
 62
2
 10
2012.171
 20
-7034.986
 30
-2056.522
 70
    32
  0
VERTEX
  8
W74XLIFTS
 62
2
 10
2016.732
 20
-7040.794
 30
-2057.801
 70
    32
  0
VERTEX
  8
W74XLIFTS
 62
2
 10
2021.961
 20
-7046.224
 30
-2059.063
 70
    32
  0
VERTEX
  8
W74XLIFTS
 62
2
 10
2022.090
 20
-7046.359
 30
-2059.095
 70
    32
  0
VERTEX
  8
W74XLIFTS
 62
2
 10
2022.463
 20
-7049.953
 30
-2059.763
 70
    32
  0
VERTEX
  8
W74XLIFTS
 62
2
 10
2023.121
 20
-7056.294
 30
-2060.873
 70
    32
  0
VERTEX
  8
W74XLIFTS
 62
2
 10
2022.533
 20
-7069.105
 30
-2063.005
 70
    32
  0
VERTEX
  8
W74XLIFTS
 62
2
 10
2022.690
 20
-7072.643
 30
-2063.612
 70
    32
  0
VERTEX
  8
W74XLIFTS
 62
2
 10
2022.747
 20
-7073.909
 30
-2063.825
 70
    32
  0
VERTEX
  8
W74XLIFTS
 62
2
 10
2022.835
 20
-7075.895
 30
-2063.825
 70
    32
  0
VERTEX
  8
W74XLIFTS
 62
2
 10
2022.738
 20
-7076.928
 30
-2063.825
 70
    32
  0
VERTEX
  8
W74XLIFTS
 62
2
 10
2022.595
 20
-7078.436
 30
-2063.825
 70
    32
  0
VERTEX
  8
W74XLIFTS
 62
2
 10
2019.793
 20
-7080.860
 30
-2063.825
 70
    32
  0
VERTEX
  8
W74XLIFTS
 62
2
 10
2017.936
 20
-7082.249
 30
-2063.825
 70
    32
  0
VERTEX
  8
W74XLIFTS
 62
2
 10
2013.955
 20
-7085.227
 30
-2063.825
 70
    32
  0
VERTEX
  8
W74XLIFTS
 62
2
 10
2007.602
 20
-7086.296
 30
-2063.825
 70
    32
  0
VERTEX
  8
W74XLIFTS
 62
2
 10
2003.603
 20
-7085.369
 30
-2063.825
 70
    32
  0
VERTEX
  8
W74XLIFTS
 62
2
 10
1998.279
 20
-7082.581
 30
-2063.825
 70
    32
  0
VERTEX
  8
W74XLIFTS
 62
2
 10
1998.204
 20
-7082.535
 30
-2063.825
 70
    32
  0
VERTEX
  8
W74XLIFTS
 62
2
 10
1994.283
 20
-7080.143
 30
-2063.201
 70
    32
  0
VERTEX
  8
W74XLIFTS
 62
2
 10
1990.462
 20
-7076.286
 30
-2062.341
 70
    32
  0
VERTEX
  8
W74XLIFTS
 62
2
 10
1991.236
 20
-7073.673
 30
-2061.954
 70
    32
  0
VERTEX
  8
W74XLIFTS
 62
2
 10
1992.332
 20
-7069.973
 30
-2061.392
 70
    32
  0
VERTEX
  8
W74XLIFTS
 62
2
 10
1992.807
 20
-7068.369
 30
-2061.136
 70
    32
  0
VERTEX
  8
W74XLIFTS
 62
2
 10
1993.148
 20
-7061.122
 30
-2059.861
 70
    32
  0
VERTEX
  8
W74XLIFTS
 62
2
 10
1994.199
 20
-7051.538
 30
-2058.214
 70
    32
  0
VERTEX
  8
W74XLIFTS
 62
2
 10
1997.253
 20
-7041.285
 30
-2056.577
 70
    32
  0
VERTEX
  8
W74XLIFTS
 62
2
 10
1996.839
 20
-7037.768
 30
-2055.921
 70
    32
  0
VERTEX
  8
W74XLIFTS
 62
2
 10
1996.761
 20
-7037.108
 30
-2055.806
 70
    32
  0
VERTEX
  8
W74XLIFTS
 62
2
 10
1995.791
 20
-7032.410
 30
-2054.960
 70
    32
  0
SEQEND
  8
W74XLIFTS
  0
POLYLINE
  8
W74XLIFTS
 62
3
 66
     1
 70
     9
  0
VERTEX
  8
W74XLIFTS
 62
3
 10
1861.811
 20
-6839.459
 30
-2011.966
 70
    32
  0
VERTEX
  8
W74XLIFTS
 62
3
 10
1858.785
 20
-6841.877
 30
-2015.000
 70
    32
  0
VERTEX
  8
W74XLIFTS
 62
3
 10
1859.798
 20
-6845.342
 30
-2015.000
 70
    32
  0
VERTEX
  8
W74XLIFTS
 62
3
 10
1858.337
 20
-6854.795
 30
-2015.000
 70
    32
  0
VERTEX
  8
W74XLIFTS
 62
3
 10
1858.108
 20
-6863.715
 30
-2015.000
 70
    32
  0
VERTEX
  8
W74XLIFTS
 62
3
 10
1860.132
 20
-6867.868
 30
-2015.000
 70
    32
  0
VERTEX
  8
W74XLIFTS
 62
3
 10
1862.577
 20
-6871.088
 30
-2018.221
 70
    32
  0
VERTEX
  8
W74XLIFTS
 62
3
 10
1859.944
 20
-6880.392
 30
-2021.578
 70
    32
  0
VERTEX
  8
W74XLIFTS
 62
3
 10
1855.214
 20
-6885.593
 30
-2015.000
 70
    32
  0
VERTEX
  8
W74XLIFTS
 62
3
 10
1851.976
 20
-6907.282
 30
-2015.000
 70
    32
  0
VERTEX
  8
W74XLIFTS
 62
3
 10
1836.536
 20
-6906.124
 30
-2015.000
 70
    32
  0
VERTEX
  8
W74XLIFTS
 62
3
 10
1838.128
 20
-6901.175
 30
-2015.000
 70
    32
  0
VERTEX
  8
W74XLIFTS
 62
3
 10
1839.387
 20
-6898.058
 30
-2015.000
 70
    32
  0
VERTEX
  8
W74XLIFTS
 62
3
 10
1835.288
 20
-6886.903
 30
-2015.000
 70
    32
  0
VERTEX
  8
W74XLIFTS
 62
3
 10
1831.718
 20
-6878.052
 30
-2015.000
 70
    32
  0
VERTEX
  8
W74XLIFTS
 62
3
 10
1827.667
 20
-6874.983
 30
-2015.000
 70
    32
  0
VERTEX
  8
W74XLIFTS
 62
3
 10
1829.182
 20
-6861.753
 30
-2015.000
 70
    32
  0
VERTEX
  8
W74XLIFTS
 62
3
 10
1826.608
 20
-6855.417
 30
-2015.000
 70
    32
  0
VERTEX
  8
W74XLIFTS
 62
3
 10
1822.994
 20
-6848.199
 30
-2015.000
 70
    32
  0
VERTEX
  8
W74XLIFTS
 62
3
 10
1819.892
 20
-6842.336
 30
-2015.000
 70
    32
  0
VERTEX
  8
W74XLIFTS
 62
3
 10
1820.550
 20
-6835.576
 30
-2015.000
 70
    32
  0
VERTEX
  8
W74XLIFTS
 62
3
 10
1821.942
 20
-6833.115
 30
-2015.000
 70
    32
  0
VERTEX
  8
W74XLIFTS
 62
3
 10
1824.902
 20
-6820.273
 30
-2015.000
 70
    32
  0
VERTEX
  8
W74XLIFTS
 62
3
 10
1826.349
 20
-6815.424
 30
-2015.000
 70
    32
  0
VERTEX
  8
W74XLIFTS
 62
3
 10
1828.707
 20
-6812.507
 30
-2015.000
 70
    32
  0
VERTEX
  8
W74XLIFTS
 62
3
 10
1831.672
 20
-6809.384
 30
-2015.000
 70
    32
  0
VERTEX
  8
W74XLIFTS
 62
3
 10
1839.331
 20
-6799.161
 30
-2015.000
 70
    32
  0
VERTEX
  8
W74XLIFTS
 62
3
 10
1861.484
 20
-6807.847
 30
-2015.000
 70
    32
  0
VERTEX
  8
W74XLIFTS
 62
3
 10
1862.342
 20
-6813.556
 30
-2015.000
 70
    32
  0
VERTEX
  8
W74XLIFTS
 62
3
 10
1862.118
 20
-6820.015
 30
-2015.000
 70
    32
  0
VERTEX
  8
W74XLIFTS
 62
3
 10
1863.731
 20
-6825.735
 30
-2015.000
 70
    32
  0
VERTEX
  8
W74XLIFTS
 62
3
 10
1865.393
 20
-6828.750
 30
-2011.422
 70
    32
  0
SEQEND
  8
W74XLIFTS
  0
POLYLINE
  8
W74XLIFTS
 62
8
 66
     1
 70
     9
  0
VERTEX
  8
W74XLIFTS
 62
8
 10
2583.018
 20
-8975.372
 30
-2077.561
 70
    32
  0
VERTEX
  8
W74XLIFTS
 62
8
 10
2611.663
 20
-8972.490
 30
-2076.610
 70
    32
  0
VERTEX
  8
W74XLIFTS
 62
8
 10
2613.387
 20
-8971.444
 30
-2075.878
 70
    32
  0
VERTEX
  8
W74XLIFTS
 62
8
 10
2618.622
 20
-8965.498
 30
-2077.117
 70
    32
  0
VERTEX
  8
W74XLIFTS
 62
8
 10
2617.514
 20
-8945.353
 30
-2077.408
 70
    32
  0
VERTEX
  8
W74XLIFTS
 62
8
 10
2623.878
 20
-8929.806
 30
-2076.814
 70
    32
  0
VERTEX
  8
W74XLIFTS
 62
8
 10
2618.658
 20
-8915.695
 30
-2077.001
 70
    32
  0
VERTEX
  8
W74XLIFTS
 62
8
 10
2620.046
 20
-8910.198
 30
-2077.147
 70
    32
  0
VERTEX
  8
W74XLIFTS
 62
8
 10
2618.434
 20
-8897.965
 30
-2077.519
 70
    32
  0
VERTEX
  8
W74XLIFTS
 62
8
 10
2625.819
 20
-8893.672
 30
-2077.570
 70
    32
  0
VERTEX
  8
W74XLIFTS
 62
8
 10
2631.225
 20
-8893.650
 30
-2077.517
 70
    32
  0
VERTEX
  8
W74XLIFTS
 62
8
 10
2636.986
 20
-8909.881
 30
-2076.987
 70
    32
  0
VERTEX
  8
W74XLIFTS
 62
8
 10
2641.011
 20
-8915.924
 30
-2076.771
 70
    32
  0
VERTEX
  8
W74XLIFTS
 62
8
 10
2640.943
 20
-8920.626
 30
-2076.635
 70
    32
  0
VERTEX
  8
W74XLIFTS
 62
8
 10
2642.232
 20
-8926.197
 30
-2075.940
 70
    32
  0
VERTEX
  8
W74XLIFTS
 62
8
 10
2651.796
 20
-8942.220
 30
-2075.026
 70
    32
  0
VERTEX
  8
W74XLIFTS
 62
8
 10
2657.786
 20
-8948.768
 30
-2075.529
 70
    32
  0
VERTEX
  8
W74XLIFTS
 62
8
 10
2655.935
 20
-8954.930
 30
-2075.477
 70
    32
  0
VERTEX
  8
W74XLIFTS
 62
8
 10
2659.261
 20
-8974.959
 30
-2074.939
 70
    32
  0
VERTEX
  8
W74XLIFTS
 62
8
 10
2661.982
 20
-8977.889
 30
-2076.004
 70
    32
  0
VERTEX
  8
W74XLIFTS
 62
8
 10
2657.828
 20
-8981.403
 30
-2075.870
 70
    32
  0
VERTEX
  8
W74XLIFTS
 62
8
 10
2659.004
 20
-8993.385
 30
-2075.189
 70
    32
  0
VERTEX
  8
W74XLIFTS
 62
8
 10
2664.776
 20
-9001.143
 30
-2074.674
 70
    32
  0
VERTEX
  8
W74XLIFTS
 62
8
 10
2662.907
 20
-9007.621
 30
-2074.799
 70
    32
  0
VERTEX
  8
W74XLIFTS
 62
8
 10
2654.730
 20
-9014.285
 30
-2074.569
 70
    32
  0
VERTEX
  8
W74XLIFTS
 62
8
 10
2652.759
 20
-9017.802
 30
-2074.459
 70
    32
  0
VERTEX
  8
W74XLIFTS
 62
8
 10
2652.498
 20
-9024.359
 30
-2074.271
 70
    32
  0
VERTEX
  8
W74XLIFTS
 62
8
 10
2647.119
 20
-9034.404
 30
-2074.581
 70
    32
  0
VERTEX
  8
W74XLIFTS
 62
8
 10
2644.184
 20
-9053.651
 30
-2074.608
 70
    32
  0
VERTEX
  8
W74XLIFTS
 62
8
 10
2640.567
 20
-9057.507
 30
-2074.614
 70
    32
  0
VERTEX
  8
W74XLIFTS
 62
8
 10
2638.504
 20
-9063.522
 30
-2075.024
 70
    32
  0
VERTEX
  8
W74XLIFTS
 62
8
 10
2638.199
 20
-9066.283
 30
-2075.251
 70
    32
  0
VERTEX
  8
W74XLIFTS
 62
8
 10
2638.371
 20
-9073.683
 30
-2075.285
 70
    32
  0
VERTEX
  8
W74XLIFTS
 62
8
 10
2641.829
 20
-9081.520
 30
-2075.415
 70
    32
  0
VERTEX
  8
W74XLIFTS
 62
8
 10
2647.611
 20
-9088.165
 30
-2076.238
 70
    32
  0
VERTEX
  8
W74XLIFTS
 62
8
 10
2652.554
 20
-9089.156
 30
-2075.686
 70
    32
  0
VERTEX
  8
W74XLIFTS
 62
8
 10
2657.384
 20
-9095.506
 30
-2075.810
 70
    32
  0
VERTEX
  8
W74XLIFTS
 62
8
 10
2658.860
 20
-9104.833
 30
-2076.117
 70
    32
  0
VERTEX
  8
W74XLIFTS
 62
8
 10
2652.642
 20
-9112.332
 30
-2074.702
 70
    32
  0
VERTEX
  8
W74XLIFTS
 62
8
 10
2635.835
 20
-9122.247
 30
-2074.852
 70
    32
  0
VERTEX
  8
W74XLIFTS
 62
8
 10
2633.176
 20
-9130.609
 30
-2074.212
 70
    32
  0
VERTEX
  8
W74XLIFTS
 62
8
 10
2629.311
 20
-9133.306
 30
-2074.003
 70
    32
  0
VERTEX
  8
W74XLIFTS
 62
8
 10
2627.800
 20
-9145.466
 30
-2074.038
 70
    32
  0
VERTEX
  8
W74XLIFTS
 62
8
 10
2630.790
 20
-9146.389
 30
-2073.149
 70
    32
  0
VERTEX
  8
W74XLIFTS
 62
8
 10
2638.840
 20
-9154.552
 30
-2074.570
 70
    32
  0
VERTEX
  8
W74XLIFTS
 62
8
 10
2657.403
 20
-9165.550
 30
-2073.718
 70
    32
  0
VERTEX
  8
W74XLIFTS
 62
8
 10
2668.591
 20
-9169.037
 30
-2073.052
 70
    32
  0
VERTEX
  8
W74XLIFTS
 62
8
 10
2667.278
 20
-9182.103
 30
-2072.236
 70
    32
  0
VERTEX
  8
W74XLIFTS
 62
8
 10
2671.459
 20
-9185.248
 30
-2072.633
 70
    32
  0
VERTEX
  8
W74XLIFTS
 62
8
 10
2676.222
 20
-9201.106
 30
-2072.912
 70
    32
  0
VERTEX
  8
W74XLIFTS
 62
8
 10
2659.420
 20
-9210.782
 30
-2071.412
 70
    32
  0
VERTEX
  8
W74XLIFTS
 62
8
 10
2652.501
 20
-9200.978
 30
-2071.923
 70
    32
  0
VERTEX
  8
W74XLIFTS
 62
8
 10
2637.470
 20
-9187.987
 30
-2074.160
 70
    32
  0
VERTEX
  8
W74XLIFTS
 62
8
 10
2631.599
 20
-9181.558
 30
-2073.638
 70
    32
  0
VERTEX
  8
W74XLIFTS
 62
8
 10
2622.898
 20
-9168.606
 30
-2074.548
 70
    32
  0
VERTEX
  8
W74XLIFTS
 62
8
 10
2614.394
 20
-9160.672
 30
-2073.528
 70
    32
  0
VERTEX
  8
W74XLIFTS
 62
8
 10
2612.899
 20
-9155.241
 30
-2073.664
 70
    32
  0
VERTEX
  8
W74XLIFTS
 62
8
 10
2605.765
 20
-9140.935
 30
-2073.677
 70
    32
  0
VERTEX
  8
W74XLIFTS
 62
8
 10
2609.079
 20
-9132.428
 30
-2074.524
 70
    32
  0
VERTEX
  8
W74XLIFTS
 62
8
 10
2615.661
 20
-9123.383
 30
-2074.868
 70
    32
  0
VERTEX
  8
W74XLIFTS
 62
8
 10
2622.653
 20
-9104.666
 30
-2074.394
 70
    32
  0
VERTEX
  8
W74XLIFTS
 62
8
 10
2621.444
 20
-9097.065
 30
-2074.427
 70
    32
  0
VERTEX
  8
W74XLIFTS
 62
8
 10
2611.271
 20
-9086.944
 30
-2075.497
 70
    32
  0
VERTEX
  8
W74XLIFTS
 62
8
 10
2610.486
 20
-9070.317
 30
-2077.168
 70
    32
  0
VERTEX
  8
W74XLIFTS
 62
8
 10
2609.764
 20
-9048.058
 30
-2075.667
 70
    32
  0
VERTEX
  8
W74XLIFTS
 62
8
 10
2613.361
 20
-9044.372
 30
-2076.035
 70
    32
  0
VERTEX
  8
W74XLIFTS
 62
8
 10
2616.383
 20
-9035.958
 30
-2075.113
 70
    32
  0
VERTEX
  8
W74XLIFTS
 62
8
 10
2618.314
 20
-9033.767
 30
-2075.050
 70
    32
  0
VERTEX
  8
W74XLIFTS
 62
8
 10
2626.235
 20
-9022.035
 30
-2074.572
 70
    32
  0
VERTEX
  8
W74XLIFTS
 62
8
 10
2633.039
 20
-8990.432
 30
-2075.926
 70
    32
  0
VERTEX
  8
W74XLIFTS
 62
8
 10
2626.264
 20
-8985.506
 30
-2076.106
 70
    32
  0
VERTEX
  8
W74XLIFTS
 62
8
 10
2617.393
 20
-8983.123
 30
-2076.155
 70
    32
  0
VERTEX
  8
W74XLIFTS
 62
8
 10
2579.625
 20
-8985.850
 30
-2077.712
 70
    32
  0
SEQEND
  8
W74XLIFTS
  0
POLYLINE
  8
W74XLIFTS
 62
4
 66
     1
 70
     9
  0
VERTEX
  8
W74XLIFTS
 62
4
 10
2630.544
 20
-8981.361
 30
-2089.545
 70
    32
  0
VERTEX
  8
W74XLIFTS
 62
4
 10
2636.032
 20
-8983.594
 30
-2089.668
 70
    32
  0
VERTEX
  8
W74XLIFTS
 62
4
 10
2632.824
 20
-9000.331
 30
-2088.410
 70
    32
  0
VERTEX
  8
W74XLIFTS
 62
4
 10
2628.167
 20
-9007.787
 30
-2088.296
 70
    32
  0
VERTEX
  8
W74XLIFTS
 62
4
 10
2623.911
 20
-9019.620
 30
-2088.211
 70
    32
  0
VERTEX
  8
W74XLIFTS
 62
4
 10
2626.130
 20
-9024.314
 30
-2088.179
 70
    32
  0
VERTEX
  8
W74XLIFTS
 62
4
 10
2626.279
 20
-9024.680
 30
-2088.268
 70
    32
  0
VERTEX
  8
W74XLIFTS
 62
4
 10
2615.908
 20
-9042.606
 30
-2088.087
 70
    32
  0
VERTEX
  8
W74XLIFTS
 62
4
 10
2605.815
 20
-9056.562
 30
-2087.954
 70
    32
  0
VERTEX
  8
W74XLIFTS
 62
4
 10
2612.670
 20
-9063.634
 30
-2087.837
 70
    32
  0
VERTEX
  8
W74XLIFTS
 62
4
 10
2620.697
 20
-9068.173
 30
-2087.746
 70
    32
  0
VERTEX
  8
W74XLIFTS
 62
4
 10
2628.237
 20
-9069.759
 30
-2087.695
 70
    32
  0
VERTEX
  8
W74XLIFTS
 62
4
 10
2630.558
 20
-9076.438
 30
-2087.601
 70
    32
  0
VERTEX
  8
W74XLIFTS
 62
4
 10
2628.366
 20
-9084.340
 30
-2087.495
 70
    32
  0
VERTEX
  8
W74XLIFTS
 62
4
 10
2625.543
 20
-9087.529
 30
-2087.460
 70
    32
  0
VERTEX
  8
W74XLIFTS
 62
4
 10
2619.005
 20
-9093.148
 30
-2087.399
 70
    32
  0
VERTEX
  8
W74XLIFTS
 62
4
 10
2618.687
 20
-9093.387
 30
-2087.170
 70
    32
  0
VERTEX
  8
W74XLIFTS
 62
4
 10
2611.320
 20
-9101.005
 30
-2087.066
 70
    32
  0
VERTEX
  8
W74XLIFTS
 62
4
 10
2614.927
 20
-9104.794
 30
-2087.167
 70
    32
  0
VERTEX
  8
W74XLIFTS
 62
4
 10
2615.217
 20
-9112.316
 30
-2087.045
 70
    32
  0
VERTEX
  8
W74XLIFTS
 62
4
 10
2614.896
 20
-9121.012
 30
-2086.903
 70
    32
  0
VERTEX
  8
W74XLIFTS
 62
4
 10
2612.009
 20
-9128.326
 30
-2086.781
 70
    32
  0
VERTEX
  8
W74XLIFTS
 62
4
 10
2615.787
 20
-9134.233
 30
-2086.688
 70
    32
  0
VERTEX
  8
W74XLIFTS
 62
4
 10
2613.659
 20
-9150.823
 30
-2086.444
 70
    32
  0
VERTEX
  8
W74XLIFTS
 62
4
 10
2614.283
 20
-9160.740
 30
-2086.257
 70
    32
  0
VERTEX
  8
W74XLIFTS
 62
4
 10
2616.183
 20
-9162.377
 30
-2086.214
 70
    32
  0
VERTEX
  8
W74XLIFTS
 62
4
 10
2618.617
 20
-9170.827
 30
-2086.041
 70
    32
  0
VERTEX
  8
W74XLIFTS
 62
4
 10
2622.044
 20
-9172.940
 30
-2086.165
 70
    32
  0
VERTEX
  8
W74XLIFTS
 62
4
 10
2630.248
 20
-9173.521
 30
-2086.015
 70
    32
  0
VERTEX
  8
W74XLIFTS
 62
4
 10
2637.022
 20
-9178.901
 30
-2085.851
 70
    32
  0
VERTEX
  8
W74XLIFTS
 62
4
 10
2638.896
 20
-9180.851
 30
-2085.904
 70
    32
  0
VERTEX
  8
W74XLIFTS
 62
4
 10
2653.963
 20
-9198.043
 30
-2087.234
 70
    32
  0
VERTEX
  8
W74XLIFTS
 62
4
 10
2656.376
 20
-9206.194
 30
-2086.652
 70
    32
  0
VERTEX
  8
W74XLIFTS
 62
4
 10
2667.099
 20
-9204.614
 30
-2086.516
 70
    32
  0
VERTEX
  8
W74XLIFTS
 62
4
 10
2665.867
 20
-9194.190
 30
-2086.023
 70
    32
  0
VERTEX
  8
W74XLIFTS
 62
4
 10
2674.019
 20
-9186.511
 30
-2085.405
 70
    32
  0
VERTEX
  8
W74XLIFTS
 62
4
 10
2678.577
 20
-9176.161
 30
-2084.916
 70
    32
  0
VERTEX
  8
W74XLIFTS
 62
4
 10
2666.754
 20
-9168.349
 30
-2085.385
 70
    32
  0
VERTEX
  8
W74XLIFTS
 62
4
 10
2660.449
 20
-9164.110
 30
-2085.876
 70
    32
  0
VERTEX
  8
W74XLIFTS
 62
4
 10
2635.817
 20
-9145.269
 30
-2086.394
 70
    32
  0
VERTEX
  8
W74XLIFTS
 62
4
 10
2630.717
 20
-9135.755
 30
-2086.678
 70
    32
  0
VERTEX
  8
W74XLIFTS
 62
4
 10
2629.874
 20
-9131.604
 30
-2086.745
 70
    32
  0
VERTEX
  8
W74XLIFTS
 62
4
 10
2636.195
 20
-9115.771
 30
-2087.008
 70
    32
  0
VERTEX
  8
W74XLIFTS
 62
4
 10
2638.260
 20
-9114.680
 30
-2087.028
 70
    32
  0
VERTEX
  8
W74XLIFTS
 62
4
 10
2638.153
 20
-9114.026
 30
-2087.266
 70
    32
  0
VERTEX
  8
W74XLIFTS
 62
4
 10
2640.564
 20
-9106.918
 30
-2087.320
 70
    32
  0
VERTEX
  8
W74XLIFTS
 62
4
 10
2644.770
 20
-9104.841
 30
-2087.369
 70
    32
  0
VERTEX
  8
W74XLIFTS
 62
4
 10
2649.955
 20
-9104.814
 30
-2087.275
 70
    32
  0
VERTEX
  8
W74XLIFTS
 62
4
 10
2655.871
 20
-9099.083
 30
-2087.338
 70
    32
  0
VERTEX
  8
W74XLIFTS
 62
4
 10
2647.683
 20
-9078.228
 30
-2087.507
 70
    32
  0
VERTEX
  8
W74XLIFTS
 62
4
 10
2645.574
 20
-9072.888
 30
-2087.583
 70
    32
  0
VERTEX
  8
W74XLIFTS
 62
4
 10
2646.517
 20
-9066.679
 30
-2087.657
 70
    32
  0
VERTEX
  8
W74XLIFTS
 62
4
 10
2642.081
 20
-9054.332
 30
-2087.830
 70
    32
  0
VERTEX
  8
W74XLIFTS
 62
4
 10
2643.088
 20
-9050.842
 30
-2087.870
 70
    32
  0
VERTEX
  8
W74XLIFTS
 62
4
 10
2646.240
 20
-9046.112
 30
-2087.916
 70
    32
  0
VERTEX
  8
W74XLIFTS
 62
4
 10
2646.556
 20
-9039.252
 30
-2088.001
 70
    32
  0
VERTEX
  8
W74XLIFTS
 62
4
 10
2646.483
 20
-9034.835
 30
-2088.154
 70
    32
  0
VERTEX
  8
W74XLIFTS
 62
4
 10
2646.601
 20
-9025.556
 30
-2088.232
 70
    32
  0
VERTEX
  8
W74XLIFTS
 62
4
 10
2653.923
 20
-9013.239
 30
-2088.568
 70
    32
  0
VERTEX
  8
W74XLIFTS
 62
4
 10
2660.516
 20
-9011.460
 30
-2088.671
 70
    32
  0
VERTEX
  8
W74XLIFTS
 62
4
 10
2668.077
 20
-9007.329
 30
-2088.777
 70
    32
  0
VERTEX
  8
W74XLIFTS
 62
4
 10
2663.786
 20
-8991.633
 30
-2088.996
 70
    32
  0
VERTEX
  8
W74XLIFTS
 62
4
 10
2663.770
 20
-8984.015
 30
-2090.192
 70
    32
  0
VERTEX
  8
W74XLIFTS
 62
4
 10
2670.043
 20
-8976.192
 30
-2089.773
 70
    32
  0
VERTEX
  8
W74XLIFTS
 62
4
 10
2674.941
 20
-8974.949
 30
-2089.794
 70
    32
  0
VERTEX
  8
W74XLIFTS
 62
4
 10
2675.372
 20
-8969.180
 30
-2089.728
 70
    32
  0
VERTEX
  8
W74XLIFTS
 62
4
 10
2672.373
 20
-8961.503
 30
-2089.615
 70
    32
  0
VERTEX
  8
W74XLIFTS
 62
4
 10
2666.441
 20
-8961.904
 30
-2089.576
 70
    32
  0
VERTEX
  8
W74XLIFTS
 62
4
 10
2661.944
 20
-8961.415
 30
-2089.538
 70
    32
  0
VERTEX
  8
W74XLIFTS
 62
4
 10
2655.553
 20
-8958.303
 30
-2089.454
 70
    32
  0
VERTEX
  8
W74XLIFTS
 62
4
 10
2650.502
 20
-8958.034
 30
-2089.107
 70
    32
  0
VERTEX
  8
W74XLIFTS
 62
4
 10
2647.740
 20
-8954.494
 30
-2088.729
 70
    32
  0
VERTEX
  8
W74XLIFTS
 62
4
 10
2647.361
 20
-8931.747
 30
-2087.339
 70
    32
  0
VERTEX
  8
W74XLIFTS
 62
4
 10
2642.328
 20
-8923.546
 30
-2086.918
 70
    32
  0
VERTEX
  8
W74XLIFTS
 62
4
 10
2641.283
 20
-8912.009
 30
-2086.622
 70
    32
  0
VERTEX
  8
W74XLIFTS
 62
4
 10
2638.143
 20
-8909.839
 30
-2086.666
 70
    32
  0
VERTEX
  8
W74XLIFTS
 62
4
 10
2634.266
 20
-8898.307
 30
-2086.540
 70
    32
  0
VERTEX
  8
W74XLIFTS
 62
4
 10
2632.902
 20
-8890.847
 30
-2086.331
 70
    32
  0
VERTEX
  8
W74XLIFTS
 62
4
 10
2626.313
 20
-8890.153
 30
-2085.937
 70
    32
  0
VERTEX
  8
W74XLIFTS
 62
4
 10
2621.267
 20
-8894.038
 30
-2085.712
 70
    32
  0
VERTEX
  8
W74XLIFTS
 62
4
 10
2617.566
 20
-8901.725
 30
-2085.632
 70
    32
  0
VERTEX
  8
W74XLIFTS
 62
4
 10
2620.873
 20
-8910.852
 30
-2086.649
 70
    32
  0
VERTEX
  8
W74XLIFTS
 62
4
 10
2621.875
 20
-8928.492
 30
-2086.777
 70
    32
  0
VERTEX
  8
W74XLIFTS
 62
4
 10
2617.124
 20
-8938.281
 30
-2086.973
 70
    32
  0
VERTEX
  8
W74XLIFTS
 62
4
 10
2618.207
 20
-8944.993
 30
-2086.421
 70
    32
  0
VERTEX
  8
W74XLIFTS
 62
4
 10
2614.586
 20
-8957.298
 30
-2089.072
 70
    32
  0
VERTEX
  8
W74XLIFTS
 62
4
 10
2615.440
 20
-8958.685
 30
-2088.556
 70
    32
  0
VERTEX
  8
W74XLIFTS
 62
4
 10
2620.868
 20
-8961.994
 30
-2088.780
 70
    32
  0
VERTEX
  8
W74XLIFTS
 62
4
 10
2624.030
 20
-8968.764
 30
-2089.108
 70
    32
  0
VERTEX
  8
W74XLIFTS
 62
4
 10
2624.660
 20
-8970.208
 30
-2089.369
 70
    32
  0
SEQEND
  8
W74XLIFTS
  0
POINT
  8
W74XLIFTS
 62
2
 10
2634.965
 20
-8994.370
 30
-2137.227
  0
TEXT
  8
W74XLIFTS
 62
4
 10
2624.847
 20
-8904.771
 30
-2086.768
 40
1.969
  1
BK -2086.768
 41
 1.0 
  0
TEXT
  8
W74XLIFTS
 62
8
 10
2625.621
 20
-8902.510
 30
-2077.315
 40
1.969
  1
BK -2077.315
 41
 1.0 
  0
POLYLINE
  8
W74XLIFTS
 62
7
 66
     1
 70
     8
  0
VERTEX
  8
W74XLIFTS
 62
7
 10
2572.628
 20
-8986.073
 30
-2064.664
 70
    32
  0
VERTEX
  8
W74XLIFTS
 62
7
 10
2590.734
 20
-8986.953
 30
-2066.089
 70
    32
  0
VERTEX
  8
W74XLIFTS
 62
7
 10
2610.133
 20
-8986.998
 30
-2065.056
 70
    32
  0
VERTEX
  8
W74XLIFTS
 62
7
 10
2625.289
 20
-8991.393
 30
-2064.517
 70
    32
  0
VERTEX
  8
W74XLIFTS
 62
7
 10
2627.218
 20
-9012.199
 30
-2065.204
 70
    32
  0
VERTEX
  8
W74XLIFTS
 62
7
 10
2621.010
 20
-9027.308
 30
-2063.392
 70
    32
  0
VERTEX
  8
W74XLIFTS
 62
7
 10
2612.195
 20
-9039.029
 30
-2062.959
 70
    32
  0
VERTEX
  8
W74XLIFTS
 62
7
 10
2613.912
 20
-9043.875
 30
-2061.518
 70
    32
  0
VERTEX
  8
W74XLIFTS
 62
7
 10
2622.651
 20
-9052.860
 30
-2060.561
 70
    32
  0
VERTEX
  8
W74XLIFTS
 62
7
 10
2624.549
 20
-9061.739
 30
-2063.938
 70
    32
  0
VERTEX
  8
W74XLIFTS
 62
7
 10
2623.262
 20
-9066.295
 30
-2063.027
 70
    32
  0
VERTEX
  8
W74XLIFTS
 62
7
 10
2617.437
 20
-9070.819
 30
-2063.399
 70
    32
  0
VERTEX
  8
W74XLIFTS
 62
7
 10
2614.500
 20
-9080.980
 30
-2063.055
 70
    32
  0
VERTEX
  8
W74XLIFTS
 62
7
 10
2611.623
 20
-9088.428
 30
-2062.817
 70
    32
  0
VERTEX
  8
W74XLIFTS
 62
7
 10
2613.218
 20
-9094.310
 30
-2062.280
 70
    32
  0
VERTEX
  8
W74XLIFTS
 62
7
 10
2611.627
 20
-9100.225
 30
-2062.047
 70
    32
  0
VERTEX
  8
W74XLIFTS
 62
7
 10
2604.773
 20
-9108.616
 30
-2061.642
 70
    32
  0
VERTEX
  8
W74XLIFTS
 62
7
 10
2601.575
 20
-9120.312
 30
-2060.985
 70
    32
  0
VERTEX
  8
W74XLIFTS
 62
7
 10
2605.952
 20
-9126.996
 30
-2060.568
 70
    32
  0
VERTEX
  8
W74XLIFTS
 62
7
 10
2605.072
 20
-9133.049
 30
-2060.124
 70
    32
  0
VERTEX
  8
W74XLIFTS
 62
7
 10
2605.630
 20
-9142.592
 30
-2060.246
 70
    32
  0
VERTEX
  8
W74XLIFTS
 62
7
 10
2606.682
 20
-9149.018
 30
-2060.863
 70
    32
  0
VERTEX
  8
W74XLIFTS
 62
7
 10
2607.278
 20
-9154.175
 30
-2060.985
 70
    32
  0
VERTEX
  8
W74XLIFTS
 62
7
 10
2609.720
 20
-9166.327
 30
-2061.338
 70
    32
  0
VERTEX
  8
W74XLIFTS
 62
7
 10
2614.434
 20
-9171.540
 30
-2060.814
 70
    32
  0
VERTEX
  8
W74XLIFTS
 62
7
 10
2617.623
 20
-9179.460
 30
-2060.278
 70
    32
  0
VERTEX
  8
W74XLIFTS
 62
7
 10
2627.643
 20
-9181.163
 30
-2060.230
 70
    32
  0
VERTEX
  8
W74XLIFTS
 62
7
 10
2631.170
 20
-9182.339
 30
-2061.169
 70
    32
  0
VERTEX
  8
W74XLIFTS
 62
7
 10
2639.320
 20
-9187.544
 30
-2061.673
 70
    32
  0
VERTEX
  8
W74XLIFTS
 62
7
 10
2643.101
 20
-9193.831
 30
-2062.348
 70
    32
  0
VERTEX
  8
W74XLIFTS
 62
7
 10
2645.680
 20
-9201.188
 30
-2062.352
 70
    32
  0
VERTEX
  8
W74XLIFTS
 62
7
 10
2652.081
 20
-9203.201
 30
-2061.286
 70
    32
  0
VERTEX
  8
W74XLIFTS
 62
7
 10
2661.173
 20
-9196.475
 30
-2060.816
 70
    32
  0
VERTEX
  8
W74XLIFTS
 62
7
 10
2664.929
 20
-9195.819
 30
-2064.683
 70
    32
  0
VERTEX
  8
W74XLIFTS
 62
7
 10
2669.345
 20
-9196.690
 30
-2064.807
 70
    32
  0
VERTEX
  8
W74XLIFTS
 62
7
 10
2675.372
 20
-9195.684
 30
-2064.109
 70
    32
  0
VERTEX
  8
W74XLIFTS
 62
7
 10
2677.237
 20
-9186.672
 30
-2064.132
 70
    32
  0
VERTEX
  8
W74XLIFTS
 62
7
 10
2676.404
 20
-9177.990
 30
-2064.659
 70
    32
  0
VERTEX
  8
W74XLIFTS
 62
7
 10
2666.727
 20
-9177.200
 30
-2065.171
 70
    32
  0
VERTEX
  8
W74XLIFTS
 62
7
 10
2660.235
 20
-9163.904
 30
-2064.875
 70
    32
  0
VERTEX
  8
W74XLIFTS
 62
7
 10
2649.075
 20
-9164.657
 30
-2061.424
 70
    32
  0
VERTEX
  8
W74XLIFTS
 62
7
 10
2641.242
 20
-9150.339
 30
-2061.726
 70
    32
  0
VERTEX
  8
W74XLIFTS
 62
7
 10
2640.373
 20
-9147.144
 30
-2060.992
 70
    32
  0
VERTEX
  8
W74XLIFTS
 62
7
 10
2640.852
 20
-9144.521
 30
-2061.244
 70
    32
  0
VERTEX
  8
W74XLIFTS
 62
7
 10
2639.294
 20
-9120.713
 30
-2062.518
 70
    32
  0
VERTEX
  8
W74XLIFTS
 62
7
 10
2639.946
 20
-9113.582
 30
-2062.822
 70
    32
  0
VERTEX
  8
W74XLIFTS
 62
7
 10
2641.097
 20
-9105.216
 30
-2062.607
 70
    32
  0
VERTEX
  8
W74XLIFTS
 62
7
 10
2642.535
 20
-9099.507
 30
-2061.798
 70
    32
  0
VERTEX
  8
W74XLIFTS
 62
7
 10
2641.369
 20
-9086.840
 30
-2062.180
 70
    32
  0
VERTEX
  8
W74XLIFTS
 62
7
 10
2643.714
 20
-9072.527
 30
-2063.515
 70
    32
  0
VERTEX
  8
W74XLIFTS
 62
7
 10
2649.020
 20
-9064.290
 30
-2063.332
 70
    32
  0
VERTEX
  8
W74XLIFTS
 62
7
 10
2645.378
 20
-9049.828
 30
-2061.576
 70
    32
  0
VERTEX
  8
W74XLIFTS
 62
7
 10
2645.468
 20
-9043.265
 30
-2062.987
 70
    32
  0
VERTEX
  8
W74XLIFTS
 62
7
 10
2648.146
 20
-9033.661
 30
-2063.370
 70
    32
  0
VERTEX
  8
W74XLIFTS
 62
7
 10
2651.167
 20
-9027.440
 30
-2064.316
 70
    32
  0
VERTEX
  8
W74XLIFTS
 62
7
 10
2654.137
 20
-9023.801
 30
-2064.003
 70
    32
  0
VERTEX
  8
W74XLIFTS
 62
7
 10
2654.229
 20
-9012.614
 30
-2064.632
 70
    32
  0
VERTEX
  8
W74XLIFTS
 62
7
 10
2654.141
 20
-9004.392
 30
-2065.591
 70
    32
  0
VERTEX
  8
W74XLIFTS
 62
7
 10
2652.200
 20
-8998.069
 30
-2064.861
 70
    32
  0
VERTEX
  8
W74XLIFTS
 62
7
 10
2649.872
 20
-8991.214
 30
-2063.794
 70
    32
  0
VERTEX
  8
W74XLIFTS
 62
7
 10
2648.231
 20
-8987.650
 30
-2063.656
 70
    32
  0
VERTEX
  8
W74XLIFTS
 62
7
 10
2648.648
 20
-8981.112
 30
-2064.064
 70
    32
  0
VERTEX
  8
W74XLIFTS
 62
7
 10
2642.501
 20
-8964.699
 30
-2062.527
 70
    32
  0
VERTEX
  8
W74XLIFTS
 62
7
 10
2645.046
 20
-8951.757
 30
-2063.451
 70
    32
  0
VERTEX
  8
W74XLIFTS
 62
7
 10
2641.914
 20
-8943.206
 30
-2064.019
 70
    32
  0
VERTEX
  8
W74XLIFTS
 62
7
 10
2639.982
 20
-8926.548
 30
-2062.273
 70
    32
  0
VERTEX
  8
W74XLIFTS
 62
7
 10
2644.383
 20
-8915.652
 30
-2061.742
 70
    32
  0
VERTEX
  8
W74XLIFTS
 62
7
 10
2634.466
 20
-8909.527
 30
-2063.880
 70
    32
  0
VERTEX
  8
W74XLIFTS
 62
7
 10
2630.610
 20
-8901.016
 30
-2060.836
 70
    32
  0
VERTEX
  8
W74XLIFTS
 62
7
 10
2627.867
 20
-8887.074
 30
-2061.929
 70
    32
  0
VERTEX
  8
W74XLIFTS
 62
7
 10
2623.876
 20
-8887.344
 30
-2061.929
 70
    32
  0
VERTEX
  8
W74XLIFTS
 62
7
 10
2620.845
 20
-8878.262
 30
-2060.877
 70
    32
  0
VERTEX
  8
W74XLIFTS
 62
7
 10
2611.044
 20
-8881.569
 30
-2060.755
 70
    32
  0
VERTEX
  8
W74XLIFTS
 62
7
 10
2613.041
 20
-8893.758
 30
-2062.073
 70
    32
  0
VERTEX
  8
W74XLIFTS
 62
7
 10
2612.478
 20
-8902.019
 30
-2062.345
 70
    32
  0
VERTEX
  8
W74XLIFTS
 62
7
 10
2614.702
 20
-8911.514
 30
-2062.431
 70
    32
  0
VERTEX
  8
W74XLIFTS
 62
7
 10
2616.395
 20
-8921.720
 30
-2063.361
 70
    32
  0
VERTEX
  8
W74XLIFTS
 62
7
 10
2615.545
 20
-8931.267
 30
-2062.046
 70
    32
  0
VERTEX
  8
W74XLIFTS
 62
7
 10
2621.151
 20
-8940.951
 30
-2064.186
 70
    32
  0
VERTEX
  8
W74XLIFTS
 62
7
 10
2622.699
 20
-8946.332
 30
-2064.270
 70
    32
  0
VERTEX
  8
W74XLIFTS
 62
7
 10
2619.510
 20
-8949.706
 30
-2063.253
 70
    32
  0
VERTEX
  8
W74XLIFTS
 62
7
 10
2617.003
 20
-8962.065
 30
-2062.343
 70
    32
  0
VERTEX
  8
W74XLIFTS
 62
7
 10
2615.126
 20
-8967.476
 30
-2065.302
 70
    32
  0
VERTEX
  8
W74XLIFTS
 62
7
 10
2608.070
 20
-8973.030
 30
-2065.848
 70
    32
  0
VERTEX
  8
W74XLIFTS
 62
7
 10
2605.735
 20
-8973.483
 30
-2065.784
 70
    32
  0
VERTEX
  8
W74XLIFTS
 62
7
 10
2590.374
 20
-8975.168
 30
-2066.027
 70
    32
  0
VERTEX
  8
W74XLIFTS
 62
7
 10
2567.760
 20
-8975.333
 30
-2065.923
 70
    32
  0
SEQEND
  8
W74XLIFTS
  0
POLYLINE
  8
W74XLIFTS
 62
2
 66
     1
 70
     8
  0
VERTEX
  8
W74XLIFTS
 62
2
 10
2635.095
 20
-8942.149
 30
-2135.061
 70
    32
  0
VERTEX
  8
W74XLIFTS
 62
2
 10
2637.542
 20
-8954.550
 30
-2136.084
 70
    32
  0
VERTEX
  8
W74XLIFTS
 62
2
 10
2639.816
 20
-8963.165
 30
-2136.889
 70
    32
  0
VERTEX
  8
W74XLIFTS
 62
2
 10
2646.310
 20
-8994.006
 30
-2136.695
 70
    32
  0
VERTEX
  8
W74XLIFTS
 62
2
 10
2647.012
 20
-8994.160
 30
-2136.605
 70
    32
  0
VERTEX
  8
W74XLIFTS
 62
2
 10
2649.398
 20
-9003.274
 30
-2136.425
 70
    32
  0
VERTEX
  8
W74XLIFTS
 62
2
 10
2645.993
 20
-9004.369
 30
-2136.078
 70
    32
  0
VERTEX
  8
W74XLIFTS
 62
2
 10
2643.692
 20
-9009.176
 30
-2136.019
 70
    32
  0
VERTEX
  8
W74XLIFTS
 62
2
 10
2643.082
 20
-9015.103
 30
-2135.745
 70
    32
  0
VERTEX
  8
W74XLIFTS
 62
2
 10
2643.371
 20
-9026.597
 30
-2135.501
 70
    32
  0
VERTEX
  8
W74XLIFTS
 62
2
 10
2641.735
 20
-9029.666
 30
-2135.421
 70
    32
  0
VERTEX
  8
W74XLIFTS
 62
2
 10
2641.687
 20
-9038.138
 30
-2134.528
 70
    32
  0
VERTEX
  8
W74XLIFTS
 62
2
 10
2641.483
 20
-9042.642
 30
-2134.750
 70
    32
  0
VERTEX
  8
W74XLIFTS
 62
2
 10
2640.119
 20
-9063.414
 30
-2134.091
 70
    32
  0
VERTEX
  8
W74XLIFTS
 62
2
 10
2640.704
 20
-9079.780
 30
-2133.969
 70
    32
  0
VERTEX
  8
W74XLIFTS
 62
2
 10
2640.972
 20
-9084.333
 30
-2134.153
 70
    32
  0
VERTEX
  8
W74XLIFTS
 62
2
 10
2644.071
 20
-9086.858
 30
-2133.326
 70
    32
  0
VERTEX
  8
W74XLIFTS
 62
2
 10
2648.415
 20
-9094.445
 30
-2133.376
 70
    32
  0
VERTEX
  8
W74XLIFTS
 62
2
 10
2647.384
 20
-9097.932
 30
-2134.061
 70
    32
  0
VERTEX
  8
W74XLIFTS
 62
2
 10
2651.082
 20
-9103.173
 30
-2132.832
 70
    32
  0
VERTEX
  8
W74XLIFTS
 62
2
 10
2653.932
 20
-9107.039
 30
-2133.255
 70
    32
  0
VERTEX
  8
W74XLIFTS
 62
2
 10
2662.076
 20
-9118.761
 30
-2133.538
 70
    32
  0
VERTEX
  8
W74XLIFTS
 62
2
 10
2663.896
 20
-9124.854
 30
-2133.373
 70
    32
  0
VERTEX
  8
W74XLIFTS
 62
2
 10
2662.555
 20
-9127.225
 30
-2133.693
 70
    32
  0
VERTEX
  8
W74XLIFTS
 62
2
 10
2662.850
 20
-9131.055
 30
-2133.721
 70
    32
  0
VERTEX
  8
W74XLIFTS
 62
2
 10
2666.601
 20
-9141.006
 30
-2133.526
 70
    32
  0
VERTEX
  8
W74XLIFTS
 62
2
 10
2663.637
 20
-9142.917
 30
-2133.165
 70
    32
  0
VERTEX
  8
W74XLIFTS
 62
2
 10
2660.702
 20
-9144.974
 30
-2133.100
 70
    32
  0
VERTEX
  8
W74XLIFTS
 62
2
 10
2660.820
 20
-9148.133
 30
-2133.535
 70
    32
  0
VERTEX
  8
W74XLIFTS
 62
2
 10
2685.979
 20
-9177.066
 30
-2137.364
 70
    32
  0
VERTEX
  8
W74XLIFTS
 62
2
 10
2677.178
 20
-9181.638
 30
-2137.364
 70
    32
  0
VERTEX
  8
W74XLIFTS
 62
2
 10
2673.258
 20
-9180.051
 30
-2137.453
 70
    32
  0
VERTEX
  8
W74XLIFTS
 62
2
 10
2668.802
 20
-9177.709
 30
-2137.459
 70
    32
  0
VERTEX
  8
W74XLIFTS
 62
2
 10
2662.143
 20
-9174.281
 30
-2138.001
 70
    32
  0
VERTEX
  8
W74XLIFTS
 62
2
 10
2659.382
 20
-9170.533
 30
-2138.426
 70
    32
  0
VERTEX
  8
W74XLIFTS
 62
2
 10
2654.957
 20
-9169.649
 30
-2138.471
 70
    32
  0
VERTEX
  8
W74XLIFTS
 62
2
 10
2652.664
 20
-9162.640
 30
-2133.664
 70
    32
  0
VERTEX
  8
W74XLIFTS
 62
2
 10
2647.480
 20
-9160.529
 30
-2134.473
 70
    32
  0
VERTEX
  8
W74XLIFTS
 62
2
 10
2643.942
 20
-9160.778
 30
-2136.029
 70
    32
  0
VERTEX
  8
W74XLIFTS
 62
2
 10
2641.521
 20
-9160.678
 30
-2135.326
 70
    32
  0
VERTEX
  8
W74XLIFTS
 62
2
 10
2642.224
 20
-9157.855
 30
-2134.730
 70
    32
  0
VERTEX
  8
W74XLIFTS
 62
2
 10
2641.268
 20
-9148.847
 30
-2134.133
 70
    32
  0
VERTEX
  8
W74XLIFTS
 62
2
 10
2638.391
 20
-9139.354
 30
-2134.446
 70
    32
  0
VERTEX
  8
W74XLIFTS
 62
2
 10
2635.122
 20
-9129.770
 30
-2133.833
 70
    32
  0
VERTEX
  8
W74XLIFTS
 62
2
 10
2634.381
 20
-9121.160
 30
-2133.205
 70
    32
  0
VERTEX
  8
W74XLIFTS
 62
2
 10
2629.670
 20
-9112.623
 30
-2135.992
 70
    32
  0
VERTEX
  8
W74XLIFTS
 62
2
 10
2628.513
 20
-9099.927
 30
-2133.072
 70
    32
  0
VERTEX
  8
W74XLIFTS
 62
2
 10
2626.504
 20
-9091.041
 30
-2133.150
 70
    32
  0
VERTEX
  8
W74XLIFTS
 62
2
 10
2627.723
 20
-9083.385
 30
-2133.555
 70
    32
  0
VERTEX
  8
W74XLIFTS
 62
2
 10
2627.716
 20
-9070.413
 30
-2132.771
 70
    32
  0
VERTEX
  8
W74XLIFTS
 62
2
 10
2628.761
 20
-9043.121
 30
-2135.077
 70
    32
  0
VERTEX
  8
W74XLIFTS
 62
2
 10
2627.672
 20
-9034.779
 30
-2133.991
 70
    32
  0
VERTEX
  8
W74XLIFTS
 62
2
 10
2624.547
 20
-9022.301
 30
-2134.379
 70
    32
  0
VERTEX
  8
W74XLIFTS
 62
2
 10
2627.264
 20
-9008.145
 30
-2136.236
 70
    32
  0
VERTEX
  8
W74XLIFTS
 62
2
 10
2629.120
 20
-8998.701
 30
-2136.892
 70
    32
  0
VERTEX
  8
W74XLIFTS
 62
2
 10
2632.640
 20
-8986.762
 30
-2136.701
 70
    32
  0
VERTEX
  8
W74XLIFTS
 62
2
 10
2629.976
 20
-8978.591
 30
-2137.354
 70
    32
  0
VERTEX
  8
W74XLIFTS
 62
2
 10
2629.018
 20
-8972.660
 30
-2136.775
 70
    32
  0
VERTEX
  8
W74XLIFTS
 62
2
 10
2626.438
 20
-8965.135
 30
-2136.650
 70
    32
  0
VERTEX
  8
W74XLIFTS
 62
2
 10
2625.867
 20
-8958.824
 30
-2136.634
 70
    32
  0
VERTEX
  8
W74XLIFTS
 62
2
 10
2617.624
 20
-8948.508
 30
-2137.117
 70
    32
  0
VERTEX
  8
W74XLIFTS
 62
2
 10
2611.918
 20
-8945.763
 30
-2136.828
 70
    32
  0
SEQEND
  8
W74XLIFTS
  0
ENDSEC
  0
EOF
