999
********************************
999
*   DXF File - Entities Only   *
999
*        3D Data Format        *
999
*     Output from ENVISAGE     *
999
*     02-Jan-2008 11:34:38     *
999
********************************
  0
SECTION 
  2
HEADER
  9
$ACADVER
  1
AC1009
  9
$EXTMIN
 10
-290000.000
 20
-250000.000
 30
-4000.000
  9
$EXTMAX
 10
320000.000
 20
160000.000
 30
6000.000
  0
ENDSEC
  0
SECTION
  2
ENTITIES
  0
LINE
  8
W75LALIFT
 62
6
 10
1897.376
 20
-6642.378
 30
-2173.000
 11
1906.449
 21
-6649.388
 31
-2173.000
  0
LINE
  8
W75LALIFT
 62
2
 10
2306.845
 20
-7858.873
 30
-2153.000
 11
2305.236
 21
-7833.655
 31
-2153.000
  0
POLYLINE
  8
W75LALIFT
 62
2
 66
     1
 70
     9
  0
VERTEX
  8
W75LALIFT
 62
2
 10
2305.236
 20
-7833.655
 30
-2153.000
 70
    32
  0
VERTEX
  8
W75LALIFT
 62
2
 10
2304.741
 20
-7822.668
 30
-2153.000
 70
    32
  0
VERTEX
  8
W75LALIFT
 62
2
 10
2294.965
 20
-7796.026
 30
-2153.000
 70
    32
  0
VERTEX
  8
W75LALIFT
 62
2
 10
2292.796
 20
-7776.381
 30
-2153.000
 70
    32
  0
VERTEX
  8
W75LALIFT
 62
2
 10
2296.181
 20
-7772.685
 30
-2153.000
 70
    32
  0
VERTEX
  8
W75LALIFT
 62
2
 10
2294.445
 20
-7763.578
 30
-2153.000
 70
    32
  0
VERTEX
  8
W75LALIFT
 62
2
 10
2305.319
 20
-7761.363
 30
-2153.000
 70
    32
  0
VERTEX
  8
W75LALIFT
 62
2
 10
2308.791
 20
-7770.453
 30
-2153.000
 70
    32
  0
VERTEX
  8
W75LALIFT
 62
2
 10
2307.979
 20
-7779.964
 30
-2153.000
 70
    32
  0
VERTEX
  8
W75LALIFT
 62
2
 10
2311.059
 20
-7790.275
 30
-2153.000
 70
    32
  0
VERTEX
  8
W75LALIFT
 62
2
 10
2315.157
 20
-7798.875
 30
-2153.000
 70
    32
  0
VERTEX
  8
W75LALIFT
 62
2
 10
2320.962
 20
-7809.388
 30
-2153.000
 70
    32
  0
VERTEX
  8
W75LALIFT
 62
2
 10
2318.968
 20
-7824.667
 30
-2153.000
 70
    32
  0
VERTEX
  8
W75LALIFT
 62
2
 10
2322.510
 20
-7839.603
 30
-2153.000
 70
    32
  0
VERTEX
  8
W75LALIFT
 62
2
 10
2322.147
 20
-7853.924
 30
-2153.000
 70
    32
  0
VERTEX
  8
W75LALIFT
 62
2
 10
2327.089
 20
-7864.806
 30
-2153.000
 70
    32
  0
VERTEX
  8
W75LALIFT
 62
2
 10
2315.992
 20
-7869.196
 30
-2153.000
 70
    32
  0
VERTEX
  8
W75LALIFT
 62
2
 10
2312.879
 20
-7860.844
 30
-2153.000
 70
    32
  0
VERTEX
  8
W75LALIFT
 62
2
 10
2306.845
 20
-7858.873
 30
-2153.000
 70
    32
  0
VERTEX
  8
W75LALIFT
 62
2
 10
2305.236
 20
-7833.655
 30
-2153.000
 70
    32
  0
SEQEND
  8
W75LALIFT
  0
POLYLINE
  8
W75LALIFT
 62
6
 66
     1
 70
     9
  0
VERTEX
  8
W75LALIFT
 62
6
 10
1894.488
 20
-6596.794
 30
-2241.709
 70
    32
  0
VERTEX
  8
W75LALIFT
 62
6
 10
1907.132
 20
-6590.632
 30
-2241.000
 70
    32
  0
VERTEX
  8
W75LALIFT
 62
6
 10
1911.799
 20
-6587.544
 30
-2240.528
 70
    32
  0
VERTEX
  8
W75LALIFT
 62
6
 10
1918.970
 20
-6591.374
 30
-2235.517
 70
    32
  0
VERTEX
  8
W75LALIFT
 62
6
 10
1920.206
 20
-6592.036
 30
-2235.211
 70
    32
  0
VERTEX
  8
W75LALIFT
 62
6
 10
1922.136
 20
-6595.466
 30
-2234.141
 70
    32
  0
VERTEX
  8
W75LALIFT
 62
6
 10
1922.739
 20
-6596.537
 30
-2234.125
 70
    32
  0
VERTEX
  8
W75LALIFT
 62
6
 10
1926.978
 20
-6604.070
 30
-2240.274
 70
    32
  0
VERTEX
  8
W75LALIFT
 62
6
 10
1927.554
 20
-6605.093
 30
-2241.022
 70
    32
  0
VERTEX
  8
W75LALIFT
 62
6
 10
1929.016
 20
-6607.691
 30
-2240.637
 70
    32
  0
VERTEX
  8
W75LALIFT
 62
6
 10
1929.047
 20
-6607.960
 30
-2240.596
 70
    32
  0
VERTEX
  8
W75LALIFT
 62
6
 10
1930.579
 20
-6621.099
 30
-2238.706
 70
    32
  0
VERTEX
  8
W75LALIFT
 62
6
 10
1931.013
 20
-6624.823
 30
-2239.650
 70
    32
  0
VERTEX
  8
W75LALIFT
 62
6
 10
1931.560
 20
-6629.015
 30
-2240.715
 70
    32
  0
VERTEX
  8
W75LALIFT
 62
6
 10
1931.777
 20
-6630.683
 30
-2241.174
 70
    32
  0
VERTEX
  8
W75LALIFT
 62
6
 10
1932.068
 20
-6632.917
 30
-2241.183
 70
    32
  0
VERTEX
  8
W75LALIFT
 62
6
 10
1932.948
 20
-6639.665
 30
-2241.165
 70
    32
  0
VERTEX
  8
W75LALIFT
 62
6
 10
1934.511
 20
-6642.763
 30
-2241.155
 70
    32
  0
VERTEX
  8
W75LALIFT
 62
6
 10
1935.307
 20
-6644.342
 30
-2241.155
 70
    32
  0
VERTEX
  8
W75LALIFT
 62
6
 10
1948.075
 20
-6639.538
 30
-2241.153
 70
    32
  0
VERTEX
  8
W75LALIFT
 62
6
 10
1947.790
 20
-6638.393
 30
-2241.154
 70
    32
  0
VERTEX
  8
W75LALIFT
 62
6
 10
1947.073
 20
-6635.509
 30
-2241.162
 70
    32
  0
VERTEX
  8
W75LALIFT
 62
6
 10
1946.223
 20
-6632.092
 30
-2241.150
 70
    32
  0
VERTEX
  8
W75LALIFT
 62
6
 10
1947.859
 20
-6627.002
 30
-2241.127
 70
    32
  0
VERTEX
  8
W75LALIFT
 62
6
 10
1947.886
 20
-6626.918
 30
-2241.106
 70
    32
  0
VERTEX
  8
W75LALIFT
 62
6
 10
1946.492
 20
-6620.680
 30
-2239.355
 70
    32
  0
VERTEX
  8
W75LALIFT
 62
6
 10
1946.221
 20
-6619.466
 30
-2239.041
 70
    32
  0
VERTEX
  8
W75LALIFT
 62
6
 10
1945.715
 20
-6617.203
 30
-2239.365
 70
    32
  0
VERTEX
  8
W75LALIFT
 62
6
 10
1944.368
 20
-6611.176
 30
-2240.282
 70
    32
  0
VERTEX
  8
W75LALIFT
 62
6
 10
1945.302
 20
-6604.246
 30
-2241.366
 70
    32
  0
VERTEX
  8
W75LALIFT
 62
6
 10
1945.481
 20
-6602.920
 30
-2240.446
 70
    32
  0
VERTEX
  8
W75LALIFT
 62
6
 10
1946.695
 20
-6595.751
 30
-2235.484
 70
    32
  0
VERTEX
  8
W75LALIFT
 62
6
 10
1947.034
 20
-6593.752
 30
-2233.972
 70
    32
  0
VERTEX
  8
W75LALIFT
 62
6
 10
1948.276
 20
-6586.420
 30
-2234.045
 70
    32
  0
VERTEX
  8
W75LALIFT
 62
6
 10
1947.633
 20
-6583.745
 30
-2234.080
 70
    32
  0
VERTEX
  8
W75LALIFT
 62
6
 10
1947.593
 20
-6583.579
 30
-2234.126
 70
    32
  0
VERTEX
  8
W75LALIFT
 62
6
 10
1946.961
 20
-6580.946
 30
-2234.849
 70
    32
  0
VERTEX
  8
W75LALIFT
 62
6
 10
1946.580
 20
-6579.364
 30
-2235.474
 70
    32
  0
VERTEX
  8
W75LALIFT
 62
6
 10
1945.646
 20
-6575.475
 30
-2237.013
 70
    32
  0
VERTEX
  8
W75LALIFT
 62
6
 10
1944.903
 20
-6571.821
 30
-2238.446
 70
    32
  0
VERTEX
  8
W75LALIFT
 62
6
 10
1943.372
 20
-6564.295
 30
-2239.265
 70
    32
  0
VERTEX
  8
W75LALIFT
 62
6
 10
1929.083
 20
-6562.407
 30
-2239.265
 70
    32
  0
VERTEX
  8
W75LALIFT
 62
6
 10
1916.442
 20
-6565.478
 30
-2239.265
 70
    32
  0
VERTEX
  8
W75LALIFT
 62
6
 10
1910.727
 20
-6567.291
 30
-2239.330
 70
    32
  0
VERTEX
  8
W75LALIFT
 62
6
 10
1904.882
 20
-6569.190
 30
-2240.000
 70
    32
  0
VERTEX
  8
W75LALIFT
 62
6
 10
1899.126
 20
-6575.360
 30
-2241.157
 70
    32
  0
VERTEX
  8
W75LALIFT
 62
6
 10
1892.829
 20
-6581.293
 30
-2241.361
 70
    32
  0
VERTEX
  8
W75LALIFT
 62
6
 10
1894.488
 20
-6596.794
 30
-2241.709
 70
    32
  0
VERTEX
  8
W75LALIFT
 62
6
 10
1894.488
 20
-6596.794
 30
-2241.709
 70
    32
  0
SEQEND
  8
W75LALIFT
  0
POLYLINE
  8
W75LALIFT
 62
8
 66
     1
 70
     9
  0
VERTEX
  8
W75LALIFT
 62
8
 10
2326.219
 20
-7850.267
 30
-2207.049
 70
    32
  0
VERTEX
  8
W75LALIFT
 62
8
 10
2326.201
 20
-7849.767
 30
-2206.985
 70
    32
  0
VERTEX
  8
W75LALIFT
 62
8
 10
2326.122
 20
-7847.497
 30
-2207.145
 70
    32
  0
VERTEX
  8
W75LALIFT
 62
8
 10
2326.037
 20
-7845.089
 30
-2207.149
 70
    32
  0
VERTEX
  8
W75LALIFT
 62
8
 10
2325.844
 20
-7839.609
 30
-2206.532
 70
    32
  0
VERTEX
  8
W75LALIFT
 62
8
 10
2325.772
 20
-7837.544
 30
-2206.337
 70
    32
  0
VERTEX
  8
W75LALIFT
 62
8
 10
2325.771
 20
-7837.514
 30
-2206.335
 70
    32
  0
VERTEX
  8
W75LALIFT
 62
8
 10
2322.992
 20
-7834.846
 30
-2206.157
 70
    32
  0
VERTEX
  8
W75LALIFT
 62
8
 10
2315.956
 20
-7828.091
 30
-2205.427
 70
    32
  0
VERTEX
  8
W75LALIFT
 62
8
 10
2313.308
 20
-7826.428
 30
-2205.226
 70
    32
  0
VERTEX
  8
W75LALIFT
 62
8
 10
2309.187
 20
-7823.840
 30
-2205.401
 70
    32
  0
VERTEX
  8
W75LALIFT
 62
8
 10
2311.546
 20
-7815.529
 30
-2205.778
 70
    32
  0
VERTEX
  8
W75LALIFT
 62
8
 10
2312.246
 20
-7813.064
 30
-2205.909
 70
    32
  0
VERTEX
  8
W75LALIFT
 62
8
 10
2312.351
 20
-7812.086
 30
-2205.963
 70
    32
  0
VERTEX
  8
W75LALIFT
 62
8
 10
2313.915
 20
-7797.574
 30
-2206.202
 70
    32
  0
VERTEX
  8
W75LALIFT
 62
8
 10
2312.140
 20
-7794.148
 30
-2206.264
 70
    32
  0
VERTEX
  8
W75LALIFT
 62
8
 10
2308.601
 20
-7787.318
 30
-2206.377
 70
    32
  0
VERTEX
  8
W75LALIFT
 62
8
 10
2304.639
 20
-7779.672
 30
-2207.210
 70
    32
  0
VERTEX
  8
W75LALIFT
 62
8
 10
2305.164
 20
-7771.401
 30
-2207.998
 70
    32
  0
VERTEX
  8
W75LALIFT
 62
8
 10
2304.993
 20
-7767.581
 30
-2208.372
 70
    32
  0
VERTEX
  8
W75LALIFT
 62
8
 10
2304.868
 20
-7764.811
 30
-2208.620
 70
    32
  0
VERTEX
  8
W75LALIFT
 62
8
 10
2304.592
 20
-7758.654
 30
-2208.620
 70
    32
  0
VERTEX
  8
W75LALIFT
 62
8
 10
2303.621
 20
-7756.666
 30
-2208.618
 70
    32
  0
VERTEX
  8
W75LALIFT
 62
8
 10
2298.671
 20
-7746.533
 30
-2208.627
 70
    32
  0
VERTEX
  8
W75LALIFT
 62
8
 10
2294.510
 20
-7732.080
 30
-2208.639
 70
    32
  0
VERTEX
  8
W75LALIFT
 62
8
 10
2307.844
 20
-7726.089
 30
-2208.640
 70
    32
  0
VERTEX
  8
W75LALIFT
 62
8
 10
2308.841
 20
-7731.066
 30
-2208.636
 70
    32
  0
VERTEX
  8
W75LALIFT
 62
8
 10
2310.791
 20
-7740.797
 30
-2208.639
 70
    32
  0
VERTEX
  8
W75LALIFT
 62
8
 10
2317.610
 20
-7754.871
 30
-2208.654
 70
    32
  0
VERTEX
  8
W75LALIFT
 62
8
 10
2319.419
 20
-7759.753
 30
-2208.658
 70
    32
  0
VERTEX
  8
W75LALIFT
 62
8
 10
2326.418
 20
-7778.646
 30
-2206.796
 70
    32
  0
VERTEX
  8
W75LALIFT
 62
8
 10
2327.944
 20
-7782.765
 30
-2206.361
 70
    32
  0
VERTEX
  8
W75LALIFT
 62
8
 10
2329.013
 20
-7785.650
 30
-2206.315
 70
    32
  0
VERTEX
  8
W75LALIFT
 62
8
 10
2332.804
 20
-7804.208
 30
-2206.035
 70
    32
  0
VERTEX
  8
W75LALIFT
 62
8
 10
2333.548
 20
-7807.851
 30
-2205.971
 70
    32
  0
VERTEX
  8
W75LALIFT
 62
8
 10
2333.784
 20
-7809.007
 30
-2205.904
 70
    32
  0
VERTEX
  8
W75LALIFT
 62
8
 10
2338.464
 20
-7818.970
 30
-2205.293
 70
    32
  0
VERTEX
  8
W75LALIFT
 62
8
 10
2338.805
 20
-7819.695
 30
-2205.254
 70
    32
  0
VERTEX
  8
W75LALIFT
 62
8
 10
2338.805
 20
-7819.698
 30
-2205.254
 70
    32
  0
VERTEX
  8
W75LALIFT
 62
8
 10
2338.735
 20
-7820.852
 30
-2205.349
 70
    32
  0
VERTEX
  8
W75LALIFT
 62
8
 10
2338.497
 20
-7824.755
 30
-2205.592
 70
    32
  0
VERTEX
  8
W75LALIFT
 62
8
 10
2337.851
 20
-7827.683
 30
-2205.772
 70
    32
  0
VERTEX
  8
W75LALIFT
 62
8
 10
2339.021
 20
-7836.215
 30
-2206.310
 70
    32
  0
VERTEX
  8
W75LALIFT
 62
8
 10
2339.896
 20
-7842.590
 30
-2206.918
 70
    32
  0
VERTEX
  8
W75LALIFT
 62
8
 10
2340.068
 20
-7843.842
 30
-2207.059
 70
    32
  0
VERTEX
  8
W75LALIFT
 62
8
 10
2340.140
 20
-7844.368
 30
-2207.058
 70
    32
  0
VERTEX
  8
W75LALIFT
 62
8
 10
2340.695
 20
-7848.417
 30
-2206.764
 70
    32
  0
VERTEX
  8
W75LALIFT
 62
8
 10
2339.614
 20
-7851.490
 30
-2206.574
 70
    32
  0
VERTEX
  8
W75LALIFT
 62
8
 10
2338.290
 20
-7855.252
 30
-2207.118
 70
    32
  0
VERTEX
  8
W75LALIFT
 62
8
 10
2334.514
 20
-7861.200
 30
-2208.058
 70
    32
  0
VERTEX
  8
W75LALIFT
 62
8
 10
2326.219
 20
-7850.267
 30
-2207.049
 70
    32
  0
SEQEND
  8
W75LALIFT
  0
LINE
  8
W75LALIFT
 62
8
 10
2326.219
 20
-7850.267
 30
-2207.049
 11
2334.514
 21
-7861.200
 31
-2208.058
  0
POLYLINE
  8
W75LALIFT
 62
8
 66
     1
 70
     9
  0
VERTEX
  8
W75LALIFT
 62
8
 10
2050.263
 20
-7115.555
 30
-2235.935
 70
    32
  0
VERTEX
  8
W75LALIFT
 62
8
 10
2050.007
 20
-7112.182
 30
-2234.573
 70
    32
  0
VERTEX
  8
W75LALIFT
 62
8
 10
2047.947
 20
-7106.098
 30
-2234.386
 70
    32
  0
VERTEX
  8
W75LALIFT
 62
8
 10
2046.424
 20
-7102.854
 30
-2234.614
 70
    32
  0
VERTEX
  8
W75LALIFT
 62
8
 10
2043.909
 20
-7099.213
 30
-2235.060
 70
    32
  0
VERTEX
  8
W75LALIFT
 62
8
 10
2037.655
 20
-7090.159
 30
-2236.751
 70
    32
  0
VERTEX
  8
W75LALIFT
 62
8
 10
2035.312
 20
-7086.767
 30
-2237.174
 70
    32
  0
VERTEX
  8
W75LALIFT
 62
8
 10
2023.398
 20
-7077.861
 30
-2237.151
 70
    32
  0
VERTEX
  8
W75LALIFT
 62
8
 10
2017.935
 20
-7073.663
 30
-2237.147
 70
    32
  0
VERTEX
  8
W75LALIFT
 62
8
 10
2017.400
 20
-7056.359
 30
-2237.124
 70
    32
  0
VERTEX
  8
W75LALIFT
 62
8
 10
2016.060
 20
-7048.537
 30
-2237.110
 70
    32
  0
VERTEX
  8
W75LALIFT
 62
8
 10
2023.697
 20
-7044.897
 30
-2237.112
 70
    32
  0
VERTEX
  8
W75LALIFT
 62
8
 10
2036.201
 20
-7062.605
 30
-2237.112
 70
    32
  0
VERTEX
  8
W75LALIFT
 62
8
 10
2052.215
 20
-7064.567
 30
-2237.092
 70
    32
  0
VERTEX
  8
W75LALIFT
 62
8
 10
2055.309
 20
-7075.233
 30
-2237.109
 70
    32
  0
VERTEX
  8
W75LALIFT
 62
8
 10
2056.308
 20
-7078.678
 30
-2236.521
 70
    32
  0
VERTEX
  8
W75LALIFT
 62
8
 10
2057.122
 20
-7086.928
 30
-2235.268
 70
    32
  0
VERTEX
  8
W75LALIFT
 62
8
 10
2057.717
 20
-7092.959
 30
-2234.844
 70
    32
  0
VERTEX
  8
W75LALIFT
 62
8
 10
2062.809
 20
-7095.413
 30
-2234.660
 70
    32
  0
VERTEX
  8
W75LALIFT
 62
8
 10
2062.516
 20
-7101.906
 30
-2234.212
 70
    32
  0
VERTEX
  8
W75LALIFT
 62
8
 10
2064.895
 20
-7111.815
 30
-2235.945
 70
    32
  0
VERTEX
  8
W75LALIFT
 62
8
 10
2050.263
 20
-7115.555
 30
-2235.935
 70
    32
  0
VERTEX
  8
W75LALIFT
 62
8
 10
2050.263
 20
-7115.555
 30
-2235.935
 70
    32
  0
SEQEND
  8
W75LALIFT
  0
POLYLINE
  8
W75LALIFT
 62
6
 66
     1
 70
     9
  0
VERTEX
  8
W75LALIFT
 62
6
 10
1906.449
 20
-6649.388
 30
-2173.000
 70
    32
  0
VERTEX
  8
W75LALIFT
 62
6
 10
1914.061
 20
-6642.734
 30
-2173.000
 70
    32
  0
VERTEX
  8
W75LALIFT
 62
6
 10
1919.012
 20
-6635.803
 30
-2173.000
 70
    32
  0
VERTEX
  8
W75LALIFT
 62
6
 10
1920.354
 20
-6633.484
 30
-2173.000
 70
    32
  0
VERTEX
  8
W75LALIFT
 62
6
 10
1916.159
 20
-6625.808
 30
-2173.000
 70
    32
  0
VERTEX
  8
W75LALIFT
 62
6
 10
1905.706
 20
-6618.466
 30
-2173.000
 70
    32
  0
VERTEX
  8
W75LALIFT
 62
6
 10
1904.724
 20
-6616.913
 30
-2173.000
 70
    32
  0
VERTEX
  8
W75LALIFT
 62
6
 10
1896.512
 20
-6599.542
 30
-2173.000
 70
    32
  0
VERTEX
  8
W75LALIFT
 62
6
 10
1892.316
 20
-6589.916
 30
-2173.000
 70
    32
  0
VERTEX
  8
W75LALIFT
 62
6
 10
1883.339
 20
-6565.184
 30
-2173.000
 70
    32
  0
VERTEX
  8
W75LALIFT
 62
6
 10
1870.010
 20
-6570.252
 30
-2173.000
 70
    32
  0
VERTEX
  8
W75LALIFT
 62
6
 10
1877.589
 20
-6586.623
 30
-2173.000
 70
    32
  0
VERTEX
  8
W75LALIFT
 62
6
 10
1885.695
 20
-6601.846
 30
-2173.000
 70
    32
  0
VERTEX
  8
W75LALIFT
 62
6
 10
1889.579
 20
-6613.991
 30
-2173.000
 70
    32
  0
VERTEX
  8
W75LALIFT
 62
6
 10
1893.134
 20
-6624.415
 30
-2173.000
 70
    32
  0
VERTEX
  8
W75LALIFT
 62
6
 10
1897.376
 20
-6642.378
 30
-2173.000
 70
    32
  0
SEQEND
  8
W75LALIFT
  0
POLYLINE
  8
W75LALIFT
 62
7
 66
     1
 70
     9
  0
VERTEX
  8
W75LALIFT
 62
7
 10
2030.631
 20
-6506.510
 30
-2141.768
 70
    32
  0
VERTEX
  8
W75LALIFT
 62
7
 10
2029.739
 20
-6503.023
 30
-2141.616
 70
    32
  0
VERTEX
  8
W75LALIFT
 62
7
 10
2029.070
 20
-6500.410
 30
-2141.558
 70
    32
  0
VERTEX
  8
W75LALIFT
 62
7
 10
2031.341
 20
-6472.560
 30
-2140.931
 70
    32
  0
VERTEX
  8
W75LALIFT
 62
7
 10
2030.341
 20
-6451.141
 30
-2141.000
 70
    32
  0
VERTEX
  8
W75LALIFT
 62
7
 10
2025.924
 20
-6437.659
 30
-2141.000
 70
    32
  0
VERTEX
  8
W75LALIFT
 62
7
 10
2023.088
 20
-6423.491
 30
-2141.000
 70
    32
  0
VERTEX
  8
W75LALIFT
 62
7
 10
2022.724
 20
-6421.625
 30
-2141.000
 70
    32
  0
VERTEX
  8
W75LALIFT
 62
7
 10
2012.596
 20
-6421.224
 30
-2141.000
 70
    32
  0
VERTEX
  8
W75LALIFT
 62
7
 10
2004.940
 20
-6426.325
 30
-2141.000
 70
    32
  0
VERTEX
  8
W75LALIFT
 62
7
 10
1998.419
 20
-6429.158
 30
-2141.000
 70
    32
  0
VERTEX
  8
W75LALIFT
 62
7
 10
1994.449
 20
-6438.510
 30
-2141.000
 70
    32
  0
VERTEX
  8
W75LALIFT
 62
7
 10
1995.583
 20
-6443.894
 30
-2141.000
 70
    32
  0
VERTEX
  8
W75LALIFT
 62
7
 10
1999.608
 20
-6455.000
 30
-2141.000
 70
    32
  0
VERTEX
  8
W75LALIFT
 62
7
 10
2000.536
 20
-6457.562
 30
-2141.000
 70
    32
  0
VERTEX
  8
W75LALIFT
 62
7
 10
2006.722
 20
-6478.586
 30
-2140.938
 70
    32
  0
VERTEX
  8
W75LALIFT
 62
7
 10
2006.545
 20
-6478.080
 30
-2140.921
 70
    32
  0
VERTEX
  8
W75LALIFT
 62
7
 10
2010.838
 20
-6490.368
 30
-2141.339
 70
    32
  0
VERTEX
  8
W75LALIFT
 62
7
 10
2012.161
 20
-6494.156
 30
-2141.424
 70
    32
  0
VERTEX
  8
W75LALIFT
 62
7
 10
2013.447
 20
-6502.376
 30
-2141.608
 70
    32
  0
VERTEX
  8
W75LALIFT
 62
7
 10
2014.221
 20
-6507.321
 30
-2141.824
 70
    32
  0
VERTEX
  8
W75LALIFT
 62
7
 10
2030.631
 20
-6506.510
 30
-2141.768
 70
    32
  0
SEQEND
  8
W75LALIFT
  0
POLYLINE
  8
W75LALIFT
 62
6
 66
     1
 70
     9
  0
VERTEX
  8
W75LALIFT
 62
6
 10
1786.196
 20
-6365.631
 30
-2156.629
 70
    32
  0
VERTEX
  8
W75LALIFT
 62
6
 10
1787.615
 20
-6361.905
 30
-2156.613
 70
    32
  0
VERTEX
  8
W75LALIFT
 62
6
 10
1787.611
 20
-6360.749
 30
-2156.607
 70
    32
  0
VERTEX
  8
W75LALIFT
 62
6
 10
1771.320
 20
-6342.293
 30
-2156.497
 70
    32
  0
VERTEX
  8
W75LALIFT
 62
6
 10
1774.104
 20
-6335.874
 30
-2156.469
 70
    32
  0
VERTEX
  8
W75LALIFT
 62
6
 10
1768.393
 20
-6328.177
 30
-2156.425
 70
    32
  0
VERTEX
  8
W75LALIFT
 62
6
 10
1772.329
 20
-6320.821
 30
-2156.393
 70
    32
  0
VERTEX
  8
W75LALIFT
 62
6
 10
1769.029
 20
-6312.383
 30
-2156.348
 70
    32
  0
VERTEX
  8
W75LALIFT
 62
6
 10
1772.292
 20
-6307.615
 30
-2156.329
 70
    32
  0
VERTEX
  8
W75LALIFT
 62
6
 10
1772.640
 20
-6305.654
 30
-2156.319
 70
    32
  0
VERTEX
  8
W75LALIFT
 62
6
 10
1773.102
 20
-6303.053
 30
-2156.305
 70
    32
  0
VERTEX
  8
W75LALIFT
 62
6
 10
1765.374
 20
-6294.173
 30
-2156.251
 70
    32
  0
VERTEX
  8
W75LALIFT
 62
6
 10
1774.955
 20
-6285.545
 30
-2156.211
 70
    32
  0
VERTEX
  8
W75LALIFT
 62
6
 10
1787.056
 20
-6295.536
 30
-2156.275
 70
    32
  0
VERTEX
  8
W75LALIFT
 62
6
 10
1796.375
 20
-6295.995
 30
-2156.284
 70
    32
  0
VERTEX
  8
W75LALIFT
 62
6
 10
1794.142
 20
-6315.198
 30
-2156.387
 70
    32
  0
VERTEX
  8
W75LALIFT
 62
6
 10
1803.490
 20
-6323.274
 30
-2156.438
 70
    32
  0
VERTEX
  8
W75LALIFT
 62
6
 10
1807.191
 20
-6329.862
 30
-2156.477
 70
    32
  0
VERTEX
  8
W75LALIFT
 62
6
 10
1809.900
 20
-6334.230
 30
-2156.503
 70
    32
  0
VERTEX
  8
W75LALIFT
 62
6
 10
1810.799
 20
-6334.697
 30
-2156.506
 70
    32
  0
VERTEX
  8
W75LALIFT
 62
6
 10
1813.251
 20
-6337.838
 30
-2156.525
 70
    32
  0
VERTEX
  8
W75LALIFT
 62
6
 10
1820.819
 20
-6347.532
 30
-2156.582
 70
    32
  0
VERTEX
  8
W75LALIFT
 62
6
 10
1822.901
 20
-6350.167
 30
-2156.597
 70
    32
  0
VERTEX
  8
W75LALIFT
 62
6
 10
1823.839
 20
-6351.355
 30
-2156.567
 70
    32
  0
VERTEX
  8
W75LALIFT
 62
6
 10
1823.859
 20
-6351.380
 30
-2156.565
 70
    32
  0
VERTEX
  8
W75LALIFT
 62
6
 10
1827.432
 20
-6352.718
 30
-2156.418
 70
    32
  0
VERTEX
  8
W75LALIFT
 62
6
 10
1829.194
 20
-6358.464
 30
-2156.155
 70
    32
  0
VERTEX
  8
W75LALIFT
 62
6
 10
1829.343
 20
-6358.949
 30
-2156.177
 70
    32
  0
VERTEX
  8
W75LALIFT
 62
6
 10
1832.977
 20
-6370.800
 30
-2156.545
 70
    32
  0
VERTEX
  8
W75LALIFT
 62
6
 10
1833.830
 20
-6373.581
 30
-2156.544
 70
    32
  0
VERTEX
  8
W75LALIFT
 62
6
 10
1839.796
 20
-6376.462
 30
-2156.543
 70
    32
  0
VERTEX
  8
W75LALIFT
 62
6
 10
1850.721
 20
-6397.452
 30
-2156.533
 70
    32
  0
VERTEX
  8
W75LALIFT
 62
6
 10
1842.518
 20
-6405.199
 30
-2156.528
 70
    32
  0
VERTEX
  8
W75LALIFT
 62
6
 10
1834.034
 20
-6391.699
 30
-2156.534
 70
    32
  0
VERTEX
  8
W75LALIFT
 62
6
 10
1829.510
 20
-6387.486
 30
-2156.536
 70
    32
  0
VERTEX
  8
W75LALIFT
 62
6
 10
1824.997
 20
-6389.332
 30
-2156.535
 70
    32
  0
VERTEX
  8
W75LALIFT
 62
6
 10
1825.297
 20
-6392.171
 30
-2156.533
 70
    32
  0
VERTEX
  8
W75LALIFT
 62
6
 10
1826.729
 20
-6395.600
 30
-2156.531
 70
    32
  0
VERTEX
  8
W75LALIFT
 62
6
 10
1837.378
 20
-6417.637
 30
-2156.521
 70
    32
  0
VERTEX
  8
W75LALIFT
 62
6
 10
1845.070
 20
-6430.534
 30
-2156.515
 70
    32
  0
VERTEX
  8
W75LALIFT
 62
6
 10
1853.141
 20
-6444.068
 30
-2156.512
 70
    32
  0
VERTEX
  8
W75LALIFT
 62
6
 10
1834.488
 20
-6450.729
 30
-2156.512
 70
    32
  0
VERTEX
  8
W75LALIFT
 62
6
 10
1828.646
 20
-6434.766
 30
-2156.515
 70
    32
  0
VERTEX
  8
W75LALIFT
 62
6
 10
1822.116
 20
-6430.951
 30
-2156.516
 70
    32
  0
VERTEX
  8
W75LALIFT
 62
6
 10
1823.397
 20
-6422.375
 30
-2156.518
 70
    32
  0
VERTEX
  8
W75LALIFT
 62
6
 10
1821.239
 20
-6418.890
 30
-2156.518
 70
    32
  0
VERTEX
  8
W75LALIFT
 62
6
 10
1813.441
 20
-6406.295
 30
-2156.524
 70
    32
  0
VERTEX
  8
W75LALIFT
 62
6
 10
1809.491
 20
-6396.284
 30
-2156.529
 70
    32
  0
VERTEX
  8
W75LALIFT
 62
6
 10
1809.479
 20
-6396.455
 30
-2156.529
 70
    32
  0
VERTEX
  8
W75LALIFT
 62
6
 10
1808.519
 20
-6394.692
 30
-2156.530
 70
    32
  0
VERTEX
  8
W75LALIFT
 62
6
 10
1803.007
 20
-6389.419
 30
-2156.532
 70
    32
  0
VERTEX
  8
W75LALIFT
 62
6
 10
1802.909
 20
-6389.326
 30
-2156.528
 70
    32
  0
VERTEX
  8
W75LALIFT
 62
6
 10
1794.619
 20
-6393.144
 30
-2156.490
 70
    32
  0
VERTEX
  8
W75LALIFT
 62
6
 10
1793.598
 20
-6392.397
 30
-2156.453
 70
    32
  0
VERTEX
  8
W75LALIFT
 62
6
 10
1788.151
 20
-6388.416
 30
-2156.155
 70
    32
  0
VERTEX
  8
W75LALIFT
 62
6
 10
1786.921
 20
-6387.516
 30
-2156.222
 70
    32
  0
VERTEX
  8
W75LALIFT
 62
6
 10
1778.497
 20
-6381.357
 30
-2156.412
 70
    32
  0
VERTEX
  8
W75LALIFT
 62
6
 10
1786.006
 20
-6366.018
 30
-2156.631
 70
    32
  0
SEQEND
  8
W75LALIFT
  0
POLYLINE
  8
W75LALIFT
 62
6
 66
     1
 70
     9
  0
VERTEX
  8
W75LALIFT
 62
6
 10
2142.632
 20
-7170.311
 30
-2194.628
 70
    32
  0
VERTEX
  8
W75LALIFT
 62
6
 10
2131.883
 20
-7162.442
 30
-2194.366
 70
    32
  0
VERTEX
  8
W75LALIFT
 62
6
 10
2130.469
 20
-7160.700
 30
-2194.319
 70
    32
  0
VERTEX
  8
W75LALIFT
 62
6
 10
2122.081
 20
-7156.001
 30
-2194.053
 70
    32
  0
VERTEX
  8
W75LALIFT
 62
6
 10
2111.059
 20
-7139.492
 30
-2193.402
 70
    32
  0
VERTEX
  8
W75LALIFT
 62
6
 10
2104.571
 20
-7126.102
 30
-2192.734
 70
    32
  0
VERTEX
  8
W75LALIFT
 62
6
 10
2095.693
 20
-7114.987
 30
-2192.415
 70
    32
  0
VERTEX
  8
W75LALIFT
 62
6
 10
2095.400
 20
-7106.833
 30
-2192.392
 70
    32
  0
VERTEX
  8
W75LALIFT
 62
6
 10
2086.842
 20
-7087.304
 30
-2192.326
 70
    32
  0
VERTEX
  8
W75LALIFT
 62
6
 10
2083.951
 20
-7078.251
 30
-2192.297
 70
    32
  0
VERTEX
  8
W75LALIFT
 62
6
 10
2085.496
 20
-7074.766
 30
-2192.290
 70
    32
  0
VERTEX
  8
W75LALIFT
 62
6
 10
2083.512
 20
-7067.715
 30
-2192.268
 70
    32
  0
VERTEX
  8
W75LALIFT
 62
6
 10
2091.219
 20
-7061.620
 30
-2192.262
 70
    32
  0
VERTEX
  8
W75LALIFT
 62
6
 10
2098.787
 20
-7077.425
 30
-2192.316
 70
    32
  0
VERTEX
  8
W75LALIFT
 62
6
 10
2103.671
 20
-7081.927
 30
-2192.336
 70
    32
  0
VERTEX
  8
W75LALIFT
 62
6
 10
2105.834
 20
-7089.920
 30
-2192.361
 70
    32
  0
VERTEX
  8
W75LALIFT
 62
6
 10
2116.659
 20
-7107.967
 30
-2192.426
 70
    32
  0
VERTEX
  8
W75LALIFT
 62
6
 10
2148.865
 20
-7160.390
 30
-2194.617
 70
    32
  0
SEQEND
  8
W75LALIFT
  0
POLYLINE
  8
W75LALIFT
 62
8
 66
     1
 70
     9
  0
VERTEX
  8
W75LALIFT
 62
8
 10
1615.277
 20
-5790.189
 30
-2201.371
 70
    32
  0
VERTEX
  8
W75LALIFT
 62
8
 10
1628.813
 20
-5780.704
 30
-2197.000
 70
    32
  0
VERTEX
  8
W75LALIFT
 62
8
 10
1632.828
 20
-5778.702
 30
-2197.000
 70
    32
  0
VERTEX
  8
W75LALIFT
 62
8
 10
1640.256
 20
-5771.344
 30
-2197.000
 70
    32
  0
VERTEX
  8
W75LALIFT
 62
8
 10
1644.056
 20
-5766.814
 30
-2197.000
 70
    32
  0
VERTEX
  8
W75LALIFT
 62
8
 10
1651.008
 20
-5764.493
 30
-2197.000
 70
    32
  0
VERTEX
  8
W75LALIFT
 62
8
 10
1655.791
 20
-5765.949
 30
-2197.000
 70
    32
  0
VERTEX
  8
W75LALIFT
 62
8
 10
1662.453
 20
-5772.394
 30
-2197.000
 70
    32
  0
VERTEX
  8
W75LALIFT
 62
8
 10
1665.382
 20
-5781.528
 30
-2197.000
 70
    32
  0
VERTEX
  8
W75LALIFT
 62
8
 10
1663.179
 20
-5787.569
 30
-2197.000
 70
    32
  0
VERTEX
  8
W75LALIFT
 62
8
 10
1663.998
 20
-5792.028
 30
-2197.000
 70
    32
  0
VERTEX
  8
W75LALIFT
 62
8
 10
1672.865
 20
-5791.142
 30
-2197.000
 70
    32
  0
VERTEX
  8
W75LALIFT
 62
8
 10
1675.696
 20
-5783.852
 30
-2197.000
 70
    32
  0
VERTEX
  8
W75LALIFT
 62
8
 10
1674.544
 20
-5773.214
 30
-2197.000
 70
    32
  0
VERTEX
  8
W75LALIFT
 62
8
 10
1658.401
 20
-5743.702
 30
-2197.000
 70
    32
  0
VERTEX
  8
W75LALIFT
 62
8
 10
1643.866
 20
-5691.157
 30
-2197.000
 70
    32
  0
VERTEX
  8
W75LALIFT
 62
8
 10
1632.419
 20
-5659.287
 30
-2197.000
 70
    32
  0
VERTEX
  8
W75LALIFT
 62
8
 10
1643.774
 20
-5651.624
 30
-2196.998
 70
    32
  0
VERTEX
  8
W75LALIFT
 62
8
 10
1646.616
 20
-5657.065
 30
-2196.996
 70
    32
  0
VERTEX
  8
W75LALIFT
 62
8
 10
1653.208
 20
-5669.356
 30
-2196.981
 70
    32
  0
VERTEX
  8
W75LALIFT
 62
8
 10
1658.260
 20
-5678.911
 30
-2196.969
 70
    32
  0
VERTEX
  8
W75LALIFT
 62
8
 10
1665.855
 20
-5699.031
 30
-2197.939
 70
    32
  0
VERTEX
  8
W75LALIFT
 62
8
 10
1668.723
 20
-5706.725
 30
-2198.314
 70
    32
  0
VERTEX
  8
W75LALIFT
 62
8
 10
1668.738
 20
-5706.765
 30
-2198.316
 70
    32
  0
VERTEX
  8
W75LALIFT
 62
8
 10
1671.458
 20
-5714.066
 30
-2198.159
 70
    32
  0
VERTEX
  8
W75LALIFT
 62
8
 10
1671.472
 20
-5714.105
 30
-2198.159
 70
    32
  0
VERTEX
  8
W75LALIFT
 62
8
 10
1674.812
 20
-5723.068
 30
-2197.969
 70
    32
  0
VERTEX
  8
W75LALIFT
 62
8
 10
1681.122
 20
-5726.002
 30
-2197.867
 70
    32
  0
VERTEX
  8
W75LALIFT
 62
8
 10
1684.291
 20
-5732.732
 30
-2197.648
 70
    32
  0
VERTEX
  8
W75LALIFT
 62
8
 10
1684.295
 20
-5732.740
 30
-2197.648
 70
    32
  0
VERTEX
  8
W75LALIFT
 62
8
 10
1690.954
 20
-5746.882
 30
-2197.004
 70
    32
  0
VERTEX
  8
W75LALIFT
 62
8
 10
1691.055
 20
-5747.096
 30
-2196.994
 70
    32
  0
VERTEX
  8
W75LALIFT
 62
8
 10
1692.591
 20
-5750.359
 30
-2197.107
 70
    32
  0
VERTEX
  8
W75LALIFT
 62
8
 10
1700.337
 20
-5757.005
 30
-2197.401
 70
    32
  0
VERTEX
  8
W75LALIFT
 62
8
 10
1700.624
 20
-5763.918
 30
-2197.581
 70
    32
  0
VERTEX
  8
W75LALIFT
 62
8
 10
1703.225
 20
-5769.298
 30
-2197.755
 70
    32
  0
VERTEX
  8
W75LALIFT
 62
8
 10
1708.585
 20
-5772.959
 30
-2197.926
 70
    32
  0
VERTEX
  8
W75LALIFT
 62
8
 10
1715.821
 20
-5774.136
 30
-2198.061
 70
    32
  0
VERTEX
  8
W75LALIFT
 62
8
 10
1715.777
 20
-5785.848
 30
-2198.357
 70
    32
  0
VERTEX
  8
W75LALIFT
 62
8
 10
1729.707
 20
-5786.903
 30
-2199.250
 70
    32
  0
VERTEX
  8
W75LALIFT
 62
8
 10
1733.440
 20
-5784.500
 30
-2199.250
 70
    32
  0
VERTEX
  8
W75LALIFT
 62
8
 10
1732.318
 20
-5778.480
 30
-2199.250
 70
    32
  0
VERTEX
  8
W75LALIFT
 62
8
 10
1739.150
 20
-5775.796
 30
-2199.250
 70
    32
  0
VERTEX
  8
W75LALIFT
 62
8
 10
1745.125
 20
-5773.474
 30
-2199.250
 70
    32
  0
VERTEX
  8
W75LALIFT
 62
8
 10
1750.612
 20
-5785.307
 30
-2199.250
 70
    32
  0
VERTEX
  8
W75LALIFT
 62
8
 10
1754.371
 20
-5794.768
 30
-2199.250
 70
    32
  0
VERTEX
  8
W75LALIFT
 62
8
 10
1754.947
 20
-5799.600
 30
-2199.250
 70
    32
  0
VERTEX
  8
W75LALIFT
 62
8
 10
1755.912
 20
-5802.239
 30
-2199.153
 70
    32
  0
VERTEX
  8
W75LALIFT
 62
8
 10
1759.053
 20
-5811.462
 30
-2199.916
 70
    32
  0
VERTEX
  8
W75LALIFT
 62
8
 10
1765.420
 20
-5821.708
 30
-2199.916
 70
    32
  0
VERTEX
  8
W75LALIFT
 62
8
 10
1751.155
 20
-5826.918
 30
-2199.197
 70
    32
  0
VERTEX
  8
W75LALIFT
 62
8
 10
1747.650
 20
-5815.711
 30
-2199.448
 70
    32
  0
VERTEX
  8
W75LALIFT
 62
8
 10
1733.286
 20
-5802.871
 30
-2198.872
 70
    32
  0
VERTEX
  8
W75LALIFT
 62
8
 10
1725.406
 20
-5808.201
 30
-2197.955
 70
    32
  0
VERTEX
  8
W75LALIFT
 62
8
 10
1726.937
 20
-5817.789
 30
-2197.618
 70
    32
  0
VERTEX
  8
W75LALIFT
 62
8
 10
1718.847
 20
-5822.220
 30
-2197.416
 70
    32
  0
VERTEX
  8
W75LALIFT
 62
8
 10
1712.058
 20
-5813.565
 30
-2197.416
 70
    32
  0
VERTEX
  8
W75LALIFT
 62
8
 10
1706.391
 20
-5818.011
 30
-2197.416
 70
    32
  0
VERTEX
  8
W75LALIFT
 62
8
 10
1706.111
 20
-5819.196
 30
-2197.624
 70
    32
  0
VERTEX
  8
W75LALIFT
 62
8
 10
1706.036
 20
-5819.516
 30
-2197.622
 70
    32
  0
VERTEX
  8
W75LALIFT
 62
8
 10
1712.643
 20
-5834.318
 30
-2197.607
 70
    32
  0
VERTEX
  8
W75LALIFT
 62
8
 10
1711.766
 20
-5838.763
 30
-2197.583
 70
    32
  0
VERTEX
  8
W75LALIFT
 62
8
 10
1712.400
 20
-5843.795
 30
-2197.559
 70
    32
  0
VERTEX
  8
W75LALIFT
 62
8
 10
1713.970
 20
-5850.204
 30
-2197.528
 70
    32
  0
VERTEX
  8
W75LALIFT
 62
8
 10
1721.500
 20
-5861.742
 30
-2197.854
 70
    32
  0
VERTEX
  8
W75LALIFT
 62
8
 10
1721.523
 20
-5861.764
 30
-2197.855
 70
    32
  0
VERTEX
  8
W75LALIFT
 62
8
 10
1729.716
 20
-5869.829
 30
-2198.240
 70
    32
  0
VERTEX
  8
W75LALIFT
 62
8
 10
1732.510
 20
-5878.660
 30
-2198.551
 70
    32
  0
VERTEX
  8
W75LALIFT
 62
8
 10
1732.511
 20
-5878.663
 30
-2198.551
 70
    32
  0
VERTEX
  8
W75LALIFT
 62
8
 10
1734.111
 20
-5883.720
 30
-2198.536
 70
    32
  0
VERTEX
  8
W75LALIFT
 62
8
 10
1724.157
 20
-5892.081
 30
-2198.531
 70
    32
  0
VERTEX
  8
W75LALIFT
 62
8
 10
1720.533
 20
-5885.916
 30
-2198.551
 70
    32
  0
VERTEX
  8
W75LALIFT
 62
8
 10
1715.868
 20
-5877.980
 30
-2198.233
 70
    32
  0
VERTEX
  8
W75LALIFT
 62
8
 10
1715.858
 20
-5877.962
 30
-2198.232
 70
    32
  0
VERTEX
  8
W75LALIFT
 62
8
 10
1706.178
 20
-5861.495
 30
-2197.618
 70
    32
  0
VERTEX
  8
W75LALIFT
 62
8
 10
1703.376
 20
-5852.796
 30
-2197.501
 70
    32
  0
VERTEX
  8
W75LALIFT
 62
8
 10
1700.723
 20
-5848.791
 30
-2197.515
 70
    32
  0
VERTEX
  8
W75LALIFT
 62
8
 10
1698.109
 20
-5836.626
 30
-2197.536
 70
    32
  0
VERTEX
  8
W75LALIFT
 62
8
 10
1697.039
 20
-5829.040
 30
-2197.551
 70
    32
  0
VERTEX
  8
W75LALIFT
 62
8
 10
1695.082
 20
-5824.506
 30
-2197.554
 70
    32
  0
VERTEX
  8
W75LALIFT
 62
8
 10
1690.106
 20
-5819.301
 30
-2197.543
 70
    32
  0
VERTEX
  8
W75LALIFT
 62
8
 10
1685.496
 20
-5814.479
 30
-2197.653
 70
    32
  0
VERTEX
  8
W75LALIFT
 62
8
 10
1681.407
 20
-5812.340
 30
-2197.703
 70
    32
  0
VERTEX
  8
W75LALIFT
 62
8
 10
1675.629
 20
-5809.318
 30
-2197.000
 70
    32
  0
VERTEX
  8
W75LALIFT
 62
8
 10
1670.860
 20
-5809.373
 30
-2197.000
 70
    32
  0
VERTEX
  8
W75LALIFT
 62
8
 10
1653.750
 20
-5798.009
 30
-2197.000
 70
    32
  0
VERTEX
  8
W75LALIFT
 62
8
 10
1648.234
 20
-5796.116
 30
-2197.000
 70
    32
  0
VERTEX
  8
W75LALIFT
 62
8
 10
1642.282
 20
-5793.207
 30
-2197.000
 70
    32
  0
VERTEX
  8
W75LALIFT
 62
8
 10
1618.099
 20
-5805.398
 30
-2200.203
 70
    32
  0
VERTEX
  8
W75LALIFT
 62
8
 10
1615.277
 20
-5790.189
 30
-2201.371
 70
    32
  0
SEQEND
  8
W75LALIFT
  0
POLYLINE
  8
W75LALIFT
 62
5
 66
     1
 70
     9
  0
VERTEX
  8
W75LALIFT
 62
5
 10
1701.902
 20
-5861.202
 30
-2186.805
 70
    32
  0
VERTEX
  8
W75LALIFT
 62
5
 10
1700.807
 20
-5854.106
 30
-2185.548
 70
    32
  0
VERTEX
  8
W75LALIFT
 62
5
 10
1696.537
 20
-5845.253
 30
-2183.775
 70
    32
  0
VERTEX
  8
W75LALIFT
 62
5
 10
1696.897
 20
-5837.628
 30
-2183.027
 70
    32
  0
VERTEX
  8
W75LALIFT
 62
5
 10
1693.575
 20
-5824.780
 30
-2181.611
 70
    32
  0
VERTEX
  8
W75LALIFT
 62
5
 10
1675.787
 20
-5793.741
 30
-2180.206
 70
    32
  0
VERTEX
  8
W75LALIFT
 62
5
 10
1673.397
 20
-5786.462
 30
-2180.756
 70
    32
  0
VERTEX
  8
W75LALIFT
 62
5
 10
1666.894
 20
-5769.683
 30
-2180.955
 70
    32
  0
VERTEX
  8
W75LALIFT
 62
5
 10
1660.471
 20
-5748.146
 30
-2184.383
 70
    32
  0
VERTEX
  8
W75LALIFT
 62
5
 10
1656.469
 20
-5740.658
 30
-2184.534
 70
    32
  0
VERTEX
  8
W75LALIFT
 62
5
 10
1652.831
 20
-5715.554
 30
-2184.931
 70
    32
  0
VERTEX
  8
W75LALIFT
 62
5
 10
1650.175
 20
-5708.288
 30
-2184.949
 70
    32
  0
VERTEX
  8
W75LALIFT
 62
5
 10
1650.764
 20
-5701.374
 30
-2184.963
 70
    32
  0
VERTEX
  8
W75LALIFT
 62
5
 10
1641.637
 20
-5672.437
 30
-2185.033
 70
    32
  0
VERTEX
  8
W75LALIFT
 62
5
 10
1654.186
 20
-5666.815
 30
-2185.036
 70
    32
  0
VERTEX
  8
W75LALIFT
 62
5
 10
1658.727
 20
-5683.258
 30
-2184.998
 70
    32
  0
VERTEX
  8
W75LALIFT
 62
5
 10
1675.155
 20
-5725.082
 30
-2184.713
 70
    32
  0
VERTEX
  8
W75LALIFT
 62
5
 10
1675.579
 20
-5741.301
 30
-2184.426
 70
    32
  0
VERTEX
  8
W75LALIFT
 62
5
 10
1678.924
 20
-5756.839
 30
-2184.136
 70
    32
  0
VERTEX
  8
W75LALIFT
 62
5
 10
1688.766
 20
-5782.626
 30
-2180.740
 70
    32
  0
VERTEX
  8
W75LALIFT
 62
5
 10
1698.091
 20
-5798.031
 30
-2180.527
 70
    32
  0
VERTEX
  8
W75LALIFT
 62
5
 10
1707.243
 20
-5817.810
 30
-2181.459
 70
    32
  0
VERTEX
  8
W75LALIFT
 62
5
 10
1712.443
 20
-5831.100
 30
-2182.995
 70
    32
  0
VERTEX
  8
W75LALIFT
 62
5
 10
1717.321
 20
-5847.025
 30
-2184.821
 70
    32
  0
VERTEX
  8
W75LALIFT
 62
5
 10
1723.975
 20
-5853.838
 30
-2186.196
 70
    32
  0
VERTEX
  8
W75LALIFT
 62
5
 10
1737.030
 20
-5882.935
 30
-2186.610
 70
    32
  0
VERTEX
  8
W75LALIFT
 62
5
 10
1726.113
 20
-5889.903
 30
-2186.485
 70
    32
  0
VERTEX
  8
W75LALIFT
 62
5
 10
1722.524
 20
-5889.554
 30
-2186.318
 70
    32
  0
VERTEX
  8
W75LALIFT
 62
5
 10
1713.583
 20
-5871.939
 30
-2186.712
 70
    32
  0
VERTEX
  8
W75LALIFT
 62
5
 10
1710.701
 20
-5872.886
 30
-2186.774
 70
    32
  0
SEQEND
  8
W75LALIFT
  0
POLYLINE
  8
W75LALIFT
 62
4
 66
     1
 70
     9
  0
VERTEX
  8
W75LALIFT
 62
4
 10
2163.492
 20
-7102.764
 30
-2178.081
 70
    32
  0
VERTEX
  8
W75LALIFT
 62
4
 10
2160.206
 20
-7094.398
 30
-2177.485
 70
    32
  0
VERTEX
  8
W75LALIFT
 62
4
 10
2162.611
 20
-7083.796
 30
-2176.909
 70
    32
  0
VERTEX
  8
W75LALIFT
 62
4
 10
2159.104
 20
-7079.246
 30
-2176.537
 70
    32
  0
VERTEX
  8
W75LALIFT
 62
4
 10
2158.565
 20
-7070.375
 30
-2175.985
 70
    32
  0
VERTEX
  8
W75LALIFT
 62
4
 10
2149.033
 20
-7067.379
 30
-2175.542
 70
    32
  0
VERTEX
  8
W75LALIFT
 62
4
 10
2143.491
 20
-7071.844
 30
-2175.659
 70
    32
  0
VERTEX
  8
W75LALIFT
 62
4
 10
2138.793
 20
-7076.580
 30
-2175.817
 70
    32
  0
VERTEX
  8
W75LALIFT
 62
4
 10
2154.517
 20
-7107.167
 30
-2178.101
 70
    32
  0
SEQEND
  8
W75LALIFT
  0
POLYLINE
  8
W75LALIFT
 62
3
 66
     1
 70
     9
  0
VERTEX
  8
W75LALIFT
 62
3
 10
2212.433
 20
-7014.796
 30
-2176.233
 70
    32
  0
VERTEX
  8
W75LALIFT
 62
3
 10
2211.641
 20
-7010.185
 30
-2175.697
 70
    32
  0
VERTEX
  8
W75LALIFT
 62
3
 10
2203.106
 20
-6986.935
 30
-2172.213
 70
    32
  0
VERTEX
  8
W75LALIFT
 62
3
 10
2205.686
 20
-6982.502
 30
-2171.955
 70
    32
  0
VERTEX
  8
W75LALIFT
 62
3
 10
2209.552
 20
-6979.334
 30
-2171.943
 70
    32
  0
VERTEX
  8
W75LALIFT
 62
3
 10
2209.754
 20
-6969.732
 30
-2170.923
 70
    32
  0
VERTEX
  8
W75LALIFT
 62
3
 10
2224.442
 20
-6968.749
 30
-2172.074
 70
    32
  0
VERTEX
  8
W75LALIFT
 62
3
 10
2233.476
 20
-6969.897
 30
-2172.971
 70
    32
  0
VERTEX
  8
W75LALIFT
 62
3
 10
2244.353
 20
-6978.653
 30
-2173.847
 70
    32
  0
VERTEX
  8
W75LALIFT
 62
3
 10
2246.867
 20
-6989.651
 30
-2174.221
 70
    32
  0
VERTEX
  8
W75LALIFT
 62
3
 10
2252.599
 20
-6992.236
 30
-2174.221
 70
    32
  0
VERTEX
  8
W75LALIFT
 62
3
 10
2248.583
 20
-6996.705
 30
-2174.221
 70
    32
  0
VERTEX
  8
W75LALIFT
 62
3
 10
2241.151
 20
-7005.741
 30
-2174.221
 70
    32
  0
VERTEX
  8
W75LALIFT
 62
3
 10
2234.483
 20
-7001.359
 30
-2174.221
 70
    32
  0
VERTEX
  8
W75LALIFT
 62
3
 10
2230.588
 20
-7003.792
 30
-2174.221
 70
    32
  0
VERTEX
  8
W75LALIFT
 62
3
 10
2224.818
 20
-7012.505
 30
-2175.794
 70
    32
  0
SEQEND
  8
W75LALIFT
  0
POLYLINE
  8
W75LALIFT
 62
4
 66
     1
 70
     9
  0
VERTEX
  8
W75LALIFT
 62
4
 10
2237.165
 20
-7021.266
 30
-2234.256
 70
    32
  0
VERTEX
  8
W75LALIFT
 62
4
 10
2238.756
 20
-6997.270
 30
-2229.544
 70
    32
  0
VERTEX
  8
W75LALIFT
 62
4
 10
2233.893
 20
-6985.965
 30
-2228.610
 70
    32
  0
VERTEX
  8
W75LALIFT
 62
4
 10
2230.035
 20
-6980.668
 30
-2228.772
 70
    32
  0
VERTEX
  8
W75LALIFT
 62
4
 10
2228.031
 20
-6951.998
 30
-2229.338
 70
    32
  0
VERTEX
  8
W75LALIFT
 62
4
 10
2221.103
 20
-6949.946
 30
-2229.453
 70
    32
  0
VERTEX
  8
W75LALIFT
 62
4
 10
2212.296
 20
-6939.526
 30
-2229.763
 70
    32
  0
VERTEX
  8
W75LALIFT
 62
4
 10
2207.157
 20
-6929.139
 30
-2230.034
 70
    32
  0
VERTEX
  8
W75LALIFT
 62
4
 10
2205.476
 20
-6922.316
 30
-2230.194
 70
    32
  0
VERTEX
  8
W75LALIFT
 62
4
 10
2198.750
 20
-6921.141
 30
-2230.289
 70
    32
  0
VERTEX
  8
W75LALIFT
 62
4
 10
2193.865
 20
-6915.776
 30
-2230.452
 70
    32
  0
VERTEX
  8
W75LALIFT
 62
4
 10
2186.006
 20
-6918.708
 30
-2230.472
 70
    32
  0
VERTEX
  8
W75LALIFT
 62
4
 10
2185.262
 20
-6923.256
 30
-2230.384
 70
    32
  0
VERTEX
  8
W75LALIFT
 62
4
 10
2192.635
 20
-6930.105
 30
-2230.164
 70
    32
  0
VERTEX
  8
W75LALIFT
 62
4
 10
2194.929
 20
-6935.985
 30
-2230.017
 70
    32
  0
VERTEX
  8
W75LALIFT
 62
4
 10
2192.326
 20
-6944.161
 30
-2229.873
 70
    32
  0
VERTEX
  8
W75LALIFT
 62
4
 10
2200.312
 20
-6958.106
 30
-2229.498
 70
    32
  0
VERTEX
  8
W75LALIFT
 62
4
 10
2207.518
 20
-6967.090
 30
-2229.235
 70
    32
  0
VERTEX
  8
W75LALIFT
 62
4
 10
2212.799
 20
-6983.173
 30
-2228.844
 70
    32
  0
VERTEX
  8
W75LALIFT
 62
4
 10
2223.175
 20
-6996.984
 30
-2228.447
 70
    32
  0
VERTEX
  8
W75LALIFT
 62
4
 10
2226.757
 20
-7004.906
 30
-2231.355
 70
    32
  0
VERTEX
  8
W75LALIFT
 62
4
 10
2227.536
 20
-7008.801
 30
-2232.171
 70
    32
  0
SEQEND
  8
W75LALIFT
  0
POLYLINE
  8
W75LALIFT
 62
2
 66
     1
 70
     9
  0
VERTEX
  8
W75LALIFT
 62
2
 10
2196.995
 20
-7214.159
 30
-2197.221
 70
    32
  0
VERTEX
  8
W75LALIFT
 62
2
 10
2196.660
 20
-7215.412
 30
-2197.262
 70
    32
  0
VERTEX
  8
W75LALIFT
 62
2
 10
2203.245
 20
-7230.255
 30
-2197.706
 70
    32
  0
VERTEX
  8
W75LALIFT
 62
2
 10
2194.386
 20
-7239.230
 30
-2198.019
 70
    32
  0
VERTEX
  8
W75LALIFT
 62
2
 10
2190.032
 20
-7238.269
 30
-2198.004
 70
    32
  0
VERTEX
  8
W75LALIFT
 62
2
 10
2185.901
 20
-7232.524
 30
-2197.838
 70
    32
  0
VERTEX
  8
W75LALIFT
 62
2
 10
2184.307
 20
-7231.489
 30
-2197.811
 70
    32
  0
VERTEX
  8
W75LALIFT
 62
2
 10
2177.406
 20
-7228.742
 30
-2197.749
 70
    32
  0
VERTEX
  8
W75LALIFT
 62
2
 10
2171.603
 20
-7223.084
 30
-2197.373
 70
    32
  0
VERTEX
  8
W75LALIFT
 62
2
 10
2182.724
 20
-7207.491
 30
-2197.061
 70
    32
  0
VERTEX
  8
W75LALIFT
 62
2
 10
2179.903
 20
-7196.966
 30
-2196.740
 70
    32
  0
SEQEND
  8
W75LALIFT
  0
POLYLINE
  8
W75LALIFT
 62
11
 66
     1
 70
     9
  0
VERTEX
  8
W75LALIFT
 62
11
 10
2003.786
 20
-7054.855
 30
-2170.988
 70
    32
  0
VERTEX
  8
W75LALIFT
 62
11
 10
1996.301
 20
-7057.066
 30
-2171.087
 70
    32
  0
VERTEX
  8
W75LALIFT
 62
11
 10
1996.294
 20
-7057.145
 30
-2171.956
 70
    32
  0
VERTEX
  8
W75LALIFT
 62
11
 10
1989.166
 20
-7056.748
 30
-2171.964
 70
    32
  0
VERTEX
  8
W75LALIFT
 62
11
 10
1979.142
 20
-7063.678
 30
-2171.968
 70
    32
  0
VERTEX
  8
W75LALIFT
 62
11
 10
1974.303
 20
-7061.126
 30
-2171.975
 70
    32
  0
VERTEX
  8
W75LALIFT
 62
11
 10
1973.143
 20
-7053.998
 30
-2171.981
 70
    32
  0
VERTEX
  8
W75LALIFT
 62
11
 10
1981.224
 20
-7050.050
 30
-2171.976
 70
    32
  0
VERTEX
  8
W75LALIFT
 62
11
 10
1982.216
 20
-7047.218
 30
-2171.977
 70
    32
  0
VERTEX
  8
W75LALIFT
 62
11
 10
1982.094
 20
-7043.087
 30
-2171.980
 70
    32
  0
VERTEX
  8
W75LALIFT
 62
11
 10
1975.147
 20
-7036.537
 30
-2171.992
 70
    32
  0
VERTEX
  8
W75LALIFT
 62
11
 10
1975.084
 20
-7032.322
 30
-2171.995
 70
    32
  0
VERTEX
  8
W75LALIFT
 62
11
 10
1970.802
 20
-7026.690
 30
-2172.003
 70
    32
  0
VERTEX
  8
W75LALIFT
 62
11
 10
1934.802
 20
-7011.726
 30
-2172.182
 70
    32
  0
VERTEX
  8
W75LALIFT
 62
11
 10
1909.003
 20
-7002.630
 30
-2171.965
 70
    32
  0
VERTEX
  8
W75LALIFT
 62
11
 10
1908.697
 20
-6993.789
 30
-2171.939
 70
    32
  0
VERTEX
  8
W75LALIFT
 62
11
 10
1913.561
 20
-6987.838
 30
-2171.959
 70
    32
  0
VERTEX
  8
W75LALIFT
 62
11
 10
1920.112
 20
-6976.350
 30
-2171.977
 70
    32
  0
VERTEX
  8
W75LALIFT
 62
11
 10
1923.673
 20
-6974.150
 30
-2171.998
 70
    32
  0
VERTEX
  8
W75LALIFT
 62
11
 10
1932.896
 20
-6971.952
 30
-2172.061
 70
    32
  0
VERTEX
  8
W75LALIFT
 62
11
 10
1940.234
 20
-6973.138
 30
-2172.119
 70
    32
  0
VERTEX
  8
W75LALIFT
 62
11
 10
1944.979
 20
-6984.198
 30
-2172.184
 70
    32
  0
VERTEX
  8
W75LALIFT
 62
11
 10
1949.161
 20
-6987.324
 30
-2172.223
 70
    32
  0
VERTEX
  8
W75LALIFT
 62
11
 10
1950.775
 20
-6987.224
 30
-2172.235
 70
    32
  0
VERTEX
  8
W75LALIFT
 62
11
 10
1993.194
 20
-7030.067
 30
-2171.979
 70
    32
  0
VERTEX
  8
W75LALIFT
 62
11
 10
1998.940
 20
-7031.194
 30
-2171.977
 70
    32
  0
VERTEX
  8
W75LALIFT
 62
11
 10
2006.611
 20
-7036.901
 30
-2171.514
 70
    32
  0
VERTEX
  8
W75LALIFT
 62
11
 10
2014.494
 20
-7038.976
 30
-2170.977
 70
    32
  0
SEQEND
  8
W75LALIFT
  0
POLYLINE
  8
W75LALIFT
 62
8
 66
     1
 70
     8
  0
VERTEX
  8
W75LALIFT
 62
8
 10
2483.743
 20
-8116.636
 30
-2260.902
 70
    32
  0
VERTEX
  8
W75LALIFT
 62
8
 10
2493.961
 20
-8125.424
 30
-2262.877
 70
    32
  0
VERTEX
  8
W75LALIFT
 62
8
 10
2497.421
 20
-8130.041
 30
-2264.295
 70
    32
  0
VERTEX
  8
W75LALIFT
 62
8
 10
2497.538
 20
-8135.040
 30
-2265.068
 70
    32
  0
VERTEX
  8
W75LALIFT
 62
8
 10
2497.135
 20
-8139.871
 30
-2265.054
 70
    32
  0
VERTEX
  8
W75LALIFT
 62
8
 10
2512.231
 20
-8144.361
 30
-2265.136
 70
    32
  0
VERTEX
  8
W75LALIFT
 62
8
 10
2511.955
 20
-8136.391
 30
-2265.124
 70
    32
  0
VERTEX
  8
W75LALIFT
 62
8
 10
2515.460
 20
-8138.092
 30
-2264.779
 70
    32
  0
VERTEX
  8
W75LALIFT
 62
8
 10
2522.834
 20
-8142.831
 30
-2265.860
 70
    32
  0
VERTEX
  8
W75LALIFT
 62
8
 10
2530.980
 20
-8159.189
 30
-2265.823
 70
    32
  0
VERTEX
  8
W75LALIFT
 62
8
 10
2533.059
 20
-8168.682
 30
-2265.669
 70
    32
  0
VERTEX
  8
W75LALIFT
 62
8
 10
2537.511
 20
-8168.358
 30
-2265.638
 70
    32
  0
VERTEX
  8
W75LALIFT
 62
8
 10
2543.719
 20
-8165.713
 30
-2264.639
 70
    32
  0
VERTEX
  8
W75LALIFT
 62
8
 10
2543.470
 20
-8162.168
 30
-2264.565
 70
    32
  0
VERTEX
  8
W75LALIFT
 62
8
 10
2538.691
 20
-8143.743
 30
-2264.422
 70
    32
  0
VERTEX
  8
W75LALIFT
 62
8
 10
2533.396
 20
-8137.441
 30
-2265.762
 70
    32
  0
VERTEX
  8
W75LALIFT
 62
8
 10
2523.671
 20
-8127.857
 30
-2264.777
 70
    32
  0
VERTEX
  8
W75LALIFT
 62
8
 10
2524.483
 20
-8121.485
 30
-2265.372
 70
    32
  0
VERTEX
  8
W75LALIFT
 62
8
 10
2521.624
 20
-8112.585
 30
-2264.620
 70
    32
  0
VERTEX
  8
W75LALIFT
 62
8
 10
2524.539
 20
-8104.667
 30
-2263.480
 70
    32
  0
VERTEX
  8
W75LALIFT
 62
8
 10
2521.391
 20
-8098.428
 30
-2262.644
 70
    32
  0
VERTEX
  8
W75LALIFT
 62
8
 10
2516.272
 20
-8094.381
 30
-2262.870
 70
    32
  0
VERTEX
  8
W75LALIFT
 62
8
 10
2511.914
 20
-8086.752
 30
-2263.832
 70
    32
  0
VERTEX
  8
W75LALIFT
 62
8
 10
2506.869
 20
-8085.289
 30
-2262.661
 70
    32
  0
VERTEX
  8
W75LALIFT
 62
8
 10
2499.474
 20
-8089.224
 30
-2263.113
 70
    32
  0
VERTEX
  8
W75LALIFT
 62
8
 10
2504.732
 20
-8104.850
 30
-2263.776
 70
    32
  0
VERTEX
  8
W75LALIFT
 62
8
 10
2488.544
 20
-8107.232
 30
-2262.177
 70
    32
  0
SEQEND
  8
W75LALIFT
  0
POLYLINE
  8
W75LALIFT
 62
6
 66
     1
 70
     9
  0
VERTEX
  8
W75LALIFT
 62
6
 10
2049.498
 20
-6368.776
 30
-2239.756
 70
    32
  0
VERTEX
  8
W75LALIFT
 62
6
 10
2049.584
 20
-6374.960
 30
-2238.383
 70
    32
  0
VERTEX
  8
W75LALIFT
 62
6
 10
2049.328
 20
-6384.491
 30
-2237.728
 70
    32
  0
VERTEX
  8
W75LALIFT
 62
6
 10
2041.436
 20
-6389.055
 30
-2237.159
 70
    32
  0
VERTEX
  8
W75LALIFT
 62
6
 10
2040.599
 20
-6395.015
 30
-2235.458
 70
    32
  0
VERTEX
  8
W75LALIFT
 62
6
 10
2036.850
 20
-6396.382
 30
-2237.067
 70
    32
  0
VERTEX
  8
W75LALIFT
 62
6
 10
2036.513
 20
-6400.095
 30
-2236.781
 70
    32
  0
VERTEX
  8
W75LALIFT
 62
6
 10
2036.581
 20
-6407.959
 30
-2236.019
 70
    32
  0
VERTEX
  8
W75LALIFT
 62
6
 10
2038.671
 20
-6414.609
 30
-2236.054
 70
    32
  0
VERTEX
  8
W75LALIFT
 62
6
 10
2040.483
 20
-6420.734
 30
-2234.441
 70
    32
  0
VERTEX
  8
W75LALIFT
 62
6
 10
2045.431
 20
-6430.514
 30
-2233.463
 70
    32
  0
VERTEX
  8
W75LALIFT
 62
6
 10
2059.639
 20
-6443.798
 30
-2234.225
 70
    32
  0
VERTEX
  8
W75LALIFT
 62
6
 10
2058.473
 20
-6446.814
 30
-2233.958
 70
    32
  0
VERTEX
  8
W75LALIFT
 62
6
 10
2064.709
 20
-6457.043
 30
-2236.323
 70
    32
  0
VERTEX
  8
W75LALIFT
 62
6
 10
2060.049
 20
-6461.726
 30
-2236.257
 70
    32
  0
VERTEX
  8
W75LALIFT
 62
6
 10
2063.137
 20
-6472.035
 30
-2236.350
 70
    32
  0
VERTEX
  8
W75LALIFT
 62
6
 10
2065.292
 20
-6481.222
 30
-2236.775
 70
    32
  0
VERTEX
  8
W75LALIFT
 62
6
 10
2063.533
 20
-6484.488
 30
-2236.390
 70
    32
  0
VERTEX
  8
W75LALIFT
 62
6
 10
2067.420
 20
-6495.360
 30
-2234.635
 70
    32
  0
VERTEX
  8
W75LALIFT
 62
6
 10
2063.137
 20
-6500.784
 30
-2235.863
 70
    32
  0
VERTEX
  8
W75LALIFT
 62
6
 10
2063.902
 20
-6508.109
 30
-2234.402
 70
    32
  0
VERTEX
  8
W75LALIFT
 62
6
 10
2069.989
 20
-6519.985
 30
-2237.827
 70
    32
  0
VERTEX
  8
W75LALIFT
 62
6
 10
2059.778
 20
-6522.541
 30
-2235.789
 70
    32
  0
VERTEX
  8
W75LALIFT
 62
6
 10
2058.945
 20
-6522.759
 30
-2235.789
 70
    32
  0
VERTEX
  8
W75LALIFT
 62
6
 10
2053.903
 20
-6514.103
 30
-2237.026
 70
    32
  0
VERTEX
  8
W75LALIFT
 62
6
 10
2051.053
 20
-6511.553
 30
-2234.168
 70
    32
  0
VERTEX
  8
W75LALIFT
 62
6
 10
2046.351
 20
-6511.417
 30
-2234.946
 70
    32
  0
VERTEX
  8
W75LALIFT
 62
6
 10
2041.981
 20
-6490.203
 30
-2235.870
 70
    32
  0
VERTEX
  8
W75LALIFT
 62
6
 10
2035.637
 20
-6473.782
 30
-2239.236
 70
    32
  0
VERTEX
  8
W75LALIFT
 62
6
 10
2029.751
 20
-6468.057
 30
-2236.388
 70
    32
  0
VERTEX
  8
W75LALIFT
 62
6
 10
2024.174
 20
-6456.149
 30
-2236.793
 70
    32
  0
VERTEX
  8
W75LALIFT
 62
6
 10
2021.516
 20
-6445.313
 30
-2236.278
 70
    32
  0
VERTEX
  8
W75LALIFT
 62
6
 10
2018.390
 20
-6432.618
 30
-2234.209
 70
    32
  0
VERTEX
  8
W75LALIFT
 62
6
 10
2017.276
 20
-6429.170
 30
-2236.285
 70
    32
  0
VERTEX
  8
W75LALIFT
 62
6
 10
2011.316
 20
-6414.156
 30
-2237.851
 70
    32
  0
VERTEX
  8
W75LALIFT
 62
6
 10
2005.982
 20
-6404.253
 30
-2237.234
 70
    32
  0
VERTEX
  8
W75LALIFT
 62
6
 10
2011.527
 20
-6398.894
 30
-2237.266
 70
    32
  0
VERTEX
  8
W75LALIFT
 62
6
 10
2019.786
 20
-6393.586
 30
-2236.508
 70
    32
  0
VERTEX
  8
W75LALIFT
 62
6
 10
2023.734
 20
-6393.048
 30
-2236.622
 70
    32
  0
VERTEX
  8
W75LALIFT
 62
6
 10
2030.742
 20
-6388.036
 30
-2236.426
 70
    32
  0
VERTEX
  8
W75LALIFT
 62
6
 10
2031.355
 20
-6386.557
 30
-2237.982
 70
    32
  0
VERTEX
  8
W75LALIFT
 62
6
 10
2034.487
 20
-6380.131
 30
-2239.706
 70
    32
  0
VERTEX
  8
W75LALIFT
 62
6
 10
2035.318
 20
-6375.074
 30
-2243.891
 70
    32
  0
SEQEND
  8
W75LALIFT
  0
POLYLINE
  8
W75LALIFT
 62
7
 66
     1
 70
     9
  0
VERTEX
  8
W75LALIFT
 62
7
 10
2387.458
 20
-8194.194
 30
-2151.760
 70
    32
  0
VERTEX
  8
W75LALIFT
 62
7
 10
2416.650
 20
-8184.989
 30
-2142.918
 70
    32
  0
VERTEX
  8
W75LALIFT
 62
7
 10
2436.677
 20
-8181.151
 30
-2136.305
 70
    32
  0
VERTEX
  8
W75LALIFT
 62
7
 10
2443.553
 20
-8180.725
 30
-2136.105
 70
    32
  0
VERTEX
  8
W75LALIFT
 62
7
 10
2447.589
 20
-8182.267
 30
-2134.728
 70
    32
  0
VERTEX
  8
W75LALIFT
 62
7
 10
2452.676
 20
-8180.282
 30
-2135.447
 70
    32
  0
VERTEX
  8
W75LALIFT
 62
7
 10
2457.115
 20
-8181.933
 30
-2135.450
 70
    32
  0
VERTEX
  8
W75LALIFT
 62
7
 10
2461.243
 20
-8188.101
 30
-2136.311
 70
    32
  0
VERTEX
  8
W75LALIFT
 62
7
 10
2466.287
 20
-8208.234
 30
-2135.313
 70
    32
  0
VERTEX
  8
W75LALIFT
 62
7
 10
2469.357
 20
-8228.966
 30
-2134.218
 70
    32
  0
VERTEX
  8
W75LALIFT
 62
7
 10
2476.541
 20
-8231.935
 30
-2134.511
 70
    32
  0
VERTEX
  8
W75LALIFT
 62
7
 10
2482.317
 20
-8246.176
 30
-2133.216
 70
    32
  0
VERTEX
  8
W75LALIFT
 62
7
 10
2484.888
 20
-8261.350
 30
-2132.315
 70
    32
  0
VERTEX
  8
W75LALIFT
 62
7
 10
2491.147
 20
-8261.975
 30
-2131.434
 70
    32
  0
VERTEX
  8
W75LALIFT
 62
7
 10
2504.081
 20
-8269.285
 30
-2131.568
 70
    32
  0
VERTEX
  8
W75LALIFT
 62
7
 10
2520.749
 20
-8261.970
 30
-2132.724
 70
    32
  0
VERTEX
  8
W75LALIFT
 62
7
 10
2520.068
 20
-8253.913
 30
-2132.419
 70
    32
  0
VERTEX
  8
W75LALIFT
 62
7
 10
2509.625
 20
-8241.523
 30
-2133.534
 70
    32
  0
VERTEX
  8
W75LALIFT
 62
7
 10
2499.918
 20
-8231.732
 30
-2133.661
 70
    32
  0
VERTEX
  8
W75LALIFT
 62
7
 10
2487.373
 20
-8221.916
 30
-2135.896
 70
    32
  0
VERTEX
  8
W75LALIFT
 62
7
 10
2483.428
 20
-8212.095
 30
-2135.876
 70
    32
  0
VERTEX
  8
W75LALIFT
 62
7
 10
2481.086
 20
-8203.152
 30
-2133.508
 70
    32
  0
VERTEX
  8
W75LALIFT
 62
7
 10
2485.479
 20
-8191.337
 30
-2133.540
 70
    32
  0
VERTEX
  8
W75LALIFT
 62
7
 10
2477.128
 20
-8182.382
 30
-2134.232
 70
    32
  0
VERTEX
  8
W75LALIFT
 62
7
 10
2470.412
 20
-8177.741
 30
-2135.593
 70
    32
  0
VERTEX
  8
W75LALIFT
 62
7
 10
2464.838
 20
-8170.382
 30
-2132.389
 70
    32
  0
VERTEX
  8
W75LALIFT
 62
7
 10
2463.156
 20
-8161.824
 30
-2133.000
 70
    32
  0
VERTEX
  8
W75LALIFT
 62
7
 10
2467.529
 20
-8151.169
 30
-2132.157
 70
    32
  0
VERTEX
  8
W75LALIFT
 62
7
 10
2462.240
 20
-8149.661
 30
-2132.159
 70
    32
  0
VERTEX
  8
W75LALIFT
 62
7
 10
2456.224
 20
-8151.676
 30
-2134.518
 70
    32
  0
VERTEX
  8
W75LALIFT
 62
7
 10
2448.354
 20
-8160.607
 30
-2135.218
 70
    32
  0
VERTEX
  8
W75LALIFT
 62
7
 10
2441.971
 20
-8161.648
 30
-2135.802
 70
    32
  0
VERTEX
  8
W75LALIFT
 62
7
 10
2435.293
 20
-8167.062
 30
-2136.726
 70
    32
  0
VERTEX
  8
W75LALIFT
 62
7
 10
2410.686
 20
-8176.908
 30
-2143.421
 70
    32
  0
VERTEX
  8
W75LALIFT
 62
7
 10
2384.420
 20
-8183.150
 30
-2151.683
 70
    32
  0
SEQEND
  8
W75LALIFT
  0
POLYLINE
  8
W75LALIFT
 62
6
 66
     1
 70
     9
  0
VERTEX
  8
W75LALIFT
 62
6
 10
2451.551
 20
-8165.365
 30
-2205.535
 70
    32
  0
VERTEX
  8
W75LALIFT
 62
6
 10
2457.818
 20
-8165.672
 30
-2204.696
 70
    32
  0
VERTEX
  8
W75LALIFT
 62
6
 10
2464.559
 20
-8166.934
 30
-2203.658
 70
    32
  0
VERTEX
  8
W75LALIFT
 62
6
 10
2468.551
 20
-8168.890
 30
-2205.088
 70
    32
  0
VERTEX
  8
W75LALIFT
 62
6
 10
2469.573
 20
-8177.599
 30
-2205.007
 70
    32
  0
VERTEX
  8
W75LALIFT
 62
6
 10
2470.330
 20
-8178.478
 30
-2205.598
 70
    32
  0
VERTEX
  8
W75LALIFT
 62
6
 10
2470.856
 20
-8180.568
 30
-2204.461
 70
    32
  0
VERTEX
  8
W75LALIFT
 62
6
 10
2471.658
 20
-8188.591
 30
-2205.350
 70
    32
  0
VERTEX
  8
W75LALIFT
 62
6
 10
2469.194
 20
-8195.195
 30
-2205.415
 70
    32
  0
VERTEX
  8
W75LALIFT
 62
6
 10
2464.117
 20
-8204.510
 30
-2204.450
 70
    32
  0
VERTEX
  8
W75LALIFT
 62
6
 10
2473.539
 20
-8215.011
 30
-2203.821
 70
    32
  0
VERTEX
  8
W75LALIFT
 62
6
 10
2484.976
 20
-8220.798
 30
-2204.178
 70
    32
  0
VERTEX
  8
W75LALIFT
 62
6
 10
2488.893
 20
-8227.415
 30
-2203.456
 70
    32
  0
VERTEX
  8
W75LALIFT
 62
6
 10
2491.844
 20
-8241.486
 30
-2204.345
 70
    32
  0
VERTEX
  8
W75LALIFT
 62
6
 10
2498.186
 20
-8245.937
 30
-2204.851
 70
    32
  0
VERTEX
  8
W75LALIFT
 62
6
 10
2503.084
 20
-8243.375
 30
-2203.559
 70
    32
  0
VERTEX
  8
W75LALIFT
 62
6
 10
2501.740
 20
-8234.998
 30
-2202.303
 70
    32
  0
VERTEX
  8
W75LALIFT
 62
6
 10
2504.220
 20
-8231.404
 30
-2202.394
 70
    32
  0
VERTEX
  8
W75LALIFT
 62
6
 10
2498.345
 20
-8223.259
 30
-2203.077
 70
    32
  0
VERTEX
  8
W75LALIFT
 62
6
 10
2498.691
 20
-8221.352
 30
-2203.135
 70
    32
  0
VERTEX
  8
W75LALIFT
 62
6
 10
2494.436
 20
-8213.056
 30
-2203.443
 70
    32
  0
VERTEX
  8
W75LALIFT
 62
6
 10
2491.948
 20
-8200.510
 30
-2204.391
 70
    32
  0
VERTEX
  8
W75LALIFT
 62
6
 10
2491.800
 20
-8200.057
 30
-2205.143
 70
    32
  0
VERTEX
  8
W75LALIFT
 62
6
 10
2496.446
 20
-8193.973
 30
-2204.461
 70
    32
  0
VERTEX
  8
W75LALIFT
 62
6
 10
2501.864
 20
-8196.238
 30
-2203.968
 70
    32
  0
VERTEX
  8
W75LALIFT
 62
6
 10
2506.486
 20
-8199.548
 30
-2203.947
 70
    32
  0
VERTEX
  8
W75LALIFT
 62
6
 10
2512.637
 20
-8209.861
 30
-2204.343
 70
    32
  0
VERTEX
  8
W75LALIFT
 62
6
 10
2514.019
 20
-8210.738
 30
-2203.761
 70
    32
  0
VERTEX
  8
W75LALIFT
 62
6
 10
2528.955
 20
-8225.976
 30
-2202.971
 70
    32
  0
VERTEX
  8
W75LALIFT
 62
6
 10
2536.345
 20
-8232.291
 30
-2202.645
 70
    32
  0
VERTEX
  8
W75LALIFT
 62
6
 10
2540.145
 20
-8228.510
 30
-2203.203
 70
    32
  0
VERTEX
  8
W75LALIFT
 62
6
 10
2546.896
 20
-8224.069
 30
-2203.378
 70
    32
  0
VERTEX
  8
W75LALIFT
 62
6
 10
2549.352
 20
-8218.976
 30
-2202.684
 70
    32
  0
VERTEX
  8
W75LALIFT
 62
6
 10
2549.344
 20
-8216.695
 30
-2202.588
 70
    32
  0
VERTEX
  8
W75LALIFT
 62
6
 10
2550.593
 20
-8207.469
 30
-2202.993
 70
    32
  0
VERTEX
  8
W75LALIFT
 62
6
 10
2540.895
 20
-8202.920
 30
-2202.639
 70
    32
  0
VERTEX
  8
W75LALIFT
 62
6
 10
2534.211
 20
-8198.038
 30
-2203.106
 70
    32
  0
VERTEX
  8
W75LALIFT
 62
6
 10
2531.267
 20
-8192.109
 30
-2202.425
 70
    32
  0
VERTEX
  8
W75LALIFT
 62
6
 10
2518.736
 20
-8191.533
 30
-2201.637
 70
    32
  0
VERTEX
  8
W75LALIFT
 62
6
 10
2517.301
 20
-8189.337
 30
-2201.927
 70
    32
  0
VERTEX
  8
W75LALIFT
 62
6
 10
2515.714
 20
-8185.257
 30
-2201.535
 70
    32
  0
VERTEX
  8
W75LALIFT
 62
6
 10
2503.500
 20
-8184.055
 30
-2203.260
 70
    32
  0
VERTEX
  8
W75LALIFT
 62
6
 10
2499.124
 20
-8182.141
 30
-2203.254
 70
    32
  0
VERTEX
  8
W75LALIFT
 62
6
 10
2490.583
 20
-8177.103
 30
-2204.034
 70
    32
  0
VERTEX
  8
W75LALIFT
 62
6
 10
2484.107
 20
-8171.352
 30
-2204.717
 70
    32
  0
VERTEX
  8
W75LALIFT
 62
6
 10
2482.627
 20
-8167.046
 30
-2204.521
 70
    32
  0
VERTEX
  8
W75LALIFT
 62
6
 10
2479.227
 20
-8157.363
 30
-2203.492
 70
    32
  0
VERTEX
  8
W75LALIFT
 62
6
 10
2482.316
 20
-8149.798
 30
-2203.606
 70
    32
  0
VERTEX
  8
W75LALIFT
 62
6
 10
2484.632
 20
-8144.655
 30
-2202.677
 70
    32
  0
VERTEX
  8
W75LALIFT
 62
6
 10
2481.203
 20
-8138.124
 30
-2203.394
 70
    32
  0
VERTEX
  8
W75LALIFT
 62
6
 10
2477.940
 20
-8134.339
 30
-2203.343
 70
    32
  0
VERTEX
  8
W75LALIFT
 62
6
 10
2486.790
 20
-8128.365
 30
-2202.585
 70
    32
  0
VERTEX
  8
W75LALIFT
 62
6
 10
2489.122
 20
-8122.613
 30
-2201.345
 70
    32
  0
VERTEX
  8
W75LALIFT
 62
6
 10
2493.261
 20
-8114.778
 30
-2200.157
 70
    32
  0
VERTEX
  8
W75LALIFT
 62
6
 10
2488.856
 20
-8113.487
 30
-2200.793
 70
    32
  0
VERTEX
  8
W75LALIFT
 62
6
 10
2484.537
 20
-8109.675
 30
-2201.193
 70
    32
  0
VERTEX
  8
W75LALIFT
 62
6
 10
2479.110
 20
-8095.000
 30
-2200.306
 70
    32
  0
VERTEX
  8
W75LALIFT
 62
6
 10
2472.991
 20
-8095.192
 30
-2201.487
 70
    32
  0
VERTEX
  8
W75LALIFT
 62
6
 10
2470.708
 20
-8096.509
 30
-2201.895
 70
    32
  0
VERTEX
  8
W75LALIFT
 62
6
 10
2464.406
 20
-8086.411
 30
-2200.954
 70
    32
  0
VERTEX
  8
W75LALIFT
 62
6
 10
2463.489
 20
-8088.228
 30
-2201.633
 70
    32
  0
VERTEX
  8
W75LALIFT
 62
6
 10
2455.778
 20
-8093.251
 30
-2202.151
 70
    32
  0
VERTEX
  8
W75LALIFT
 62
6
 10
2453.931
 20
-8094.953
 30
-2201.493
 70
    32
  0
VERTEX
  8
W75LALIFT
 62
6
 10
2451.644
 20
-8103.677
 30
-2201.053
 70
    32
  0
VERTEX
  8
W75LALIFT
 62
6
 10
2453.895
 20
-8116.454
 30
-2203.669
 70
    32
  0
VERTEX
  8
W75LALIFT
 62
6
 10
2453.986
 20
-8118.992
 30
-2204.272
 70
    32
  0
VERTEX
  8
W75LALIFT
 62
6
 10
2456.285
 20
-8121.753
 30
-2203.984
 70
    32
  0
VERTEX
  8
W75LALIFT
 62
6
 10
2463.289
 20
-8131.811
 30
-2204.045
 70
    32
  0
VERTEX
  8
W75LALIFT
 62
6
 10
2464.907
 20
-8137.664
 30
-2203.766
 70
    32
  0
VERTEX
  8
W75LALIFT
 62
6
 10
2462.443
 20
-8145.467
 30
-2205.912
 70
    32
  0
VERTEX
  8
W75LALIFT
 62
6
 10
2460.467
 20
-8147.977
 30
-2205.190
 70
    32
  0
SEQEND
  8
W75LALIFT
  0
POLYLINE
  8
W75LALIFT
 62
2
 66
     1
 70
     9
  0
VERTEX
  8
W75LALIFT
 62
2
 10
2462.800
 20
-8092.702
 30
-2257.654
 70
    32
  0
VERTEX
  8
W75LALIFT
 62
2
 10
2469.595
 20
-8099.269
 30
-2253.811
 70
    32
  0
VERTEX
  8
W75LALIFT
 62
2
 10
2480.403
 20
-8104.498
 30
-2253.672
 70
    32
  0
VERTEX
  8
W75LALIFT
 62
2
 10
2490.333
 20
-8109.537
 30
-2251.669
 70
    32
  0
VERTEX
  8
W75LALIFT
 62
2
 10
2495.417
 20
-8106.993
 30
-2250.270
 70
    32
  0
VERTEX
  8
W75LALIFT
 62
2
 10
2497.229
 20
-8103.953
 30
-2250.577
 70
    32
  0
VERTEX
  8
W75LALIFT
 62
2
 10
2497.246
 20
-8100.780
 30
-2250.562
 70
    32
  0
VERTEX
  8
W75LALIFT
 62
2
 10
2508.954
 20
-8096.098
 30
-2249.057
 70
    32
  0
VERTEX
  8
W75LALIFT
 62
2
 10
2515.925
 20
-8099.214
 30
-2248.063
 70
    32
  0
VERTEX
  8
W75LALIFT
 62
2
 10
2514.124
 20
-8119.400
 30
-2246.203
 70
    32
  0
VERTEX
  8
W75LALIFT
 62
2
 10
2513.245
 20
-8124.085
 30
-2247.537
 70
    32
  0
VERTEX
  8
W75LALIFT
 62
2
 10
2510.793
 20
-8129.825
 30
-2247.868
 70
    32
  0
VERTEX
  8
W75LALIFT
 62
2
 10
2517.014
 20
-8140.561
 30
-2248.527
 70
    32
  0
VERTEX
  8
W75LALIFT
 62
2
 10
2517.014
 20
-8140.561
 30
-2248.527
 70
    32
  0
VERTEX
  8
W75LALIFT
 62
2
 10
2514.591
 20
-8149.138
 30
-2249.000
 70
    32
  0
VERTEX
  8
W75LALIFT
 62
2
 10
2505.528
 20
-8153.230
 30
-2249.000
 70
    32
  0
VERTEX
  8
W75LALIFT
 62
2
 10
2502.124
 20
-8147.952
 30
-2248.813
 70
    32
  0
VERTEX
  8
W75LALIFT
 62
2
 10
2495.838
 20
-8134.350
 30
-2248.367
 70
    32
  0
VERTEX
  8
W75LALIFT
 62
2
 10
2490.393
 20
-8126.559
 30
-2249.516
 70
    32
  0
VERTEX
  8
W75LALIFT
 62
2
 10
2485.177
 20
-8117.898
 30
-2252.304
 70
    32
  0
VERTEX
  8
W75LALIFT
 62
2
 10
2473.066
 20
-8110.874
 30
-2255.020
 70
    32
  0
VERTEX
  8
W75LALIFT
 62
2
 10
2466.705
 20
-8107.571
 30
-2255.727
 70
    32
  0
VERTEX
  8
W75LALIFT
 62
2
 10
2462.198
 20
-8107.130
 30
-2255.985
 70
    32
  0
VERTEX
  8
W75LALIFT
 62
2
 10
2455.509
 20
-8102.117
 30
-2257.364
 70
    32
  0
VERTEX
  8
W75LALIFT
 62
2
 10
2452.559
 20
-8098.409
 30
-2258.367
 70
    32
  0
SEQEND
  8
W75LALIFT
  0
POLYLINE
  8
W75LALIFT
 62
3
 66
     1
 70
     9
  0
VERTEX
  8
W75LALIFT
 62
3
 10
2487.367
 20
-8174.309
 30
-2215.829
 70
    32
  0
VERTEX
  8
W75LALIFT
 62
3
 10
2494.540
 20
-8179.501
 30
-2217.349
 70
    32
  0
VERTEX
  8
W75LALIFT
 62
3
 10
2520.685
 20
-8191.095
 30
-2223.876
 70
    32
  0
VERTEX
  8
W75LALIFT
 62
3
 10
2529.885
 20
-8195.752
 30
-2224.693
 70
    32
  0
VERTEX
  8
W75LALIFT
 62
3
 10
2560.096
 20
-8211.224
 30
-2224.765
 70
    32
  0
VERTEX
  8
W75LALIFT
 62
3
 10
2555.365
 20
-8222.094
 30
-2224.869
 70
    32
  0
VERTEX
  8
W75LALIFT
 62
3
 10
2545.679
 20
-8221.406
 30
-2225.275
 70
    32
  0
VERTEX
  8
W75LALIFT
 62
3
 10
2540.541
 20
-8226.733
 30
-2224.364
 70
    32
  0
VERTEX
  8
W75LALIFT
 62
3
 10
2523.155
 20
-8211.974
 30
-2224.928
 70
    32
  0
VERTEX
  8
W75LALIFT
 62
3
 10
2501.836
 20
-8196.545
 30
-2220.566
 70
    32
  0
VERTEX
  8
W75LALIFT
 62
3
 10
2496.343
 20
-8194.983
 30
-2219.465
 70
    32
  0
VERTEX
  8
W75LALIFT
 62
3
 10
2484.543
 20
-8189.441
 30
-2216.916
 70
    32
  0
SEQEND
  8
W75LALIFT
  0
ENDSEC
  0
EOF
