999
********************************
999
*   DXF File - Entities Only   *
999
*        3D Data Format        *
999
*     Output from ENVISAGE     *
999
*     02-Jan-2008 11:35:23     *
999
********************************
  0
SECTION 
  2
HEADER
  9
$ACADVER
  1
AC1009
  9
$EXTMIN
 10
-290000.000
 20
-250000.000
 30
-4000.000
  9
$EXTMAX
 10
320000.000
 20
160000.000
 30
6000.000
  0
ENDSEC
  0
SECTION
  2
ENTITIES
  0
POLYLINE
  8
W75LPLIFT
 62
6
 66
     1
 70
     9
  0
VERTEX
  8
W75LPLIFT
 62
6
 10
2326.238
 20
-7835.550
 30
-2216.699
 70
    32
  0
VERTEX
  8
W75LPLIFT
 62
6
 10
2325.368
 20
-7830.581
 30
-2217.509
 70
    32
  0
VERTEX
  8
W75LPLIFT
 62
6
 10
2323.707
 20
-7821.106
 30
-2219.666
 70
    32
  0
VERTEX
  8
W75LPLIFT
 62
6
 10
2321.611
 20
-7815.934
 30
-2219.603
 70
    32
  0
VERTEX
  8
W75LPLIFT
 62
6
 10
2315.143
 20
-7808.898
 30
-2219.527
 70
    32
  0
VERTEX
  8
W75LPLIFT
 62
6
 10
2311.686
 20
-7805.139
 30
-2219.328
 70
    32
  0
VERTEX
  8
W75LPLIFT
 62
6
 10
2316.922
 20
-7793.760
 30
-2218.600
 70
    32
  0
VERTEX
  8
W75LPLIFT
 62
6
 10
2312.525
 20
-7781.894
 30
-2218.400
 70
    32
  0
VERTEX
  8
W75LPLIFT
 62
6
 10
2309.841
 20
-7774.653
 30
-2218.400
 70
    32
  0
VERTEX
  8
W75LPLIFT
 62
6
 10
2311.073
 20
-7771.713
 30
-2218.400
 70
    32
  0
VERTEX
  8
W75LPLIFT
 62
6
 10
2305.663
 20
-7754.452
 30
-2218.400
 70
    32
  0
VERTEX
  8
W75LPLIFT
 62
6
 10
2295.058
 20
-7715.967
 30
-2218.400
 70
    32
  0
VERTEX
  8
W75LPLIFT
 62
6
 10
2309.510
 20
-7711.931
 30
-2218.400
 70
    32
  0
VERTEX
  8
W75LPLIFT
 62
6
 10
2319.221
 20
-7750.250
 30
-2218.400
 70
    32
  0
VERTEX
  8
W75LPLIFT
 62
6
 10
2322.769
 20
-7758.579
 30
-2218.400
 70
    32
  0
VERTEX
  8
W75LPLIFT
 62
6
 10
2327.081
 20
-7768.702
 30
-2218.400
 70
    32
  0
VERTEX
  8
W75LPLIFT
 62
6
 10
2329.653
 20
-7774.480
 30
-2218.400
 70
    32
  0
VERTEX
  8
W75LPLIFT
 62
6
 10
2332.682
 20
-7786.738
 30
-2218.400
 70
    32
  0
VERTEX
  8
W75LPLIFT
 62
6
 10
2333.580
 20
-7790.373
 30
-2218.684
 70
    32
  0
VERTEX
  8
W75LPLIFT
 62
6
 10
2334.372
 20
-7793.579
 30
-2218.915
 70
    32
  0
VERTEX
  8
W75LPLIFT
 62
6
 10
2335.782
 20
-7799.283
 30
-2219.325
 70
    32
  0
VERTEX
  8
W75LPLIFT
 62
6
 10
2339.216
 20
-7802.209
 30
-2219.578
 70
    32
  0
VERTEX
  8
W75LPLIFT
 62
6
 10
2341.538
 20
-7804.187
 30
-2219.576
 70
    32
  0
VERTEX
  8
W75LPLIFT
 62
6
 10
2341.527
 20
-7804.246
 30
-2219.576
 70
    32
  0
VERTEX
  8
W75LPLIFT
 62
6
 10
2339.547
 20
-7814.694
 30
-2219.543
 70
    32
  0
VERTEX
  8
W75LPLIFT
 62
6
 10
2338.887
 20
-7818.175
 30
-2219.590
 70
    32
  0
VERTEX
  8
W75LPLIFT
 62
6
 10
2340.213
 20
-7820.291
 30
-2219.074
 70
    32
  0
VERTEX
  8
W75LPLIFT
 62
6
 10
2344.773
 20
-7827.572
 30
-2217.465
 70
    32
  0
VERTEX
  8
W75LPLIFT
 62
6
 10
2346.549
 20
-7830.407
 30
-2216.997
 70
    32
  0
VERTEX
  8
W75LPLIFT
 62
6
 10
2346.232
 20
-7837.429
 30
-2216.289
 70
    32
  0
VERTEX
  8
W75LPLIFT
 62
6
 10
2350.561
 20
-7847.534
 30
-2216.000
 70
    32
  0
VERTEX
  8
W75LPLIFT
 62
6
 10
2340.989
 20
-7856.074
 30
-2218.000
 70
    32
  0
VERTEX
  8
W75LPLIFT
 62
6
 10
2335.346
 20
-7861.320
 30
-2221.000
 70
    32
  0
VERTEX
  8
W75LPLIFT
 62
6
 10
2326.238
 20
-7835.550
 30
-2218.145
 70
    32
  0
VERTEX
  8
W75LPLIFT
 62
6
 10
2326.238
 20
-7835.550
 30
-2216.699
 70
    32
  0
SEQEND
  8
W75LPLIFT
  0
TEXT
  8
W75LPLIFT
 62
6
 10
2455.188
 20
-8190.053
 30
-2160.837
 40
1.969
  1
-2160.837
 50
34.300
 41
 1.0 
  0
TEXT
  8
W75LPLIFT
 62
6
 10
2457.083
 20
-8185.185
 30
-2160.837
 40
1.969
  1
ST-109T
 50
34.300
 41
 1.0 
  0
TEXT
  8
W75LPLIFT
 62
6
 10
2449.474
 20
-8175.746
 30
-2159.921
 40
1.969
  1
ST-109S
 50
34.300
 41
 1.0 
  0
TEXT
  8
W75LPLIFT
 62
6
 10
2445.016
 20
-8175.060
 30
-2159.921
 40
1.969
  1
-2159.921
 50
34.300
 41
 1.0 
  0
POINT
  8
W75LPLIFT
 62
6
 10
2463.634
 20
-8165.995
 30
-2159.921
  0
POLYLINE
  8
W75LPLIFT
 62
6
 66
     1
 70
     9
  0
VERTEX
  8
W75LPLIFT
 62
6
 10
2463.634
 20
-8163.785
 30
-2159.921
 70
    32
  0
VERTEX
  8
W75LPLIFT
 62
6
 10
2465.383
 20
-8166.965
 30
-2159.921
 70
    32
  0
VERTEX
  8
W75LPLIFT
 62
6
 10
2461.884
 20
-8166.963
 30
-2159.921
 70
    32
  0
SEQEND
  8
W75LPLIFT
  0
POINT
  8
W75LPLIFT
 62
6
 10
2470.499
 20
-8175.244
 30
-2160.837
  0
POLYLINE
  8
W75LPLIFT
 62
6
 66
     1
 70
     9
  0
VERTEX
  8
W75LPLIFT
 62
6
 10
2470.499
 20
-8173.034
 30
-2160.837
 70
    32
  0
VERTEX
  8
W75LPLIFT
 62
6
 10
2472.248
 20
-8176.214
 30
-2160.837
 70
    32
  0
VERTEX
  8
W75LPLIFT
 62
6
 10
2468.749
 20
-8176.212
 30
-2160.837
 70
    32
  0
SEQEND
  8
W75LPLIFT
  0
TEXT
  8
W75LPLIFT
 62
6
 10
2476.827
 20
-8186.585
 30
-2160.553
 40
1.969
  1
BK -2160.553
 50
34.300
 41
 1.0 
  0
TEXT
  8
W75LPLIFT
 62
6
 10
2508.695
 20
-8248.434
 30
-2168.173
 40
1.969
  1
ST-180S
 50
-13.000
 41
 1.0 
  0
TEXT
  8
W75LPLIFT
 62
6
 10
2505.625
 20
-8244.339
 30
-2168.173
 40
1.969
  1
-2168.173
 50
-13.000
 41
 1.0 
  0
TEXT
  8
W75LPLIFT
 62
6
 10
2501.425
 20
-8265.978
 30
-2170.282
 40
1.969
  1
-2170.282
 50
-13.000
 41
 1.0 
  0
TEXT
  8
W75LPLIFT
 62
6
 10
2506.020
 20
-8263.471
 30
-2170.282
 40
1.969
  1
ST-180T
 50
-13.000
 41
 1.0 
  0
POINT
  8
W75LPLIFT
 62
6
 10
2523.112
 20
-8266.378
 30
-2170.282
  0
POLYLINE
  8
W75LPLIFT
 62
6
 66
     1
 70
     9
  0
VERTEX
  8
W75LPLIFT
 62
6
 10
2523.112
 20
-8264.168
 30
-2170.282
 70
    32
  0
VERTEX
  8
W75LPLIFT
 62
6
 10
2524.861
 20
-8267.348
 30
-2170.282
 70
    32
  0
VERTEX
  8
W75LPLIFT
 62
6
 10
2521.362
 20
-8267.346
 30
-2170.282
 70
    32
  0
SEQEND
  8
W75LPLIFT
  0
POLYLINE
  8
W75LPLIFT
 62
6
 66
     1
 70
     9
  0
VERTEX
  8
W75LPLIFT
 62
6
 10
2525.144
 20
-8247.864
 30
-2168.173
 70
    32
  0
VERTEX
  8
W75LPLIFT
 62
6
 10
2526.893
 20
-8251.044
 30
-2168.173
 70
    32
  0
VERTEX
  8
W75LPLIFT
 62
6
 10
2523.394
 20
-8251.042
 30
-2168.173
 70
    32
  0
SEQEND
  8
W75LPLIFT
  0
POINT
  8
W75LPLIFT
 62
6
 10
2525.144
 20
-8250.074
 30
-2168.173
  0
TEXT
  8
W75LPLIFT
 62
6
 10
2519.109
 20
-8282.545
 30
-2173.219
 40
1.969
  1
BK -2173.219
 50
-13.000
 41
 1.0 
  0
TEXT
  8
W75LPLIFT
 62
6
 10
2455.139
 20
-8156.459
 30
-2158.515
 40
1.969
  1
-2158.515
 50
48.610
 41
 1.0 
  0
TEXT
  8
W75LPLIFT
 62
6
 10
2455.401
 20
-8151.346
 30
-2158.515
 40
1.969
  1
ST-175S
 50
48.610
 41
 1.0 
  0
POINT
  8
W75LPLIFT
 62
6
 10
2465.938
 20
-8137.582
 30
-2158.515
  0
POLYLINE
  8
W75LPLIFT
 62
6
 66
     1
 70
     9
  0
VERTEX
  8
W75LPLIFT
 62
6
 10
2465.938
 20
-8135.372
 30
-2158.515
 70
    32
  0
VERTEX
  8
W75LPLIFT
 62
6
 10
2467.687
 20
-8138.552
 30
-2158.515
 70
    32
  0
VERTEX
  8
W75LPLIFT
 62
6
 10
2464.188
 20
-8138.550
 30
-2158.515
 70
    32
  0
SEQEND
  8
W75LPLIFT
  0
TEXT
  8
W75LPLIFT
 62
6
 10
2471.862
 20
-8134.382
 30
-2158.403
 40
1.969
  1
BK -2158.403
 50
34.300
 41
 1.0 
  0
TEXT
  8
W75LPLIFT
 62
6
 10
2440.786
 20
-8144.454
 30
-2161.138
 40
1.969
  1
-2161.138
 50
48.610
 41
 1.0 
  0
POINT
  8
W75LPLIFT
 62
6
 10
2456.070
 20
-8129.950
 30
-2161.138
  0
POLYLINE
  8
W75LPLIFT
 62
6
 66
     1
 70
     9
  0
VERTEX
  8
W75LPLIFT
 62
6
 10
2456.070
 20
-8127.740
 30
-2161.138
 70
    32
  0
VERTEX
  8
W75LPLIFT
 62
6
 10
2457.819
 20
-8130.920
 30
-2161.138
 70
    32
  0
VERTEX
  8
W75LPLIFT
 62
6
 10
2454.320
 20
-8130.918
 30
-2161.138
 70
    32
  0
SEQEND
  8
W75LPLIFT
  0
TEXT
  8
W75LPLIFT
 62
6
 10
2446.135
 20
-8143.598
 30
-2161.138
 40
1.969
  1
ST-175T
 50
48.610
 41
 1.0 
  0
TEXT
  8
W75LPLIFT
 62
6
 10
2444.039
 20
-8113.758
 30
-2160.993
 40
1.969
  1
BK -2160.993
 50
38.895
 41
 1.0 
  0
POLYLINE
  8
W75LPLIFT
 62
6
 66
     1
 70
     9
  0
VERTEX
  8
W75LPLIFT
 62
6
 10
2446.896
 20
-8177.927
 30
-2159.947
 70
    32
  0
VERTEX
  8
W75LPLIFT
 62
6
 10
2458.421
 20
-8180.786
 30
-2160.170
 70
    32
  0
VERTEX
  8
W75LPLIFT
 62
6
 10
2468.830
 20
-8186.701
 30
-2160.444
 70
    32
  0
VERTEX
  8
W75LPLIFT
 62
6
 10
2468.932
 20
-8186.647
 30
-2160.636
 70
    32
  0
VERTEX
  8
W75LPLIFT
 62
6
 10
2473.610
 20
-8192.191
 30
-2160.531
 70
    32
  0
VERTEX
  8
W75LPLIFT
 62
6
 10
2480.456
 20
-8203.703
 30
-2160.375
 70
    32
  0
VERTEX
  8
W75LPLIFT
 62
6
 10
2485.252
 20
-8205.320
 30
-2160.322
 70
    32
  0
VERTEX
  8
W75LPLIFT
 62
6
 10
2497.338
 20
-8222.631
 30
-2161.919
 70
    32
  0
VERTEX
  8
W75LPLIFT
 62
6
 10
2505.470
 20
-8236.098
 30
-2163.743
 70
    32
  0
VERTEX
  8
W75LPLIFT
 62
6
 10
2508.863
 20
-8238.556
 30
-2164.378
 70
    32
  0
VERTEX
  8
W75LPLIFT
 62
6
 10
2512.603
 20
-8243.662
 30
-2166.086
 70
    32
  0
VERTEX
  8
W75LPLIFT
 62
6
 10
2514.174
 20
-8246.841
 30
-2167.935
 70
    32
  0
VERTEX
  8
W75LPLIFT
 62
6
 10
2516.267
 20
-8257.595
 30
-2169.272
 70
    32
  0
VERTEX
  8
W75LPLIFT
 62
6
 10
2512.361
 20
-8260.496
 30
-2169.703
 70
    32
  0
VERTEX
  8
W75LPLIFT
 62
6
 10
2516.893
 20
-8273.337
 30
-2171.737
 70
    32
  0
VERTEX
  8
W75LPLIFT
 62
6
 10
2513.982
 20
-8286.858
 30
-2174.175
 70
    32
  0
VERTEX
  8
W75LPLIFT
 62
6
 10
2512.007
 20
-8297.080
 30
-2175.561
 70
    32
  0
VERTEX
  8
W75LPLIFT
 62
6
 10
2508.038
 20
-8340.368
 30
-2182.294
 70
    32
  0
VERTEX
  8
W75LPLIFT
 62
6
 10
2519.722
 20
-8341.650
 30
-2182.329
 70
    32
  0
VERTEX
  8
W75LPLIFT
 62
6
 10
2522.290
 20
-8300.341
 30
-2175.920
 70
    32
  0
VERTEX
  8
W75LPLIFT
 62
6
 10
2524.053
 20
-8290.639
 30
-2174.395
 70
    32
  0
VERTEX
  8
W75LPLIFT
 62
6
 10
2525.769
 20
-8280.421
 30
-2172.573
 70
    32
  0
VERTEX
  8
W75LPLIFT
 62
6
 10
2527.702
 20
-8274.371
 30
-2171.456
 70
    32
  0
VERTEX
  8
W75LPLIFT
 62
6
 10
2529.099
 20
-8272.271
 30
-2171.037
 70
    32
  0
VERTEX
  8
W75LPLIFT
 62
6
 10
2539.986
 20
-8272.526
 30
-2170.619
 70
    32
  0
VERTEX
  8
W75LPLIFT
 62
6
 10
2549.016
 20
-8263.803
 30
-2169.543
 70
    32
  0
VERTEX
  8
W75LPLIFT
 62
6
 10
2544.830
 20
-8254.407
 30
-2168.412
 70
    32
  0
VERTEX
  8
W75LPLIFT
 62
6
 10
2534.995
 20
-8245.406
 30
-2167.197
 70
    32
  0
VERTEX
  8
W75LPLIFT
 62
6
 10
2532.571
 20
-8241.811
 30
-2166.724
 70
    32
  0
VERTEX
  8
W75LPLIFT
 62
6
 10
2530.989
 20
-8235.455
 30
-2165.814
 70
    32
  0
VERTEX
  8
W75LPLIFT
 62
6
 10
2519.425
 20
-8223.323
 30
-2163.846
 70
    32
  0
VERTEX
  8
W75LPLIFT
 62
6
 10
2510.837
 20
-8220.069
 30
-2162.563
 70
    32
  0
VERTEX
  8
W75LPLIFT
 62
6
 10
2497.548
 20
-8199.423
 30
-2160.408
 70
    32
  0
VERTEX
  8
W75LPLIFT
 62
6
 10
2496.094
 20
-8192.642
 30
-2160.342
 70
    32
  0
VERTEX
  8
W75LPLIFT
 62
6
 10
2490.354
 20
-8189.450
 30
-2160.417
 70
    32
  0
VERTEX
  8
W75LPLIFT
 62
6
 10
2476.327
 20
-8176.583
 30
-2160.749
 70
    32
  0
VERTEX
  8
W75LPLIFT
 62
6
 10
2475.861
 20
-8175.644
 30
-2160.301
 70
    32
  0
VERTEX
  8
W75LPLIFT
 62
6
 10
2482.118
 20
-8168.335
 30
-2159.810
 70
    32
  0
VERTEX
  8
W75LPLIFT
 62
6
 10
2482.479
 20
-8156.960
 30
-2159.294
 70
    32
  0
VERTEX
  8
W75LPLIFT
 62
6
 10
2480.276
 20
-8153.036
 30
-2159.143
 70
    32
  0
VERTEX
  8
W75LPLIFT
 62
6
 10
2481.684
 20
-8145.930
 30
-2158.807
 70
    32
  0
VERTEX
  8
W75LPLIFT
 62
6
 10
2478.512
 20
-8140.723
 30
-2158.610
 70
    32
  0
VERTEX
  8
W75LPLIFT
 62
6
 10
2479.511
 20
-8133.046
 30
-2158.253
 70
    32
  0
VERTEX
  8
W75LPLIFT
 62
6
 10
2473.725
 20
-8130.445
 30
-2158.204
 70
    32
  0
VERTEX
  8
W75LPLIFT
 62
6
 10
2471.812
 20
-8130.672
 30
-2158.623
 70
    32
  0
VERTEX
  8
W75LPLIFT
 62
6
 10
2465.652
 20
-8129.402
 30
-2159.615
 70
    32
  0
VERTEX
  8
W75LPLIFT
 62
6
 10
2461.977
 20
-8126.484
 30
-2161.143
 70
    32
  0
VERTEX
  8
W75LPLIFT
 62
6
 10
2456.412
 20
-8116.835
 30
-2161.064
 70
    32
  0
VERTEX
  8
W75LPLIFT
 62
6
 10
2441.183
 20
-8100.365
 30
-2160.993
 70
    32
  0
VERTEX
  8
W75LPLIFT
 62
6
 10
2433.858
 20
-8104.103
 30
-2160.993
 70
    32
  0
VERTEX
  8
W75LPLIFT
 62
6
 10
2426.567
 20
-8099.946
 30
-2160.993
 70
    32
  0
VERTEX
  8
W75LPLIFT
 62
6
 10
2420.015
 20
-8107.064
 30
-2160.993
 70
    32
  0
VERTEX
  8
W75LPLIFT
 62
6
 10
2436.255
 20
-8120.046
 30
-2160.993
 70
    32
  0
VERTEX
  8
W75LPLIFT
 62
6
 10
2440.371
 20
-8125.756
 30
-2161.046
 70
    32
  0
VERTEX
  8
W75LPLIFT
 62
6
 10
2448.742
 20
-8133.184
 30
-2161.125
 70
    32
  0
VERTEX
  8
W75LPLIFT
 62
6
 10
2459.640
 20
-8143.690
 30
-2158.777
 70
    32
  0
VERTEX
  8
W75LPLIFT
 62
6
 10
2459.539
 20
-8146.414
 30
-2158.443
 70
    32
  0
VERTEX
  8
W75LPLIFT
 62
6
 10
2458.377
 20
-8160.554
 30
-2159.738
 70
    32
  0
VERTEX
  8
W75LPLIFT
 62
6
 10
2444.781
 20
-8166.414
 30
-2160.161
 70
    32
  0
SEQEND
  8
W75LPLIFT
  0
POLYLINE
  8
W75LPLIFT
 62
13
 66
     1
 70
     9
  0
VERTEX
  8
W75LPLIFT
 62
13
 10
1985.648
 20
-7041.302
 30
-2201.164
 70
    32
  0
VERTEX
  8
W75LPLIFT
 62
13
 10
1975.452
 20
-7034.530
 30
-2200.499
 70
    32
  0
VERTEX
  8
W75LPLIFT
 62
13
 10
1969.128
 20
-7025.127
 30
-2201.458
 70
    32
  0
VERTEX
  8
W75LPLIFT
 62
13
 10
1958.209
 20
-7019.691
 30
-2202.256
 70
    32
  0
VERTEX
  8
W75LPLIFT
 62
13
 10
1929.127
 20
-7009.532
 30
-2201.179
 70
    32
  0
VERTEX
  8
W75LPLIFT
 62
13
 10
1924.339
 20
-7005.916
 30
-2201.082
 70
    32
  0
VERTEX
  8
W75LPLIFT
 62
13
 10
1927.582
 20
-6993.327
 30
-2201.002
 70
    32
  0
VERTEX
  8
W75LPLIFT
 62
13
 10
1936.613
 20
-6983.807
 30
-2201.901
 70
    32
  0
VERTEX
  8
W75LPLIFT
 62
13
 10
1942.288
 20
-6982.482
 30
-2201.095
 70
    32
  0
VERTEX
  8
W75LPLIFT
 62
13
 10
1949.340
 20
-6989.903
 30
-2201.330
 70
    32
  0
VERTEX
  8
W75LPLIFT
 62
13
 10
1953.403
 20
-6991.425
 30
-2200.932
 70
    32
  0
VERTEX
  8
W75LPLIFT
 62
13
 10
1959.119
 20
-6998.548
 30
-2201.122
 70
    32
  0
VERTEX
  8
W75LPLIFT
 62
13
 10
1978.572
 20
-7016.648
 30
-2201.500
 70
    32
  0
VERTEX
  8
W75LPLIFT
 62
13
 10
1987.777
 20
-7023.779
 30
-2200.850
 70
    32
  0
VERTEX
  8
W75LPLIFT
 62
13
 10
1990.556
 20
-7029.334
 30
-2201.949
 70
    32
  0
VERTEX
  8
W75LPLIFT
 62
13
 10
1994.566
 20
-7033.842
 30
-2202.347
 70
    32
  0
SEQEND
  8
W75LPLIFT
  0
POLYLINE
  8
W75LPLIFT
 62
4
 66
     1
 70
     9
  0
VERTEX
  8
W75LPLIFT
 62
4
 10
2404.595
 20
-8177.027
 30
-2153.641
 70
    32
  0
VERTEX
  8
W75LPLIFT
 62
4
 10
2427.005
 20
-8171.578
 30
-2150.811
 70
    32
  0
VERTEX
  8
W75LPLIFT
 62
4
 10
2435.147
 20
-8168.415
 30
-2147.476
 70
    32
  0
VERTEX
  8
W75LPLIFT
 62
4
 10
2427.733
 20
-8151.458
 30
-2149.443
 70
    32
  0
VERTEX
  8
W75LPLIFT
 62
4
 10
2423.932
 20
-8144.040
 30
-2149.444
 70
    32
  0
VERTEX
  8
W75LPLIFT
 62
4
 10
2427.369
 20
-8139.122
 30
-2149.336
 70
    32
  0
VERTEX
  8
W75LPLIFT
 62
4
 10
2434.404
 20
-8139.681
 30
-2149.275
 70
    32
  0
VERTEX
  8
W75LPLIFT
 62
4
 10
2441.029
 20
-8150.344
 30
-2148.702
 70
    32
  0
VERTEX
  8
W75LPLIFT
 62
4
 10
2446.283
 20
-8158.712
 30
-2147.130
 70
    32
  0
VERTEX
  8
W75LPLIFT
 62
4
 10
2449.333
 20
-8159.127
 30
-2146.701
 70
    32
  0
VERTEX
  8
W75LPLIFT
 62
4
 10
2451.362
 20
-8157.958
 30
-2146.376
 70
    32
  0
VERTEX
  8
W75LPLIFT
 62
4
 10
2454.436
 20
-8153.793
 30
-2146.550
 70
    32
  0
VERTEX
  8
W75LPLIFT
 62
4
 10
2453.742
 20
-8148.623
 30
-2146.251
 70
    32
  0
VERTEX
  8
W75LPLIFT
 62
4
 10
2457.994
 20
-8143.652
 30
-2146.222
 70
    32
  0
VERTEX
  8
W75LPLIFT
 62
4
 10
2458.891
 20
-8142.369
 30
-2146.102
 70
    32
  0
VERTEX
  8
W75LPLIFT
 62
4
 10
2468.518
 20
-8138.799
 30
-2145.648
 70
    32
  0
VERTEX
  8
W75LPLIFT
 62
4
 10
2476.383
 20
-8148.152
 30
-2146.154
 70
    32
  0
VERTEX
  8
W75LPLIFT
 62
4
 10
2472.337
 20
-8155.490
 30
-2146.330
 70
    32
  0
VERTEX
  8
W75LPLIFT
 62
4
 10
2472.880
 20
-8174.546
 30
-2147.221
 70
    32
  0
VERTEX
  8
W75LPLIFT
 62
4
 10
2474.814
 20
-8178.892
 30
-2147.371
 70
    32
  0
VERTEX
  8
W75LPLIFT
 62
4
 10
2481.784
 20
-8183.873
 30
-2147.402
 70
    32
  0
VERTEX
  8
W75LPLIFT
 62
4
 10
2485.037
 20
-8184.035
 30
-2147.314
 70
    32
  0
VERTEX
  8
W75LPLIFT
 62
4
 10
2490.301
 20
-8190.905
 30
-2146.485
 70
    32
  0
VERTEX
  8
W75LPLIFT
 62
4
 10
2495.262
 20
-8199.816
 30
-2145.107
 70
    32
  0
VERTEX
  8
W75LPLIFT
 62
4
 10
2507.828
 20
-8215.578
 30
-2146.590
 70
    32
  0
VERTEX
  8
W75LPLIFT
 62
4
 10
2529.956
 20
-8251.032
 30
-2144.918
 70
    32
  0
VERTEX
  8
W75LPLIFT
 62
4
 10
2528.995
 20
-8256.185
 30
-2145.208
 70
    32
  0
VERTEX
  8
W75LPLIFT
 62
4
 10
2531.529
 20
-8262.261
 30
-2145.661
 70
    32
  0
VERTEX
  8
W75LPLIFT
 62
4
 10
2527.580
 20
-8270.105
 30
-2145.974
 70
    32
  0
VERTEX
  8
W75LPLIFT
 62
4
 10
2523.005
 20
-8279.453
 30
-2145.988
 70
    32
  0
VERTEX
  8
W75LPLIFT
 62
4
 10
2521.853
 20
-8286.845
 30
-2145.997
 70
    32
  0
VERTEX
  8
W75LPLIFT
 62
4
 10
2523.164
 20
-8293.998
 30
-2146.005
 70
    32
  0
VERTEX
  8
W75LPLIFT
 62
4
 10
2518.235
 20
-8296.439
 30
-2146.011
 70
    32
  0
VERTEX
  8
W75LPLIFT
 62
4
 10
2513.315
 20
-8296.644
 30
-2146.014
 70
    32
  0
VERTEX
  8
W75LPLIFT
 62
4
 10
2512.621
 20
-8272.242
 30
-2145.984
 70
    32
  0
VERTEX
  8
W75LPLIFT
 62
4
 10
2509.985
 20
-8262.944
 30
-2145.047
 70
    32
  0
VERTEX
  8
W75LPLIFT
 62
4
 10
2498.763
 20
-8261.174
 30
-2144.595
 70
    32
  0
VERTEX
  8
W75LPLIFT
 62
4
 10
2491.435
 20
-8239.445
 30
-2146.383
 70
    32
  0
VERTEX
  8
W75LPLIFT
 62
4
 10
2479.136
 20
-8211.725
 30
-2145.164
 70
    32
  0
VERTEX
  8
W75LPLIFT
 62
4
 10
2474.557
 20
-8203.064
 30
-2146.064
 70
    32
  0
VERTEX
  8
W75LPLIFT
 62
4
 10
2460.470
 20
-8184.389
 30
-2147.254
 70
    32
  0
VERTEX
  8
W75LPLIFT
 62
4
 10
2457.527
 20
-8182.028
 30
-2147.144
 70
    32
  0
VERTEX
  8
W75LPLIFT
 62
4
 10
2445.822
 20
-8178.800
 30
-2146.665
 70
    32
  0
VERTEX
  8
W75LPLIFT
 62
4
 10
2428.613
 20
-8182.010
 30
-2150.926
 70
    32
  0
VERTEX
  8
W75LPLIFT
 62
4
 10
2408.132
 20
-8188.120
 30
-2153.928
 70
    32
  0
SEQEND
  8
W75LPLIFT
  0
TEXT
  8
W75LPLIFT
 62
4
 10
2516.665
 20
-8286.015
 30
-2145.999
 40
1.969
  1
BK -2145.999
 50
26.637
 41
 1.0 
  0
TEXT
  8
W75LPLIFT
 62
4
 10
2523.061
 20
-8271.558
 30
-2145.978
 40
1.969
  1
BK -2145.978
 50
25.000
 41
 1.0 
  0
TEXT
  8
W75LPLIFT
 62
4
 10
2512.892
 20
-8250.910
 30
-2144.391
 40
1.969
  1
BK -2144.391
 50
25.000
 41
 1.0 
  0
TEXT
  8
W75LPLIFT
 62
4
 10
2498.982
 20
-8227.267
 30
-2147.023
 40
1.969
  1
BK -2147.023
 50
25.000
 41
 1.0 
  0
TEXT
  8
W75LPLIFT
 62
4
 10
2486.422
 20
-8205.484
 30
-2145.115
 40
1.969
  1
BK -2145.115
 50
25.650
 41
 1.0 
  0
TEXT
  8
W75LPLIFT
 62
4
 10
2445.871
 20
-8168.891
 30
-2146.610
 40
1.969
  1
BK -2146.61
 50
25.650
 41
 1.0 
  0
TEXT
  8
W75LPLIFT
 62
4
 10
2429.207
 20
-8145.572
 30
-2149.724
 40
1.969
  1
BK -2149.724
 50
25.000
 41
 1.0 
  0
TEXT
  8
W75LPLIFT
 62
4
 10
2463.668
 20
-8144.284
 30
-2146.052
 40
1.969
  1
BK -2146.052
 50
25.650
 41
 1.0 
  0
TEXT
  8
W75LPLIFT
 62
4
 10
2407.403
 20
-8181.611
 30
-2153.641
 40
1.969
  1
BK -2153.641
 50
25.650
 41
 1.0 
  0
POLYLINE
  8
W75LPLIFT
 62
8
 66
     1
 70
     8
  0
VERTEX
  8
W75LPLIFT
 62
8
 10
2483.743
 20
-8116.636
 30
-2260.902
 70
    32
  0
VERTEX
  8
W75LPLIFT
 62
8
 10
2493.961
 20
-8125.424
 30
-2262.877
 70
    32
  0
VERTEX
  8
W75LPLIFT
 62
8
 10
2497.421
 20
-8130.041
 30
-2264.295
 70
    32
  0
VERTEX
  8
W75LPLIFT
 62
8
 10
2497.538
 20
-8135.040
 30
-2265.068
 70
    32
  0
VERTEX
  8
W75LPLIFT
 62
8
 10
2497.135
 20
-8139.871
 30
-2265.054
 70
    32
  0
VERTEX
  8
W75LPLIFT
 62
8
 10
2512.231
 20
-8144.361
 30
-2265.136
 70
    32
  0
VERTEX
  8
W75LPLIFT
 62
8
 10
2511.955
 20
-8136.391
 30
-2265.124
 70
    32
  0
VERTEX
  8
W75LPLIFT
 62
8
 10
2515.460
 20
-8138.092
 30
-2264.779
 70
    32
  0
VERTEX
  8
W75LPLIFT
 62
8
 10
2522.834
 20
-8142.831
 30
-2265.860
 70
    32
  0
VERTEX
  8
W75LPLIFT
 62
8
 10
2530.980
 20
-8159.189
 30
-2265.823
 70
    32
  0
VERTEX
  8
W75LPLIFT
 62
8
 10
2533.059
 20
-8168.682
 30
-2265.669
 70
    32
  0
VERTEX
  8
W75LPLIFT
 62
8
 10
2537.511
 20
-8168.358
 30
-2265.638
 70
    32
  0
VERTEX
  8
W75LPLIFT
 62
8
 10
2543.719
 20
-8165.713
 30
-2264.639
 70
    32
  0
VERTEX
  8
W75LPLIFT
 62
8
 10
2543.470
 20
-8162.168
 30
-2264.565
 70
    32
  0
VERTEX
  8
W75LPLIFT
 62
8
 10
2538.691
 20
-8143.743
 30
-2264.422
 70
    32
  0
VERTEX
  8
W75LPLIFT
 62
8
 10
2533.396
 20
-8137.441
 30
-2265.762
 70
    32
  0
VERTEX
  8
W75LPLIFT
 62
8
 10
2523.671
 20
-8127.857
 30
-2264.777
 70
    32
  0
VERTEX
  8
W75LPLIFT
 62
8
 10
2524.483
 20
-8121.485
 30
-2265.372
 70
    32
  0
VERTEX
  8
W75LPLIFT
 62
8
 10
2521.624
 20
-8112.585
 30
-2264.620
 70
    32
  0
VERTEX
  8
W75LPLIFT
 62
8
 10
2524.539
 20
-8104.667
 30
-2263.480
 70
    32
  0
VERTEX
  8
W75LPLIFT
 62
8
 10
2521.391
 20
-8098.428
 30
-2262.644
 70
    32
  0
VERTEX
  8
W75LPLIFT
 62
8
 10
2516.272
 20
-8094.381
 30
-2262.870
 70
    32
  0
VERTEX
  8
W75LPLIFT
 62
8
 10
2511.914
 20
-8086.752
 30
-2263.832
 70
    32
  0
VERTEX
  8
W75LPLIFT
 62
8
 10
2506.869
 20
-8085.289
 30
-2262.661
 70
    32
  0
VERTEX
  8
W75LPLIFT
 62
8
 10
2499.474
 20
-8089.224
 30
-2263.113
 70
    32
  0
VERTEX
  8
W75LPLIFT
 62
8
 10
2504.732
 20
-8104.850
 30
-2263.776
 70
    32
  0
VERTEX
  8
W75LPLIFT
 62
8
 10
2488.544
 20
-8107.232
 30
-2262.177
 70
    32
  0
SEQEND
  8
W75LPLIFT
  0
POINT
  8
W75LPLIFT
 62
8
 10
2510.071
 20
-8121.877
 30
-2264.776
  0
POLYLINE
  8
W75LPLIFT
 62
8
 66
     1
 70
     9
  0
VERTEX
  8
W75LPLIFT
 62
8
 10
2510.071
 20
-8119.724
 30
-2264.776
 70
    32
  0
VERTEX
  8
W75LPLIFT
 62
8
 10
2508.071
 20
-8123.191
 30
-2264.776
 70
    32
  0
VERTEX
  8
W75LPLIFT
 62
8
 10
2512.071
 20
-8123.191
 30
-2264.776
 70
    32
  0
SEQEND
  8
W75LPLIFT
  0
POINT
  8
W75LPLIFT
 62
8
 10
2509.867
 20
-8132.140
 30
-2265.660
  0
POLYLINE
  8
W75LPLIFT
 62
8
 66
     1
 70
     9
  0
VERTEX
  8
W75LPLIFT
 62
8
 10
2509.727
 20
-8129.708
 30
-2265.660
 70
    32
  0
VERTEX
  8
W75LPLIFT
 62
8
 10
2507.727
 20
-8133.175
 30
-2265.660
 70
    32
  0
VERTEX
  8
W75LPLIFT
 62
8
 10
2511.727
 20
-8133.175
 30
-2265.660
 70
    32
  0
SEQEND
  8
W75LPLIFT
  0
TEXT
  8
W75LPLIFT
 62
8
 10
2524.971
 20
-8116.426
 30
-2264.776
 40
1.969
  1
-2264.7755
 41
 1.0 
  0
TEXT
  8
W75LPLIFT
 62
8
 10
2526.272
 20
-8119.920
 30
-2264.776
 40
1.969
  1
ST-507S
 41
 1.0 
  0
TEXT
  8
W75LPLIFT
 62
8
 10
2525.510
 20
-8133.677
 30
-2265.660
 40
1.969
  1
ST-507T
 41
 1.0 
  0
TEXT
  8
W75LPLIFT
 62
8
 10
2523.790
 20
-8137.032
 30
-2265.660
 40
1.969
  1
-2265.6605
 41
 1.0 
  0
TEXT
  8
W75LPLIFT
 62
1
 10
2504.252
 20
-8128.879
 30
-2265.000
 40
2.362
  1
-2265 bk
 50
12.854
 41
 1.0 
  0
TEXT
  8
W75LPLIFT
 62
1
 10
2527.510
 20
-8146.848
 30
-2264.000
 40
2.362
  1
-2264 bk
 50
-49.296
 41
 1.0 
  0
ENDSEC
  0
EOF
