999
********************************
999
*   DXF File - Entities Only   *
999
*        3D Data Format        *
999
*     Output from ENVISAGE     *
999
*     02-Jan-2008 11:42:52     *
999
********************************
  0
SECTION 
  2
HEADER
  9
$ACADVER
  1
AC1009
  9
$EXTMIN
 10
-290000.000
 20
-250000.000
 30
-4000.000
  9
$EXTMAX
 10
320000.000
 20
160000.000
 30
6000.000
  0
ENDSEC
  0
SECTION
  2
ENTITIES
  0
POINT
  8
W75RCRAMP
 62
1
 10
1658.529
 20
-5846.905
 30
-2200.000
  0
POLYLINE
  8
W75RCRAMP
 62
2
 66
     1
 70
     9
  0
VERTEX
  8
W75RCRAMP
 62
2
 10
1632.266
 20
-5814.520
 30
-2197.767
 70
    32
  0
VERTEX
  8
W75RCRAMP
 62
2
 10
1632.247
 20
-5814.994
 30
-2197.750
 70
    32
  0
VERTEX
  8
W75RCRAMP
 62
2
 10
1632.247
 20
-5814.994
 30
-2197.750
 70
    32
  0
VERTEX
  8
W75RCRAMP
 62
2
 10
1632.247
 20
-5814.994
 30
-2197.750
 70
    32
  0
VERTEX
  8
W75RCRAMP
 62
2
 10
1632.247
 20
-5814.994
 30
-2197.750
 70
    32
  0
VERTEX
  8
W75RCRAMP
 62
2
 10
1632.750
 20
-5829.817
 30
-2196.648
 70
    32
  0
VERTEX
  8
W75RCRAMP
 62
2
 10
1632.750
 20
-5829.817
 30
-2196.648
 70
    32
  0
VERTEX
  8
W75RCRAMP
 62
2
 10
1633.886
 20
-5834.831
 30
-2196.198
 70
    32
  0
VERTEX
  8
W75RCRAMP
 62
2
 10
1633.886
 20
-5834.831
 30
-2196.198
 70
    32
  0
VERTEX
  8
W75RCRAMP
 62
2
 10
1637.830
 20
-5842.098
 30
-2195.438
 70
    32
  0
VERTEX
  8
W75RCRAMP
 62
2
 10
1638.482
 20
-5843.300
 30
-2195.312
 70
    32
  0
VERTEX
  8
W75RCRAMP
 62
2
 10
1644.554
 20
-5852.718
 30
-2194.282
 70
    32
  0
VERTEX
  8
W75RCRAMP
 62
2
 10
1648.804
 20
-5858.768
 30
-2193.605
 70
    32
  0
VERTEX
  8
W75RCRAMP
 62
2
 10
1648.804
 20
-5858.768
 30
-2193.605
 70
    32
  0
VERTEX
  8
W75RCRAMP
 62
2
 10
1655.828
 20
-5870.088
 30
-2192.380
 70
    32
  0
VERTEX
  8
W75RCRAMP
 62
2
 10
1663.976
 20
-5864.448
 30
-2192.445
 70
    32
  0
VERTEX
  8
W75RCRAMP
 62
2
 10
1655.926
 20
-5852.211
 30
-2193.791
 70
    32
  0
VERTEX
  8
W75RCRAMP
 62
2
 10
1648.889
 20
-5841.658
 30
-2194.955
 70
    32
  0
VERTEX
  8
W75RCRAMP
 62
2
 10
1644.726
 20
-5834.917
 30
-2195.684
 70
    32
  0
VERTEX
  8
W75RCRAMP
 62
2
 10
1644.726
 20
-5834.917
 30
-2195.684
 70
    32
  0
VERTEX
  8
W75RCRAMP
 62
2
 10
1641.085
 20
-5827.050
 30
-2196.477
 70
    32
  0
VERTEX
  8
W75RCRAMP
 62
2
 10
1641.037
 20
-5825.799
 30
-2197.348
 70
    32
  0
VERTEX
  8
W75RCRAMP
 62
2
 10
1640.757
 20
-5818.520
 30
-2197.626
 70
    32
  0
VERTEX
  8
W75RCRAMP
 62
2
 10
1641.365
 20
-5814.701
 30
-2197.774
 70
    32
  0
SEQEND
  8
W75RCRAMP
  0
TEXT
  8
W75RCRAMP
 62
1
 10
1655.406
 20
-5823.055
 30
-2200.000
 40
1.575
  1
LMU 46 Development
 50
-57.440
 41
 1.0 
  0
TEXT
  8
W75RCRAMP
 62
1
 10
1653.415
 20
-5824.326
 30
-2200.000
 40
1.575
  1
cubes=5573.571ft
 50
-57.440
 41
 1.0 
  0
TEXT
  8
W75RCRAMP
 62
1
 10
1651.424
 20
-5825.597
 30
-2200.000
 40
1.575
  1
tons=557.3571
 50
-57.440
 41
 1.0 
  0
TEXT
  8
W75RCRAMP
 62
1
 10
1649.433
 20
-5826.869
 30
-2200.000
 40
1.575
  1
dev ft=55.7
 50
-57.440
 41
 1.0 
  0
POLYLINE
  8
W75RCRAMP
 62
3
 66
     1
 70
     9
  0
VERTEX
  8
W75RCRAMP
 62
3
 10
2113.660
 20
-7040.259
 30
-2173.116
 70
    32
  0
VERTEX
  8
W75RCRAMP
 62
3
 10
2106.784
 20
-7035.114
 30
-2173.815
 70
    32
  0
VERTEX
  8
W75RCRAMP
 62
3
 10
2102.058
 20
-7034.515
 30
-2173.925
 70
    32
  0
VERTEX
  8
W75RCRAMP
 62
3
 10
2088.700
 20
-7028.868
 30
-2173.538
 70
    32
  0
VERTEX
  8
W75RCRAMP
 62
3
 10
2074.998
 20
-7025.543
 30
-2172.738
 70
    32
  0
VERTEX
  8
W75RCRAMP
 62
3
 10
2071.625
 20
-7027.667
 30
-2172.576
 70
    32
  0
VERTEX
  8
W75RCRAMP
 62
3
 10
2047.596
 20
-7030.706
 30
-2171.280
 70
    32
  0
VERTEX
  8
W75RCRAMP
 62
3
 10
2043.299
 20
-7030.958
 30
-2173.894
 70
    32
  0
VERTEX
  8
W75RCRAMP
 62
3
 10
2032.646
 20
-7032.903
 30
-2173.360
 70
    32
  0
VERTEX
  8
W75RCRAMP
 62
3
 10
2021.899
 20
-7036.910
 30
-2172.444
 70
    32
  0
VERTEX
  8
W75RCRAMP
 62
3
 10
2008.359
 20
-7042.752
 30
-2171.537
 70
    32
  0
VERTEX
  8
W75RCRAMP
 62
3
 10
1998.675
 20
-7043.576
 30
-2171.775
 70
    32
  0
VERTEX
  8
W75RCRAMP
 62
3
 10
1982.595
 20
-7045.146
 30
-2172.171
 70
    32
  0
VERTEX
  8
W75RCRAMP
 62
3
 10
1982.260
 20
-7049.027
 30
-2172.194
 70
    32
  0
VERTEX
  8
W75RCRAMP
 62
3
 10
1983.765
 20
-7056.892
 30
-2172.189
 70
    32
  0
VERTEX
  8
W75RCRAMP
 62
3
 10
1992.205
 20
-7056.290
 30
-2171.983
 70
    32
  0
VERTEX
  8
W75RCRAMP
 62
3
 10
1996.893
 20
-7056.702
 30
-2171.871
 70
    32
  0
VERTEX
  8
W75RCRAMP
 62
3
 10
2004.642
 20
-7054.297
 30
-2171.674
 70
    32
  0
VERTEX
  8
W75RCRAMP
 62
3
 10
2018.669
 20
-7050.021
 30
-2171.840
 70
    32
  0
VERTEX
  8
W75RCRAMP
 62
3
 10
2031.494
 20
-7044.772
 30
-2172.946
 70
    32
  0
VERTEX
  8
W75RCRAMP
 62
3
 10
2044.060
 20
-7042.803
 30
-2173.942
 70
    32
  0
VERTEX
  8
W75RCRAMP
 62
3
 10
2047.562
 20
-7042.184
 30
-2171.820
 70
    32
  0
VERTEX
  8
W75RCRAMP
 62
3
 10
2060.982
 20
-7040.539
 30
-2172.900
 70
    32
  0
VERTEX
  8
W75RCRAMP
 62
3
 10
2072.281
 20
-7039.257
 30
-2173.514
 70
    32
  0
VERTEX
  8
W75RCRAMP
 62
3
 10
2081.306
 20
-7038.477
 30
-2173.717
 70
    32
  0
VERTEX
  8
W75RCRAMP
 62
3
 10
2090.359
 20
-7040.703
 30
-2174.160
 70
    32
  0
VERTEX
  8
W75RCRAMP
 62
3
 10
2107.704
 20
-7049.086
 30
-2173.143
 70
    32
  0
VERTEX
  8
W75RCRAMP
 62
3
 10
2111.910
 20
-7051.930
 30
-2173.436
 70
    32
  0
SEQEND
  8
W75RCRAMP
  0
POLYLINE
  8
W75RCRAMP
 62
1
 66
     1
 70
     9
  0
VERTEX
  8
W75RCRAMP
 62
1
 10
2084.375
 20
-7029.495
 30
-2184.473
 70
    32
  0
VERTEX
  8
W75RCRAMP
 62
1
 10
2084.145
 20
-7027.643
 30
-2184.489
 70
    32
  0
VERTEX
  8
W75RCRAMP
 62
1
 10
2071.953
 20
-7027.388
 30
-2186.609
 70
    32
  0
VERTEX
  8
W75RCRAMP
 62
1
 10
2059.470
 20
-7028.967
 30
-2188.799
 70
    32
  0
VERTEX
  8
W75RCRAMP
 62
1
 10
2033.529
 20
-7032.521
 30
-2193.355
 70
    32
  0
VERTEX
  8
W75RCRAMP
 62
1
 10
2008.300
 20
-7039.539
 30
-2197.826
 70
    32
  0
VERTEX
  8
W75RCRAMP
 62
1
 10
2004.175
 20
-7039.579
 30
-2198.545
 70
    32
  0
VERTEX
  8
W75RCRAMP
 62
1
 10
1994.474
 20
-7033.932
 30
-2199.703
 70
    32
  0
VERTEX
  8
W75RCRAMP
 62
1
 10
1984.290
 20
-7027.518
 30
-2200.826
 70
    32
  0
VERTEX
  8
W75RCRAMP
 62
1
 10
1980.423
 20
-7032.110
 30
-2201.285
 70
    32
  0
VERTEX
  8
W75RCRAMP
 62
1
 10
1980.587
 20
-7039.108
 30
-2201.299
 70
    32
  0
VERTEX
  8
W75RCRAMP
 62
1
 10
1989.402
 20
-7044.277
 30
-2200.325
 70
    32
  0
VERTEX
  8
W75RCRAMP
 62
1
 10
1994.720
 20
-7052.382
 30
-2199.761
 70
    32
  0
VERTEX
  8
W75RCRAMP
 62
1
 10
2000.427
 20
-7055.973
 30
-2199.131
 70
    32
  0
VERTEX
  8
W75RCRAMP
 62
1
 10
2032.242
 20
-7045.976
 30
-2193.731
 70
    32
  0
VERTEX
  8
W75RCRAMP
 62
1
 10
2066.199
 20
-7039.889
 30
-2187.752
 70
    32
  0
VERTEX
  8
W75RCRAMP
 62
1
 10
2085.669
 20
-7039.925
 30
-2184.381
 70
    32
  0
VERTEX
  8
W75RCRAMP
 62
1
 10
2085.207
 20
-7036.202
 30
-2184.414
 70
    32
  0
SEQEND
  8
W75RCRAMP
  0
POLYLINE
  8
W75RCRAMP
 62
1
 66
     1
 70
     9
  0
VERTEX
  8
W75RCRAMP
 62
1
 10
2147.440
 20
-7966.144
 30
-2209.261
 70
    32
  0
VERTEX
  8
W75RCRAMP
 62
1
 10
2152.479
 20
-7967.322
 30
-2209.300
 70
    32
  0
VERTEX
  8
W75RCRAMP
 62
1
 10
2167.966
 20
-7973.322
 30
-2210.500
 70
    32
  0
VERTEX
  8
W75RCRAMP
 62
1
 10
2167.782
 20
-7983.010
 30
-2211.500
 70
    32
  0
VERTEX
  8
W75RCRAMP
 62
1
 10
2171.988
 20
-7984.828
 30
-2212.500
 70
    32
  0
VERTEX
  8
W75RCRAMP
 62
1
 10
2175.122
 20
-7992.916
 30
-2214.500
 70
    32
  0
VERTEX
  8
W75RCRAMP
 62
1
 10
2185.109
 20
-7992.599
 30
-2214.500
 70
    32
  0
VERTEX
  8
W75RCRAMP
 62
1
 10
2184.166
 20
-7983.228
 30
-2212.800
 70
    32
  0
VERTEX
  8
W75RCRAMP
 62
1
 10
2185.143
 20
-7980.486
 30
-2212.500
 70
    32
  0
VERTEX
  8
W75RCRAMP
 62
1
 10
2189.843
 20
-7978.934
 30
-2212.500
 70
    32
  0
VERTEX
  8
W75RCRAMP
 62
1
 10
2200.656
 20
-7980.907
 30
-2214.500
 70
    32
  0
VERTEX
  8
W75RCRAMP
 62
1
 10
2203.628
 20
-7971.368
 30
-2214.500
 70
    32
  0
VERTEX
  8
W75RCRAMP
 62
1
 10
2191.935
 20
-7967.684
 30
-2212.500
 70
    32
  0
VERTEX
  8
W75RCRAMP
 62
1
 10
2190.890
 20
-7964.696
 30
-2212.000
 70
    32
  0
VERTEX
  8
W75RCRAMP
 62
1
 10
2201.928
 20
-7959.942
 30
-2216.000
 70
    32
  0
VERTEX
  8
W75RCRAMP
 62
1
 10
2246.111
 20
-7950.304
 30
-2220.000
 70
    32
  0
VERTEX
  8
W75RCRAMP
 62
1
 10
2244.026
 20
-7940.317
 30
-2220.000
 70
    32
  0
VERTEX
  8
W75RCRAMP
 62
1
 10
2221.627
 20
-7945.268
 30
-2220.000
 70
    32
  0
VERTEX
  8
W75RCRAMP
 62
1
 10
2219.615
 20
-7940.780
 30
-2219.640
 70
    32
  0
VERTEX
  8
W75RCRAMP
 62
1
 10
2244.024
 20
-7929.528
 30
-2224.500
 70
    32
  0
VERTEX
  8
W75RCRAMP
 62
1
 10
2241.259
 20
-7920.106
 30
-2224.500
 70
    32
  0
VERTEX
  8
W75RCRAMP
 62
1
 10
2220.159
 20
-7923.140
 30
-2220.000
 70
    32
  0
VERTEX
  8
W75RCRAMP
 62
1
 10
2214.749
 20
-7929.865
 30
-2219.640
 70
    32
  0
VERTEX
  8
W75RCRAMP
 62
1
 10
2196.590
 20
-7946.311
 30
-2216.300
 70
    32
  0
VERTEX
  8
W75RCRAMP
 62
1
 10
2193.718
 20
-7946.247
 30
-2216.000
 70
    32
  0
VERTEX
  8
W75RCRAMP
 62
1
 10
2188.247
 20
-7952.774
 30
-2212.300
 70
    32
  0
VERTEX
  8
W75RCRAMP
 62
1
 10
2176.625
 20
-7957.482
 30
-2211.100
 70
    32
  0
VERTEX
  8
W75RCRAMP
 62
1
 10
2163.684
 20
-7958.686
 30
-2210.000
 70
    32
  0
VERTEX
  8
W75RCRAMP
 62
1
 10
2155.910
 20
-7957.104
 30
-2209.300
 70
    32
  0
VERTEX
  8
W75RCRAMP
 62
1
 10
2152.114
 20
-7955.276
 30
-2209.122
 70
    32
  0
SEQEND
  8
W75RCRAMP
  0
POLYLINE
  8
W75RCRAMP
 62
1
 66
     1
 70
     9
  0
VERTEX
  8
W75RCRAMP
 62
1
 10
2186.182
 20
-7992.398
 30
-2214.364
 70
    32
  0
VERTEX
  8
W75RCRAMP
 62
1
 10
2187.814
 20
-7996.153
 30
-2214.783
 70
    32
  0
VERTEX
  8
W75RCRAMP
 62
1
 10
2192.184
 20
-8003.270
 30
-2216.618
 70
    32
  0
VERTEX
  8
W75RCRAMP
 62
1
 10
2196.650
 20
-8008.174
 30
-2216.340
 70
    32
  0
VERTEX
  8
W75RCRAMP
 62
1
 10
2203.335
 20
-8014.957
 30
-2220.293
 70
    32
  0
VERTEX
  8
W75RCRAMP
 62
1
 10
2205.814
 20
-8016.375
 30
-2221.679
 70
    32
  0
VERTEX
  8
W75RCRAMP
 62
1
 10
2212.340
 20
-8019.978
 30
-2222.645
 70
    32
  0
VERTEX
  8
W75RCRAMP
 62
1
 10
2220.688
 20
-8023.638
 30
-2224.165
 70
    32
  0
VERTEX
  8
W75RCRAMP
 62
1
 10
2229.255
 20
-8025.981
 30
-2225.148
 70
    32
  0
VERTEX
  8
W75RCRAMP
 62
1
 10
2247.853
 20
-8027.920
 30
-2225.975
 70
    32
  0
VERTEX
  8
W75RCRAMP
 62
1
 10
2258.390
 20
-8029.614
 30
-2225.494
 70
    32
  0
VERTEX
  8
W75RCRAMP
 62
1
 10
2266.343
 20
-8031.914
 30
-2227.304
 70
    32
  0
VERTEX
  8
W75RCRAMP
 62
1
 10
2273.319
 20
-8034.662
 30
-2228.638
 70
    32
  0
VERTEX
  8
W75RCRAMP
 62
1
 10
2302.710
 20
-8046.673
 30
-2232.643
 70
    32
  0
VERTEX
  8
W75RCRAMP
 62
1
 10
2305.155
 20
-8048.930
 30
-2233.169
 70
    32
  0
VERTEX
  8
W75RCRAMP
 62
1
 10
2328.747
 20
-8059.389
 30
-2238.124
 70
    32
  0
VERTEX
  8
W75RCRAMP
 62
1
 10
2340.256
 20
-8062.874
 30
-2240.242
 70
    32
  0
VERTEX
  8
W75RCRAMP
 62
1
 10
2336.776
 20
-8074.989
 30
-2239.443
 70
    32
  0
VERTEX
  8
W75RCRAMP
 62
1
 10
2312.073
 20
-8065.183
 30
-2234.592
 70
    32
  0
VERTEX
  8
W75RCRAMP
 62
1
 10
2285.835
 20
-8051.860
 30
-2230.976
 70
    32
  0
VERTEX
  8
W75RCRAMP
 62
1
 10
2262.707
 20
-8042.832
 30
-2228.444
 70
    32
  0
VERTEX
  8
W75RCRAMP
 62
1
 10
2247.544
 20
-8038.937
 30
-2226.238
 70
    32
  0
VERTEX
  8
W75RCRAMP
 62
1
 10
2235.419
 20
-8038.326
 30
-2225.393
 70
    32
  0
VERTEX
  8
W75RCRAMP
 62
1
 10
2225.020
 20
-8035.281
 30
-2224.293
 70
    32
  0
VERTEX
  8
W75RCRAMP
 62
1
 10
2222.060
 20
-8036.451
 30
-2224.675
 70
    32
  0
VERTEX
  8
W75RCRAMP
 62
1
 10
2202.111
 20
-8027.696
 30
-2221.593
 70
    32
  0
VERTEX
  8
W75RCRAMP
 62
1
 10
2194.586
 20
-8020.857
 30
-2220.520
 70
    32
  0
VERTEX
  8
W75RCRAMP
 62
1
 10
2193.598
 20
-8020.524
 30
-2219.518
 70
    32
  0
VERTEX
  8
W75RCRAMP
 62
1
 10
2187.372
 20
-8012.525
 30
-2216.592
 70
    32
  0
VERTEX
  8
W75RCRAMP
 62
1
 10
2185.113
 20
-8012.083
 30
-2217.076
 70
    32
  0
VERTEX
  8
W75RCRAMP
 62
1
 10
2179.276
 20
-8003.801
 30
-2215.288
 70
    32
  0
VERTEX
  8
W75RCRAMP
 62
1
 10
2175.367
 20
-7992.954
 30
-2213.562
 70
    32
  0
SEQEND
  8
W75RCRAMP
  0
POLYLINE
  8
W75RCRAMP
 62
1
 66
     1
 70
     9
  0
VERTEX
  8
W75RCRAMP
 62
1
 10
2340.206
 20
-8063.010
 30
-2240.437
 70
    32
  0
VERTEX
  8
W75RCRAMP
 62
1
 10
2346.881
 20
-8064.834
 30
-2241.443
 70
    32
  0
VERTEX
  8
W75RCRAMP
 62
1
 10
2367.865
 20
-8073.270
 30
-2245.313
 70
    32
  0
VERTEX
  8
W75RCRAMP
 62
1
 10
2378.620
 20
-8076.531
 30
-2247.212
 70
    32
  0
VERTEX
  8
W75RCRAMP
 62
1
 10
2391.350
 20
-8081.287
 30
-2251.100
 70
    32
  0
VERTEX
  8
W75RCRAMP
 62
1
 10
2411.797
 20
-8082.408
 30
-2252.807
 70
    32
  0
VERTEX
  8
W75RCRAMP
 62
1
 10
2424.090
 20
-8081.076
 30
-2254.685
 70
    32
  0
VERTEX
  8
W75RCRAMP
 62
1
 10
2433.956
 20
-8078.676
 30
-2256.240
 70
    32
  0
VERTEX
  8
W75RCRAMP
 62
1
 10
2434.680
 20
-8092.039
 30
-2256.061
 70
    32
  0
VERTEX
  8
W75RCRAMP
 62
1
 10
2416.663
 20
-8094.236
 30
-2254.171
 70
    32
  0
VERTEX
  8
W75RCRAMP
 62
1
 10
2407.574
 20
-8093.667
 30
-2252.438
 70
    32
  0
VERTEX
  8
W75RCRAMP
 62
1
 10
2393.759
 20
-8092.221
 30
-2252.625
 70
    32
  0
VERTEX
  8
W75RCRAMP
 62
1
 10
2376.800
 20
-8087.388
 30
-2248.975
 70
    32
  0
VERTEX
  8
W75RCRAMP
 62
1
 10
2364.346
 20
-8083.692
 30
-2245.313
 70
    32
  0
VERTEX
  8
W75RCRAMP
 62
1
 10
2344.825
 20
-8078.056
 30
-2241.043
 70
    32
  0
VERTEX
  8
W75RCRAMP
 62
1
 10
2336.913
 20
-8075.366
 30
-2239.677
 70
    32
  0
SEQEND
  8
W75RCRAMP
  0
POLYLINE
  8
W75RCRAMP
 62
1
 66
     1
 70
     9
  0
VERTEX
  8
W75RCRAMP
 62
1
 10
2393.792
 20
-8092.256
 30
-2252.642
 70
    32
  0
VERTEX
  8
W75RCRAMP
 62
1
 10
2403.733
 20
-8095.235
 30
-2252.701
 70
    32
  0
VERTEX
  8
W75RCRAMP
 62
1
 10
2411.158
 20
-8102.382
 30
-2254.834
 70
    32
  0
VERTEX
  8
W75RCRAMP
 62
1
 10
2416.107
 20
-8107.942
 30
-2254.697
 70
    32
  0
VERTEX
  8
W75RCRAMP
 62
1
 10
2422.319
 20
-8118.167
 30
-2255.417
 70
    32
  0
VERTEX
  8
W75RCRAMP
 62
1
 10
2424.601
 20
-8119.820
 30
-2255.169
 70
    32
  0
VERTEX
  8
W75RCRAMP
 62
1
 10
2429.507
 20
-8126.666
 30
-2254.831
 70
    32
  0
VERTEX
  8
W75RCRAMP
 62
1
 10
2439.416
 20
-8120.059
 30
-2254.863
 70
    32
  0
VERTEX
  8
W75RCRAMP
 62
1
 10
2433.255
 20
-8111.688
 30
-2255.567
 70
    32
  0
VERTEX
  8
W75RCRAMP
 62
1
 10
2426.419
 20
-8101.101
 30
-2255.060
 70
    32
  0
VERTEX
  8
W75RCRAMP
 62
1
 10
2422.916
 20
-8099.082
 30
-2255.550
 70
    32
  0
VERTEX
  8
W75RCRAMP
 62
1
 10
2422.051
 20
-8095.780
 30
-2255.489
 70
    32
  0
VERTEX
  8
W75RCRAMP
 62
1
 10
2423.835
 20
-8093.894
 30
-2256.510
 70
    32
  0
VERTEX
  8
W75RCRAMP
 62
1
 10
2430.631
 20
-8092.672
 30
-2256.530
 70
    32
  0
VERTEX
  8
W75RCRAMP
 62
1
 10
2416.797
 20
-8094.230
 30
-2254.586
 70
    32
  0
SEQEND
  8
W75RCRAMP
  0
POLYLINE
  8
W75RCRAMP
 62
1
 66
     1
 70
     9
  0
VERTEX
  8
W75RCRAMP
 62
1
 10
2434.621
 20
-8091.944
 30
-2257.423
 70
    32
  0
VERTEX
  8
W75RCRAMP
 62
1
 10
2436.575
 20
-8091.552
 30
-2257.531
 70
    32
  0
VERTEX
  8
W75RCRAMP
 62
1
 10
2449.917
 20
-8096.194
 30
-2257.959
 70
    32
  0
VERTEX
  8
W75RCRAMP
 62
1
 10
2456.920
 20
-8102.192
 30
-2258.130
 70
    32
  0
VERTEX
  8
W75RCRAMP
 62
1
 10
2462.033
 20
-8108.289
 30
-2258.856
 70
    32
  0
VERTEX
  8
W75RCRAMP
 62
1
 10
2470.413
 20
-8101.287
 30
-2258.228
 70
    32
  0
VERTEX
  8
W75RCRAMP
 62
1
 10
2460.071
 20
-8089.132
 30
-2258.442
 70
    32
  0
VERTEX
  8
W75RCRAMP
 62
1
 10
2458.010
 20
-8085.765
 30
-2259.243
 70
    32
  0
VERTEX
  8
W75RCRAMP
 62
1
 10
2459.298
 20
-8083.885
 30
-2260.660
 70
    32
  0
VERTEX
  8
W75RCRAMP
 62
1
 10
2479.218
 20
-8080.752
 30
-2261.410
 70
    32
  0
VERTEX
  8
W75RCRAMP
 62
1
 10
2507.942
 20
-8069.719
 30
-2266.861
 70
    32
  0
VERTEX
  8
W75RCRAMP
 62
1
 10
2504.489
 20
-8058.124
 30
-2266.846
 70
    32
  0
VERTEX
  8
W75RCRAMP
 62
1
 10
2486.298
 20
-8065.356
 30
-2264.595
 70
    32
  0
VERTEX
  8
W75RCRAMP
 62
1
 10
2451.674
 20
-8073.050
 30
-2258.689
 70
    32
  0
VERTEX
  8
W75RCRAMP
 62
1
 10
2441.874
 20
-8076.444
 30
-2257.440
 70
    32
  0
VERTEX
  8
W75RCRAMP
 62
1
 10
2433.792
 20
-8078.542
 30
-2256.301
 70
    32
  0
SEQEND
  8
W75RCRAMP
  0
POLYLINE
  8
W75RCRAMP
 62
1
 66
     1
 70
     9
  0
VERTEX
  8
W75RCRAMP
 62
1
 10
2429.613
 20
-8126.817
 30
-2254.859
 70
    32
  0
VERTEX
  8
W75RCRAMP
 62
1
 10
2431.917
 20
-8130.101
 30
-2255.478
 70
    32
  0
VERTEX
  8
W75RCRAMP
 62
1
 10
2440.560
 20
-8144.915
 30
-2255.072
 70
    32
  0
VERTEX
  8
W75RCRAMP
 62
1
 10
2443.030
 20
-8147.800
 30
-2255.523
 70
    32
  0
VERTEX
  8
W75RCRAMP
 62
1
 10
2446.181
 20
-8153.496
 30
-2255.117
 70
    32
  0
VERTEX
  8
W75RCRAMP
 62
1
 10
2457.117
 20
-8147.551
 30
-2255.159
 70
    32
  0
VERTEX
  8
W75RCRAMP
 62
1
 10
2449.416
 20
-8135.965
 30
-2255.660
 70
    32
  0
VERTEX
  8
W75RCRAMP
 62
1
 10
2442.718
 20
-8126.883
 30
-2255.157
 70
    32
  0
VERTEX
  8
W75RCRAMP
 62
1
 10
2439.571
 20
-8120.379
 30
-2254.877
 70
    32
  0
SEQEND
  8
W75RCRAMP
  0
POLYLINE
  8
W75RCRAMP
 62
1
 66
     1
 70
     9
  0
VERTEX
  8
W75RCRAMP
 62
1
 10
2448.607
 20
-8029.751
 30
-2266.714
 70
    32
  0
VERTEX
  8
W75RCRAMP
 62
1
 10
2450.927
 20
-8021.868
 30
-2268.314
 70
    32
  0
VERTEX
  8
W75RCRAMP
 62
1
 10
2450.914
 20
-8009.426
 30
-2270.512
 70
    32
  0
VERTEX
  8
W75RCRAMP
 62
1
 10
2451.764
 20
-7991.536
 30
-2272.926
 70
    32
  0
VERTEX
  8
W75RCRAMP
 62
1
 10
2454.085
 20
-7983.887
 30
-2272.788
 70
    32
  0
VERTEX
  8
W75RCRAMP
 62
1
 10
2455.459
 20
-7977.500
 30
-2273.533
 70
    32
  0
VERTEX
  8
W75RCRAMP
 62
1
 10
2456.719
 20
-7958.697
 30
-2279.547
 70
    32
  0
VERTEX
  8
W75RCRAMP
 62
1
 10
2456.908
 20
-7950.906
 30
-2279.011
 70
    32
  0
VERTEX
  8
W75RCRAMP
 62
1
 10
2468.361
 20
-7951.537
 30
-2278.844
 70
    32
  0
VERTEX
  8
W75RCRAMP
 62
1
 10
2467.888
 20
-7981.051
 30
-2273.264
 70
    32
  0
VERTEX
  8
W75RCRAMP
 62
1
 10
2465.993
 20
-7991.687
 30
-2272.735
 70
    32
  0
VERTEX
  8
W75RCRAMP
 62
1
 10
2463.124
 20
-8000.511
 30
-2270.764
 70
    32
  0
VERTEX
  8
W75RCRAMP
 62
1
 10
2462.748
 20
-8013.940
 30
-2268.854
 70
    32
  0
VERTEX
  8
W75RCRAMP
 62
1
 10
2461.701
 20
-8028.468
 30
-2266.764
 70
    32
  0
VERTEX
  8
W75RCRAMP
 62
1
 10
2461.494
 20
-8030.057
 30
-2266.363
 70
    32
  0
SEQEND
  8
W75RCRAMP
  0
POLYLINE
  8
W75RCRAMP
 62
1
 66
     1
 70
     9
  0
VERTEX
  8
W75RCRAMP
 62
1
 10
2323.432
 20
-8068.586
 30
-2236.811
 70
    32
  0
VERTEX
  8
W75RCRAMP
 62
1
 10
2321.474
 20
-8071.497
 30
-2233.919
 70
    32
  0
VERTEX
  8
W75RCRAMP
 62
1
 10
2322.614
 20
-8074.994
 30
-2233.862
 70
    32
  0
VERTEX
  8
W75RCRAMP
 62
1
 10
2322.258
 20
-8076.876
 30
-2233.779
 70
    32
  0
VERTEX
  8
W75RCRAMP
 62
1
 10
2340.962
 20
-8101.020
 30
-2228.971
 70
    32
  0
VERTEX
  8
W75RCRAMP
 62
1
 10
2354.954
 20
-8115.341
 30
-2225.072
 70
    32
  0
VERTEX
  8
W75RCRAMP
 62
1
 10
2362.166
 20
-8120.654
 30
-2222.692
 70
    32
  0
VERTEX
  8
W75RCRAMP
 62
1
 10
2364.976
 20
-8123.553
 30
-2222.080
 70
    32
  0
VERTEX
  8
W75RCRAMP
 62
1
 10
2371.435
 20
-8132.386
 30
-2217.575
 70
    32
  0
VERTEX
  8
W75RCRAMP
 62
1
 10
2375.889
 20
-8140.674
 30
-2216.296
 70
    32
  0
VERTEX
  8
W75RCRAMP
 62
1
 10
2382.609
 20
-8148.552
 30
-2213.726
 70
    32
  0
VERTEX
  8
W75RCRAMP
 62
1
 10
2388.039
 20
-8151.903
 30
-2214.586
 70
    32
  0
VERTEX
  8
W75RCRAMP
 62
1
 10
2397.727
 20
-8157.675
 30
-2212.005
 70
    32
  0
VERTEX
  8
W75RCRAMP
 62
1
 10
2404.700
 20
-8159.661
 30
-2210.639
 70
    32
  0
VERTEX
  8
W75RCRAMP
 62
1
 10
2414.520
 20
-8159.439
 30
-2208.362
 70
    32
  0
VERTEX
  8
W75RCRAMP
 62
1
 10
2424.044
 20
-8159.455
 30
-2206.433
 70
    32
  0
VERTEX
  8
W75RCRAMP
 62
1
 10
2426.996
 20
-8159.423
 30
-2207.375
 70
    32
  0
VERTEX
  8
W75RCRAMP
 62
1
 10
2434.097
 20
-8158.003
 30
-2206.567
 70
    32
  0
VERTEX
  8
W75RCRAMP
 62
1
 10
2446.711
 20
-8154.925
 30
-2206.168
 70
    32
  0
VERTEX
  8
W75RCRAMP
 62
1
 10
2448.185
 20
-8167.539
 30
-2205.769
 70
    32
  0
VERTEX
  8
W75RCRAMP
 62
1
 10
2435.709
 20
-8169.541
 30
-2206.654
 70
    32
  0
VERTEX
  8
W75RCRAMP
 62
1
 10
2424.919
 20
-8169.497
 30
-2206.498
 70
    32
  0
VERTEX
  8
W75RCRAMP
 62
1
 10
2414.400
 20
-8170.376
 30
-2207.719
 70
    32
  0
VERTEX
  8
W75RCRAMP
 62
1
 10
2407.723
 20
-8170.334
 30
-2209.391
 70
    32
  0
VERTEX
  8
W75RCRAMP
 62
1
 10
2403.028
 20
-8170.606
 30
-2210.361
 70
    32
  0
VERTEX
  8
W75RCRAMP
 62
1
 10
2400.504
 20
-8169.652
 30
-2210.012
 70
    32
  0
VERTEX
  8
W75RCRAMP
 62
1
 10
2389.582
 20
-8165.618
 30
-2212.294
 70
    32
  0
VERTEX
  8
W75RCRAMP
 62
1
 10
2378.659
 20
-8158.047
 30
-2214.528
 70
    32
  0
VERTEX
  8
W75RCRAMP
 62
1
 10
2373.740
 20
-8154.351
 30
-2214.010
 70
    32
  0
VERTEX
  8
W75RCRAMP
 62
1
 10
2365.299
 20
-8145.685
 30
-2217.659
 70
    32
  0
VERTEX
  8
W75RCRAMP
 62
1
 10
2361.093
 20
-8139.110
 30
-2219.057
 70
    32
  0
VERTEX
  8
W75RCRAMP
 62
1
 10
2357.073
 20
-8132.523
 30
-2222.317
 70
    32
  0
VERTEX
  8
W75RCRAMP
 62
1
 10
2344.751
 20
-8122.135
 30
-2226.930
 70
    32
  0
VERTEX
  8
W75RCRAMP
 62
1
 10
2326.017
 20
-8101.637
 30
-2231.925
 70
    32
  0
VERTEX
  8
W75RCRAMP
 62
1
 10
2317.569
 20
-8086.439
 30
-2232.155
 70
    32
  0
VERTEX
  8
W75RCRAMP
 62
1
 10
2311.998
 20
-8077.117
 30
-2234.123
 70
    32
  0
VERTEX
  8
W75RCRAMP
 62
1
 10
2311.995
 20
-8076.951
 30
-2234.205
 70
    32
  0
VERTEX
  8
W75RCRAMP
 62
1
 10
2308.984
 20
-8069.700
 30
-2232.220
 70
    32
  0
VERTEX
  8
W75RCRAMP
 62
1
 10
2303.349
 20
-8060.777
 30
-2233.382
 70
    32
  0
SEQEND
  8
W75RCRAMP
  0
POLYLINE
  8
W75RCRAMP
 62
1
 66
     1
 70
     9
  0
VERTEX
  8
W75RCRAMP
 62
1
 10
2468.060
 20
-7951.477
 30
-2280.257
 70
    32
  0
VERTEX
  8
W75RCRAMP
 62
1
 10
2469.159
 20
-7944.405
 30
-2282.179
 70
    32
  0
VERTEX
  8
W75RCRAMP
 62
1
 10
2468.691
 20
-7931.309
 30
-2283.674
 70
    32
  0
VERTEX
  8
W75RCRAMP
 62
1
 10
2468.376
 20
-7922.895
 30
-2285.190
 70
    32
  0
VERTEX
  8
W75RCRAMP
 62
1
 10
2467.285
 20
-7910.660
 30
-2288.422
 70
    32
  0
VERTEX
  8
W75RCRAMP
 62
1
 10
2463.951
 20
-7901.486
 30
-2290.496
 70
    32
  0
VERTEX
  8
W75RCRAMP
 62
1
 10
2460.624
 20
-7890.729
 30
-2293.833
 70
    32
  0
VERTEX
  8
W75RCRAMP
 62
1
 10
2455.435
 20
-7880.883
 30
-2294.129
 70
    32
  0
VERTEX
  8
W75RCRAMP
 62
1
 10
2447.322
 20
-7871.797
 30
-2296.294
 70
    32
  0
VERTEX
  8
W75RCRAMP
 62
1
 10
2444.546
 20
-7873.257
 30
-2298.488
 70
    32
  0
VERTEX
  8
W75RCRAMP
 62
1
 10
2434.687
 20
-7865.970
 30
-2299.414
 70
    32
  0
VERTEX
  8
W75RCRAMP
 62
1
 10
2429.411
 20
-7861.922
 30
-2302.682
 70
    32
  0
VERTEX
  8
W75RCRAMP
 62
1
 10
2420.685
 20
-7855.839
 30
-2304.268
 70
    32
  0
VERTEX
  8
W75RCRAMP
 62
1
 10
2416.588
 20
-7860.312
 30
-2302.993
 70
    32
  0
VERTEX
  8
W75RCRAMP
 62
1
 10
2412.695
 20
-7864.554
 30
-2304.228
 70
    32
  0
VERTEX
  8
W75RCRAMP
 62
1
 10
2430.045
 20
-7875.926
 30
-2301.818
 70
    32
  0
VERTEX
  8
W75RCRAMP
 62
1
 10
2438.551
 20
-7881.629
 30
-2299.255
 70
    32
  0
VERTEX
  8
W75RCRAMP
 62
1
 10
2445.983
 20
-7887.071
 30
-2295.767
 70
    32
  0
VERTEX
  8
W75RCRAMP
 62
1
 10
2450.893
 20
-7895.214
 30
-2291.769
 70
    32
  0
VERTEX
  8
W75RCRAMP
 62
1
 10
2455.664
 20
-7905.855
 30
-2290.630
 70
    32
  0
VERTEX
  8
W75RCRAMP
 62
1
 10
2457.537
 20
-7922.678
 30
-2286.288
 70
    32
  0
VERTEX
  8
W75RCRAMP
 62
1
 10
2457.704
 20
-7929.804
 30
-2285.257
 70
    32
  0
VERTEX
  8
W75RCRAMP
 62
1
 10
2457.206
 20
-7950.934
 30
-2280.313
 70
    32
  0
SEQEND
  8
W75RCRAMP
  0
POLYLINE
  8
W75RCRAMP
 62
1
 66
     1
 70
     9
  0
VERTEX
  8
W75RCRAMP
 62
1
 10
1995.345
 20
-6250.363
 30
-2262.846
 70
    32
  0
VERTEX
  8
W75RCRAMP
 62
1
 10
1995.338
 20
-6250.540
 30
-2262.857
 70
    32
  0
VERTEX
  8
W75RCRAMP
 62
1
 10
1996.174
 20
-6260.251
 30
-2260.682
 70
    32
  0
VERTEX
  8
W75RCRAMP
 62
1
 10
1996.360
 20
-6262.752
 30
-2259.613
 70
    32
  0
VERTEX
  8
W75RCRAMP
 62
1
 10
1998.570
 20
-6268.203
 30
-2257.833
 70
    32
  0
VERTEX
  8
W75RCRAMP
 62
1
 10
2007.117
 20
-6284.210
 30
-2258.708
 70
    32
  0
VERTEX
  8
W75RCRAMP
 62
1
 10
2013.831
 20
-6294.550
 30
-2250.062
 70
    32
  0
VERTEX
  8
W75RCRAMP
 62
1
 10
2028.832
 20
-6318.070
 30
-2243.837
 70
    32
  0
VERTEX
  8
W75RCRAMP
 62
1
 10
2032.954
 20
-6324.843
 30
-2245.939
 70
    32
  0
VERTEX
  8
W75RCRAMP
 62
1
 10
2041.334
 20
-6338.038
 30
-2243.085
 70
    32
  0
VERTEX
  8
W75RCRAMP
 62
1
 10
2046.195
 20
-6344.787
 30
-2243.414
 70
    32
  0
VERTEX
  8
W75RCRAMP
 62
1
 10
2048.746
 20
-6352.083
 30
-2243.360
 70
    32
  0
VERTEX
  8
W75RCRAMP
 62
1
 10
2049.356
 20
-6363.067
 30
-2241.496
 70
    32
  0
VERTEX
  8
W75RCRAMP
 62
1
 10
2048.871
 20
-6366.974
 30
-2242.817
 70
    32
  0
VERTEX
  8
W75RCRAMP
 62
1
 10
2051.290
 20
-6375.720
 30
-2241.766
 70
    32
  0
VERTEX
  8
W75RCRAMP
 62
1
 10
2049.117
 20
-6377.927
 30
-2242.521
 70
    32
  0
VERTEX
  8
W75RCRAMP
 62
1
 10
2051.143
 20
-6386.910
 30
-2242.051
 70
    32
  0
VERTEX
  8
W75RCRAMP
 62
1
 10
2037.072
 20
-6389.730
 30
-2241.889
 70
    32
  0
VERTEX
  8
W75RCRAMP
 62
1
 10
2041.451
 20
-6380.725
 30
-2244.054
 70
    32
  0
VERTEX
  8
W75RCRAMP
 62
1
 10
2041.422
 20
-6372.733
 30
-2243.150
 70
    32
  0
VERTEX
  8
W75RCRAMP
 62
1
 10
2040.089
 20
-6362.048
 30
-2242.058
 70
    32
  0
VERTEX
  8
W75RCRAMP
 62
1
 10
2036.766
 20
-6352.431
 30
-2244.413
 70
    32
  0
VERTEX
  8
W75RCRAMP
 62
1
 10
2026.121
 20
-6334.676
 30
-2245.541
 70
    32
  0
VERTEX
  8
W75RCRAMP
 62
1
 10
2020.162
 20
-6324.285
 30
-2246.426
 70
    32
  0
VERTEX
  8
W75RCRAMP
 62
1
 10
2004.135
 20
-6300.257
 30
-2250.062
 70
    32
  0
VERTEX
  8
W75RCRAMP
 62
1
 10
1997.535
 20
-6290.442
 30
-2258.296
 70
    32
  0
VERTEX
  8
W75RCRAMP
 62
1
 10
1990.596
 20
-6276.863
 30
-2263.158
 70
    32
  0
VERTEX
  8
W75RCRAMP
 62
1
 10
1985.303
 20
-6274.968
 30
-2263.878
 70
    32
  0
VERTEX
  8
W75RCRAMP
 62
1
 10
1984.452
 20
-6268.364
 30
-2265.093
 70
    32
  0
VERTEX
  8
W75RCRAMP
 62
1
 10
1984.056
 20
-6265.654
 30
-2264.344
 70
    32
  0
VERTEX
  8
W75RCRAMP
 62
1
 10
1980.352
 20
-6259.947
 30
-2263.595
 70
    32
  0
SEQEND
  8
W75RCRAMP
  0
POLYLINE
  8
W75RCRAMP
 62
1
 66
     1
 70
     9
  0
VERTEX
  8
W75RCRAMP
 62
1
 10
2421.564
 20
-7854.794
 30
-2304.578
 70
    32
  0
VERTEX
  8
W75RCRAMP
 62
1
 10
2416.693
 20
-7851.122
 30
-2304.996
 70
    32
  0
VERTEX
  8
W75RCRAMP
 62
1
 10
2414.046
 20
-7842.849
 30
-2306.504
 70
    32
  0
VERTEX
  8
W75RCRAMP
 62
1
 10
2413.156
 20
-7829.944
 30
-2308.363
 70
    32
  0
VERTEX
  8
W75RCRAMP
 62
1
 10
2411.888
 20
-7819.927
 30
-2308.894
 70
    32
  0
VERTEX
  8
W75RCRAMP
 62
1
 10
2401.209
 20
-7823.287
 30
-2311.224
 70
    32
  0
VERTEX
  8
W75RCRAMP
 62
1
 10
2404.542
 20
-7839.711
 30
-2308.035
 70
    32
  0
VERTEX
  8
W75RCRAMP
 62
1
 10
2399.559
 20
-7845.579
 30
-2308.952
 70
    32
  0
VERTEX
  8
W75RCRAMP
 62
1
 10
2389.838
 20
-7841.781
 30
-2310.519
 70
    32
  0
VERTEX
  8
W75RCRAMP
 62
1
 10
2380.287
 20
-7839.329
 30
-2312.312
 70
    32
  0
VERTEX
  8
W75RCRAMP
 62
1
 10
2378.454
 20
-7841.106
 30
-2313.637
 70
    32
  0
VERTEX
  8
W75RCRAMP
 62
1
 10
2370.447
 20
-7842.002
 30
-2315.619
 70
    32
  0
VERTEX
  8
W75RCRAMP
 62
1
 10
2366.520
 20
-7842.152
 30
-2315.691
 70
    32
  0
VERTEX
  8
W75RCRAMP
 62
1
 10
2365.488
 20
-7844.244
 30
-2316.321
 70
    32
  0
VERTEX
  8
W75RCRAMP
 62
1
 10
2356.879
 20
-7845.270
 30
-2318.535
 70
    32
  0
VERTEX
  8
W75RCRAMP
 62
1
 10
2346.822
 20
-7847.280
 30
-2321.558
 70
    32
  0
VERTEX
  8
W75RCRAMP
 62
1
 10
2342.674
 20
-7850.463
 30
-2322.029
 70
    32
  0
VERTEX
  8
W75RCRAMP
 62
1
 10
2335.482
 20
-7858.871
 30
-2322.782
 70
    32
  0
VERTEX
  8
W75RCRAMP
 62
1
 10
2332.286
 20
-7862.447
 30
-2324.030
 70
    32
  0
VERTEX
  8
W75RCRAMP
 62
1
 10
2323.526
 20
-7872.865
 30
-2327.327
 70
    32
  0
VERTEX
  8
W75RCRAMP
 62
1
 10
2318.268
 20
-7881.066
 30
-2329.778
 70
    32
  0
VERTEX
  8
W75RCRAMP
 62
1
 10
2319.013
 20
-7887.609
 30
-2331.742
 70
    32
  0
VERTEX
  8
W75RCRAMP
 62
1
 10
2317.360
 20
-7893.895
 30
-2332.855
 70
    32
  0
VERTEX
  8
W75RCRAMP
 62
1
 10
2315.687
 20
-7900.272
 30
-2333.231
 70
    32
  0
VERTEX
  8
W75RCRAMP
 62
1
 10
2314.192
 20
-7905.389
 30
-2335.320
 70
    32
  0
VERTEX
  8
W75RCRAMP
 62
1
 10
2305.507
 20
-7922.648
 30
-2335.727
 70
    32
  0
VERTEX
  8
W75RCRAMP
 62
1
 10
2302.220
 20
-7931.436
 30
-2335.851
 70
    32
  0
VERTEX
  8
W75RCRAMP
 62
1
 10
2312.687
 20
-7936.514
 30
-2335.974
 70
    32
  0
VERTEX
  8
W75RCRAMP
 62
1
 10
2315.535
 20
-7927.053
 30
-2336.098
 70
    32
  0
VERTEX
  8
W75RCRAMP
 62
1
 10
2321.825
 20
-7912.499
 30
-2334.764
 70
    32
  0
VERTEX
  8
W75RCRAMP
 62
1
 10
2323.907
 20
-7911.579
 30
-2334.994
 70
    32
  0
VERTEX
  8
W75RCRAMP
 62
1
 10
2325.664
 20
-7916.420
 30
-2339.414
 70
    32
  0
VERTEX
  8
W75RCRAMP
 62
1
 10
2329.024
 20
-7917.102
 30
-2333.692
 70
    32
  0
VERTEX
  8
W75RCRAMP
 62
1
 10
2335.087
 20
-7926.331
 30
-2336.176
 70
    32
  0
VERTEX
  8
W75RCRAMP
 62
1
 10
2342.307
 20
-7933.360
 30
-2336.230
 70
    32
  0
VERTEX
  8
W75RCRAMP
 62
1
 10
2351.516
 20
-7940.248
 30
-2338.673
 70
    32
  0
VERTEX
  8
W75RCRAMP
 62
1
 10
2363.037
 20
-7945.040
 30
-2338.609
 70
    32
  0
VERTEX
  8
W75RCRAMP
 62
1
 10
2369.533
 20
-7933.612
 30
-2338.545
 70
    32
  0
VERTEX
  8
W75RCRAMP
 62
1
 10
2362.862
 20
-7930.031
 30
-2338.480
 70
    32
  0
VERTEX
  8
W75RCRAMP
 62
1
 10
2346.082
 20
-7921.823
 30
-2336.377
 70
    32
  0
VERTEX
  8
W75RCRAMP
 62
1
 10
2335.199
 20
-7908.654
 30
-2334.657
 70
    32
  0
VERTEX
  8
W75RCRAMP
 62
1
 10
2330.803
 20
-7899.719
 30
-2333.565
 70
    32
  0
VERTEX
  8
W75RCRAMP
 62
1
 10
2328.287
 20
-7893.965
 30
-2330.912
 70
    32
  0
VERTEX
  8
W75RCRAMP
 62
1
 10
2328.680
 20
-7888.915
 30
-2329.927
 70
    32
  0
VERTEX
  8
W75RCRAMP
 62
1
 10
2328.443
 20
-7886.059
 30
-2327.961
 70
    32
  0
VERTEX
  8
W75RCRAMP
 62
1
 10
2331.357
 20
-7879.786
 30
-2327.939
 70
    32
  0
VERTEX
  8
W75RCRAMP
 62
1
 10
2337.975
 20
-7872.037
 30
-2325.124
 70
    32
  0
VERTEX
  8
W75RCRAMP
 62
1
 10
2347.372
 20
-7862.580
 30
-2322.781
 70
    32
  0
VERTEX
  8
W75RCRAMP
 62
1
 10
2349.724
 20
-7859.815
 30
-2320.693
 70
    32
  0
VERTEX
  8
W75RCRAMP
 62
1
 10
2359.947
 20
-7854.674
 30
-2317.766
 70
    32
  0
VERTEX
  8
W75RCRAMP
 62
1
 10
2367.893
 20
-7853.009
 30
-2316.774
 70
    32
  0
VERTEX
  8
W75RCRAMP
 62
1
 10
2374.443
 20
-7851.781
 30
-2314.884
 70
    32
  0
VERTEX
  8
W75RCRAMP
 62
1
 10
2378.054
 20
-7851.624
 30
-2313.486
 70
    32
  0
VERTEX
  8
W75RCRAMP
 62
1
 10
2387.574
 20
-7851.766
 30
-2310.936
 70
    32
  0
VERTEX
  8
W75RCRAMP
 62
1
 10
2398.173
 20
-7855.102
 30
-2307.768
 70
    32
  0
VERTEX
  8
W75RCRAMP
 62
1
 10
2404.079
 20
-7858.075
 30
-2306.595
 70
    32
  0
VERTEX
  8
W75RCRAMP
 62
1
 10
2408.947
 20
-7860.763
 30
-2303.692
 70
    32
  0
VERTEX
  8
W75RCRAMP
 62
1
 10
2412.763
 20
-7864.657
 30
-2304.029
 70
    32
  0
SEQEND
  8
W75RCRAMP
  0
POLYLINE
  8
W75RCRAMP
 62
1
 66
     1
 70
     8
  0
VERTEX
  8
W75RCRAMP
 62
1
 10
2318.787
 20
-7887.638
 30
1000.000
 70
    32
  0
VERTEX
  8
W75RCRAMP
 62
1
 10
2318.255
 20
-7897.635
 30
1000.000
 70
    32
  0
VERTEX
  8
W75RCRAMP
 62
1
 10
2319.674
 20
-7904.419
 30
1000.000
 70
    32
  0
VERTEX
  8
W75RCRAMP
 62
1
 10
2323.753
 20
-7911.560
 30
1000.000
 70
    32
  0
SEQEND
  8
W75RCRAMP
  0
ENDSEC
  0
EOF
