999
********************************
999
*   DXF File - Entities Only   *
999
*        3D Data Format        *
999
*     Output from ENVISAGE     *
999
*     02-Jan-2008 11:41:42     *
999
********************************
  0
SECTION 
  2
HEADER
  9
$ACADVER
  1
AC1009
  9
$EXTMIN
 10
-290000.000
 20
-250000.000
 30
-4000.000
  9
$EXTMAX
 10
320000.000
 20
160000.000
 30
6000.000
  0
ENDSEC
  0
SECTION
  2
ENTITIES
  0
POLYLINE
  8
W75SURC
 62
4
 66
     1
 70
     9
  0
VERTEX
  8
W75SURC
 62
4
 10
2447.079
 20
-8177.972
 30
-2159.951
 70
    32
  0
VERTEX
  8
W75SURC
 62
4
 10
2458.421
 20
-8180.786
 30
-2160.170
 70
    32
  0
VERTEX
  8
W75SURC
 62
4
 10
2468.830
 20
-8186.701
 30
-2160.444
 70
    32
  0
VERTEX
  8
W75SURC
 62
4
 10
2468.932
 20
-8186.647
 30
-2160.636
 70
    32
  0
VERTEX
  8
W75SURC
 62
4
 10
2473.610
 20
-8192.191
 30
-2160.531
 70
    32
  0
VERTEX
  8
W75SURC
 62
4
 10
2480.456
 20
-8203.703
 30
-2160.375
 70
    32
  0
VERTEX
  8
W75SURC
 62
4
 10
2485.252
 20
-8205.320
 30
-2160.322
 70
    32
  0
VERTEX
  8
W75SURC
 62
4
 10
2497.338
 20
-8222.631
 30
-2161.919
 70
    32
  0
VERTEX
  8
W75SURC
 62
4
 10
2505.470
 20
-8236.098
 30
-2163.743
 70
    32
  0
VERTEX
  8
W75SURC
 62
4
 10
2508.863
 20
-8238.556
 30
-2164.378
 70
    32
  0
VERTEX
  8
W75SURC
 62
4
 10
2512.603
 20
-8243.662
 30
-2166.086
 70
    32
  0
VERTEX
  8
W75SURC
 62
4
 10
2517.731
 20
-8251.354
 30
-2168.323
 70
    32
  0
VERTEX
  8
W75SURC
 62
4
 10
2525.706
 20
-8247.798
 30
-2168.499
 70
    32
  0
VERTEX
  8
W75SURC
 62
4
 10
2531.143
 20
-8235.095
 30
-2166.430
 70
    32
  0
VERTEX
  8
W75SURC
 62
4
 10
2519.425
 20
-8223.323
 30
-2163.846
 70
    32
  0
VERTEX
  8
W75SURC
 62
4
 10
2510.837
 20
-8220.069
 30
-2162.563
 70
    32
  0
VERTEX
  8
W75SURC
 62
4
 10
2497.548
 20
-8199.423
 30
-2160.408
 70
    32
  0
VERTEX
  8
W75SURC
 62
4
 10
2496.094
 20
-8192.642
 30
-2160.342
 70
    32
  0
VERTEX
  8
W75SURC
 62
4
 10
2490.354
 20
-8189.450
 30
-2160.417
 70
    32
  0
VERTEX
  8
W75SURC
 62
4
 10
2476.327
 20
-8176.583
 30
-2160.749
 70
    32
  0
VERTEX
  8
W75SURC
 62
4
 10
2475.861
 20
-8175.644
 30
-2160.301
 70
    32
  0
VERTEX
  8
W75SURC
 62
4
 10
2482.118
 20
-8168.335
 30
-2159.810
 70
    32
  0
VERTEX
  8
W75SURC
 62
4
 10
2482.479
 20
-8156.960
 30
-2159.294
 70
    32
  0
VERTEX
  8
W75SURC
 62
4
 10
2480.276
 20
-8153.036
 30
-2159.143
 70
    32
  0
VERTEX
  8
W75SURC
 62
4
 10
2481.684
 20
-8145.930
 30
-2158.807
 70
    32
  0
VERTEX
  8
W75SURC
 62
4
 10
2478.512
 20
-8140.723
 30
-2158.610
 70
    32
  0
VERTEX
  8
W75SURC
 62
4
 10
2479.511
 20
-8133.046
 30
-2158.253
 70
    32
  0
VERTEX
  8
W75SURC
 62
4
 10
2473.725
 20
-8130.445
 30
-2158.204
 70
    32
  0
VERTEX
  8
W75SURC
 62
4
 10
2468.136
 20
-8131.107
 30
-2158.299
 70
    32
  0
VERTEX
  8
W75SURC
 62
4
 10
2466.387
 20
-8147.603
 30
-2159.062
 70
    32
  0
VERTEX
  8
W75SURC
 62
4
 10
2464.576
 20
-8154.440
 30
-2159.390
 70
    32
  0
VERTEX
  8
W75SURC
 62
4
 10
2458.377
 20
-8160.554
 30
-2159.738
 70
    32
  0
VERTEX
  8
W75SURC
 62
4
 10
2444.781
 20
-8166.414
 30
-2160.161
 70
    32
  0
VERTEX
  8
W75SURC
 62
4
 10
2444.837
 20
-8166.718
 30
-2160.155
 70
    32
  0
SEQEND
  8
W75SURC
  0
POLYLINE
  8
W75SURC
 62
13
 66
     1
 70
     9
  0
VERTEX
  8
W75SURC
 62
13
 10
2458.484
 20
-8160.609
 30
-2159.456
 70
    32
  0
VERTEX
  8
W75SURC
 62
13
 10
2459.539
 20
-8146.414
 30
-2158.443
 70
    32
  0
VERTEX
  8
W75SURC
 62
13
 10
2459.640
 20
-8143.690
 30
-2158.777
 70
    32
  0
VERTEX
  8
W75SURC
 62
13
 10
2448.742
 20
-8133.184
 30
-2161.125
 70
    32
  0
VERTEX
  8
W75SURC
 62
13
 10
2440.371
 20
-8125.756
 30
-2161.046
 70
    32
  0
VERTEX
  8
W75SURC
 62
13
 10
2436.255
 20
-8120.046
 30
-2160.993
 70
    32
  0
VERTEX
  8
W75SURC
 62
13
 10
2420.015
 20
-8107.064
 30
-2160.993
 70
    32
  0
VERTEX
  8
W75SURC
 62
13
 10
2426.567
 20
-8099.946
 30
-2160.993
 70
    32
  0
VERTEX
  8
W75SURC
 62
13
 10
2433.858
 20
-8104.103
 30
-2160.993
 70
    32
  0
VERTEX
  8
W75SURC
 62
13
 10
2441.183
 20
-8100.365
 30
-2160.993
 70
    32
  0
VERTEX
  8
W75SURC
 62
13
 10
2456.412
 20
-8116.835
 30
-2161.064
 70
    32
  0
VERTEX
  8
W75SURC
 62
13
 10
2461.977
 20
-8126.484
 30
-2161.143
 70
    32
  0
VERTEX
  8
W75SURC
 62
13
 10
2465.652
 20
-8129.402
 30
-2159.615
 70
    32
  0
VERTEX
  8
W75SURC
 62
13
 10
2471.771
 20
-8130.723
 30
-2159.100
 70
    32
  0
VERTEX
  8
W75SURC
 62
13
 10
2468.194
 20
-8131.162
 30
-2159.189
 70
    32
  0
VERTEX
  8
W75SURC
 62
13
 10
2466.442
 20
-8147.424
 30
-2159.278
 70
    32
  0
VERTEX
  8
W75SURC
 62
13
 10
2464.617
 20
-8154.456
 30
-2159.367
 70
    32
  0
SEQEND
  8
W75SURC
  0
POLYLINE
  8
W75SURC
 62
13
 66
     1
 70
     9
  0
VERTEX
  8
W75SURC
 62
13
 10
2514.160
 20
-8246.836
 30
-2168.417
 70
    32
  0
VERTEX
  8
W75SURC
 62
13
 10
2516.267
 20
-8257.595
 30
-2169.272
 70
    32
  0
VERTEX
  8
W75SURC
 62
13
 10
2512.361
 20
-8260.496
 30
-2169.703
 70
    32
  0
VERTEX
  8
W75SURC
 62
13
 10
2516.893
 20
-8273.337
 30
-2171.737
 70
    32
  0
VERTEX
  8
W75SURC
 62
13
 10
2513.982
 20
-8286.858
 30
-2174.175
 70
    32
  0
VERTEX
  8
W75SURC
 62
13
 10
2512.007
 20
-8297.080
 30
-2175.561
 70
    32
  0
VERTEX
  8
W75SURC
 62
13
 10
2508.038
 20
-8340.368
 30
-2182.294
 70
    32
  0
VERTEX
  8
W75SURC
 62
13
 10
2519.722
 20
-8341.650
 30
-2182.329
 70
    32
  0
VERTEX
  8
W75SURC
 62
13
 10
2522.290
 20
-8300.341
 30
-2175.920
 70
    32
  0
VERTEX
  8
W75SURC
 62
13
 10
2524.053
 20
-8290.639
 30
-2174.395
 70
    32
  0
VERTEX
  8
W75SURC
 62
13
 10
2525.769
 20
-8280.421
 30
-2172.573
 70
    32
  0
VERTEX
  8
W75SURC
 62
13
 10
2527.702
 20
-8274.371
 30
-2171.456
 70
    32
  0
VERTEX
  8
W75SURC
 62
13
 10
2529.099
 20
-8272.271
 30
-2171.037
 70
    32
  0
VERTEX
  8
W75SURC
 62
13
 10
2539.986
 20
-8272.526
 30
-2170.619
 70
    32
  0
VERTEX
  8
W75SURC
 62
13
 10
2549.016
 20
-8263.803
 30
-2169.543
 70
    32
  0
VERTEX
  8
W75SURC
 62
13
 10
2544.830
 20
-8254.407
 30
-2168.412
 70
    32
  0
VERTEX
  8
W75SURC
 62
13
 10
2534.995
 20
-8245.406
 30
-2167.197
 70
    32
  0
VERTEX
  8
W75SURC
 62
13
 10
2532.571
 20
-8241.811
 30
-2166.724
 70
    32
  0
VERTEX
  8
W75SURC
 62
13
 10
2530.996
 20
-8235.523
 30
-2166.280
 70
    32
  0
VERTEX
  8
W75SURC
 62
13
 10
2525.671
 20
-8247.779
 30
-2166.992
 70
    32
  0
VERTEX
  8
W75SURC
 62
13
 10
2517.841
 20
-8251.314
 30
-2167.705
 70
    32
  0
SEQEND
  8
W75SURC
  0
POLYLINE
  8
W75SURC
 62
1
 66
     1
 70
     9
  0
VERTEX
  8
W75SURC
 62
1
 10
2435.861
 20
-8167.612
 30
-2148.527
 70
    32
  0
VERTEX
  8
W75SURC
 62
1
 10
2427.005
 20
-8171.578
 30
-2150.811
 70
    32
  0
VERTEX
  8
W75SURC
 62
1
 10
2404.595
 20
-8177.027
 30
-2153.641
 70
    32
  0
VERTEX
  8
W75SURC
 62
1
 10
2408.132
 20
-8188.120
 30
-2153.928
 70
    32
  0
VERTEX
  8
W75SURC
 62
1
 10
2428.613
 20
-8182.010
 30
-2150.926
 70
    32
  0
VERTEX
  8
W75SURC
 62
1
 10
2445.785
 20
-8178.798
 30
-2146.782
 70
    32
  0
SEQEND
  8
W75SURC
  0
POLYLINE
  8
W75SURC
 62
1
 66
     1
 70
     9
  0
VERTEX
  8
W75SURC
 62
1
 10
2435.927
 20
-8167.561
 30
-2148.769
 70
    32
  0
VERTEX
  8
W75SURC
 62
1
 10
2433.158
 20
-8161.956
 30
-2149.658
 70
    32
  0
VERTEX
  8
W75SURC
 62
1
 10
2438.130
 20
-8157.106
 30
-2148.821
 70
    32
  0
VERTEX
  8
W75SURC
 62
1
 10
2444.202
 20
-8156.551
 30
-2147.971
 70
    32
  0
VERTEX
  8
W75SURC
 62
1
 10
2448.474
 20
-8159.658
 30
-2146.733
 70
    32
  0
VERTEX
  8
W75SURC
 62
1
 10
2454.227
 20
-8154.754
 30
-2146.829
 70
    32
  0
VERTEX
  8
W75SURC
 62
1
 10
2458.891
 20
-8142.369
 30
-2146.102
 70
    32
  0
VERTEX
  8
W75SURC
 62
1
 10
2468.518
 20
-8138.799
 30
-2145.648
 70
    32
  0
VERTEX
  8
W75SURC
 62
1
 10
2476.383
 20
-8148.152
 30
-2146.154
 70
    32
  0
VERTEX
  8
W75SURC
 62
1
 10
2472.337
 20
-8155.490
 30
-2146.330
 70
    32
  0
VERTEX
  8
W75SURC
 62
1
 10
2472.880
 20
-8174.546
 30
-2147.221
 70
    32
  0
VERTEX
  8
W75SURC
 62
1
 10
2474.814
 20
-8178.892
 30
-2147.371
 70
    32
  0
VERTEX
  8
W75SURC
 62
1
 10
2481.784
 20
-8183.873
 30
-2147.402
 70
    32
  0
VERTEX
  8
W75SURC
 62
1
 10
2485.037
 20
-8184.035
 30
-2147.314
 70
    32
  0
VERTEX
  8
W75SURC
 62
1
 10
2490.301
 20
-8190.905
 30
-2146.485
 70
    32
  0
VERTEX
  8
W75SURC
 62
1
 10
2497.494
 20
-8203.825
 30
-2145.188
 70
    32
  0
VERTEX
  8
W75SURC
 62
1
 10
2488.045
 20
-8211.373
 30
-2145.127
 70
    32
  0
VERTEX
  8
W75SURC
 62
1
 10
2479.136
 20
-8211.725
 30
-2145.164
 70
    32
  0
VERTEX
  8
W75SURC
 62
1
 10
2474.557
 20
-8203.064
 30
-2146.064
 70
    32
  0
VERTEX
  8
W75SURC
 62
1
 10
2460.470
 20
-8184.389
 30
-2147.254
 70
    32
  0
VERTEX
  8
W75SURC
 62
1
 10
2457.527
 20
-8182.028
 30
-2147.144
 70
    32
  0
VERTEX
  8
W75SURC
 62
1
 10
2445.750
 20
-8178.846
 30
-2146.715
 70
    32
  0
SEQEND
  8
W75SURC
  0
POLYLINE
  8
W75SURC
 62
1
 66
     1
 70
     9
  0
VERTEX
  8
W75SURC
 62
1
 10
1989.483
 20
-7056.628
 30
-2171.965
 70
    32
  0
VERTEX
  8
W75SURC
 62
1
 10
1979.142
 20
-7063.678
 30
-2171.968
 70
    32
  0
VERTEX
  8
W75SURC
 62
1
 10
1974.303
 20
-7061.126
 30
-2171.975
 70
    32
  0
VERTEX
  8
W75SURC
 62
1
 10
1973.143
 20
-7053.998
 30
-2171.981
 70
    32
  0
VERTEX
  8
W75SURC
 62
1
 10
1981.224
 20
-7050.050
 30
-2171.976
 70
    32
  0
VERTEX
  8
W75SURC
 62
1
 10
1982.216
 20
-7047.218
 30
-2171.977
 70
    32
  0
VERTEX
  8
W75SURC
 62
1
 10
1982.094
 20
-7043.087
 30
-2171.980
 70
    32
  0
VERTEX
  8
W75SURC
 62
1
 10
1975.147
 20
-7036.537
 30
-2171.992
 70
    32
  0
VERTEX
  8
W75SURC
 62
1
 10
1975.084
 20
-7032.322
 30
-2171.995
 70
    32
  0
VERTEX
  8
W75SURC
 62
1
 10
1970.802
 20
-7026.690
 30
-2172.003
 70
    32
  0
VERTEX
  8
W75SURC
 62
1
 10
1934.802
 20
-7011.726
 30
-2172.182
 70
    32
  0
VERTEX
  8
W75SURC
 62
1
 10
1909.003
 20
-7002.630
 30
-2171.965
 70
    32
  0
VERTEX
  8
W75SURC
 62
1
 10
1908.697
 20
-6993.789
 30
-2171.939
 70
    32
  0
VERTEX
  8
W75SURC
 62
1
 10
1913.561
 20
-6987.838
 30
-2171.959
 70
    32
  0
VERTEX
  8
W75SURC
 62
1
 10
1920.112
 20
-6976.350
 30
-2171.977
 70
    32
  0
VERTEX
  8
W75SURC
 62
1
 10
1923.673
 20
-6974.150
 30
-2171.998
 70
    32
  0
VERTEX
  8
W75SURC
 62
1
 10
1932.896
 20
-6971.952
 30
-2172.061
 70
    32
  0
VERTEX
  8
W75SURC
 62
1
 10
1940.234
 20
-6973.138
 30
-2172.119
 70
    32
  0
VERTEX
  8
W75SURC
 62
1
 10
1944.979
 20
-6984.198
 30
-2172.184
 70
    32
  0
VERTEX
  8
W75SURC
 62
1
 10
1949.161
 20
-6987.324
 30
-2172.223
 70
    32
  0
VERTEX
  8
W75SURC
 62
1
 10
1950.775
 20
-6987.224
 30
-2172.235
 70
    32
  0
VERTEX
  8
W75SURC
 62
1
 10
1993.194
 20
-7030.067
 30
-2171.979
 70
    32
  0
VERTEX
  8
W75SURC
 62
1
 10
1998.940
 20
-7031.194
 30
-2171.977
 70
    32
  0
VERTEX
  8
W75SURC
 62
1
 10
2006.611
 20
-7036.901
 30
-2171.514
 70
    32
  0
VERTEX
  8
W75SURC
 62
1
 10
2016.126
 20
-7039.300
 30
-2171.252
 70
    32
  0
VERTEX
  8
W75SURC
 62
1
 10
2008.595
 20
-7042.717
 30
-2171.394
 70
    32
  0
VERTEX
  8
W75SURC
 62
1
 10
1982.518
 20
-7045.238
 30
-2171.537
 70
    32
  0
VERTEX
  8
W75SURC
 62
1
 10
1982.194
 20
-7048.981
 30
-2171.680
 70
    32
  0
VERTEX
  8
W75SURC
 62
1
 10
1983.733
 20
-7057.034
 30
-2171.822
 70
    32
  0
SEQEND
  8
W75SURC
  0
POLYLINE
  8
W75SURC
 62
1
 66
     1
 70
     9
  0
VERTEX
  8
W75SURC
 62
1
 10
2495.746
 20
-8200.461
 30
-2145.430
 70
    32
  0
VERTEX
  8
W75SURC
 62
1
 10
2507.828
 20
-8215.578
 30
-2146.590
 70
    32
  0
VERTEX
  8
W75SURC
 62
1
 10
2529.956
 20
-8251.032
 30
-2144.918
 70
    32
  0
VERTEX
  8
W75SURC
 62
1
 10
2528.995
 20
-8256.185
 30
-2145.208
 70
    32
  0
VERTEX
  8
W75SURC
 62
1
 10
2531.529
 20
-8262.261
 30
-2145.661
 70
    32
  0
VERTEX
  8
W75SURC
 62
1
 10
2526.242
 20
-8274.194
 30
-2146.238
 70
    32
  0
VERTEX
  8
W75SURC
 62
1
 10
2521.325
 20
-8277.390
 30
-2146.286
 70
    32
  0
VERTEX
  8
W75SURC
 62
1
 10
2516.308
 20
-8272.871
 30
-2145.853
 70
    32
  0
VERTEX
  8
W75SURC
 62
1
 10
2513.603
 20
-8272.042
 30
-2145.720
 70
    32
  0
VERTEX
  8
W75SURC
 62
1
 10
2509.985
 20
-8262.944
 30
-2145.047
 70
    32
  0
VERTEX
  8
W75SURC
 62
1
 10
2498.763
 20
-8261.174
 30
-2144.595
 70
    32
  0
VERTEX
  8
W75SURC
 62
1
 10
2491.435
 20
-8239.445
 30
-2146.383
 70
    32
  0
VERTEX
  8
W75SURC
 62
1
 10
2479.100
 20
-8211.821
 30
-2145.295
 70
    32
  0
VERTEX
  8
W75SURC
 62
1
 10
2488.064
 20
-8211.587
 30
-2145.340
 70
    32
  0
VERTEX
  8
W75SURC
 62
1
 10
2497.376
 20
-8203.975
 30
-2145.385
 70
    32
  0
SEQEND
  8
W75SURC
  0
POLYLINE
  8
W75SURC
 62
1
 66
     1
 70
     9
  0
VERTEX
  8
W75SURC
 62
1
 10
2454.422
 20
-8154.082
 30
-2146.506
 70
    32
  0
VERTEX
  8
W75SURC
 62
1
 10
2453.742
 20
-8148.623
 30
-2146.251
 70
    32
  0
VERTEX
  8
W75SURC
 62
1
 10
2457.994
 20
-8143.652
 30
-2146.222
 70
    32
  0
VERTEX
  8
W75SURC
 62
1
 10
2458.846
 20
-8142.370
 30
-2146.219
 70
    32
  0
SEQEND
  8
W75SURC
  0
POLYLINE
  8
W75SURC
 62
1
 66
     1
 70
     9
  0
VERTEX
  8
W75SURC
 62
1
 10
2434.983
 20
-8168.136
 30
-2147.672
 70
    32
  0
VERTEX
  8
W75SURC
 62
1
 10
2427.733
 20
-8151.458
 30
-2149.443
 70
    32
  0
VERTEX
  8
W75SURC
 62
1
 10
2423.932
 20
-8144.040
 30
-2149.444
 70
    32
  0
VERTEX
  8
W75SURC
 62
1
 10
2427.369
 20
-8139.122
 30
-2149.336
 70
    32
  0
VERTEX
  8
W75SURC
 62
1
 10
2434.404
 20
-8139.681
 30
-2149.275
 70
    32
  0
VERTEX
  8
W75SURC
 62
1
 10
2441.029
 20
-8150.344
 30
-2148.702
 70
    32
  0
VERTEX
  8
W75SURC
 62
1
 10
2445.576
 20
-8157.478
 30
-2147.630
 70
    32
  0
VERTEX
  8
W75SURC
 62
1
 10
2444.179
 20
-8156.541
 30
-2147.638
 70
    32
  0
VERTEX
  8
W75SURC
 62
1
 10
2438.242
 20
-8157.127
 30
-2147.647
 70
    32
  0
VERTEX
  8
W75SURC
 62
1
 10
2433.237
 20
-8161.929
 30
-2147.655
 70
    32
  0
VERTEX
  8
W75SURC
 62
1
 10
2435.914
 20
-8167.550
 30
-2147.663
 70
    32
  0
SEQEND
  8
W75SURC
  0
POLYLINE
  8
W75SURC
 62
1
 66
     1
 70
     9
  0
VERTEX
  8
W75SURC
 62
1
 10
2512.659
 20
-8272.168
 30
-2145.986
 70
    32
  0
VERTEX
  8
W75SURC
 62
1
 10
2513.315
 20
-8296.644
 30
-2146.014
 70
    32
  0
VERTEX
  8
W75SURC
 62
1
 10
2518.235
 20
-8296.439
 30
-2146.011
 70
    32
  0
VERTEX
  8
W75SURC
 62
1
 10
2523.164
 20
-8293.998
 30
-2146.005
 70
    32
  0
VERTEX
  8
W75SURC
 62
1
 10
2521.853
 20
-8286.845
 30
-2145.997
 70
    32
  0
VERTEX
  8
W75SURC
 62
1
 10
2523.005
 20
-8279.453
 30
-2145.988
 70
    32
  0
VERTEX
  8
W75SURC
 62
1
 10
2525.310
 20
-8274.758
 30
-2145.986
 70
    32
  0
VERTEX
  8
W75SURC
 62
1
 10
2521.297
 20
-8277.416
 30
-2145.984
 70
    32
  0
VERTEX
  8
W75SURC
 62
1
 10
2516.332
 20
-8272.918
 30
-2145.984
 70
    32
  0
VERTEX
  8
W75SURC
 62
1
 10
2513.611
 20
-8272.032
 30
-2145.985
 70
    32
  0
VERTEX
  8
W75SURC
 62
1
 10
2510.075
 20
-8263.037
 30
-2145.985
 70
    32
  0
SEQEND
  8
W75SURC
  0
POLYLINE
  8
W75SURC
 62
4
 66
     1
 70
     9
  0
VERTEX
  8
W75SURC
 62
4
 10
1980.495
 20
-7037.930
 30
-2200.778
 70
    32
  0
VERTEX
  8
W75SURC
 62
4
 10
1975.452
 20
-7034.530
 30
-2200.499
 70
    32
  0
VERTEX
  8
W75SURC
 62
4
 10
1969.128
 20
-7025.127
 30
-2201.458
 70
    32
  0
VERTEX
  8
W75SURC
 62
4
 10
1958.209
 20
-7019.691
 30
-2202.256
 70
    32
  0
VERTEX
  8
W75SURC
 62
4
 10
1929.127
 20
-7009.532
 30
-2201.179
 70
    32
  0
VERTEX
  8
W75SURC
 62
4
 10
1924.339
 20
-7005.916
 30
-2201.082
 70
    32
  0
VERTEX
  8
W75SURC
 62
4
 10
1927.582
 20
-6993.327
 30
-2201.002
 70
    32
  0
VERTEX
  8
W75SURC
 62
4
 10
1936.613
 20
-6983.807
 30
-2201.901
 70
    32
  0
VERTEX
  8
W75SURC
 62
4
 10
1942.288
 20
-6982.482
 30
-2201.095
 70
    32
  0
VERTEX
  8
W75SURC
 62
4
 10
1949.340
 20
-6989.903
 30
-2201.330
 70
    32
  0
VERTEX
  8
W75SURC
 62
4
 10
1953.403
 20
-6991.425
 30
-2200.932
 70
    32
  0
VERTEX
  8
W75SURC
 62
4
 10
1959.119
 20
-6998.548
 30
-2201.122
 70
    32
  0
VERTEX
  8
W75SURC
 62
4
 10
1978.572
 20
-7016.648
 30
-2201.500
 70
    32
  0
VERTEX
  8
W75SURC
 62
4
 10
1987.777
 20
-7023.779
 30
-2200.850
 70
    32
  0
VERTEX
  8
W75SURC
 62
4
 10
1990.556
 20
-7029.334
 30
-2201.949
 70
    32
  0
VERTEX
  8
W75SURC
 62
4
 10
1994.631
 20
-7034.106
 30
-2202.189
 70
    32
  0
VERTEX
  8
W75SURC
 62
4
 10
1984.206
 20
-7027.524
 30
-2201.719
 70
    32
  0
VERTEX
  8
W75SURC
 62
4
 10
1980.407
 20
-7032.060
 30
-2201.248
 70
    32
  0
SEQEND
  8
W75SURC
  0
POLYLINE
  8
W75SURC
 62
1
 66
     1
 70
     9
  0
VERTEX
  8
W75SURC
 62
1
 10
2384.420
 20
-8183.150
 30
-2151.683
 70
    32
  0
VERTEX
  8
W75SURC
 62
1
 10
2410.686
 20
-8176.908
 30
-2143.421
 70
    32
  0
VERTEX
  8
W75SURC
 62
1
 10
2435.293
 20
-8167.062
 30
-2136.726
 70
    32
  0
VERTEX
  8
W75SURC
 62
1
 10
2441.971
 20
-8161.648
 30
-2135.802
 70
    32
  0
VERTEX
  8
W75SURC
 62
1
 10
2448.354
 20
-8160.607
 30
-2135.218
 70
    32
  0
VERTEX
  8
W75SURC
 62
1
 10
2456.224
 20
-8151.676
 30
-2134.518
 70
    32
  0
VERTEX
  8
W75SURC
 62
1
 10
2462.240
 20
-8149.661
 30
-2132.159
 70
    32
  0
VERTEX
  8
W75SURC
 62
1
 10
2467.529
 20
-8151.169
 30
-2132.157
 70
    32
  0
VERTEX
  8
W75SURC
 62
1
 10
2463.156
 20
-8161.824
 30
-2133.000
 70
    32
  0
VERTEX
  8
W75SURC
 62
1
 10
2464.838
 20
-8170.382
 30
-2132.389
 70
    32
  0
VERTEX
  8
W75SURC
 62
1
 10
2470.412
 20
-8177.741
 30
-2135.593
 70
    32
  0
VERTEX
  8
W75SURC
 62
1
 10
2477.128
 20
-8182.382
 30
-2134.232
 70
    32
  0
VERTEX
  8
W75SURC
 62
1
 10
2485.479
 20
-8191.337
 30
-2133.540
 70
    32
  0
VERTEX
  8
W75SURC
 62
1
 10
2481.086
 20
-8203.152
 30
-2133.508
 70
    32
  0
VERTEX
  8
W75SURC
 62
1
 10
2481.934
 20
-8217.950
 30
-2135.044
 70
    32
  0
VERTEX
  8
W75SURC
 62
1
 10
2468.608
 20
-8222.497
 30
-2135.138
 70
    32
  0
VERTEX
  8
W75SURC
 62
1
 10
2466.287
 20
-8208.234
 30
-2135.313
 70
    32
  0
VERTEX
  8
W75SURC
 62
1
 10
2461.243
 20
-8188.101
 30
-2136.311
 70
    32
  0
VERTEX
  8
W75SURC
 62
1
 10
2457.115
 20
-8181.933
 30
-2135.450
 70
    32
  0
VERTEX
  8
W75SURC
 62
1
 10
2452.676
 20
-8180.282
 30
-2135.447
 70
    32
  0
VERTEX
  8
W75SURC
 62
1
 10
2447.589
 20
-8182.267
 30
-2134.728
 70
    32
  0
VERTEX
  8
W75SURC
 62
1
 10
2443.553
 20
-8180.725
 30
-2136.105
 70
    32
  0
VERTEX
  8
W75SURC
 62
1
 10
2436.677
 20
-8181.151
 30
-2136.305
 70
    32
  0
VERTEX
  8
W75SURC
 62
1
 10
2416.650
 20
-8184.989
 30
-2142.918
 70
    32
  0
VERTEX
  8
W75SURC
 62
1
 10
2387.458
 20
-8194.194
 30
-2151.760
 70
    32
  0
SEQEND
  8
W75SURC
  0
POLYLINE
  8
W75SURC
 62
1
 66
     1
 70
     9
  0
VERTEX
  8
W75SURC
 62
1
 10
2468.443
 20
-8222.714
 30
-2134.503
 70
    32
  0
VERTEX
  8
W75SURC
 62
1
 10
2469.357
 20
-8228.966
 30
-2134.218
 70
    32
  0
VERTEX
  8
W75SURC
 62
1
 10
2476.541
 20
-8231.935
 30
-2134.511
 70
    32
  0
VERTEX
  8
W75SURC
 62
1
 10
2482.317
 20
-8246.176
 30
-2133.216
 70
    32
  0
VERTEX
  8
W75SURC
 62
1
 10
2484.888
 20
-8261.350
 30
-2132.315
 70
    32
  0
VERTEX
  8
W75SURC
 62
1
 10
2491.147
 20
-8261.975
 30
-2131.434
 70
    32
  0
VERTEX
  8
W75SURC
 62
1
 10
2504.081
 20
-8269.285
 30
-2131.568
 70
    32
  0
VERTEX
  8
W75SURC
 62
1
 10
2520.749
 20
-8261.970
 30
-2132.724
 70
    32
  0
VERTEX
  8
W75SURC
 62
1
 10
2520.068
 20
-8253.913
 30
-2132.419
 70
    32
  0
VERTEX
  8
W75SURC
 62
1
 10
2509.625
 20
-8241.523
 30
-2133.534
 70
    32
  0
VERTEX
  8
W75SURC
 62
1
 10
2499.918
 20
-8231.732
 30
-2133.661
 70
    32
  0
VERTEX
  8
W75SURC
 62
1
 10
2487.373
 20
-8221.916
 30
-2135.896
 70
    32
  0
VERTEX
  8
W75SURC
 62
1
 10
2483.428
 20
-8212.095
 30
-2135.876
 70
    32
  0
VERTEX
  8
W75SURC
 62
1
 10
2481.438
 20
-8204.967
 30
-2134.558
 70
    32
  0
VERTEX
  8
W75SURC
 62
1
 10
2481.944
 20
-8218.151
 30
-2134.531
 70
    32
  0
SEQEND
  8
W75SURC
  0
ENDSEC
  0
EOF
