999
********************************
999
*   DXF File - Entities Only   *
999
*        3D Data Format        *
999
*     Output from ENVISAGE     *
999
*     02-Jan-2008 11:44:03     *
999
********************************
  0
SECTION 
  2
HEADER
  9
$ACADVER
  1
AC1009
  9
$EXTMIN
 10
-290000.000
 20
-250000.000
 30
-4000.000
  9
$EXTMAX
 10
320000.000
 20
160000.000
 30
6000.000
  0
ENDSEC
  0
SECTION
  2
ENTITIES
  0
LINE
  8
W77LPLIFT
 62
6
 10
1957.774
 20
-6350.762
 30
-2370.963
 11
1973.155
 21
-6348.004
 31
-2371.396
  0
POLYLINE
  8
W77LPLIFT
 62
8
 66
     1
 70
     8
  0
VERTEX
  8
W77LPLIFT
 62
8
 10
1931.159
 20
-6366.244
 30
-2273.455
 70
    32
  0
VERTEX
  8
W77LPLIFT
 62
8
 10
1952.749
 20
-6378.161
 30
-2272.399
 70
    32
  0
VERTEX
  8
W77LPLIFT
 62
8
 10
1984.660
 20
-6394.607
 30
-2271.234
 70
    32
  0
VERTEX
  8
W77LPLIFT
 62
8
 10
2010.246
 20
-6402.775
 30
-2269.898
 70
    32
  0
VERTEX
  8
W77LPLIFT
 62
8
 10
2023.537
 20
-6405.667
 30
-2268.689
 70
    32
  0
VERTEX
  8
W77LPLIFT
 62
8
 10
2029.259
 20
-6403.239
 30
-2268.295
 70
    32
  0
VERTEX
  8
W77LPLIFT
 62
8
 10
2033.224
 20
-6400.782
 30
-2269.006
 70
    32
  0
VERTEX
  8
W77LPLIFT
 62
8
 10
2029.766
 20
-6387.441
 30
-2268.181
 70
    32
  0
VERTEX
  8
W77LPLIFT
 62
8
 10
2027.955
 20
-6382.110
 30
-2267.608
 70
    32
  0
VERTEX
  8
W77LPLIFT
 62
8
 10
2036.655
 20
-6377.908
 30
-2266.390
 70
    32
  0
VERTEX
  8
W77LPLIFT
 62
8
 10
2042.567
 20
-6386.115
 30
-2266.829
 70
    32
  0
VERTEX
  8
W77LPLIFT
 62
8
 10
2045.141
 20
-6398.637
 30
-2266.075
 70
    32
  0
VERTEX
  8
W77LPLIFT
 62
8
 10
2048.710
 20
-6410.532
 30
-2265.355
 70
    32
  0
VERTEX
  8
W77LPLIFT
 62
8
 10
2048.527
 20
-6424.320
 30
-2266.415
 70
    32
  0
VERTEX
  8
W77LPLIFT
 62
8
 10
2050.435
 20
-6434.053
 30
-2267.275
 70
    32
  0
VERTEX
  8
W77LPLIFT
 62
8
 10
2053.501
 20
-6443.847
 30
-2268.099
 70
    32
  0
VERTEX
  8
W77LPLIFT
 62
8
 10
2057.776
 20
-6451.803
 30
-2267.069
 70
    32
  0
VERTEX
  8
W77LPLIFT
 62
8
 10
2061.705
 20
-6463.857
 30
-2267.858
 70
    32
  0
VERTEX
  8
W77LPLIFT
 62
8
 10
2066.583
 20
-6474.350
 30
-2266.235
 70
    32
  0
VERTEX
  8
W77LPLIFT
 62
8
 10
2072.865
 20
-6489.335
 30
-2265.974
 70
    32
  0
VERTEX
  8
W77LPLIFT
 62
8
 10
2076.547
 20
-6492.756
 30
-2265.408
 70
    32
  0
VERTEX
  8
W77LPLIFT
 62
8
 10
2080.951
 20
-6498.229
 30
-2265.162
 70
    32
  0
VERTEX
  8
W77LPLIFT
 62
8
 10
2088.760
 20
-6514.259
 30
-2263.369
 70
    32
  0
VERTEX
  8
W77LPLIFT
 62
8
 10
2073.718
 20
-6519.793
 30
-2265.277
 70
    32
  0
VERTEX
  8
W77LPLIFT
 62
8
 10
2072.343
 20
-6520.743
 30
-2265.012
 70
    32
  0
VERTEX
  8
W77LPLIFT
 62
8
 10
2054.788
 20
-6513.247
 30
-2264.625
 70
    32
  0
VERTEX
  8
W77LPLIFT
 62
8
 10
2046.593
 20
-6500.156
 30
-2266.501
 70
    32
  0
VERTEX
  8
W77LPLIFT
 62
8
 10
2046.274
 20
-6493.358
 30
-2266.122
 70
    32
  0
VERTEX
  8
W77LPLIFT
 62
8
 10
2041.391
 20
-6487.370
 30
-2266.805
 70
    32
  0
VERTEX
  8
W77LPLIFT
 62
8
 10
2043.487
 20
-6472.055
 30
-2267.780
 70
    32
  0
VERTEX
  8
W77LPLIFT
 62
8
 10
2042.846
 20
-6461.342
 30
-2268.773
 70
    32
  0
VERTEX
  8
W77LPLIFT
 62
8
 10
2039.697
 20
-6446.541
 30
-2268.049
 70
    32
  0
VERTEX
  8
W77LPLIFT
 62
8
 10
2037.724
 20
-6440.841
 30
-2267.323
 70
    32
  0
VERTEX
  8
W77LPLIFT
 62
8
 10
2035.890
 20
-6435.003
 30
-2268.601
 70
    32
  0
VERTEX
  8
W77LPLIFT
 62
8
 10
2028.644
 20
-6431.113
 30
-2269.299
 70
    32
  0
VERTEX
  8
W77LPLIFT
 62
8
 10
2024.418
 20
-6418.684
 30
-2269.205
 70
    32
  0
VERTEX
  8
W77LPLIFT
 62
8
 10
2007.267
 20
-6413.894
 30
-2269.342
 70
    32
  0
VERTEX
  8
W77LPLIFT
 62
8
 10
1990.839
 20
-6408.998
 30
-2269.986
 70
    32
  0
VERTEX
  8
W77LPLIFT
 62
8
 10
1985.920
 20
-6405.303
 30
-2269.918
 70
    32
  0
VERTEX
  8
W77LPLIFT
 62
8
 10
1958.767
 20
-6394.632
 30
-2270.905
 70
    32
  0
VERTEX
  8
W77LPLIFT
 62
8
 10
1927.879
 20
-6375.845
 30
-2273.961
 70
    32
  0
SEQEND
  8
W77LPLIFT
  0
TEXT
  8
W77LPLIFT
 62
8
 10
2041.494
 20
-6408.190
 30
-2267.653
 40
1.969
  1
-2267.6531
 50
26.340
 41
 1.0 
  0
TEXT
  8
W77LPLIFT
 62
8
 10
2044.565
 20
-6409.655
 30
-2267.653
 40
1.969
  1
ST-488T
 50
26.340
 41
 1.0 
  0
POLYLINE
  8
W77LPLIFT
 62
8
 66
     1
 70
     9
  0
VERTEX
  8
W77LPLIFT
 62
8
 10
2039.695
 20
-6408.612
 30
-2267.653
 70
    32
  0
VERTEX
  8
W77LPLIFT
 62
8
 10
2037.695
 20
-6412.078
 30
-2267.653
 70
    32
  0
VERTEX
  8
W77LPLIFT
 62
8
 10
2041.695
 20
-6412.078
 30
-2267.653
 70
    32
  0
SEQEND
  8
W77LPLIFT
  0
POINT
  8
W77LPLIFT
 62
8
 10
2039.867
 20
-6410.862
 30
-2267.653
  0
POLYLINE
  8
W77LPLIFT
 62
8
 66
     1
 70
     9
  0
VERTEX
  8
W77LPLIFT
 62
8
 10
2042.116
 20
-6416.828
 30
-2267.620
 70
    32
  0
VERTEX
  8
W77LPLIFT
 62
8
 10
2040.116
 20
-6420.294
 30
-2267.620
 70
    32
  0
VERTEX
  8
W77LPLIFT
 62
8
 10
2044.116
 20
-6420.294
 30
-2267.620
 70
    32
  0
SEQEND
  8
W77LPLIFT
  0
POINT
  8
W77LPLIFT
 62
8
 10
2042.116
 20
-6419.164
 30
-2267.620
  0
TEXT
  8
W77LPLIFT
 62
8
 10
2046.151
 20
-6422.094
 30
-2267.620
 40
1.969
  1
-2267.6204
 50
26.340
 41
 1.0 
  0
TEXT
  8
W77LPLIFT
 62
8
 10
2046.556
 20
-6418.819
 30
-2267.620
 40
1.969
  1
ST-488S
 50
26.340
 41
 1.0 
  0
POINT
  8
W77LPLIFT
 62
7
 10
2539.361
 20
-8077.070
 30
-2334.719
  0
POLYLINE
  8
W77LPLIFT
 62
7
 66
     1
 70
     9
  0
VERTEX
  8
W77LPLIFT
 62
7
 10
2539.361
 20
-8075.337
 30
-2334.719
 70
    32
  0
VERTEX
  8
W77LPLIFT
 62
7
 10
2537.361
 20
-8078.804
 30
-2334.719
 70
    32
  0
VERTEX
  8
W77LPLIFT
 62
7
 10
2541.361
 20
-8078.804
 30
-2334.719
 70
    32
  0
SEQEND
  8
W77LPLIFT
  0
POINT
  8
W77LPLIFT
 62
7
 10
2540.354
 20
-8079.442
 30
-2334.622
  0
POLYLINE
  8
W77LPLIFT
 62
7
 66
     1
 70
     9
  0
VERTEX
  8
W77LPLIFT
 62
7
 10
2540.354
 20
-8077.709
 30
-2334.622
 70
    32
  0
VERTEX
  8
W77LPLIFT
 62
7
 10
2538.354
 20
-8081.175
 30
-2334.622
 70
    32
  0
VERTEX
  8
W77LPLIFT
 62
7
 10
2542.354
 20
-8081.175
 30
-2334.622
 70
    32
  0
SEQEND
  8
W77LPLIFT
  0
TEXT
  8
W77LPLIFT
 62
7
 10
2511.305
 20
-8089.884
 30
-2334.719
 40
1.969
  1
-2334.7187
 50
27.946
 41
 1.0 
  0
TEXT
  8
W77LPLIFT
 62
7
 10
2518.378
 20
-8090.040
 30
-2334.719
 40
1.969
  1
ST-928T
 50
27.946
 41
 1.0 
  0
TEXT
  8
W77LPLIFT
 62
7
 10
2519.994
 20
-8093.506
 30
-2334.622
 40
1.969
  1
ST-928S
 50
27.946
 41
 1.0 
  0
TEXT
  8
W77LPLIFT
 62
7
 10
2515.884
 20
-8099.132
 30
-2334.622
 40
1.969
  1
-2334.6218
 50
27.946
 41
 1.0 
  0
POLYLINE
  8
W77LPLIFT
 62
7
 66
     1
 70
     9
  0
VERTEX
  8
W77LPLIFT
 62
7
 10
2568.675
 20
-8123.260
 30
-2334.959
 70
    32
  0
VERTEX
  8
W77LPLIFT
 62
7
 10
2566.675
 20
-8126.727
 30
-2334.959
 70
    32
  0
VERTEX
  8
W77LPLIFT
 62
7
 10
2570.675
 20
-8126.727
 30
-2334.959
 70
    32
  0
SEQEND
  8
W77LPLIFT
  0
POINT
  8
W77LPLIFT
 62
7
 10
2568.675
 20
-8124.993
 30
-2334.959
  0
TEXT
  8
W77LPLIFT
 62
7
 10
2581.424
 20
-8119.028
 30
-2334.959
 40
1.969
  1
-2334.9585
 41
 1.0 
  0
TEXT
  8
W77LPLIFT
 62
7
 10
2582.052
 20
-8123.694
 30
-2334.959
 40
1.969
  1
ST-940T
 41
 1.0 
  0
TEXT
  8
W77LPLIFT
 62
7
 10
2586.786
 20
-8137.296
 30
-2334.178
 40
1.969
  1
ST-940S
 41
 1.0 
  0
TEXT
  8
W77LPLIFT
 62
7
 10
2585.786
 20
-8141.017
 30
-2334.178
 40
1.969
  1
-2334.1776
 41
 1.0 
  0
TEXT
  8
W77LPLIFT
 62
7
 10
2530.142
 20
-8129.467
 30
-2336.569
 40
1.969
  1
-2336.5691
 41
 1.0 
  0
TEXT
  8
W77LPLIFT
 62
7
 10
2535.363
 20
-8132.873
 30
-2336.569
 40
1.969
  1
ST-935T
 41
 1.0 
  0
TEXT
  8
W77LPLIFT
 62
7
 10
2530.591
 20
-8142.620
 30
-2335.902
 40
1.969
  1
-2335.9021
 41
 1.0 
  0
TEXT
  8
W77LPLIFT
 62
7
 10
2535.624
 20
-8139.875
 30
-2335.902
 40
1.969
  1
ST-935S
 41
 1.0 
  0
POINT
  8
W77LPLIFT
 62
7
 10
2556.401
 20
-8131.927
 30
-2336.569
  0
POLYLINE
  8
W77LPLIFT
 62
7
 66
     1
 70
     9
  0
VERTEX
  8
W77LPLIFT
 62
7
 10
2556.401
 20
-8130.194
 30
-2336.569
 70
    32
  0
VERTEX
  8
W77LPLIFT
 62
7
 10
2554.401
 20
-8133.661
 30
-2336.569
 70
    32
  0
VERTEX
  8
W77LPLIFT
 62
7
 10
2558.401
 20
-8133.661
 30
-2336.569
 70
    32
  0
SEQEND
  8
W77LPLIFT
  0
POINT
  8
W77LPLIFT
 62
7
 10
2556.945
 20
-8138.077
 30
-2335.902
  0
POLYLINE
  8
W77LPLIFT
 62
7
 66
     1
 70
     9
  0
VERTEX
  8
W77LPLIFT
 62
7
 10
2556.945
 20
-8136.344
 30
-2335.902
 70
    32
  0
VERTEX
  8
W77LPLIFT
 62
7
 10
2554.945
 20
-8139.810
 30
-2335.902
 70
    32
  0
VERTEX
  8
W77LPLIFT
 62
7
 10
2558.945
 20
-8139.810
 30
-2335.902
 70
    32
  0
SEQEND
  8
W77LPLIFT
  0
POINT
  8
W77LPLIFT
 62
7
 10
2572.482
 20
-8136.363
 30
-2334.178
  0
POLYLINE
  8
W77LPLIFT
 62
7
 66
     1
 70
     9
  0
VERTEX
  8
W77LPLIFT
 62
7
 10
2572.482
 20
-8134.630
 30
-2334.178
 70
    32
  0
VERTEX
  8
W77LPLIFT
 62
7
 10
2570.482
 20
-8138.096
 30
-2334.178
 70
    32
  0
VERTEX
  8
W77LPLIFT
 62
7
 10
2574.482
 20
-8138.096
 30
-2334.178
 70
    32
  0
SEQEND
  8
W77LPLIFT
  0
POLYLINE
  8
W77LPLIFT
 62
7
 66
     1
 70
     9
  0
VERTEX
  8
W77LPLIFT
 62
7
 10
2513.730
 20
-8046.139
 30
-2343.555
 70
    32
  0
VERTEX
  8
W77LPLIFT
 62
7
 10
2533.906
 20
-8062.913
 30
-2337.274
 70
    32
  0
VERTEX
  8
W77LPLIFT
 62
7
 10
2541.628
 20
-8069.912
 30
-2335.967
 70
    32
  0
VERTEX
  8
W77LPLIFT
 62
7
 10
2541.210
 20
-8074.970
 30
-2335.235
 70
    32
  0
VERTEX
  8
W77LPLIFT
 62
7
 10
2554.438
 20
-8091.261
 30
-2334.039
 70
    32
  0
VERTEX
  8
W77LPLIFT
 62
7
 10
2560.952
 20
-8099.304
 30
-2334.630
 70
    32
  0
VERTEX
  8
W77LPLIFT
 62
7
 10
2567.564
 20
-8107.869
 30
-2335.465
 70
    32
  0
VERTEX
  8
W77LPLIFT
 62
7
 10
2570.633
 20
-8111.444
 30
-2335.129
 70
    32
  0
VERTEX
  8
W77LPLIFT
 62
7
 10
2574.447
 20
-8122.702
 30
-2332.780
 70
    32
  0
VERTEX
  8
W77LPLIFT
 62
7
 10
2576.604
 20
-8128.421
 30
-2333.970
 70
    32
  0
VERTEX
  8
W77LPLIFT
 62
7
 10
2575.987
 20
-8132.237
 30
-2334.912
 70
    32
  0
VERTEX
  8
W77LPLIFT
 62
7
 10
2581.339
 20
-8148.634
 30
-2334.486
 70
    32
  0
VERTEX
  8
W77LPLIFT
 62
7
 10
2582.106
 20
-8150.264
 30
-2333.120
 70
    32
  0
VERTEX
  8
W77LPLIFT
 62
7
 10
2587.442
 20
-8152.737
 30
-2331.997
 70
    32
  0
VERTEX
  8
W77LPLIFT
 62
7
 10
2591.319
 20
-8153.859
 30
-2331.641
 70
    32
  0
VERTEX
  8
W77LPLIFT
 62
7
 10
2595.871
 20
-8154.265
 30
-2330.507
 70
    32
  0
VERTEX
  8
W77LPLIFT
 62
7
 10
2602.845
 20
-8153.667
 30
-2329.312
 70
    32
  0
VERTEX
  8
W77LPLIFT
 62
7
 10
2606.307
 20
-8163.476
 30
-2329.227
 70
    32
  0
VERTEX
  8
W77LPLIFT
 62
7
 10
2616.284
 20
-8169.184
 30
-2329.605
 70
    32
  0
VERTEX
  8
W77LPLIFT
 62
7
 10
2615.508
 20
-8180.347
 30
-2329.834
 70
    32
  0
VERTEX
  8
W77LPLIFT
 62
7
 10
2609.322
 20
-8187.122
 30
-2330.338
 70
    32
  0
VERTEX
  8
W77LPLIFT
 62
7
 10
2605.537
 20
-8192.015
 30
-2332.899
 70
    32
  0
VERTEX
  8
W77LPLIFT
 62
7
 10
2606.300
 20
-8198.027
 30
-2332.863
 70
    32
  0
VERTEX
  8
W77LPLIFT
 62
7
 10
2605.792
 20
-8208.700
 30
-2331.883
 70
    32
  0
VERTEX
  8
W77LPLIFT
 62
7
 10
2606.704
 20
-8219.116
 30
-2331.940
 70
    32
  0
VERTEX
  8
W77LPLIFT
 62
7
 10
2602.048
 20
-8220.316
 30
-2332.548
 70
    32
  0
VERTEX
  8
W77LPLIFT
 62
7
 10
2598.765
 20
-8219.526
 30
-2332.542
 70
    32
  0
VERTEX
  8
W77LPLIFT
 62
7
 10
2595.012
 20
-8218.087
 30
-2332.210
 70
    32
  0
VERTEX
  8
W77LPLIFT
 62
7
 10
2590.976
 20
-8215.474
 30
-2331.970
 70
    32
  0
VERTEX
  8
W77LPLIFT
 62
7
 10
2592.739
 20
-8204.325
 30
-2332.723
 70
    32
  0
VERTEX
  8
W77LPLIFT
 62
7
 10
2595.711
 20
-8195.037
 30
-2332.479
 70
    32
  0
VERTEX
  8
W77LPLIFT
 62
7
 10
2594.744
 20
-8189.952
 30
-2332.307
 70
    32
  0
VERTEX
  8
W77LPLIFT
 62
7
 10
2596.081
 20
-8182.219
 30
-2330.754
 70
    32
  0
VERTEX
  8
W77LPLIFT
 62
7
 10
2590.963
 20
-8174.503
 30
-2330.978
 70
    32
  0
VERTEX
  8
W77LPLIFT
 62
7
 10
2587.166
 20
-8172.442
 30
-2332.047
 70
    32
  0
VERTEX
  8
W77LPLIFT
 62
7
 10
2582.432
 20
-8166.635
 30
-2332.663
 70
    32
  0
VERTEX
  8
W77LPLIFT
 62
7
 10
2577.771
 20
-8164.268
 30
-2334.059
 70
    32
  0
VERTEX
  8
W77LPLIFT
 62
7
 10
2569.884
 20
-8162.847
 30
-2333.632
 70
    32
  0
VERTEX
  8
W77LPLIFT
 62
7
 10
2564.003
 20
-8164.122
 30
-2334.474
 70
    32
  0
VERTEX
  8
W77LPLIFT
 62
7
 10
2563.806
 20
-8166.422
 30
-2335.974
 70
    32
  0
VERTEX
  8
W77LPLIFT
 62
7
 10
2568.175
 20
-8186.607
 30
-2335.340
 70
    32
  0
VERTEX
  8
W77LPLIFT
 62
7
 10
2570.177
 20
-8204.384
 30
-2333.806
 70
    32
  0
VERTEX
  8
W77LPLIFT
 62
7
 10
2568.711
 20
-8217.064
 30
-2334.344
 70
    32
  0
VERTEX
  8
W77LPLIFT
 62
7
 10
2563.999
 20
-8219.010
 30
-2335.449
 70
    32
  0
VERTEX
  8
W77LPLIFT
 62
7
 10
2558.372
 20
-8213.954
 30
-2334.506
 70
    32
  0
VERTEX
  8
W77LPLIFT
 62
7
 10
2555.379
 20
-8203.181
 30
-2334.912
 70
    32
  0
VERTEX
  8
W77LPLIFT
 62
7
 10
2554.567
 20
-8190.200
 30
-2335.587
 70
    32
  0
VERTEX
  8
W77LPLIFT
 62
7
 10
2553.433
 20
-8181.560
 30
-2336.276
 70
    32
  0
VERTEX
  8
W77LPLIFT
 62
7
 10
2551.734
 20
-8178.818
 30
-2336.801
 70
    32
  0
VERTEX
  8
W77LPLIFT
 62
7
 10
2548.717
 20
-8170.088
 30
-2335.420
 70
    32
  0
VERTEX
  8
W77LPLIFT
 62
7
 10
2543.184
 20
-8163.387
 30
-2335.612
 70
    32
  0
VERTEX
  8
W77LPLIFT
 62
7
 10
2541.771
 20
-8158.810
 30
-2335.267
 70
    32
  0
VERTEX
  8
W77LPLIFT
 62
7
 10
2542.299
 20
-8153.995
 30
-2335.470
 70
    32
  0
VERTEX
  8
W77LPLIFT
 62
7
 10
2542.013
 20
-8147.516
 30
-2335.354
 70
    32
  0
VERTEX
  8
W77LPLIFT
 62
7
 10
2540.024
 20
-8143.509
 30
-2335.912
 70
    32
  0
VERTEX
  8
W77LPLIFT
 62
7
 10
2541.490
 20
-8138.292
 30
-2335.075
 70
    32
  0
VERTEX
  8
W77LPLIFT
 62
7
 10
2547.006
 20
-8132.969
 30
-2334.941
 70
    32
  0
VERTEX
  8
W77LPLIFT
 62
7
 10
2546.199
 20
-8124.710
 30
-2334.689
 70
    32
  0
VERTEX
  8
W77LPLIFT
 62
7
 10
2548.292
 20
-8112.776
 30
-2336.732
 70
    32
  0
VERTEX
  8
W77LPLIFT
 62
7
 10
2544.016
 20
-8100.427
 30
-2335.173
 70
    32
  0
VERTEX
  8
W77LPLIFT
 62
7
 10
2542.741
 20
-8097.100
 30
-2334.564
 70
    32
  0
VERTEX
  8
W77LPLIFT
 62
7
 10
2526.076
 20
-8071.144
 30
-2338.814
 70
    32
  0
VERTEX
  8
W77LPLIFT
 62
7
 10
2520.595
 20
-8067.277
 30
-2338.291
 70
    32
  0
VERTEX
  8
W77LPLIFT
 62
7
 10
2509.270
 20
-8054.613
 30
-2343.493
 70
    32
  0
SEQEND
  8
W77LPLIFT
  0
TEXT
  8
W77LPLIFT
 62
2
 10
2396.998
 20
-7799.902
 30
-2315.505
 40
1.969
  1
ST-25BEL
 50
38.644
 41
 1.0 
  0
POLYLINE
  8
W77LPLIFT
 62
2
 66
     1
 70
     9
  0
VERTEX
  8
W77LPLIFT
 62
2
 10
2393.268
 20
-7798.881
 30
-2315.505
 70
    32
  0
VERTEX
  8
W77LPLIFT
 62
2
 10
2391.268
 20
-7802.347
 30
-2315.505
 70
    32
  0
VERTEX
  8
W77LPLIFT
 62
2
 10
2395.268
 20
-7802.347
 30
-2315.505
 70
    32
  0
SEQEND
  8
W77LPLIFT
  0
TEXT
  8
W77LPLIFT
 62
2
 10
2398.718
 20
-7802.242
 30
-2315.505
 40
1.969
  1
-2315.5049
 50
38.644
 41
 1.0 
  0
TEXT
  8
W77LPLIFT
 62
6
 10
2392.441
 20
-7793.550
 30
-2317.659
 40
1.969
  1
-2317.6586
 50
30.297
 41
 1.0 
  0
POINT
  8
W77LPLIFT
 62
6
 10
2383.724
 20
-7798.358
 30
-2317.659
  0
POLYLINE
  8
W77LPLIFT
 62
6
 66
     1
 70
     9
  0
VERTEX
  8
W77LPLIFT
 62
6
 10
2383.724
 20
-7796.624
 30
-2317.659
 70
    32
  0
VERTEX
  8
W77LPLIFT
 62
6
 10
2381.724
 20
-7800.091
 30
-2317.659
 70
    32
  0
VERTEX
  8
W77LPLIFT
 62
6
 10
2385.724
 20
-7800.091
 30
-2317.659
 70
    32
  0
SEQEND
  8
W77LPLIFT
  0
POLYLINE
  8
W77LPLIFT
 62
6
 66
     1
 70
     9
  0
VERTEX
  8
W77LPLIFT
 62
6
 10
2381.541
 20
-7794.292
 30
-2317.501
 70
    32
  0
VERTEX
  8
W77LPLIFT
 62
6
 10
2379.541
 20
-7797.758
 30
-2317.501
 70
    32
  0
VERTEX
  8
W77LPLIFT
 62
6
 10
2383.541
 20
-7797.758
 30
-2317.501
 70
    32
  0
SEQEND
  8
W77LPLIFT
  0
POINT
  8
W77LPLIFT
 62
6
 10
2381.541
 20
-7796.025
 30
-2317.501
  0
TEXT
  8
W77LPLIFT
 62
6
 10
2391.586
 20
-7790.802
 30
-2317.659
 40
1.969
  1
ST-750S
 50
30.297
 41
 1.0 
  0
TEXT
  8
W77LPLIFT
 62
6
 10
2385.912
 20
-7786.867
 30
-2317.501
 40
1.969
  1
-2317.501
 50
30.297
 41
 1.0 
  0
TEXT
  8
W77LPLIFT
 62
6
 10
2389.174
 20
-7788.698
 30
-2317.501
 40
1.969
  1
ST-750T
 50
30.297
 41
 1.0 
  0
TEXT
  8
W77LPLIFT
 62
6
 10
2334.499
 20
-7719.926
 30
-2315.935
 40
1.969
  1
-2315.9346
 50
42.263
 41
 1.0 
  0
TEXT
  8
W77LPLIFT
 62
6
 10
2338.167
 20
-7721.281
 30
-2315.935
 40
1.969
  1
ST-772T
 50
42.263
 41
 1.0 
  0
POLYLINE
  8
W77LPLIFT
 62
6
 66
     1
 70
     9
  0
VERTEX
  8
W77LPLIFT
 62
6
 10
2330.558
 20
-7725.569
 30
-2315.935
 70
    32
  0
VERTEX
  8
W77LPLIFT
 62
6
 10
2328.558
 20
-7729.035
 30
-2315.935
 70
    32
  0
VERTEX
  8
W77LPLIFT
 62
6
 10
2332.558
 20
-7729.035
 30
-2315.935
 70
    32
  0
SEQEND
  8
W77LPLIFT
  0
POINT
  8
W77LPLIFT
 62
6
 10
2330.558
 20
-7727.302
 30
-2315.935
  0
POLYLINE
  8
W77LPLIFT
 62
6
 66
     1
 70
     9
  0
VERTEX
  8
W77LPLIFT
 62
6
 10
2337.466
 20
-7731.030
 30
-2316.839
 70
    32
  0
VERTEX
  8
W77LPLIFT
 62
6
 10
2335.466
 20
-7734.497
 30
-2316.839
 70
    32
  0
VERTEX
  8
W77LPLIFT
 62
6
 10
2339.466
 20
-7734.497
 30
-2316.839
 70
    32
  0
SEQEND
  8
W77LPLIFT
  0
POINT
  8
W77LPLIFT
 62
6
 10
2337.466
 20
-7732.764
 30
-2316.839
  0
TEXT
  8
W77LPLIFT
 62
6
 10
2345.976
 20
-7726.743
 30
-2316.839
 40
1.969
  1
ST-772S
 50
42.263
 41
 1.0 
  0
TEXT
  8
W77LPLIFT
 62
6
 10
2348.017
 20
-7730.656
 30
-2316.839
 40
1.969
  1
-2316.8389
 50
42.263
 41
 1.0 
  0
POINT
  8
W77LPLIFT
 62
2
 10
2393.268
 20
-7800.614
 30
-2315.505
  0
POLYLINE
  8
W77LPLIFT
 62
6
 66
     1
 70
     9
  0
VERTEX
  8
W77LPLIFT
 62
6
 10
2416.693
 20
-7851.122
 30
-2304.996
 70
    32
  0
VERTEX
  8
W77LPLIFT
 62
6
 10
2414.046
 20
-7842.849
 30
-2306.504
 70
    32
  0
VERTEX
  8
W77LPLIFT
 62
6
 10
2413.156
 20
-7829.944
 30
-2308.363
 70
    32
  0
VERTEX
  8
W77LPLIFT
 62
6
 10
2411.888
 20
-7819.927
 30
-2308.894
 70
    32
  0
VERTEX
  8
W77LPLIFT
 62
6
 10
2407.149
 20
-7812.852
 30
-2310.923
 70
    32
  0
VERTEX
  8
W77LPLIFT
 62
6
 10
2400.114
 20
-7804.351
 30
-2312.459
 70
    32
  0
VERTEX
  8
W77LPLIFT
 62
6
 10
2397.280
 20
-7804.692
 30
-2312.987
 70
    32
  0
VERTEX
  8
W77LPLIFT
 62
6
 10
2394.839
 20
-7804.048
 30
-2313.718
 70
    32
  0
VERTEX
  8
W77LPLIFT
 62
6
 10
2389.922
 20
-7796.030
 30
-2314.974
 70
    32
  0
VERTEX
  8
W77LPLIFT
 62
6
 10
2376.419
 20
-7780.891
 30
-2317.925
 70
    32
  0
VERTEX
  8
W77LPLIFT
 62
6
 10
2369.871
 20
-7773.623
 30
-2316.177
 70
    32
  0
VERTEX
  8
W77LPLIFT
 62
6
 10
2367.767
 20
-7775.934
 30
-2316.807
 70
    32
  0
VERTEX
  8
W77LPLIFT
 62
6
 10
2362.578
 20
-7758.948
 30
-2315.825
 70
    32
  0
VERTEX
  8
W77LPLIFT
 62
6
 10
2355.918
 20
-7754.017
 30
-2315.866
 70
    32
  0
VERTEX
  8
W77LPLIFT
 62
6
 10
2347.147
 20
-7735.375
 30
-2315.290
 70
    32
  0
VERTEX
  8
W77LPLIFT
 62
6
 10
2342.265
 20
-7726.412
 30
-2315.649
 70
    32
  0
VERTEX
  8
W77LPLIFT
 62
6
 10
2337.949
 20
-7726.739
 30
-2316.218
 70
    32
  0
VERTEX
  8
W77LPLIFT
 62
6
 10
2334.271
 20
-7721.914
 30
-2315.749
 70
    32
  0
VERTEX
  8
W77LPLIFT
 62
6
 10
2322.926
 20
-7715.520
 30
-2316.319
 70
    32
  0
VERTEX
  8
W77LPLIFT
 62
6
 10
2317.355
 20
-7708.694
 30
-2316.376
 70
    32
  0
VERTEX
  8
W77LPLIFT
 62
6
 10
2305.736
 20
-7697.903
 30
-2316.434
 70
    32
  0
VERTEX
  8
W77LPLIFT
 62
6
 10
2302.900
 20
-7699.014
 30
-2316.491
 70
    32
  0
VERTEX
  8
W77LPLIFT
 62
6
 10
2297.661
 20
-7696.435
 30
-2316.548
 70
    32
  0
VERTEX
  8
W77LPLIFT
 62
6
 10
2293.959
 20
-7705.282
 30
-2316.605
 70
    32
  0
VERTEX
  8
W77LPLIFT
 62
6
 10
2308.177
 20
-7715.399
 30
-2316.662
 70
    32
  0
VERTEX
  8
W77LPLIFT
 62
6
 10
2318.970
 20
-7722.262
 30
-2316.720
 70
    32
  0
VERTEX
  8
W77LPLIFT
 62
6
 10
2318.698
 20
-7725.570
 30
-2316.777
 70
    32
  0
VERTEX
  8
W77LPLIFT
 62
6
 10
2333.682
 20
-7736.311
 30
-2315.414
 70
    32
  0
VERTEX
  8
W77LPLIFT
 62
6
 10
2339.784
 20
-7744.719
 30
-2315.769
 70
    32
  0
VERTEX
  8
W77LPLIFT
 62
6
 10
2342.527
 20
-7748.539
 30
-2316.280
 70
    32
  0
VERTEX
  8
W77LPLIFT
 62
6
 10
2341.744
 20
-7750.904
 30
-2316.092
 70
    32
  0
VERTEX
  8
W77LPLIFT
 62
6
 10
2347.904
 20
-7761.350
 30
-2316.084
 70
    32
  0
VERTEX
  8
W77LPLIFT
 62
6
 10
2346.822
 20
-7769.434
 30
-2315.990
 70
    32
  0
VERTEX
  8
W77LPLIFT
 62
6
 10
2342.603
 20
-7774.845
 30
-2316.521
 70
    32
  0
VERTEX
  8
W77LPLIFT
 62
6
 10
2338.577
 20
-7777.558
 30
-2317.646
 70
    32
  0
VERTEX
  8
W77LPLIFT
 62
6
 10
2331.943
 20
-7777.143
 30
-2316.823
 70
    32
  0
VERTEX
  8
W77LPLIFT
 62
6
 10
2331.507
 20
-7778.873
 30
-2316.320
 70
    32
  0
VERTEX
  8
W77LPLIFT
 62
6
 10
2331.533
 20
-7782.831
 30
-2316.409
 70
    32
  0
VERTEX
  8
W77LPLIFT
 62
6
 10
2332.125
 20
-7788.427
 30
-2317.522
 70
    32
  0
VERTEX
  8
W77LPLIFT
 62
6
 10
2346.640
 20
-7790.333
 30
-2317.086
 70
    32
  0
VERTEX
  8
W77LPLIFT
 62
6
 10
2350.892
 20
-7799.873
 30
-2317.139
 70
    32
  0
VERTEX
  8
W77LPLIFT
 62
6
 10
2357.563
 20
-7802.696
 30
-2318.013
 70
    32
  0
VERTEX
  8
W77LPLIFT
 62
6
 10
2363.632
 20
-7806.088
 30
-2315.774
 70
    32
  0
VERTEX
  8
W77LPLIFT
 62
6
 10
2364.849
 20
-7815.339
 30
-2316.305
 70
    32
  0
VERTEX
  8
W77LPLIFT
 62
6
 10
2365.870
 20
-7823.297
 30
-2315.841
 70
    32
  0
VERTEX
  8
W77LPLIFT
 62
6
 10
2368.062
 20
-7823.780
 30
-2315.935
 70
    32
  0
VERTEX
  8
W77LPLIFT
 62
6
 10
2375.004
 20
-7825.429
 30
-2315.846
 70
    32
  0
VERTEX
  8
W77LPLIFT
 62
6
 10
2374.304
 20
-7811.304
 30
-2316.713
 70
    32
  0
VERTEX
  8
W77LPLIFT
 62
6
 10
2376.038
 20
-7808.912
 30
-2315.448
 70
    32
  0
VERTEX
  8
W77LPLIFT
 62
6
 10
2381.536
 20
-7807.271
 30
-2314.598
 70
    32
  0
VERTEX
  8
W77LPLIFT
 62
6
 10
2384.917
 20
-7812.949
 30
-2315.833
 70
    32
  0
VERTEX
  8
W77LPLIFT
 62
6
 10
2391.677
 20
-7821.131
 30
-2312.329
 70
    32
  0
VERTEX
  8
W77LPLIFT
 62
6
 10
2402.102
 20
-7832.572
 30
-2309.060
 70
    32
  0
VERTEX
  8
W77LPLIFT
 62
6
 10
2399.559
 20
-7845.579
 30
-2308.952
 70
    32
  0
SEQEND
  8
W77LPLIFT
  0
ENDSEC
  0
EOF
