999
********************************
999
*   DXF File - Entities Only   *
999
*        3D Data Format        *
999
*     Output from ENVISAGE     *
999
*     02-Jan-2008 11:46:32     *
999
********************************
  0
SECTION 
  2
HEADER
  9
$ACADVER
  1
AC1009
  9
$EXTMIN
 10
-290000.000
 20
-250000.000
 30
-4000.000
  9
$EXTMAX
 10
320000.000
 20
160000.000
 30
6000.000
  0
ENDSEC
  0
SECTION
  2
ENTITIES
  0
POLYLINE
  8
W77LXLIFT
 62
3
 66
     1
 70
     9
  0
VERTEX
  8
W77LXLIFT
 62
3
 10
2063.866
 20
-6890.289
 30
-2412.000
 70
    32
  0
VERTEX
  8
W77LXLIFT
 62
3
 10
2067.351
 20
-6889.990
 30
-2412.000
 70
    32
  0
VERTEX
  8
W77LXLIFT
 62
3
 10
2071.875
 20
-6888.592
 30
-2412.000
 70
    32
  0
VERTEX
  8
W77LXLIFT
 62
3
 10
2075.629
 20
-6886.894
 30
-2412.000
 70
    32
  0
VERTEX
  8
W77LXLIFT
 62
3
 10
2076.896
 20
-6885.516
 30
-2412.000
 70
    32
  0
VERTEX
  8
W77LXLIFT
 62
3
 10
2076.649
 20
-6882.101
 30
-2412.000
 70
    32
  0
VERTEX
  8
W77LXLIFT
 62
3
 10
2076.292
 20
-6879.858
 30
-2412.000
 70
    32
  0
VERTEX
  8
W77LXLIFT
 62
3
 10
2076.780
 20
-6876.552
 30
-2412.000
 70
    32
  0
VERTEX
  8
W77LXLIFT
 62
3
 10
2078.241
 20
-6874.702
 30
-2412.000
 70
    32
  0
VERTEX
  8
W77LXLIFT
 62
3
 10
2080.829
 20
-6871.580
 30
-2412.000
 70
    32
  0
VERTEX
  8
W77LXLIFT
 62
3
 10
2083.538
 20
-6868.914
 30
-2412.000
 70
    32
  0
VERTEX
  8
W77LXLIFT
 62
3
 10
2086.050
 20
-6867.157
 30
-2412.000
 70
    32
  0
VERTEX
  8
W77LXLIFT
 62
3
 10
2088.365
 20
-6866.310
 30
-2412.000
 70
    32
  0
VERTEX
  8
W77LXLIFT
 62
3
 10
2091.101
 20
-6865.149
 30
-2412.000
 70
    32
  0
VERTEX
  8
W77LXLIFT
 62
3
 10
2093.506
 20
-6863.690
 30
-2412.000
 70
    32
  0
VERTEX
  8
W77LXLIFT
 62
3
 10
2095.336
 20
-6861.895
 30
-2412.000
 70
    32
  0
VERTEX
  8
W77LXLIFT
 62
3
 10
2097.159
 20
-6861.413
 30
-2412.000
 70
    32
  0
VERTEX
  8
W77LXLIFT
 62
3
 10
2098.554
 20
-6862.557
 30
-2412.000
 70
    32
  0
VERTEX
  8
W77LXLIFT
 62
3
 10
2102.268
 20
-6865.796
 30
-2412.000
 70
    32
  0
VERTEX
  8
W77LXLIFT
 62
3
 10
2111.717
 20
-6882.332
 30
-2412.000
 70
    32
  0
VERTEX
  8
W77LXLIFT
 62
3
 10
2113.347
 20
-6885.701
 30
-2412.000
 70
    32
  0
VERTEX
  8
W77LXLIFT
 62
3
 10
2115.337
 20
-6890.875
 30
-2412.000
 70
    32
  0
VERTEX
  8
W77LXLIFT
 62
3
 10
2116.979
 20
-6895.435
 30
-2412.000
 70
    32
  0
VERTEX
  8
W77LXLIFT
 62
3
 10
2117.194
 20
-6898.219
 30
-2412.000
 70
    32
  0
VERTEX
  8
W77LXLIFT
 62
3
 10
2115.909
 20
-6903.536
 30
-2412.000
 70
    32
  0
VERTEX
  8
W77LXLIFT
 62
3
 10
2113.881
 20
-6910.495
 30
-2412.000
 70
    32
  0
VERTEX
  8
W77LXLIFT
 62
3
 10
2113.036
 20
-6911.559
 30
-2412.000
 70
    32
  0
VERTEX
  8
W77LXLIFT
 62
3
 10
2111.560
 20
-6912.655
 30
-2412.000
 70
    32
  0
VERTEX
  8
W77LXLIFT
 62
3
 10
2107.193
 20
-6914.264
 30
-2412.000
 70
    32
  0
VERTEX
  8
W77LXLIFT
 62
3
 10
2105.330
 20
-6915.866
 30
-2412.000
 70
    32
  0
VERTEX
  8
W77LXLIFT
 62
3
 10
2103.212
 20
-6919.620
 30
-2412.000
 70
    32
  0
VERTEX
  8
W77LXLIFT
 62
3
 10
2103.373
 20
-6922.773
 30
-2412.000
 70
    32
  0
VERTEX
  8
W77LXLIFT
 62
3
 10
2100.427
 20
-6923.652
 30
-2412.000
 70
    32
  0
VERTEX
  8
W77LXLIFT
 62
3
 10
2097.438
 20
-6922.710
 30
-2412.000
 70
    32
  0
VERTEX
  8
W77LXLIFT
 62
3
 10
2092.926
 20
-6921.482
 30
-2412.000
 70
    32
  0
VERTEX
  8
W77LXLIFT
 62
3
 10
2088.599
 20
-6921.970
 30
-2412.000
 70
    32
  0
VERTEX
  8
W77LXLIFT
 62
3
 10
2085.793
 20
-6923.182
 30
-2412.000
 70
    32
  0
VERTEX
  8
W77LXLIFT
 62
3
 10
2082.022
 20
-6924.566
 30
-2412.000
 70
    32
  0
VERTEX
  8
W77LXLIFT
 62
3
 10
2079.623
 20
-6924.712
 30
-2412.000
 70
    32
  0
VERTEX
  8
W77LXLIFT
 62
3
 10
2077.229
 20
-6923.546
 30
-2412.000
 70
    32
  0
VERTEX
  8
W77LXLIFT
 62
3
 10
2074.736
 20
-6921.363
 30
-2412.000
 70
    32
  0
VERTEX
  8
W77LXLIFT
 62
3
 10
2071.545
 20
-6918.390
 30
-2412.000
 70
    32
  0
VERTEX
  8
W77LXLIFT
 62
3
 10
2068.708
 20
-6914.717
 30
-2412.000
 70
    32
  0
VERTEX
  8
W77LXLIFT
 62
3
 10
2065.946
 20
-6910.118
 30
-2412.000
 70
    32
  0
VERTEX
  8
W77LXLIFT
 62
3
 10
2063.546
 20
-6906.447
 30
-2412.000
 70
    32
  0
VERTEX
  8
W77LXLIFT
 62
3
 10
2060.882
 20
-6903.301
 30
-2412.000
 70
    32
  0
VERTEX
  8
W77LXLIFT
 62
3
 10
2059.033
 20
-6901.840
 30
-2412.000
 70
    32
  0
VERTEX
  8
W77LXLIFT
 62
3
 10
2056.312
 20
-6899.498
 30
-2412.000
 70
    32
  0
SEQEND
  8
W77LXLIFT
  0
POLYLINE
  8
W77LXLIFT
 62
3
 66
     1
 70
     9
  0
VERTEX
  8
W77LXLIFT
 62
3
 10
2056.312
 20
-6899.498
 30
-2412.000
 70
    32
  0
VERTEX
  8
W77LXLIFT
 62
3
 10
2052.327
 20
-6898.097
 30
-2412.000
 70
    32
  0
VERTEX
  8
W77LXLIFT
 62
3
 10
2050.251
 20
-6896.477
 30
-2412.000
 70
    32
  0
VERTEX
  8
W77LXLIFT
 62
3
 10
2046.761
 20
-6893.835
 30
-2412.000
 70
    32
  0
VERTEX
  8
W77LXLIFT
 62
3
 10
2043.448
 20
-6890.843
 30
-2412.000
 70
    32
  0
VERTEX
  8
W77LXLIFT
 62
3
 10
2041.083
 20
-6887.365
 30
-2412.000
 70
    32
  0
VERTEX
  8
W77LXLIFT
 62
3
 10
2038.804
 20
-6884.151
 30
-2412.000
 70
    32
  0
VERTEX
  8
W77LXLIFT
 62
3
 10
2036.823
 20
-6881.043
 30
-2412.000
 70
    32
  0
VERTEX
  8
W77LXLIFT
 62
3
 10
2035.104
 20
-6877.849
 30
-2412.000
 70
    32
  0
VERTEX
  8
W77LXLIFT
 62
3
 10
2034.148
 20
-6876.268
 30
-2412.000
 70
    32
  0
VERTEX
  8
W77LXLIFT
 62
3
 10
2031.874
 20
-6875.995
 30
-2412.000
 70
    32
  0
VERTEX
  8
W77LXLIFT
 62
3
 10
2029.916
 20
-6875.269
 30
-2412.000
 70
    32
  0
VERTEX
  8
W77LXLIFT
 62
3
 10
2028.768
 20
-6873.723
 30
-2412.000
 70
    32
  0
VERTEX
  8
W77LXLIFT
 62
3
 10
2025.605
 20
-6860.804
 30
-2412.000
 70
    32
  0
VERTEX
  8
W77LXLIFT
 62
3
 10
2024.826
 20
-6858.875
 30
-2412.000
 70
    32
  0
VERTEX
  8
W77LXLIFT
 62
3
 10
2043.272
 20
-6856.841
 30
-2412.000
 70
    32
  0
VERTEX
  8
W77LXLIFT
 62
3
 10
2046.761
 20
-6874.751
 30
-2412.000
 70
    32
  0
VERTEX
  8
W77LXLIFT
 62
3
 10
2047.386
 20
-6876.031
 30
-2412.000
 70
    32
  0
VERTEX
  8
W77LXLIFT
 62
3
 10
2048.273
 20
-6877.226
 30
-2412.000
 70
    32
  0
VERTEX
  8
W77LXLIFT
 62
3
 10
2050.996
 20
-6879.130
 30
-2412.000
 70
    32
  0
VERTEX
  8
W77LXLIFT
 62
3
 10
2054.212
 20
-6880.230
 30
-2412.000
 70
    32
  0
VERTEX
  8
W77LXLIFT
 62
3
 10
2057.107
 20
-6882.659
 30
-2412.000
 70
    32
  0
VERTEX
  8
W77LXLIFT
 62
3
 10
2059.531
 20
-6884.894
 30
-2412.000
 70
    32
  0
VERTEX
  8
W77LXLIFT
 62
3
 10
2061.253
 20
-6887.213
 30
-2412.000
 70
    32
  0
VERTEX
  8
W77LXLIFT
 62
3
 10
2063.610
 20
-6890.601
 30
-2412.000
 70
    32
  0
SEQEND
  8
W77LXLIFT
  0
POLYLINE
  8
W77LXLIFT
 62
3
 66
     1
 70
     9
  0
VERTEX
  8
W77LXLIFT
 62
3
 10
2024.826
 20
-6858.875
 30
-2412.000
 70
    32
  0
VERTEX
  8
W77LXLIFT
 62
3
 10
2021.730
 20
-6858.231
 30
-2412.000
 70
    32
  0
VERTEX
  8
W77LXLIFT
 62
3
 10
2019.475
 20
-6857.397
 30
-2412.000
 70
    32
  0
VERTEX
  8
W77LXLIFT
 62
3
 10
2018.413
 20
-6856.114
 30
-2412.000
 70
    32
  0
VERTEX
  8
W77LXLIFT
 62
3
 10
2015.643
 20
-6849.448
 30
-2412.000
 70
    32
  0
VERTEX
  8
W77LXLIFT
 62
3
 10
2014.079
 20
-6846.903
 30
-2412.000
 70
    32
  0
VERTEX
  8
W77LXLIFT
 62
3
 10
2012.356
 20
-6840.767
 30
-2412.000
 70
    32
  0
VERTEX
  8
W77LXLIFT
 62
3
 10
2011.406
 20
-6837.874
 30
-2412.000
 70
    32
  0
VERTEX
  8
W77LXLIFT
 62
3
 10
2009.864
 20
-6834.330
 30
-2412.000
 70
    32
  0
VERTEX
  8
W77LXLIFT
 62
3
 10
2000.098
 20
-6818.248
 30
-2412.000
 70
    32
  0
VERTEX
  8
W77LXLIFT
 62
3
 10
1989.712
 20
-6803.826
 30
-2412.000
 70
    32
  0
VERTEX
  8
W77LXLIFT
 62
3
 10
1988.317
 20
-6802.681
 30
-2412.000
 70
    32
  0
VERTEX
  8
W77LXLIFT
 62
3
 10
1985.118
 20
-6801.458
 30
-2412.000
 70
    32
  0
VERTEX
  8
W77LXLIFT
 62
3
 10
1982.091
 20
-6797.383
 30
-2412.000
 70
    32
  0
VERTEX
  8
W77LXLIFT
 62
3
 10
1979.165
 20
-6793.885
 30
-2412.000
 70
    32
  0
VERTEX
  8
W77LXLIFT
 62
3
 10
1975.630
 20
-6789.859
 30
-2412.000
 70
    32
  0
VERTEX
  8
W77LXLIFT
 62
3
 10
1973.417
 20
-6787.468
 30
-2412.000
 70
    32
  0
VERTEX
  8
W77LXLIFT
 62
3
 10
1970.514
 20
-6782.973
 30
-2412.000
 70
    32
  0
VERTEX
  8
W77LXLIFT
 62
3
 10
1967.466
 20
-6779.457
 30
-2412.000
 70
    32
  0
VERTEX
  8
W77LXLIFT
 62
3
 10
1964.836
 20
-6776.504
 30
-2412.000
 70
    32
  0
VERTEX
  8
W77LXLIFT
 62
3
 10
1967.462
 20
-6772.699
 30
-2412.000
 70
    32
  0
VERTEX
  8
W77LXLIFT
 62
3
 10
1969.660
 20
-6770.521
 30
-2412.000
 70
    32
  0
VERTEX
  8
W77LXLIFT
 62
3
 10
1968.476
 20
-6765.403
 30
-2412.000
 70
    32
  0
VERTEX
  8
W77LXLIFT
 62
3
 10
1964.613
 20
-6756.386
 30
-2412.000
 70
    32
  0
VERTEX
  8
W77LXLIFT
 62
3
 10
1953.602
 20
-6740.683
 30
-2412.000
 70
    32
  0
VERTEX
  8
W77LXLIFT
 62
3
 10
1952.821
 20
-6739.191
 30
-2412.000
 70
    32
  0
VERTEX
  8
W77LXLIFT
 62
3
 10
1950.843
 20
-6727.574
 30
-2412.000
 70
    32
  0
VERTEX
  8
W77LXLIFT
 62
3
 10
1948.573
 20
-6718.792
 30
-2412.000
 70
    32
  0
VERTEX
  8
W77LXLIFT
 62
3
 10
1948.300
 20
-6713.433
 30
-2412.000
 70
    32
  0
VERTEX
  8
W77LXLIFT
 62
3
 10
1947.227
 20
-6710.522
 30
-2412.000
 70
    32
  0
VERTEX
  8
W77LXLIFT
 62
3
 10
1947.934
 20
-6709.125
 30
-2412.000
 70
    32
  0
VERTEX
  8
W77LXLIFT
 62
3
 10
1953.474
 20
-6703.810
 30
-2412.000
 70
    32
  0
VERTEX
  8
W77LXLIFT
 62
3
 10
1954.219
 20
-6701.730
 30
-2412.000
 70
    32
  0
VERTEX
  8
W77LXLIFT
 62
3
 10
1968.763
 20
-6698.995
 30
-2412.000
 70
    32
  0
VERTEX
  8
W77LXLIFT
 62
3
 10
1977.111
 20
-6718.748
 30
-2412.000
 70
    32
  0
VERTEX
  8
W77LXLIFT
 62
3
 10
1982.203
 20
-6727.070
 30
-2412.000
 70
    32
  0
VERTEX
  8
W77LXLIFT
 62
3
 10
1990.439
 20
-6736.983
 30
-2412.000
 70
    32
  0
VERTEX
  8
W77LXLIFT
 62
3
 10
1997.161
 20
-6744.857
 30
-2412.000
 70
    32
  0
VERTEX
  8
W77LXLIFT
 62
3
 10
1998.295
 20
-6745.650
 30
-2412.000
 70
    32
  0
VERTEX
  8
W77LXLIFT
 62
3
 10
2001.281
 20
-6743.650
 30
-2412.000
 70
    32
  0
VERTEX
  8
W77LXLIFT
 62
3
 10
2019.140
 20
-6732.019
 30
-2412.000
 70
    32
  0
VERTEX
  8
W77LXLIFT
 62
3
 10
2024.718
 20
-6726.022
 30
-2412.000
 70
    32
  0
VERTEX
  8
W77LXLIFT
 62
3
 10
2029.035
 20
-6720.089
 30
-2412.000
 70
    32
  0
VERTEX
  8
W77LXLIFT
 62
3
 10
2033.594
 20
-6710.813
 30
-2412.000
 70
    32
  0
VERTEX
  8
W77LXLIFT
 62
3
 10
2034.004
 20
-6705.492
 30
-2412.000
 70
    32
  0
VERTEX
  8
W77LXLIFT
 62
3
 10
2035.353
 20
-6701.437
 30
-2412.000
 70
    32
  0
VERTEX
  8
W77LXLIFT
 62
3
 10
2055.724
 20
-6691.866
 30
-2412.000
 70
    32
  0
VERTEX
  8
W77LXLIFT
 62
3
 10
2062.446
 20
-6707.374
 30
-2412.000
 70
    32
  0
VERTEX
  8
W77LXLIFT
 62
3
 10
2066.411
 20
-6724.603
 30
-2412.000
 70
    32
  0
VERTEX
  8
W77LXLIFT
 62
3
 10
2054.959
 20
-6728.857
 30
-2412.000
 70
    32
  0
VERTEX
  8
W77LXLIFT
 62
3
 10
2054.134
 20
-6729.361
 30
-2412.000
 70
    32
  0
VERTEX
  8
W77LXLIFT
 62
3
 10
2053.481
 20
-6730.391
 30
-2412.000
 70
    32
  0
VERTEX
  8
W77LXLIFT
 62
3
 10
2052.775
 20
-6731.788
 30
-2412.000
 70
    32
  0
VERTEX
  8
W77LXLIFT
 62
3
 10
2050.670
 20
-6732.479
 30
-2412.000
 70
    32
  0
VERTEX
  8
W77LXLIFT
 62
3
 10
2048.215
 20
-6733.431
 30
-2412.000
 70
    32
  0
VERTEX
  8
W77LXLIFT
 62
3
 10
2039.863
 20
-6733.638
 30
-2412.000
 70
    32
  0
VERTEX
  8
W77LXLIFT
 62
3
 10
2033.367
 20
-6748.822
 30
-2412.000
 70
    32
  0
VERTEX
  8
W77LXLIFT
 62
3
 10
2039.531
 20
-6760.056
 30
-2412.000
 70
    32
  0
VERTEX
  8
W77LXLIFT
 62
3
 10
2041.625
 20
-6765.371
 30
-2412.000
 70
    32
  0
VERTEX
  8
W77LXLIFT
 62
3
 10
2043.350
 20
-6771.069
 30
-2412.000
 70
    32
  0
VERTEX
  8
W77LXLIFT
 62
3
 10
2046.757
 20
-6776.389
 30
-2412.000
 70
    32
  0
VERTEX
  8
W77LXLIFT
 62
3
 10
2049.136
 20
-6780.620
 30
-2412.000
 70
    32
  0
VERTEX
  8
W77LXLIFT
 62
3
 10
2048.980
 20
-6784.226
 30
-2412.000
 70
    32
  0
VERTEX
  8
W77LXLIFT
 62
3
 10
2048.402
 20
-6788.145
 30
-2412.000
 70
    32
  0
VERTEX
  8
W77LXLIFT
 62
3
 10
2050.134
 20
-6792.092
 30
-2412.000
 70
    32
  0
VERTEX
  8
W77LXLIFT
 62
3
 10
2054.642
 20
-6798.013
 30
-2412.000
 70
    32
  0
VERTEX
  8
W77LXLIFT
 62
3
 10
2061.812
 20
-6811.335
 30
-2412.000
 70
    32
  0
VERTEX
  8
W77LXLIFT
 62
3
 10
2057.244
 20
-6818.545
 30
-2412.000
 70
    32
  0
VERTEX
  8
W77LXLIFT
 62
3
 10
2056.995
 20
-6819.384
 30
-2412.000
 70
    32
  0
VERTEX
  8
W77LXLIFT
 62
3
 10
2057.182
 20
-6820.663
 30
-2412.000
 70
    32
  0
VERTEX
  8
W77LXLIFT
 62
3
 10
2061.757
 20
-6834.603
 30
-2412.000
 70
    32
  0
VERTEX
  8
W77LXLIFT
 62
3
 10
2061.922
 20
-6836.880
 30
-2412.000
 70
    32
  0
VERTEX
  8
W77LXLIFT
 62
3
 10
2060.482
 20
-6837.731
 30
-2412.000
 70
    32
  0
VERTEX
  8
W77LXLIFT
 62
3
 10
2047.412
 20
-6843.624
 30
-2412.000
 70
    32
  0
VERTEX
  8
W77LXLIFT
 62
3
 10
2045.743
 20
-6844.754
 30
-2412.000
 70
    32
  0
VERTEX
  8
W77LXLIFT
 62
3
 10
2045.524
 20
-6846.662
 30
-2412.000
 70
    32
  0
VERTEX
  8
W77LXLIFT
 62
3
 10
2046.506
 20
-6850.185
 30
-2412.000
 70
    32
  0
VERTEX
  8
W77LXLIFT
 62
3
 10
2043.388
 20
-6854.355
 30
-2412.000
 70
    32
  0
VERTEX
  8
W77LXLIFT
 62
3
 10
2043.362
 20
-6857.303
 30
-2412.000
 70
    32
  0
SEQEND
  8
W77LXLIFT
  0
POLYLINE
  8
W77LXLIFT
 62
3
 66
     1
 70
     9
  0
VERTEX
  8
W77LXLIFT
 62
3
 10
1954.526
 20
-6701.672
 30
-2412.000
 70
    32
  0
VERTEX
  8
W77LXLIFT
 62
3
 10
1951.801
 20
-6675.281
 30
-2412.000
 70
    32
  0
VERTEX
  8
W77LXLIFT
 62
3
 10
1951.500
 20
-6664.600
 30
-2412.000
 70
    32
  0
VERTEX
  8
W77LXLIFT
 62
3
 10
1950.649
 20
-6659.344
 30
-2412.000
 70
    32
  0
VERTEX
  8
W77LXLIFT
 62
3
 10
1949.783
 20
-6653.334
 30
-2412.000
 70
    32
  0
VERTEX
  8
W77LXLIFT
 62
3
 10
1950.319
 20
-6647.156
 30
-2412.000
 70
    32
  0
VERTEX
  8
W77LXLIFT
 62
3
 10
1956.138
 20
-6645.887
 30
-2412.000
 70
    32
  0
VERTEX
  8
W77LXLIFT
 62
3
 10
1962.611
 20
-6646.968
 30
-2412.000
 70
    32
  0
VERTEX
  8
W77LXLIFT
 62
3
 10
1963.027
 20
-6647.968
 30
-2412.000
 70
    32
  0
VERTEX
  8
W77LXLIFT
 62
3
 10
1962.531
 20
-6664.476
 30
-2412.000
 70
    32
  0
VERTEX
  8
W77LXLIFT
 62
3
 10
1962.898
 20
-6668.347
 30
-2412.000
 70
    32
  0
VERTEX
  8
W77LXLIFT
 62
3
 10
1963.890
 20
-6673.498
 30
-2412.000
 70
    32
  0
VERTEX
  8
W77LXLIFT
 62
3
 10
1965.318
 20
-6682.907
 30
-2412.000
 70
    32
  0
VERTEX
  8
W77LXLIFT
 62
3
 10
1966.022
 20
-6689.581
 30
-2412.000
 70
    32
  0
VERTEX
  8
W77LXLIFT
 62
3
 10
1967.709
 20
-6695.962
 30
-2412.000
 70
    32
  0
VERTEX
  8
W77LXLIFT
 62
3
 10
1968.144
 20
-6699.112
 30
-2412.000
 70
    32
  0
SEQEND
  8
W77LXLIFT
  0
POLYLINE
  8
W77LXLIFT
 62
3
 66
     1
 70
     9
  0
VERTEX
  8
W77LXLIFT
 62
3
 10
2022.567
 20
-6656.627
 30
-2412.000
 70
    32
  0
VERTEX
  8
W77LXLIFT
 62
3
 10
2020.752
 20
-6655.358
 30
-2412.000
 70
    32
  0
VERTEX
  8
W77LXLIFT
 62
3
 10
2018.970
 20
-6654.720
 30
-2412.000
 70
    32
  0
VERTEX
  8
W77LXLIFT
 62
3
 10
2008.854
 20
-6653.728
 30
-2412.000
 70
    32
  0
VERTEX
  8
W77LXLIFT
 62
3
 10
2007.931
 20
-6652.778
 30
-2412.000
 70
    32
  0
VERTEX
  8
W77LXLIFT
 62
3
 10
2007.798
 20
-6651.132
 30
-2412.000
 70
    32
  0
VERTEX
  8
W77LXLIFT
 62
3
 10
2005.987
 20
-6641.354
 30
-2412.000
 70
    32
  0
VERTEX
  8
W77LXLIFT
 62
3
 10
2004.287
 20
-6638.037
 30
-2412.000
 70
    32
  0
VERTEX
  8
W77LXLIFT
 62
3
 10
2001.080
 20
-6634.748
 30
-2412.000
 70
    32
  0
VERTEX
  8
W77LXLIFT
 62
3
 10
1995.372
 20
-6631.028
 30
-2412.000
 70
    32
  0
VERTEX
  8
W77LXLIFT
 62
3
 10
1992.915
 20
-6628.600
 30
-2412.000
 70
    32
  0
VERTEX
  8
W77LXLIFT
 62
3
 10
1990.875
 20
-6626.735
 30
-2412.000
 70
    32
  0
VERTEX
  8
W77LXLIFT
 62
3
 10
1985.287
 20
-6619.654
 30
-2412.000
 70
    32
  0
VERTEX
  8
W77LXLIFT
 62
3
 10
1984.349
 20
-6617.951
 30
-2412.000
 70
    32
  0
VERTEX
  8
W77LXLIFT
 62
3
 10
1984.468
 20
-6615.028
 30
-2412.000
 70
    32
  0
VERTEX
  8
W77LXLIFT
 62
3
 10
1984.289
 20
-6611.998
 30
-2412.000
 70
    32
  0
VERTEX
  8
W77LXLIFT
 62
3
 10
1982.468
 20
-6608.225
 30
-2412.000
 70
    32
  0
VERTEX
  8
W77LXLIFT
 62
3
 10
1979.418
 20
-6605.148
 30
-2412.000
 70
    32
  0
VERTEX
  8
W77LXLIFT
 62
3
 10
1974.899
 20
-6601.853
 30
-2412.000
 70
    32
  0
VERTEX
  8
W77LXLIFT
 62
3
 10
1980.344
 20
-6590.392
 30
-2412.000
 70
    32
  0
VERTEX
  8
W77LXLIFT
 62
3
 10
1982.522
 20
-6588.774
 30
-2412.000
 70
    32
  0
VERTEX
  8
W77LXLIFT
 62
3
 10
1987.485
 20
-6586.941
 30
-2412.000
 70
    32
  0
VERTEX
  8
W77LXLIFT
 62
3
 10
1996.496
 20
-6584.391
 30
-2412.000
 70
    32
  0
VERTEX
  8
W77LXLIFT
 62
3
 10
1998.502
 20
-6586.064
 30
-2412.000
 70
    32
  0
VERTEX
  8
W77LXLIFT
 62
3
 10
2004.238
 20
-6591.290
 30
-2412.000
 70
    32
  0
VERTEX
  8
W77LXLIFT
 62
3
 10
2007.294
 20
-6593.055
 30
-2412.000
 70
    32
  0
VERTEX
  8
W77LXLIFT
 62
3
 10
2009.061
 20
-6593.378
 30
-2412.000
 70
    32
  0
VERTEX
  8
W77LXLIFT
 62
3
 10
2010.171
 20
-6591.790
 30
-2412.000
 70
    32
  0
VERTEX
  8
W77LXLIFT
 62
3
 10
2011.414
 20
-6588.031
 30
-2412.000
 70
    32
  0
VERTEX
  8
W77LXLIFT
 62
3
 10
2011.356
 20
-6585.457
 30
-2412.000
 70
    32
  0
VERTEX
  8
W77LXLIFT
 62
3
 10
2006.559
 20
-6577.679
 30
-2412.000
 70
    32
  0
VERTEX
  8
W77LXLIFT
 62
3
 10
1994.310
 20
-6561.043
 30
-2412.000
 70
    32
  0
VERTEX
  8
W77LXLIFT
 62
3
 10
1990.094
 20
-6556.541
 30
-2412.000
 70
    32
  0
VERTEX
  8
W77LXLIFT
 62
3
 10
1998.474
 20
-6546.390
 30
-2412.000
 70
    32
  0
VERTEX
  8
W77LXLIFT
 62
3
 10
2004.855
 20
-6548.520
 30
-2412.000
 70
    32
  0
VERTEX
  8
W77LXLIFT
 62
3
 10
2018.076
 20
-6567.052
 30
-2412.000
 70
    32
  0
VERTEX
  8
W77LXLIFT
 62
3
 10
2018.648
 20
-6568.263
 30
-2412.000
 70
    32
  0
VERTEX
  8
W77LXLIFT
 62
3
 10
2020.636
 20
-6570.058
 30
-2412.000
 70
    32
  0
VERTEX
  8
W77LXLIFT
 62
3
 10
2022.718
 20
-6570.365
 30
-2412.000
 70
    32
  0
VERTEX
  8
W77LXLIFT
 62
3
 10
2025.820
 20
-6569.696
 30
-2412.000
 70
    32
  0
VERTEX
  8
W77LXLIFT
 62
3
 10
2038.078
 20
-6580.765
 30
-2412.000
 70
    32
  0
VERTEX
  8
W77LXLIFT
 62
3
 10
2027.589
 20
-6611.566
 30
-2412.000
 70
    32
  0
VERTEX
  8
W77LXLIFT
 62
3
 10
2025.989
 20
-6616.899
 30
-2412.000
 70
    32
  0
VERTEX
  8
W77LXLIFT
 62
3
 10
2025.655
 20
-6620.854
 30
-2412.000
 70
    32
  0
VERTEX
  8
W77LXLIFT
 62
3
 10
2026.993
 20
-6627.058
 30
-2412.000
 70
    32
  0
VERTEX
  8
W77LXLIFT
 62
3
 10
2030.199
 20
-6637.981
 30
-2412.000
 70
    32
  0
VERTEX
  8
W77LXLIFT
 62
3
 10
2031.801
 20
-6643.661
 30
-2412.000
 70
    32
  0
VERTEX
  8
W77LXLIFT
 62
3
 10
2034.739
 20
-6650.466
 30
-2412.000
 70
    32
  0
SEQEND
  8
W77LXLIFT
  0
POLYLINE
  8
W77LXLIFT
 62
3
 66
     1
 70
     9
  0
VERTEX
  8
W77LXLIFT
 62
3
 10
2054.374
 20
-6797.661
 30
-2412.000
 70
    32
  0
VERTEX
  8
W77LXLIFT
 62
3
 10
2061.938
 20
-6799.027
 30
-2412.000
 70
    32
  0
VERTEX
  8
W77LXLIFT
 62
3
 10
2091.527
 20
-6795.258
 30
-2412.000
 70
    32
  0
VERTEX
  8
W77LXLIFT
 62
3
 10
2118.146
 20
-6789.988
 30
-2412.000
 70
    32
  0
VERTEX
  8
W77LXLIFT
 62
3
 10
2123.736
 20
-6804.265
 30
-2412.000
 70
    32
  0
VERTEX
  8
W77LXLIFT
 62
3
 10
2061.273
 20
-6812.184
 30
-2412.000
 70
    32
  0
SEQEND
  8
W77LXLIFT
  0
POLYLINE
  8
W77LXLIFT
 62
3
 66
     1
 70
     9
  0
VERTEX
  8
W77LXLIFT
 62
3
 10
2117.489
 20
-6790.118
 30
-2412.000
 70
    32
  0
VERTEX
  8
W77LXLIFT
 62
3
 10
2115.650
 20
-6780.610
 30
-2412.000
 70
    32
  0
VERTEX
  8
W77LXLIFT
 62
3
 10
2129.683
 20
-6771.167
 30
-2412.000
 70
    32
  0
VERTEX
  8
W77LXLIFT
 62
3
 10
2135.730
 20
-6765.802
 30
-2412.000
 70
    32
  0
VERTEX
  8
W77LXLIFT
 62
3
 10
2137.818
 20
-6764.796
 30
-2412.000
 70
    32
  0
VERTEX
  8
W77LXLIFT
 62
3
 10
2139.693
 20
-6764.385
 30
-2412.000
 70
    32
  0
VERTEX
  8
W77LXLIFT
 62
3
 10
2154.404
 20
-6774.940
 30
-2412.000
 70
    32
  0
VERTEX
  8
W77LXLIFT
 62
3
 10
2156.736
 20
-6778.224
 30
-2412.000
 70
    32
  0
VERTEX
  8
W77LXLIFT
 62
3
 10
2159.581
 20
-6783.963
 30
-2412.000
 70
    32
  0
VERTEX
  8
W77LXLIFT
 62
3
 10
2161.795
 20
-6789.733
 30
-2412.000
 70
    32
  0
VERTEX
  8
W77LXLIFT
 62
3
 10
2162.789
 20
-6794.447
 30
-2412.000
 70
    32
  0
VERTEX
  8
W77LXLIFT
 62
3
 10
2162.642
 20
-6799.682
 30
-2412.000
 70
    32
  0
VERTEX
  8
W77LXLIFT
 62
3
 10
2161.994
 20
-6803.653
 30
-2412.000
 70
    32
  0
VERTEX
  8
W77LXLIFT
 62
3
 10
2161.016
 20
-6806.887
 30
-2412.000
 70
    32
  0
VERTEX
  8
W77LXLIFT
 62
3
 10
2159.534
 20
-6809.297
 30
-2412.000
 70
    32
  0
VERTEX
  8
W77LXLIFT
 62
3
 10
2152.708
 20
-6812.732
 30
-2412.000
 70
    32
  0
VERTEX
  8
W77LXLIFT
 62
3
 10
2146.670
 20
-6815.908
 30
-2412.000
 70
    32
  0
VERTEX
  8
W77LXLIFT
 62
3
 10
2144.952
 20
-6816.531
 30
-2412.000
 70
    32
  0
VERTEX
  8
W77LXLIFT
 62
3
 10
2140.836
 20
-6816.862
 30
-2412.000
 70
    32
  0
VERTEX
  8
W77LXLIFT
 62
3
 10
2138.856
 20
-6817.133
 30
-2412.000
 70
    32
  0
VERTEX
  8
W77LXLIFT
 62
3
 10
2133.987
 20
-6813.662
 30
-2412.000
 70
    32
  0
VERTEX
  8
W77LXLIFT
 62
3
 10
2129.891
 20
-6809.616
 30
-2412.000
 70
    32
  0
VERTEX
  8
W77LXLIFT
 62
3
 10
2127.645
 20
-6807.032
 30
-2412.000
 70
    32
  0
VERTEX
  8
W77LXLIFT
 62
3
 10
2122.771
 20
-6804.388
 30
-2412.000
 70
    32
  0
SEQEND
  8
W77LXLIFT
  0
POLYLINE
  8
W77LXLIFT
 62
3
 66
     1
 70
     9
  0
VERTEX
  8
W77LXLIFT
 62
3
 10
2025.529
 20
-6866.986
 30
-2385.000
 70
    32
  0
VERTEX
  8
W77LXLIFT
 62
3
 10
2023.994
 20
-6862.893
 30
-2385.000
 70
    32
  0
VERTEX
  8
W77LXLIFT
 62
3
 10
2022.916
 20
-6861.394
 30
-2385.000
 70
    32
  0
VERTEX
  8
W77LXLIFT
 62
3
 10
2020.355
 20
-6859.338
 30
-2385.000
 70
    32
  0
VERTEX
  8
W77LXLIFT
 62
3
 10
2018.651
 20
-6856.665
 30
-2385.000
 70
    32
  0
VERTEX
  8
W77LXLIFT
 62
3
 10
2016.018
 20
-6851.196
 30
-2385.000
 70
    32
  0
VERTEX
  8
W77LXLIFT
 62
3
 10
2014.192
 20
-6845.795
 30
-2385.000
 70
    32
  0
VERTEX
  8
W77LXLIFT
 62
3
 10
2012.275
 20
-6840.569
 30
-2385.000
 70
    32
  0
VERTEX
  8
W77LXLIFT
 62
3
 10
2006.447
 20
-6829.600
 30
-2385.000
 70
    32
  0
VERTEX
  8
W77LXLIFT
 62
3
 10
2003.210
 20
-6823.591
 30
-2385.000
 70
    32
  0
VERTEX
  8
W77LXLIFT
 62
3
 10
1999.386
 20
-6819.627
 30
-2385.000
 70
    32
  0
VERTEX
  8
W77LXLIFT
 62
3
 10
1994.957
 20
-6815.124
 30
-2385.000
 70
    32
  0
VERTEX
  8
W77LXLIFT
 62
3
 10
1968.541
 20
-6785.609
 30
-2385.000
 70
    32
  0
VERTEX
  8
W77LXLIFT
 62
3
 10
1966.930
 20
-6783.519
 30
-2385.000
 70
    32
  0
VERTEX
  8
W77LXLIFT
 62
3
 10
1966.475
 20
-6781.681
 30
-2385.000
 70
    32
  0
VERTEX
  8
W77LXLIFT
 62
3
 10
1966.245
 20
-6780.006
 30
-2385.000
 70
    32
  0
VERTEX
  8
W77LXLIFT
 62
3
 10
1968.607
 20
-6773.652
 30
-2385.000
 70
    32
  0
VERTEX
  8
W77LXLIFT
 62
3
 10
1968.620
 20
-6771.261
 30
-2385.000
 70
    32
  0
VERTEX
  8
W77LXLIFT
 62
3
 10
1968.979
 20
-6768.296
 30
-2385.000
 70
    32
  0
VERTEX
  8
W77LXLIFT
 62
3
 10
1968.213
 20
-6765.273
 30
-2385.000
 70
    32
  0
VERTEX
  8
W77LXLIFT
 62
3
 10
1967.399
 20
-6762.936
 30
-2385.000
 70
    32
  0
VERTEX
  8
W77LXLIFT
 62
3
 10
1965.047
 20
-6759.213
 30
-2385.000
 70
    32
  0
VERTEX
  8
W77LXLIFT
 62
3
 10
1954.436
 20
-6744.754
 30
-2385.000
 70
    32
  0
VERTEX
  8
W77LXLIFT
 62
3
 10
1953.110
 20
-6742.459
 30
-2385.000
 70
    32
  0
VERTEX
  8
W77LXLIFT
 62
3
 10
1952.387
 20
-6739.947
 30
-2385.000
 70
    32
  0
VERTEX
  8
W77LXLIFT
 62
3
 10
1950.530
 20
-6730.888
 30
-2385.000
 70
    32
  0
VERTEX
  8
W77LXLIFT
 62
3
 10
1946.374
 20
-6712.005
 30
-2385.000
 70
    32
  0
VERTEX
  8
W77LXLIFT
 62
3
 10
1947.079
 20
-6708.467
 30
-2385.000
 70
    32
  0
VERTEX
  8
W77LXLIFT
 62
3
 10
1947.759
 20
-6707.003
 30
-2385.000
 70
    32
  0
VERTEX
  8
W77LXLIFT
 62
3
 10
1950.900
 20
-6704.745
 30
-2385.000
 70
    32
  0
VERTEX
  8
W77LXLIFT
 62
3
 10
1954.185
 20
-6703.141
 30
-2385.000
 70
    32
  0
VERTEX
  8
W77LXLIFT
 62
3
 10
1962.912
 20
-6699.466
 30
-2385.000
 70
    32
  0
VERTEX
  8
W77LXLIFT
 62
3
 10
1967.866
 20
-6698.827
 30
-2385.000
 70
    32
  0
VERTEX
  8
W77LXLIFT
 62
3
 10
1970.064
 20
-6698.872
 30
-2385.000
 70
    32
  0
VERTEX
  8
W77LXLIFT
 62
3
 10
1972.152
 20
-6699.969
 30
-2385.000
 70
    32
  0
VERTEX
  8
W77LXLIFT
 62
3
 10
1973.783
 20
-6701.936
 30
-2385.000
 70
    32
  0
VERTEX
  8
W77LXLIFT
 62
3
 10
1975.967
 20
-6704.372
 30
-2385.000
 70
    32
  0
VERTEX
  8
W77LXLIFT
 62
3
 10
1976.913
 20
-6706.290
 30
-2385.000
 70
    32
  0
VERTEX
  8
W77LXLIFT
 62
3
 10
1977.837
 20
-6711.040
 30
-2385.000
 70
    32
  0
VERTEX
  8
W77LXLIFT
 62
3
 10
1978.460
 20
-6714.165
 30
-2385.000
 70
    32
  0
VERTEX
  8
W77LXLIFT
 62
3
 10
1979.926
 20
-6722.530
 30
-2385.000
 70
    32
  0
VERTEX
  8
W77LXLIFT
 62
3
 10
1980.264
 20
-6725.861
 30
-2385.000
 70
    32
  0
VERTEX
  8
W77LXLIFT
 62
3
 10
1980.659
 20
-6728.067
 30
-2385.000
 70
    32
  0
VERTEX
  8
W77LXLIFT
 62
3
 10
1983.164
 20
-6732.004
 30
-2385.000
 70
    32
  0
VERTEX
  8
W77LXLIFT
 62
3
 10
1985.884
 20
-6735.787
 30
-2385.000
 70
    32
  0
VERTEX
  8
W77LXLIFT
 62
3
 10
1989.146
 20
-6739.722
 30
-2385.000
 70
    32
  0
VERTEX
  8
W77LXLIFT
 62
3
 10
1994.411
 20
-6743.732
 30
-2385.000
 70
    32
  0
VERTEX
  8
W77LXLIFT
 62
3
 10
1998.342
 20
-6745.887
 30
-2385.000
 70
    32
  0
VERTEX
  8
W77LXLIFT
 62
3
 10
2001.702
 20
-6744.987
 30
-2385.000
 70
    32
  0
VERTEX
  8
W77LXLIFT
 62
3
 10
2004.617
 20
-6742.566
 30
-2385.000
 70
    32
  0
VERTEX
  8
W77LXLIFT
 62
3
 10
2021.980
 20
-6729.218
 30
-2385.000
 70
    32
  0
VERTEX
  8
W77LXLIFT
 62
3
 10
2024.739
 20
-6725.827
 30
-2385.000
 70
    32
  0
VERTEX
  8
W77LXLIFT
 62
3
 10
2027.090
 20
-6722.621
 30
-2385.000
 70
    32
  0
VERTEX
  8
W77LXLIFT
 62
3
 10
2029.130
 20
-6718.230
 30
-2385.000
 70
    32
  0
VERTEX
  8
W77LXLIFT
 62
3
 10
2031.999
 20
-6713.786
 30
-2385.000
 70
    32
  0
VERTEX
  8
W77LXLIFT
 62
3
 10
2033.825
 20
-6709.550
 30
-2385.000
 70
    32
  0
VERTEX
  8
W77LXLIFT
 62
3
 10
2034.907
 20
-6705.632
 30
-2385.000
 70
    32
  0
VERTEX
  8
W77LXLIFT
 62
3
 10
2035.426
 20
-6701.686
 30
-2385.000
 70
    32
  0
VERTEX
  8
W77LXLIFT
 62
3
 10
2054.684
 20
-6696.395
 30
-2385.000
 70
    32
  0
VERTEX
  8
W77LXLIFT
 62
3
 10
2064.220
 20
-6713.575
 30
-2385.000
 70
    32
  0
VERTEX
  8
W77LXLIFT
 62
3
 10
2065.519
 20
-6717.189
 30
-2385.000
 70
    32
  0
VERTEX
  8
W77LXLIFT
 62
3
 10
2065.856
 20
-6720.519
 30
-2385.000
 70
    32
  0
VERTEX
  8
W77LXLIFT
 62
3
 10
2065.609
 20
-6723.187
 30
-2385.000
 70
    32
  0
VERTEX
  8
W77LXLIFT
 62
3
 10
2063.463
 20
-6726.679
 30
-2385.000
 70
    32
  0
VERTEX
  8
W77LXLIFT
 62
3
 10
2061.302
 20
-6728.341
 30
-2385.000
 70
    32
  0
VERTEX
  8
W77LXLIFT
 62
3
 10
2057.728
 20
-6729.394
 30
-2385.000
 70
    32
  0
VERTEX
  8
W77LXLIFT
 62
3
 10
2053.001
 20
-6730.952
 30
-2385.000
 70
    32
  0
VERTEX
  8
W77LXLIFT
 62
3
 10
2042.332
 20
-6734.183
 30
-2385.000
 70
    32
  0
VERTEX
  8
W77LXLIFT
 62
3
 10
2041.076
 20
-6734.545
 30
-2385.000
 70
    32
  0
VERTEX
  8
W77LXLIFT
 62
3
 10
2038.979
 20
-6737.351
 30
-2385.000
 70
    32
  0
VERTEX
  8
W77LXLIFT
 62
3
 10
2037.519
 20
-6740.892
 30
-2385.000
 70
    32
  0
VERTEX
  8
W77LXLIFT
 62
3
 10
2035.824
 20
-6744.709
 30
-2385.000
 70
    32
  0
VERTEX
  8
W77LXLIFT
 62
3
 10
2035.438
 20
-6748.992
 30
-2385.000
 70
    32
  0
VERTEX
  8
W77LXLIFT
 62
3
 10
2036.220
 20
-6753.844
 30
-2385.000
 70
    32
  0
VERTEX
  8
W77LXLIFT
 62
3
 10
2036.885
 20
-6757.480
 30
-2385.000
 70
    32
  0
VERTEX
  8
W77LXLIFT
 62
3
 10
2038.498
 20
-6760.326
 30
-2385.000
 70
    32
  0
VERTEX
  8
W77LXLIFT
 62
3
 10
2040.857
 20
-6766.318
 30
-2385.000
 70
    32
  0
VERTEX
  8
W77LXLIFT
 62
3
 10
2044.384
 20
-6773.635
 30
-2385.000
 70
    32
  0
VERTEX
  8
W77LXLIFT
 62
3
 10
2046.029
 20
-6780.139
 30
-2385.000
 70
    32
  0
VERTEX
  8
W77LXLIFT
 62
3
 10
2048.493
 20
-6787.030
 30
-2385.000
 70
    32
  0
VERTEX
  8
W77LXLIFT
 62
3
 10
2049.970
 20
-6792.248
 30
-2385.000
 70
    32
  0
VERTEX
  8
W77LXLIFT
 62
3
 10
2058.018
 20
-6820.459
 30
-2385.000
 70
    32
  0
VERTEX
  8
W77LXLIFT
 62
3
 10
2057.199
 20
-6823.538
 30
-2385.000
 70
    32
  0
VERTEX
  8
W77LXLIFT
 62
3
 10
2057.780
 20
-6826.152
 30
-2385.000
 70
    32
  0
VERTEX
  8
W77LXLIFT
 62
3
 10
2058.494
 20
-6829.104
 30
-2385.000
 70
    32
  0
VERTEX
  8
W77LXLIFT
 62
3
 10
2059.090
 20
-6833.547
 30
-2385.000
 70
    32
  0
VERTEX
  8
W77LXLIFT
 62
3
 10
2058.312
 20
-6836.381
 30
-2385.000
 70
    32
  0
VERTEX
  8
W77LXLIFT
 62
3
 10
2056.463
 20
-6839.983
 30
-2385.000
 70
    32
  0
VERTEX
  8
W77LXLIFT
 62
3
 10
2053.793
 20
-6842.444
 30
-2385.000
 70
    32
  0
VERTEX
  8
W77LXLIFT
 62
3
 10
2050.306
 20
-6845.276
 30
-2385.000
 70
    32
  0
VERTEX
  8
W77LXLIFT
 62
3
 10
2047.523
 20
-6847.277
 30
-2385.000
 70
    32
  0
VERTEX
  8
W77LXLIFT
 62
3
 10
2044.915
 20
-6850.126
 30
-2385.000
 70
    32
  0
VERTEX
  8
W77LXLIFT
 62
3
 10
2043.994
 20
-6853.062
 30
-2385.000
 70
    32
  0
VERTEX
  8
W77LXLIFT
 62
3
 10
2043.076
 20
-6856.754
 30
-2385.000
 70
    32
  0
VERTEX
  8
W77LXLIFT
 62
3
 10
2041.875
 20
-6861.199
 30
-2385.000
 70
    32
  0
SEQEND
  8
W77LXLIFT
  0
POLYLINE
  8
W77LXLIFT
 62
3
 66
     1
 70
     9
  0
VERTEX
  8
W77LXLIFT
 62
3
 10
2040.255
 20
-6863.004
 30
-2375.000
 70
    32
  0
VERTEX
  8
W77LXLIFT
 62
3
 10
2038.485
 20
-6858.087
 30
-2375.000
 70
    32
  0
VERTEX
  8
W77LXLIFT
 62
3
 10
2039.283
 20
-6852.804
 30
-2375.000
 70
    32
  0
VERTEX
  8
W77LXLIFT
 62
3
 10
2040.789
 20
-6846.999
 30
-2375.000
 70
    32
  0
VERTEX
  8
W77LXLIFT
 62
3
 10
2043.468
 20
-6841.748
 30
-2375.000
 70
    32
  0
VERTEX
  8
W77LXLIFT
 62
3
 10
2046.393
 20
-6836.535
 30
-2375.000
 70
    32
  0
VERTEX
  8
W77LXLIFT
 62
3
 10
2049.966
 20
-6833.682
 30
-2375.000
 70
    32
  0
VERTEX
  8
W77LXLIFT
 62
3
 10
2051.629
 20
-6830.163
 30
-2375.000
 70
    32
  0
VERTEX
  8
W77LXLIFT
 62
3
 10
2052.004
 20
-6827.267
 30
-2375.000
 70
    32
  0
VERTEX
  8
W77LXLIFT
 62
3
 10
2051.523
 20
-6823.801
 30
-2375.000
 70
    32
  0
VERTEX
  8
W77LXLIFT
 62
3
 10
2050.014
 20
-6819.237
 30
-2375.000
 70
    32
  0
VERTEX
  8
W77LXLIFT
 62
3
 10
2048.430
 20
-6815.164
 30
-2375.000
 70
    32
  0
VERTEX
  8
W77LXLIFT
 62
3
 10
2048.481
 20
-6811.087
 30
-2375.000
 70
    32
  0
VERTEX
  8
W77LXLIFT
 62
3
 10
2048.430
 20
-6804.356
 30
-2375.000
 70
    32
  0
VERTEX
  8
W77LXLIFT
 62
3
 10
2048.919
 20
-6796.135
 30
-2375.000
 70
    32
  0
VERTEX
  8
W77LXLIFT
 62
3
 10
2049.882
 20
-6792.259
 30
-2375.000
 70
    32
  0
VERTEX
  8
W77LXLIFT
 62
3
 10
2050.949
 20
-6788.525
 30
-2375.000
 70
    32
  0
VERTEX
  8
W77LXLIFT
 62
3
 10
2050.781
 20
-6785.483
 30
-2375.000
 70
    32
  0
VERTEX
  8
W77LXLIFT
 62
3
 10
2049.614
 20
-6781.976
 30
-2375.000
 70
    32
  0
VERTEX
  8
W77LXLIFT
 62
3
 10
2047.133
 20
-6775.946
 30
-2375.000
 70
    32
  0
VERTEX
  8
W77LXLIFT
 62
3
 10
2039.851
 20
-6763.848
 30
-2375.000
 70
    32
  0
VERTEX
  8
W77LXLIFT
 62
3
 10
2027.299
 20
-6749.195
 30
-2375.000
 70
    32
  0
VERTEX
  8
W77LXLIFT
 62
3
 10
2023.431
 20
-6736.545
 30
-2375.000
 70
    32
  0
VERTEX
  8
W77LXLIFT
 62
3
 10
2021.910
 20
-6733.299
 30
-2375.000
 70
    32
  0
VERTEX
  8
W77LXLIFT
 62
3
 10
2022.237
 20
-6729.892
 30
-2375.000
 70
    32
  0
VERTEX
  8
W77LXLIFT
 62
3
 10
2018.276
 20
-6717.857
 30
-2375.000
 70
    32
  0
VERTEX
  8
W77LXLIFT
 62
3
 10
2016.722
 20
-6714.417
 30
-2375.000
 70
    32
  0
VERTEX
  8
W77LXLIFT
 62
3
 10
2013.050
 20
-6710.029
 30
-2375.000
 70
    32
  0
VERTEX
  8
W77LXLIFT
 62
3
 10
2011.347
 20
-6694.690
 30
-2375.000
 70
    32
  0
VERTEX
  8
W77LXLIFT
 62
3
 10
2011.945
 20
-6690.319
 30
-2375.000
 70
    32
  0
VERTEX
  8
W77LXLIFT
 62
3
 10
2013.019
 20
-6685.706
 30
-2375.000
 70
    32
  0
VERTEX
  8
W77LXLIFT
 62
3
 10
2012.370
 20
-6679.198
 30
-2375.000
 70
    32
  0
VERTEX
  8
W77LXLIFT
 62
3
 10
2011.351
 20
-6672.635
 30
-2375.000
 70
    32
  0
VERTEX
  8
W77LXLIFT
 62
3
 10
2010.817
 20
-6667.024
 30
-2375.000
 70
    32
  0
VERTEX
  8
W77LXLIFT
 62
3
 10
2010.198
 20
-6665.297
 30
-2375.000
 70
    32
  0
VERTEX
  8
W77LXLIFT
 62
3
 10
2008.765
 20
-6664.389
 30
-2375.000
 70
    32
  0
VERTEX
  8
W77LXLIFT
 62
3
 10
2006.259
 20
-6663.508
 30
-2375.000
 70
    32
  0
VERTEX
  8
W77LXLIFT
 62
3
 10
2003.578
 20
-6662.537
 30
-2375.000
 70
    32
  0
VERTEX
  8
W77LXLIFT
 62
3
 10
2001.015
 20
-6659.950
 30
-2375.000
 70
    32
  0
VERTEX
  8
W77LXLIFT
 62
3
 10
1997.939
 20
-6655.777
 30
-2375.000
 70
    32
  0
VERTEX
  8
W77LXLIFT
 62
3
 10
1995.536
 20
-6650.890
 30
-2375.000
 70
    32
  0
VERTEX
  8
W77LXLIFT
 62
3
 10
1994.787
 20
-6650.023
 30
-2375.000
 70
    32
  0
VERTEX
  8
W77LXLIFT
 62
3
 10
1993.347
 20
-6649.993
 30
-2375.000
 70
    32
  0
VERTEX
  8
W77LXLIFT
 62
3
 10
1963.545
 20
-6655.919
 30
-2375.000
 70
    32
  0
VERTEX
  8
W77LXLIFT
 62
3
 10
1963.065
 20
-6656.600
 30
-2375.000
 70
    32
  0
VERTEX
  8
W77LXLIFT
 62
3
 10
1962.760
 20
-6657.371
 30
-2375.000
 70
    32
  0
VERTEX
  8
W77LXLIFT
 62
3
 10
1963.436
 20
-6664.951
 30
-2375.000
 70
    32
  0
VERTEX
  8
W77LXLIFT
 62
3
 10
1965.554
 20
-6672.560
 30
-2375.000
 70
    32
  0
VERTEX
  8
W77LXLIFT
 62
3
 10
1967.175
 20
-6678.461
 30
-2375.000
 70
    32
  0
VERTEX
  8
W77LXLIFT
 62
3
 10
1972.527
 20
-6694.602
 30
-2375.000
 70
    32
  0
VERTEX
  8
W77LXLIFT
 62
3
 10
1973.713
 20
-6702.134
 30
-2375.000
 70
    32
  0
VERTEX
  8
W77LXLIFT
 62
3
 10
1972.444
 20
-6704.707
 30
-2375.000
 70
    32
  0
VERTEX
  8
W77LXLIFT
 62
3
 10
1970.940
 20
-6705.925
 30
-2375.000
 70
    32
  0
VERTEX
  8
W77LXLIFT
 62
3
 10
1968.483
 20
-6705.553
 30
-2375.000
 70
    32
  0
VERTEX
  8
W77LXLIFT
 62
3
 10
1965.374
 20
-6703.261
 30
-2375.000
 70
    32
  0
VERTEX
  8
W77LXLIFT
 62
3
 10
1963.411
 20
-6700.450
 30
-2375.000
 70
    32
  0
VERTEX
  8
W77LXLIFT
 62
3
 10
1962.341
 20
-6697.964
 30
-2375.000
 70
    32
  0
VERTEX
  8
W77LXLIFT
 62
3
 10
1962.522
 20
-6693.027
 30
-2375.000
 70
    32
  0
VERTEX
  8
W77LXLIFT
 62
3
 10
1961.553
 20
-6689.047
 30
-2375.000
 70
    32
  0
VERTEX
  8
W77LXLIFT
 62
3
 10
1958.599
 20
-6684.893
 30
-2375.000
 70
    32
  0
VERTEX
  8
W77LXLIFT
 62
3
 10
1955.891
 20
-6680.776
 30
-2375.000
 70
    32
  0
VERTEX
  8
W77LXLIFT
 62
3
 10
1953.187
 20
-6676.220
 30
-2375.000
 70
    32
  0
VERTEX
  8
W77LXLIFT
 62
3
 10
1949.320
 20
-6669.792
 30
-2375.000
 70
    32
  0
VERTEX
  8
W77LXLIFT
 62
3
 10
1946.557
 20
-6668.117
 30
-2375.000
 70
    32
  0
VERTEX
  8
W77LXLIFT
 62
3
 10
1942.823
 20
-6669.124
 30
-2375.000
 70
    32
  0
VERTEX
  8
W77LXLIFT
 62
3
 10
1940.035
 20
-6670.524
 30
-2375.000
 70
    32
  0
VERTEX
  8
W77LXLIFT
 62
3
 10
1938.103
 20
-6672.494
 30
-2375.000
 70
    32
  0
VERTEX
  8
W77LXLIFT
 62
3
 10
1938.313
 20
-6674.851
 30
-2375.000
 70
    32
  0
VERTEX
  8
W77LXLIFT
 62
3
 10
1938.887
 20
-6677.703
 30
-2375.000
 70
    32
  0
VERTEX
  8
W77LXLIFT
 62
3
 10
1939.763
 20
-6680.223
 30
-2375.000
 70
    32
  0
VERTEX
  8
W77LXLIFT
 62
3
 10
1940.564
 20
-6683.235
 30
-2375.000
 70
    32
  0
VERTEX
  8
W77LXLIFT
 62
3
 10
1940.580
 20
-6685.625
 30
-2375.000
 70
    32
  0
VERTEX
  8
W77LXLIFT
 62
3
 10
1938.061
 20
-6690.648
 30
-2375.000
 70
    32
  0
VERTEX
  8
W77LXLIFT
 62
3
 10
1937.794
 20
-6693.247
 30
-2375.000
 70
    32
  0
VERTEX
  8
W77LXLIFT
 62
3
 10
1938.364
 20
-6696.538
 30
-2375.000
 70
    32
  0
VERTEX
  8
W77LXLIFT
 62
3
 10
1940.406
 20
-6702.565
 30
-2375.000
 70
    32
  0
VERTEX
  8
W77LXLIFT
 62
3
 10
1943.012
 20
-6710.688
 30
-2375.000
 70
    32
  0
VERTEX
  8
W77LXLIFT
 62
3
 10
1946.842
 20
-6719.436
 30
-2375.000
 70
    32
  0
VERTEX
  8
W77LXLIFT
 62
3
 10
1948.362
 20
-6724.756
 30
-2375.000
 70
    32
  0
VERTEX
  8
W77LXLIFT
 62
3
 10
1949.842
 20
-6730.760
 30
-2375.000
 70
    32
  0
VERTEX
  8
W77LXLIFT
 62
3
 10
1953.195
 20
-6737.677
 30
-2375.000
 70
    32
  0
VERTEX
  8
W77LXLIFT
 62
3
 10
1956.306
 20
-6744.117
 30
-2375.000
 70
    32
  0
VERTEX
  8
W77LXLIFT
 62
3
 10
1961.891
 20
-6755.392
 30
-2375.000
 70
    32
  0
VERTEX
  8
W77LXLIFT
 62
3
 10
1966.402
 20
-6764.620
 30
-2375.000
 70
    32
  0
VERTEX
  8
W77LXLIFT
 62
3
 10
1968.963
 20
-6773.867
 30
-2375.000
 70
    32
  0
VERTEX
  8
W77LXLIFT
 62
3
 10
1969.928
 20
-6776.213
 30
-2375.000
 70
    32
  0
VERTEX
  8
W77LXLIFT
 62
3
 10
1973.685
 20
-6778.791
 30
-2375.000
 70
    32
  0
VERTEX
  8
W77LXLIFT
 62
3
 10
1977.063
 20
-6780.559
 30
-2375.000
 70
    32
  0
VERTEX
  8
W77LXLIFT
 62
3
 10
1981.693
 20
-6788.171
 30
-2375.000
 70
    32
  0
VERTEX
  8
W77LXLIFT
 62
3
 10
1986.043
 20
-6793.479
 30
-2375.000
 70
    32
  0
VERTEX
  8
W77LXLIFT
 62
3
 10
1987.385
 20
-6799.148
 30
-2375.000
 70
    32
  0
VERTEX
  8
W77LXLIFT
 62
3
 10
1987.257
 20
-6804.156
 30
-2375.000
 70
    32
  0
VERTEX
  8
W77LXLIFT
 62
3
 10
1987.120
 20
-6807.969
 30
-2375.000
 70
    32
  0
VERTEX
  8
W77LXLIFT
 62
3
 10
1991.535
 20
-6818.250
 30
-2375.000
 70
    32
  0
VERTEX
  8
W77LXLIFT
 62
3
 10
1993.709
 20
-6816.757
 30
-2375.000
 70
    32
  0
VERTEX
  8
W77LXLIFT
 62
3
 10
1997.026
 20
-6817.258
 30
-2375.000
 70
    32
  0
VERTEX
  8
W77LXLIFT
 62
3
 10
2000.545
 20
-6818.921
 30
-2375.000
 70
    32
  0
VERTEX
  8
W77LXLIFT
 62
3
 10
2004.340
 20
-6823.328
 30
-2375.000
 70
    32
  0
VERTEX
  8
W77LXLIFT
 62
3
 10
2007.209
 20
-6829.292
 30
-2375.000
 70
    32
  0
VERTEX
  8
W77LXLIFT
 62
3
 10
2009.810
 20
-6835.780
 30
-2375.000
 70
    32
  0
VERTEX
  8
W77LXLIFT
 62
3
 10
2012.787
 20
-6843.519
 30
-2375.000
 70
    32
  0
VERTEX
  8
W77LXLIFT
 62
3
 10
2018.306
 20
-6847.747
 30
-2375.000
 70
    32
  0
VERTEX
  8
W77LXLIFT
 62
3
 10
2020.768
 20
-6849.753
 30
-2375.000
 70
    32
  0
VERTEX
  8
W77LXLIFT
 62
3
 10
2021.115
 20
-6852.445
 30
-2375.000
 70
    32
  0
VERTEX
  8
W77LXLIFT
 62
3
 10
2022.787
 20
-6854.268
 30
-2375.000
 70
    32
  0
VERTEX
  8
W77LXLIFT
 62
3
 10
2024.455
 20
-6854.458
 30
-2375.000
 70
    32
  0
VERTEX
  8
W77LXLIFT
 62
3
 10
2025.304
 20
-6855.906
 30
-2375.000
 70
    32
  0
VERTEX
  8
W77LXLIFT
 62
3
 10
2025.971
 20
-6858.143
 30
-2375.000
 70
    32
  0
VERTEX
  8
W77LXLIFT
 62
3
 10
2024.807
 20
-6860.857
 30
-2375.000
 70
    32
  0
VERTEX
  8
W77LXLIFT
 62
3
 10
2025.583
 20
-6864.871
 30
-2375.000
 70
    32
  0
VERTEX
  8
W77LXLIFT
 62
3
 10
2026.328
 20
-6866.177
 30
-2375.000
 70
    32
  0
VERTEX
  8
W77LXLIFT
 62
3
 10
2027.713
 20
-6866.575
 30
-2375.000
 70
    32
  0
VERTEX
  8
W77LXLIFT
 62
3
 10
2029.958
 20
-6867.103
 30
-2375.000
 70
    32
  0
VERTEX
  8
W77LXLIFT
 62
3
 10
2035.188
 20
-6865.757
 30
-2375.000
 70
    32
  0
SEQEND
  8
W77LXLIFT
  0
POLYLINE
  8
W77LXLIFT
 62
1
 66
     1
 70
     9
  0
VERTEX
  8
W77LXLIFT
 62
1
 10
2167.199
 20
-6528.263
 30
-2342.000
 70
    32
  0
VERTEX
  8
W77LXLIFT
 62
1
 10
2175.129
 20
-6540.660
 30
-2342.000
 70
    32
  0
VERTEX
  8
W77LXLIFT
 62
1
 10
2181.106
 20
-6549.585
 30
-2342.000
 70
    32
  0
VERTEX
  8
W77LXLIFT
 62
1
 10
2191.420
 20
-6562.436
 30
-2342.000
 70
    32
  0
VERTEX
  8
W77LXLIFT
 62
1
 10
2194.178
 20
-6568.689
 30
-2342.000
 70
    32
  0
VERTEX
  8
W77LXLIFT
 62
1
 10
2200.654
 20
-6576.497
 30
-2342.000
 70
    32
  0
VERTEX
  8
W77LXLIFT
 62
1
 10
2207.254
 20
-6585.082
 30
-2342.000
 70
    32
  0
VERTEX
  8
W77LXLIFT
 62
1
 10
2212.770
 20
-6597.588
 30
-2342.000
 70
    32
  0
VERTEX
  8
W77LXLIFT
 62
1
 10
2212.079
 20
-6599.492
 30
-2342.000
 70
    32
  0
VERTEX
  8
W77LXLIFT
 62
1
 10
2213.644
 20
-6626.104
 30
-2342.000
 70
    32
  0
VERTEX
  8
W77LXLIFT
 62
1
 10
2231.316
 20
-6644.071
 30
-2342.000
 70
    32
  0
VERTEX
  8
W77LXLIFT
 62
1
 10
2245.450
 20
-6646.703
 30
-2342.000
 70
    32
  0
VERTEX
  8
W77LXLIFT
 62
1
 10
2246.269
 20
-6647.090
 30
-2342.000
 70
    32
  0
VERTEX
  8
W77LXLIFT
 62
1
 10
2246.753
 20
-6648.367
 30
-2342.000
 70
    32
  0
VERTEX
  8
W77LXLIFT
 62
1
 10
2249.131
 20
-6665.402
 30
-2342.000
 70
    32
  0
VERTEX
  8
W77LXLIFT
 62
1
 10
2253.822
 20
-6679.475
 30
-2342.000
 70
    32
  0
VERTEX
  8
W77LXLIFT
 62
1
 10
2244.633
 20
-6697.452
 30
-2342.000
 70
    32
  0
VERTEX
  8
W77LXLIFT
 62
1
 10
2234.044
 20
-6700.508
 30
-2342.000
 70
    32
  0
VERTEX
  8
W77LXLIFT
 62
1
 10
2232.502
 20
-6697.607
 30
-2342.000
 70
    32
  0
VERTEX
  8
W77LXLIFT
 62
1
 10
2212.637
 20
-6670.706
 30
-2342.000
 70
    32
  0
VERTEX
  8
W77LXLIFT
 62
1
 10
2205.580
 20
-6667.216
 30
-2342.000
 70
    32
  0
VERTEX
  8
W77LXLIFT
 62
1
 10
2202.662
 20
-6658.478
 30
-2342.000
 70
    32
  0
VERTEX
  8
W77LXLIFT
 62
1
 10
2201.419
 20
-6656.446
 30
-2342.000
 70
    32
  0
VERTEX
  8
W77LXLIFT
 62
1
 10
2196.936
 20
-6651.865
 30
-2342.000
 70
    32
  0
VERTEX
  8
W77LXLIFT
 62
1
 10
2189.752
 20
-6646.841
 30
-2342.000
 70
    32
  0
VERTEX
  8
W77LXLIFT
 62
1
 10
2190.400
 20
-6640.200
 30
-2342.000
 70
    32
  0
VERTEX
  8
W77LXLIFT
 62
1
 10
2186.419
 20
-6631.792
 30
-2342.000
 70
    32
  0
VERTEX
  8
W77LXLIFT
 62
1
 10
2193.008
 20
-6624.676
 30
-2342.000
 70
    32
  0
VERTEX
  8
W77LXLIFT
 62
1
 10
2169.576
 20
-6583.760
 30
-2342.000
 70
    32
  0
VERTEX
  8
W77LXLIFT
 62
1
 10
2156.597
 20
-6576.399
 30
-2342.000
 70
    32
  0
VERTEX
  8
W77LXLIFT
 62
1
 10
2152.701
 20
-6557.854
 30
-2342.000
 70
    32
  0
VERTEX
  8
W77LXLIFT
 62
1
 10
2152.811
 20
-6556.800
 30
-2342.000
 70
    32
  0
VERTEX
  8
W77LXLIFT
 62
1
 10
2153.731
 20
-6548.880
 30
-2342.000
 70
    32
  0
VERTEX
  8
W77LXLIFT
 62
1
 10
2153.089
 20
-6545.875
 30
-2342.000
 70
    32
  0
VERTEX
  8
W77LXLIFT
 62
1
 10
2152.797
 20
-6543.809
 30
-2342.000
 70
    32
  0
VERTEX
  8
W77LXLIFT
 62
1
 10
2150.827
 20
-6537.748
 30
-2342.000
 70
    32
  0
SEQEND
  8
W77LXLIFT
  0
POLYLINE
  8
W77LXLIFT
 62
3
 66
     1
 70
     9
  0
VERTEX
  8
W77LXLIFT
 62
3
 10
2056.601
 20
-6974.970
 30
-2358.000
 70
    32
  0
VERTEX
  8
W77LXLIFT
 62
3
 10
2074.728
 20
-6991.763
 30
-2358.000
 70
    32
  0
VERTEX
  8
W77LXLIFT
 62
3
 10
2076.281
 20
-6994.983
 30
-2358.000
 70
    32
  0
VERTEX
  8
W77LXLIFT
 62
3
 10
2077.777
 20
-6995.860
 30
-2358.000
 70
    32
  0
VERTEX
  8
W77LXLIFT
 62
3
 10
2079.938
 20
-6996.151
 30
-2358.000
 70
    32
  0
VERTEX
  8
W77LXLIFT
 62
3
 10
2082.199
 20
-6995.829
 30
-2358.000
 70
    32
  0
VERTEX
  8
W77LXLIFT
 62
3
 10
2088.649
 20
-6992.282
 30
-2358.000
 70
    32
  0
VERTEX
  8
W77LXLIFT
 62
3
 10
2091.165
 20
-6991.559
 30
-2358.000
 70
    32
  0
VERTEX
  8
W77LXLIFT
 62
3
 10
2092.350
 20
-6990.492
 30
-2358.000
 70
    32
  0
VERTEX
  8
W77LXLIFT
 62
3
 10
2092.623
 20
-6989.212
 30
-2358.000
 70
    32
  0
VERTEX
  8
W77LXLIFT
 62
3
 10
2084.331
 20
-6967.850
 30
-2358.000
 70
    32
  0
VERTEX
  8
W77LXLIFT
 62
3
 10
2082.593
 20
-6955.767
 30
-2358.000
 70
    32
  0
VERTEX
  8
W77LXLIFT
 62
3
 10
2079.822
 20
-6944.208
 30
-2358.000
 70
    32
  0
VERTEX
  8
W77LXLIFT
 62
3
 10
2079.744
 20
-6937.760
 30
-2358.000
 70
    32
  0
VERTEX
  8
W77LXLIFT
 62
3
 10
2079.632
 20
-6933.830
 30
-2358.000
 70
    32
  0
VERTEX
  8
W77LXLIFT
 62
3
 10
2078.891
 20
-6927.967
 30
-2358.000
 70
    32
  0
VERTEX
  8
W77LXLIFT
 62
3
 10
2080.331
 20
-6922.273
 30
-2358.000
 70
    32
  0
VERTEX
  8
W77LXLIFT
 62
3
 10
2082.886
 20
-6916.320
 30
-2358.000
 70
    32
  0
VERTEX
  8
W77LXLIFT
 62
3
 10
2083.472
 20
-6913.514
 30
-2358.000
 70
    32
  0
VERTEX
  8
W77LXLIFT
 62
3
 10
2083.122
 20
-6908.346
 30
-2358.000
 70
    32
  0
VERTEX
  8
W77LXLIFT
 62
3
 10
2081.673
 20
-6901.799
 30
-2358.000
 70
    32
  0
VERTEX
  8
W77LXLIFT
 62
3
 10
2081.680
 20
-6900.601
 30
-2358.000
 70
    32
  0
VERTEX
  8
W77LXLIFT
 62
3
 10
2082.260
 20
-6898.993
 30
-2358.000
 70
    32
  0
VERTEX
  8
W77LXLIFT
 62
3
 10
2099.315
 20
-6879.269
 30
-2358.000
 70
    32
  0
VERTEX
  8
W77LXLIFT
 62
3
 10
2100.426
 20
-6877.496
 30
-2358.000
 70
    32
  0
VERTEX
  8
W77LXLIFT
 62
3
 10
2100.841
 20
-6875.356
 30
-2358.000
 70
    32
  0
VERTEX
  8
W77LXLIFT
 62
3
 10
2101.693
 20
-6864.013
 30
-2358.000
 70
    32
  0
VERTEX
  8
W77LXLIFT
 62
3
 10
2101.040
 20
-6860.688
 30
-2358.000
 70
    32
  0
VERTEX
  8
W77LXLIFT
 62
3
 10
2099.003
 20
-6856.190
 30
-2358.000
 70
    32
  0
VERTEX
  8
W77LXLIFT
 62
3
 10
2096.048
 20
-6853.433
 30
-2358.000
 70
    32
  0
VERTEX
  8
W77LXLIFT
 62
3
 10
2092.338
 20
-6851.436
 30
-2358.000
 70
    32
  0
VERTEX
  8
W77LXLIFT
 62
3
 10
2087.618
 20
-6850.598
 30
-2358.000
 70
    32
  0
VERTEX
  8
W77LXLIFT
 62
3
 10
2081.395
 20
-6850.839
 30
-2358.000
 70
    32
  0
VERTEX
  8
W77LXLIFT
 62
3
 10
2079.600
 20
-6853.320
 30
-2358.000
 70
    32
  0
VERTEX
  8
W77LXLIFT
 62
3
 10
2077.570
 20
-6860.305
 30
-2358.000
 70
    32
  0
VERTEX
  8
W77LXLIFT
 62
3
 10
2075.580
 20
-6871.272
 30
-2358.000
 70
    32
  0
VERTEX
  8
W77LXLIFT
 62
3
 10
2069.193
 20
-6879.435
 30
-2358.000
 70
    32
  0
VERTEX
  8
W77LXLIFT
 62
3
 10
2062.419
 20
-6884.190
 30
-2358.000
 70
    32
  0
VERTEX
  8
W77LXLIFT
 62
3
 10
2061.018
 20
-6884.654
 30
-2358.000
 70
    32
  0
VERTEX
  8
W77LXLIFT
 62
3
 10
2059.523
 20
-6884.535
 30
-2358.000
 70
    32
  0
VERTEX
  8
W77LXLIFT
 62
3
 10
2056.053
 20
-6880.306
 30
-2358.000
 70
    32
  0
VERTEX
  8
W77LXLIFT
 62
3
 10
2054.608
 20
-6879.501
 30
-2358.000
 70
    32
  0
VERTEX
  8
W77LXLIFT
 62
3
 10
2053.603
 20
-6878.705
 30
-2358.000
 70
    32
  0
VERTEX
  8
W77LXLIFT
 62
3
 10
2048.279
 20
-6873.856
 30
-2358.000
 70
    32
  0
VERTEX
  8
W77LXLIFT
 62
3
 10
2046.682
 20
-6873.594
 30
-2358.000
 70
    32
  0
VERTEX
  8
W77LXLIFT
 62
3
 10
2045.198
 20
-6873.792
 30
-2358.000
 70
    32
  0
VERTEX
  8
W77LXLIFT
 62
3
 10
2039.917
 20
-6877.909
 30
-2358.000
 70
    32
  0
VERTEX
  8
W77LXLIFT
 62
3
 10
2039.167
 20
-6880.941
 30
-2358.000
 70
    32
  0
VERTEX
  8
W77LXLIFT
 62
3
 10
2038.937
 20
-6883.490
 30
-2358.000
 70
    32
  0
VERTEX
  8
W77LXLIFT
 62
3
 10
2040.269
 20
-6888.062
 30
-2358.000
 70
    32
  0
VERTEX
  8
W77LXLIFT
 62
3
 10
2044.060
 20
-6893.795
 30
-2358.000
 70
    32
  0
VERTEX
  8
W77LXLIFT
 62
3
 10
2050.798
 20
-6911.935
 30
-2358.000
 70
    32
  0
VERTEX
  8
W77LXLIFT
 62
3
 10
2051.438
 20
-6914.186
 30
-2358.000
 70
    32
  0
VERTEX
  8
W77LXLIFT
 62
3
 10
2050.961
 20
-6915.937
 30
-2358.000
 70
    32
  0
VERTEX
  8
W77LXLIFT
 62
3
 10
2047.666
 20
-6920.254
 30
-2358.000
 70
    32
  0
VERTEX
  8
W77LXLIFT
 62
3
 10
2045.151
 20
-6921.734
 30
-2358.000
 70
    32
  0
VERTEX
  8
W77LXLIFT
 62
3
 10
2044.319
 20
-6924.500
 30
-2358.000
 70
    32
  0
VERTEX
  8
W77LXLIFT
 62
3
 10
2048.014
 20
-6933.119
 30
-2358.000
 70
    32
  0
VERTEX
  8
W77LXLIFT
 62
3
 10
2056.665
 20
-6929.618
 30
-2358.000
 70
    32
  0
VERTEX
  8
W77LXLIFT
 62
3
 10
2058.079
 20
-6934.456
 30
-2358.000
 70
    32
  0
VERTEX
  8
W77LXLIFT
 62
3
 10
2057.853
 20
-6942.747
 30
-2358.000
 70
    32
  0
VERTEX
  8
W77LXLIFT
 62
3
 10
2056.865
 20
-6948.767
 30
-2358.000
 70
    32
  0
VERTEX
  8
W77LXLIFT
 62
3
 10
2055.442
 20
-6961.278
 30
-2358.000
 70
    32
  0
VERTEX
  8
W77LXLIFT
 62
3
 10
2055.453
 20
-6970.050
 30
-2358.000
 70
    32
  0
SEQEND
  8
W77LXLIFT
  0
POLYLINE
  8
W77LXLIFT
 62
3
 66
     1
 70
     9
  0
VERTEX
  8
W77LXLIFT
 62
3
 10
1993.928
 20
-6820.498
 30
-2352.000
 70
    32
  0
VERTEX
  8
W77LXLIFT
 62
3
 10
1996.976
 20
-6820.362
 30
-2352.000
 70
    32
  0
VERTEX
  8
W77LXLIFT
 62
3
 10
2000.957
 20
-6823.025
 30
-2352.000
 70
    32
  0
VERTEX
  8
W77LXLIFT
 62
3
 10
2004.267
 20
-6826.713
 30
-2352.000
 70
    32
  0
VERTEX
  8
W77LXLIFT
 62
3
 10
2011.178
 20
-6842.017
 30
-2352.000
 70
    32
  0
VERTEX
  8
W77LXLIFT
 62
3
 10
2016.471
 20
-6845.144
 30
-2352.000
 70
    32
  0
VERTEX
  8
W77LXLIFT
 62
3
 10
2022.752
 20
-6849.944
 30
-2352.000
 70
    32
  0
VERTEX
  8
W77LXLIFT
 62
3
 10
2024.051
 20
-6852.046
 30
-2352.000
 70
    32
  0
VERTEX
  8
W77LXLIFT
 62
3
 10
2024.198
 20
-6855.411
 30
-2352.000
 70
    32
  0
VERTEX
  8
W77LXLIFT
 62
3
 10
2030.452
 20
-6860.774
 30
-2352.000
 70
    32
  0
VERTEX
  8
W77LXLIFT
 62
3
 10
2032.671
 20
-6860.693
 30
-2352.000
 70
    32
  0
VERTEX
  8
W77LXLIFT
 62
3
 10
2036.398
 20
-6859.091
 30
-2352.000
 70
    32
  0
VERTEX
  8
W77LXLIFT
 62
3
 10
2039.091
 20
-6857.258
 30
-2352.000
 70
    32
  0
VERTEX
  8
W77LXLIFT
 62
3
 10
2038.873
 20
-6851.991
 30
-2352.000
 70
    32
  0
VERTEX
  8
W77LXLIFT
 62
3
 10
2039.661
 20
-6842.852
 30
-2352.000
 70
    32
  0
VERTEX
  8
W77LXLIFT
 62
3
 10
2044.828
 20
-6829.255
 30
-2352.000
 70
    32
  0
VERTEX
  8
W77LXLIFT
 62
3
 10
2047.951
 20
-6825.159
 30
-2352.000
 70
    32
  0
VERTEX
  8
W77LXLIFT
 62
3
 10
2049.229
 20
-6822.719
 30
-2352.000
 70
    32
  0
VERTEX
  8
W77LXLIFT
 62
3
 10
2049.358
 20
-6819.588
 30
-2352.000
 70
    32
  0
VERTEX
  8
W77LXLIFT
 62
3
 10
2048.925
 20
-6816.429
 30
-2352.000
 70
    32
  0
VERTEX
  8
W77LXLIFT
 62
3
 10
2045.887
 20
-6809.507
 30
-2352.000
 70
    32
  0
VERTEX
  8
W77LXLIFT
 62
3
 10
2044.582
 20
-6805.892
 30
-2352.000
 70
    32
  0
VERTEX
  8
W77LXLIFT
 62
3
 10
2042.782
 20
-6796.775
 30
-2352.000
 70
    32
  0
VERTEX
  8
W77LXLIFT
 62
3
 10
2040.165
 20
-6783.365
 30
-2352.000
 70
    32
  0
VERTEX
  8
W77LXLIFT
 62
3
 10
2038.729
 20
-6780.170
 30
-2352.000
 70
    32
  0
VERTEX
  8
W77LXLIFT
 62
3
 10
2035.439
 20
-6776.358
 30
-2352.000
 70
    32
  0
VERTEX
  8
W77LXLIFT
 62
3
 10
2030.366
 20
-6771.880
 30
-2352.000
 70
    32
  0
VERTEX
  8
W77LXLIFT
 62
3
 10
2027.610
 20
-6768.659
 30
-2352.000
 70
    32
  0
VERTEX
  8
W77LXLIFT
 62
3
 10
2024.648
 20
-6760.489
 30
-2352.000
 70
    32
  0
VERTEX
  8
W77LXLIFT
 62
3
 10
2021.763
 20
-6751.070
 30
-2352.000
 70
    32
  0
VERTEX
  8
W77LXLIFT
 62
3
 10
2021.256
 20
-6745.252
 30
-2352.000
 70
    32
  0
VERTEX
  8
W77LXLIFT
 62
3
 10
2020.137
 20
-6732.715
 30
-2352.000
 70
    32
  0
VERTEX
  8
W77LXLIFT
 62
3
 10
2021.020
 20
-6719.495
 30
-2352.000
 70
    32
  0
VERTEX
  8
W77LXLIFT
 62
3
 10
2015.289
 20
-6700.411
 30
-2352.000
 70
    32
  0
VERTEX
  8
W77LXLIFT
 62
3
 10
2010.338
 20
-6691.288
 30
-2352.000
 70
    32
  0
VERTEX
  8
W77LXLIFT
 62
3
 10
2006.913
 20
-6682.475
 30
-2352.000
 70
    32
  0
VERTEX
  8
W77LXLIFT
 62
3
 10
2006.331
 20
-6677.905
 30
-2352.000
 70
    32
  0
VERTEX
  8
W77LXLIFT
 62
3
 10
2000.547
 20
-6665.369
 30
-2352.000
 70
    32
  0
VERTEX
  8
W77LXLIFT
 62
3
 10
2001.951
 20
-6654.376
 30
-2352.000
 70
    32
  0
VERTEX
  8
W77LXLIFT
 62
3
 10
2004.463
 20
-6634.990
 30
-2352.000
 70
    32
  0
VERTEX
  8
W77LXLIFT
 62
3
 10
1996.522
 20
-6629.542
 30
-2352.000
 70
    32
  0
VERTEX
  8
W77LXLIFT
 62
3
 10
1993.108
 20
-6625.711
 30
-2352.000
 70
    32
  0
VERTEX
  8
W77LXLIFT
 62
3
 10
1990.527
 20
-6622.582
 30
-2352.000
 70
    32
  0
VERTEX
  8
W77LXLIFT
 62
3
 10
1987.955
 20
-6617.059
 30
-2352.000
 70
    32
  0
VERTEX
  8
W77LXLIFT
 62
3
 10
1974.013
 20
-6617.131
 30
-2352.000
 70
    32
  0
VERTEX
  8
W77LXLIFT
 62
3
 10
1968.198
 20
-6618.394
 30
-2352.000
 70
    32
  0
VERTEX
  8
W77LXLIFT
 62
3
 10
1962.567
 20
-6622.020
 30
-2352.000
 70
    32
  0
VERTEX
  8
W77LXLIFT
 62
3
 10
1958.756
 20
-6625.310
 30
-2352.000
 70
    32
  0
VERTEX
  8
W77LXLIFT
 62
3
 10
1958.289
 20
-6628.575
 30
-2352.000
 70
    32
  0
VERTEX
  8
W77LXLIFT
 62
3
 10
1959.389
 20
-6631.905
 30
-2352.000
 70
    32
  0
VERTEX
  8
W77LXLIFT
 62
3
 10
1955.801
 20
-6637.312
 30
-2352.000
 70
    32
  0
VERTEX
  8
W77LXLIFT
 62
3
 10
1953.308
 20
-6642.581
 30
-2352.000
 70
    32
  0
VERTEX
  8
W77LXLIFT
 62
3
 10
1951.969
 20
-6647.344
 30
-2352.000
 70
    32
  0
VERTEX
  8
W77LXLIFT
 62
3
 10
1953.488
 20
-6650.805
 30
-2352.000
 70
    32
  0
VERTEX
  8
W77LXLIFT
 62
3
 10
1956.254
 20
-6660.961
 30
-2352.000
 70
    32
  0
VERTEX
  8
W77LXLIFT
 62
3
 10
1959.335
 20
-6668.394
 30
-2352.000
 70
    32
  0
VERTEX
  8
W77LXLIFT
 62
3
 10
1964.579
 20
-6672.207
 30
-2352.000
 70
    32
  0
VERTEX
  8
W77LXLIFT
 62
3
 10
1969.586
 20
-6684.870
 30
-2352.000
 70
    32
  0
VERTEX
  8
W77LXLIFT
 62
3
 10
1971.683
 20
-6694.098
 30
-2352.000
 70
    32
  0
VERTEX
  8
W77LXLIFT
 62
3
 10
1974.457
 20
-6699.149
 30
-2352.000
 70
    32
  0
VERTEX
  8
W77LXLIFT
 62
3
 10
1975.648
 20
-6706.970
 30
-2352.000
 70
    32
  0
VERTEX
  8
W77LXLIFT
 62
3
 10
1969.936
 20
-6708.376
 30
-2352.000
 70
    32
  0
VERTEX
  8
W77LXLIFT
 62
3
 10
1967.274
 20
-6705.738
 30
-2352.000
 70
    32
  0
VERTEX
  8
W77LXLIFT
 62
3
 10
1963.554
 20
-6699.525
 30
-2352.000
 70
    32
  0
VERTEX
  8
W77LXLIFT
 62
3
 10
1959.186
 20
-6685.642
 30
-2352.000
 70
    32
  0
VERTEX
  8
W77LXLIFT
 62
3
 10
1957.416
 20
-6678.673
 30
-2352.000
 70
    32
  0
VERTEX
  8
W77LXLIFT
 62
3
 10
1954.440
 20
-6674.093
 30
-2352.000
 70
    32
  0
VERTEX
  8
W77LXLIFT
 62
3
 10
1954.627
 20
-6667.883
 30
-2352.000
 70
    32
  0
VERTEX
  8
W77LXLIFT
 62
3
 10
1952.170
 20
-6662.820
 30
-2352.000
 70
    32
  0
VERTEX
  8
W77LXLIFT
 62
3
 10
1947.789
 20
-6655.239
 30
-2352.000
 70
    32
  0
VERTEX
  8
W77LXLIFT
 62
3
 10
1947.894
 20
-6653.428
 30
-2352.000
 70
    32
  0
VERTEX
  8
W77LXLIFT
 62
3
 10
1945.545
 20
-6651.976
 30
-2352.000
 70
    32
  0
VERTEX
  8
W77LXLIFT
 62
3
 10
1943.030
 20
-6649.992
 30
-2352.000
 70
    32
  0
VERTEX
  8
W77LXLIFT
 62
3
 10
1933.395
 20
-6650.321
 30
-2352.000
 70
    32
  0
VERTEX
  8
W77LXLIFT
 62
3
 10
1933.491
 20
-6653.614
 30
-2352.000
 70
    32
  0
VERTEX
  8
W77LXLIFT
 62
3
 10
1935.349
 20
-6659.652
 30
-2352.000
 70
    32
  0
VERTEX
  8
W77LXLIFT
 62
3
 10
1935.253
 20
-6665.688
 30
-2352.000
 70
    32
  0
VERTEX
  8
W77LXLIFT
 62
3
 10
1936.223
 20
-6672.149
 30
-2352.000
 70
    32
  0
VERTEX
  8
W77LXLIFT
 62
3
 10
1934.168
 20
-6679.380
 30
-2352.000
 70
    32
  0
VERTEX
  8
W77LXLIFT
 62
3
 10
1934.576
 20
-6688.523
 30
-2352.000
 70
    32
  0
VERTEX
  8
W77LXLIFT
 62
3
 10
1935.740
 20
-6694.952
 30
-2352.000
 70
    32
  0
VERTEX
  8
W77LXLIFT
 62
3
 10
1940.858
 20
-6702.653
 30
-2352.000
 70
    32
  0
VERTEX
  8
W77LXLIFT
 62
3
 10
1943.100
 20
-6709.824
 30
-2352.000
 70
    32
  0
VERTEX
  8
W77LXLIFT
 62
3
 10
1943.060
 20
-6714.735
 30
-2352.000
 70
    32
  0
VERTEX
  8
W77LXLIFT
 62
3
 10
1958.190
 20
-6740.385
 30
-2352.000
 70
    32
  0
VERTEX
  8
W77LXLIFT
 62
3
 10
1965.121
 20
-6755.566
 30
-2352.000
 70
    32
  0
VERTEX
  8
W77LXLIFT
 62
3
 10
1971.073
 20
-6776.009
 30
-2352.000
 70
    32
  0
VERTEX
  8
W77LXLIFT
 62
3
 10
1972.137
 20
-6778.387
 30
-2352.000
 70
    32
  0
VERTEX
  8
W77LXLIFT
 62
3
 10
1974.395
 20
-6780.014
 30
-2352.000
 70
    32
  0
VERTEX
  8
W77LXLIFT
 62
3
 10
1977.923
 20
-6784.305
 30
-2352.000
 70
    32
  0
VERTEX
  8
W77LXLIFT
 62
3
 10
1980.201
 20
-6790.474
 30
-2352.000
 70
    32
  0
VERTEX
  8
W77LXLIFT
 62
3
 10
1979.570
 20
-6795.919
 30
-2352.000
 70
    32
  0
VERTEX
  8
W77LXLIFT
 62
3
 10
1978.283
 20
-6798.799
 30
-2352.000
 70
    32
  0
VERTEX
  8
W77LXLIFT
 62
3
 10
1978.750
 20
-6800.198
 30
-2352.000
 70
    32
  0
VERTEX
  8
W77LXLIFT
 62
3
 10
1982.135
 20
-6804.592
 30
-2352.000
 70
    32
  0
VERTEX
  8
W77LXLIFT
 62
3
 10
1982.884
 20
-6809.693
 30
-2352.000
 70
    32
  0
VERTEX
  8
W77LXLIFT
 62
3
 10
1981.949
 20
-6813.513
 30
-2352.000
 70
    32
  0
SEQEND
  8
W77LXLIFT
  0
POLYLINE
  8
W77LXLIFT
 62
7
 66
     1
 70
     9
  0
VERTEX
  8
W77LXLIFT
 62
7
 10
2062.670
 20
-7209.102
 30
-2349.000
 70
    32
  0
VERTEX
  8
W77LXLIFT
 62
7
 10
2077.506
 20
-7186.797
 30
-2349.000
 70
    32
  0
VERTEX
  8
W77LXLIFT
 62
7
 10
2085.410
 20
-7190.537
 30
-2349.000
 70
    32
  0
VERTEX
  8
W77LXLIFT
 62
7
 10
2082.243
 20
-7205.404
 30
-2349.000
 70
    32
  0
VERTEX
  8
W77LXLIFT
 62
7
 10
2085.475
 20
-7212.295
 30
-2349.000
 70
    32
  0
VERTEX
  8
W77LXLIFT
 62
7
 10
2096.687
 20
-7221.677
 30
-2349.000
 70
    32
  0
VERTEX
  8
W77LXLIFT
 62
7
 10
2085.981
 20
-7243.390
 30
-2349.000
 70
    32
  0
VERTEX
  8
W77LXLIFT
 62
7
 10
2072.807
 20
-7239.111
 30
-2349.000
 70
    32
  0
VERTEX
  8
W77LXLIFT
 62
7
 10
2064.859
 20
-7246.143
 30
-2349.000
 70
    32
  0
VERTEX
  8
W77LXLIFT
 62
7
 10
2059.862
 20
-7249.746
 30
-2349.000
 70
    32
  0
VERTEX
  8
W77LXLIFT
 62
7
 10
2051.397
 20
-7239.359
 30
-2349.000
 70
    32
  0
VERTEX
  8
W77LXLIFT
 62
7
 10
2039.909
 20
-7218.460
 30
-2349.000
 70
    32
  0
VERTEX
  8
W77LXLIFT
 62
7
 10
2050.658
 20
-7208.541
 30
-2349.000
 70
    32
  0
SEQEND
  8
W77LXLIFT
  0
POLYLINE
  8
W77LXLIFT
 62
1
 66
     1
 70
     9
  0
VERTEX
  8
W77LXLIFT
 62
1
 10
2063.670
 20
-7208.102
 30
-2332.000
 70
    32
  0
VERTEX
  8
W77LXLIFT
 62
1
 10
2078.558
 20
-7185.868
 30
-2332.000
 70
    32
  0
VERTEX
  8
W77LXLIFT
 62
1
 10
2086.385
 20
-7190.856
 30
-2332.000
 70
    32
  0
VERTEX
  8
W77LXLIFT
 62
1
 10
2083.088
 20
-7204.190
 30
-2332.000
 70
    32
  0
VERTEX
  8
W77LXLIFT
 62
1
 10
2086.352
 20
-7211.275
 30
-2332.000
 70
    32
  0
VERTEX
  8
W77LXLIFT
 62
1
 10
2097.656
 20
-7220.483
 30
-2332.000
 70
    32
  0
VERTEX
  8
W77LXLIFT
 62
1
 10
2086.878
 20
-7242.247
 30
-2332.000
 70
    32
  0
VERTEX
  8
W77LXLIFT
 62
1
 10
2073.704
 20
-7237.968
 30
-2332.000
 70
    32
  0
VERTEX
  8
W77LXLIFT
 62
1
 10
2060.925
 20
-7249.134
 30
-2332.000
 70
    32
  0
VERTEX
  8
W77LXLIFT
 62
1
 10
2051.297
 20
-7236.983
 30
-2332.000
 70
    32
  0
VERTEX
  8
W77LXLIFT
 62
1
 10
2041.024
 20
-7217.920
 30
-2332.000
 70
    32
  0
VERTEX
  8
W77LXLIFT
 62
1
 10
2051.761
 20
-7207.684
 30
-2332.000
 70
    32
  0
SEQEND
  8
W77LXLIFT
  0
POLYLINE
  8
W77LXLIFT
 62
8
 66
     1
 70
     9
  0
VERTEX
  8
W77LXLIFT
 62
8
 10
2319.379
 20
-7032.762
 30
-2334.000
 70
    32
  0
VERTEX
  8
W77LXLIFT
 62
8
 10
2323.057
 20
-7038.227
 30
-2334.000
 70
    32
  0
VERTEX
  8
W77LXLIFT
 62
8
 10
2327.146
 20
-7041.997
 30
-2334.000
 70
    32
  0
VERTEX
  8
W77LXLIFT
 62
8
 10
2329.093
 20
-7043.520
 30
-2334.000
 70
    32
  0
VERTEX
  8
W77LXLIFT
 62
8
 10
2332.357
 20
-7045.075
 30
-2334.000
 70
    32
  0
VERTEX
  8
W77LXLIFT
 62
8
 10
2333.672
 20
-7046.618
 30
-2334.000
 70
    32
  0
VERTEX
  8
W77LXLIFT
 62
8
 10
2334.476
 20
-7048.956
 30
-2334.000
 70
    32
  0
VERTEX
  8
W77LXLIFT
 62
8
 10
2335.346
 20
-7055.774
 30
-2334.000
 70
    32
  0
VERTEX
  8
W77LXLIFT
 62
8
 10
2335.854
 20
-7058.000
 30
-2334.000
 70
    32
  0
VERTEX
  8
W77LXLIFT
 62
8
 10
2336.740
 20
-7059.848
 30
-2334.000
 70
    32
  0
VERTEX
  8
W77LXLIFT
 62
8
 10
2338.910
 20
-7063.045
 30
-2334.000
 70
    32
  0
VERTEX
  8
W77LXLIFT
 62
8
 10
2339.794
 20
-7066.404
 30
-2334.000
 70
    32
  0
VERTEX
  8
W77LXLIFT
 62
8
 10
2341.087
 20
-7069.579
 30
-2334.000
 70
    32
  0
VERTEX
  8
W77LXLIFT
 62
8
 10
2344.785
 20
-7075.676
 30
-2334.000
 70
    32
  0
VERTEX
  8
W77LXLIFT
 62
8
 10
2346.864
 20
-7078.291
 30
-2334.000
 70
    32
  0
VERTEX
  8
W77LXLIFT
 62
8
 10
2353.062
 20
-7084.116
 30
-2334.000
 70
    32
  0
VERTEX
  8
W77LXLIFT
 62
8
 10
2360.787
 20
-7112.354
 30
-2334.000
 70
    32
  0
VERTEX
  8
W77LXLIFT
 62
8
 10
2363.311
 20
-7118.317
 30
-2334.000
 70
    32
  0
VERTEX
  8
W77LXLIFT
 62
8
 10
2365.328
 20
-7122.055
 30
-2334.000
 70
    32
  0
VERTEX
  8
W77LXLIFT
 62
8
 10
2370.334
 20
-7127.112
 30
-2334.000
 70
    32
  0
VERTEX
  8
W77LXLIFT
 62
8
 10
2379.144
 20
-7133.879
 30
-2334.000
 70
    32
  0
VERTEX
  8
W77LXLIFT
 62
8
 10
2382.980
 20
-7135.026
 30
-2334.000
 70
    32
  0
VERTEX
  8
W77LXLIFT
 62
8
 10
2393.973
 20
-7125.037
 30
-2334.000
 70
    32
  0
VERTEX
  8
W77LXLIFT
 62
8
 10
2393.795
 20
-7120.097
 30
-2334.000
 70
    32
  0
VERTEX
  8
W77LXLIFT
 62
8
 10
2393.901
 20
-7107.084
 30
-2334.000
 70
    32
  0
VERTEX
  8
W77LXLIFT
 62
8
 10
2392.528
 20
-7102.888
 30
-2334.000
 70
    32
  0
VERTEX
  8
W77LXLIFT
 62
8
 10
2385.408
 20
-7090.174
 30
-2334.000
 70
    32
  0
VERTEX
  8
W77LXLIFT
 62
8
 10
2379.267
 20
-7078.379
 30
-2334.000
 70
    32
  0
VERTEX
  8
W77LXLIFT
 62
8
 10
2374.920
 20
-7069.403
 30
-2334.000
 70
    32
  0
VERTEX
  8
W77LXLIFT
 62
8
 10
2372.058
 20
-7063.572
 30
-2334.000
 70
    32
  0
VERTEX
  8
W77LXLIFT
 62
8
 10
2374.328
 20
-7059.798
 30
-2334.000
 70
    32
  0
VERTEX
  8
W77LXLIFT
 62
8
 10
2374.800
 20
-7057.737
 30
-2334.000
 70
    32
  0
VERTEX
  8
W77LXLIFT
 62
8
 10
2374.332
 20
-7056.022
 30
-2334.000
 70
    32
  0
VERTEX
  8
W77LXLIFT
 62
8
 10
2372.631
 20
-7053.785
 30
-2334.000
 70
    32
  0
VERTEX
  8
W77LXLIFT
 62
8
 10
2371.285
 20
-7052.049
 30
-2334.000
 70
    32
  0
VERTEX
  8
W77LXLIFT
 62
8
 10
2367.152
 20
-7051.544
 30
-2334.000
 70
    32
  0
VERTEX
  8
W77LXLIFT
 62
8
 10
2365.124
 20
-7049.000
 30
-2334.000
 70
    32
  0
VERTEX
  8
W77LXLIFT
 62
8
 10
2356.954
 20
-7044.797
 30
-2334.000
 70
    32
  0
VERTEX
  8
W77LXLIFT
 62
8
 10
2352.589
 20
-7042.301
 30
-2334.000
 70
    32
  0
VERTEX
  8
W77LXLIFT
 62
8
 10
2346.480
 20
-7037.814
 30
-2334.000
 70
    32
  0
VERTEX
  8
W77LXLIFT
 62
8
 10
2339.486
 20
-7031.479
 30
-2334.000
 70
    32
  0
VERTEX
  8
W77LXLIFT
 62
8
 10
2333.155
 20
-7025.317
 30
-2334.000
 70
    32
  0
VERTEX
  8
W77LXLIFT
 62
8
 10
2329.189
 20
-7021.567
 30
-2334.000
 70
    32
  0
SEQEND
  8
W77LXLIFT
  0
POLYLINE
  8
W77LXLIFT
 62
1
 66
     1
 70
     9
  0
VERTEX
  8
W77LXLIFT
 62
1
 10
2329.975
 20
-7020.720
 30
-2321.000
 70
    32
  0
VERTEX
  8
W77LXLIFT
 62
1
 10
2340.517
 20
-7030.673
 30
-2321.000
 70
    32
  0
VERTEX
  8
W77LXLIFT
 62
1
 10
2347.705
 20
-7036.978
 30
-2321.000
 70
    32
  0
VERTEX
  8
W77LXLIFT
 62
1
 10
2356.098
 20
-7042.856
 30
-2321.000
 70
    32
  0
VERTEX
  8
W77LXLIFT
 62
1
 10
2358.229
 20
-7044.032
 30
-2321.000
 70
    32
  0
VERTEX
  8
W77LXLIFT
 62
1
 10
2362.055
 20
-7045.618
 30
-2321.000
 70
    32
  0
VERTEX
  8
W77LXLIFT
 62
1
 10
2366.441
 20
-7047.991
 30
-2321.000
 70
    32
  0
VERTEX
  8
W77LXLIFT
 62
1
 10
2367.887
 20
-7050.625
 30
-2321.000
 70
    32
  0
VERTEX
  8
W77LXLIFT
 62
1
 10
2371.408
 20
-7051.027
 30
-2321.000
 70
    32
  0
VERTEX
  8
W77LXLIFT
 62
1
 10
2373.936
 20
-7053.214
 30
-2321.000
 70
    32
  0
VERTEX
  8
W77LXLIFT
 62
1
 10
2375.414
 20
-7055.288
 30
-2321.000
 70
    32
  0
VERTEX
  8
W77LXLIFT
 62
1
 10
2375.902
 20
-7056.880
 30
-2321.000
 70
    32
  0
VERTEX
  8
W77LXLIFT
 62
1
 10
2375.410
 20
-7058.309
 30
-2321.000
 70
    32
  0
VERTEX
  8
W77LXLIFT
 62
1
 10
2373.089
 20
-7062.766
 30
-2321.000
 70
    32
  0
VERTEX
  8
W77LXLIFT
 62
1
 10
2374.933
 20
-7064.901
 30
-2321.000
 70
    32
  0
VERTEX
  8
W77LXLIFT
 62
1
 10
2379.545
 20
-7075.306
 30
-2321.000
 70
    32
  0
VERTEX
  8
W77LXLIFT
 62
1
 10
2386.725
 20
-7089.164
 30
-2321.000
 70
    32
  0
VERTEX
  8
W77LXLIFT
 62
1
 10
2393.457
 20
-7101.184
 30
-2321.000
 70
    32
  0
VERTEX
  8
W77LXLIFT
 62
1
 10
2394.616
 20
-7105.533
 30
-2321.000
 70
    32
  0
VERTEX
  8
W77LXLIFT
 62
1
 10
2395.014
 20
-7123.792
 30
-2321.000
 70
    32
  0
VERTEX
  8
W77LXLIFT
 62
1
 10
2384.245
 20
-7133.945
 30
-2321.000
 70
    32
  0
VERTEX
  8
W77LXLIFT
 62
1
 10
2376.982
 20
-7130.712
 30
-2321.000
 70
    32
  0
VERTEX
  8
W77LXLIFT
 62
1
 10
2371.426
 20
-7125.939
 30
-2321.000
 70
    32
  0
VERTEX
  8
W77LXLIFT
 62
1
 10
2367.867
 20
-7122.761
 30
-2321.000
 70
    32
  0
VERTEX
  8
W77LXLIFT
 62
1
 10
2365.116
 20
-7118.900
 30
-2321.000
 70
    32
  0
VERTEX
  8
W77LXLIFT
 62
1
 10
2363.110
 20
-7114.724
 30
-2321.000
 70
    32
  0
VERTEX
  8
W77LXLIFT
 62
1
 10
2361.564
 20
-7110.435
 30
-2321.000
 70
    32
  0
VERTEX
  8
W77LXLIFT
 62
1
 10
2353.960
 20
-7082.973
 30
-2321.000
 70
    32
  0
VERTEX
  8
W77LXLIFT
 62
1
 10
2347.313
 20
-7076.821
 30
-2321.000
 70
    32
  0
VERTEX
  8
W77LXLIFT
 62
1
 10
2344.216
 20
-7072.021
 30
-2321.000
 70
    32
  0
VERTEX
  8
W77LXLIFT
 62
1
 10
2340.417
 20
-7065.026
 30
-2321.000
 70
    32
  0
VERTEX
  8
W77LXLIFT
 62
1
 10
2340.235
 20
-7063.107
 30
-2321.000
 70
    32
  0
VERTEX
  8
W77LXLIFT
 62
1
 10
2339.859
 20
-7061.974
 30
-2321.000
 70
    32
  0
VERTEX
  8
W77LXLIFT
 62
1
 10
2336.741
 20
-7057.296
 30
-2321.000
 70
    32
  0
VERTEX
  8
W77LXLIFT
 62
1
 10
2336.366
 20
-7055.407
 30
-2321.000
 70
    32
  0
VERTEX
  8
W77LXLIFT
 62
1
 10
2336.032
 20
-7052.519
 30
-2321.000
 70
    32
  0
VERTEX
  8
W77LXLIFT
 62
1
 10
2335.547
 20
-7047.905
 30
-2321.000
 70
    32
  0
VERTEX
  8
W77LXLIFT
 62
1
 10
2334.744
 20
-7045.567
 30
-2321.000
 70
    32
  0
VERTEX
  8
W77LXLIFT
 62
1
 10
2332.960
 20
-7043.820
 30
-2321.000
 70
    32
  0
VERTEX
  8
W77LXLIFT
 62
1
 10
2330.644
 20
-7042.990
 30
-2321.000
 70
    32
  0
VERTEX
  8
W77LXLIFT
 62
1
 10
2326.473
 20
-7039.710
 30
-2321.000
 70
    32
  0
VERTEX
  8
W77LXLIFT
 62
1
 10
2323.650
 20
-7036.655
 30
-2321.000
 70
    32
  0
VERTEX
  8
W77LXLIFT
 62
1
 10
2320.441
 20
-7031.395
 30
-2321.000
 70
    32
  0
SEQEND
  8
W77LXLIFT
  0
POLYLINE
  8
W77LXLIFT
 62
3
 66
     1
 70
     9
  0
VERTEX
  8
W77LXLIFT
 62
3
 10
2098.948
 20
-7042.983
 30
-2321.000
 70
    32
  0
VERTEX
  8
W77LXLIFT
 62
3
 10
2091.974
 20
-7029.613
 30
-2321.000
 70
    32
  0
VERTEX
  8
W77LXLIFT
 62
3
 10
2087.689
 20
-7020.047
 30
-2321.000
 70
    32
  0
VERTEX
  8
W77LXLIFT
 62
3
 10
2085.001
 20
-7011.828
 30
-2321.000
 70
    32
  0
VERTEX
  8
W77LXLIFT
 62
3
 10
2082.898
 20
-7005.349
 30
-2321.000
 70
    32
  0
VERTEX
  8
W77LXLIFT
 62
3
 10
2081.644
 20
-6992.457
 30
-2321.000
 70
    32
  0
VERTEX
  8
W77LXLIFT
 62
3
 10
2081.702
 20
-6982.944
 30
-2321.000
 70
    32
  0
VERTEX
  8
W77LXLIFT
 62
3
 10
2083.067
 20
-6977.565
 30
-2321.000
 70
    32
  0
VERTEX
  8
W77LXLIFT
 62
3
 10
2083.234
 20
-6966.683
 30
-2321.000
 70
    32
  0
VERTEX
  8
W77LXLIFT
 62
3
 10
2081.963
 20
-6953.158
 30
-2321.000
 70
    32
  0
VERTEX
  8
W77LXLIFT
 62
3
 10
2080.823
 20
-6939.970
 30
-2321.000
 70
    32
  0
VERTEX
  8
W77LXLIFT
 62
3
 10
2076.626
 20
-6902.354
 30
-2321.000
 70
    32
  0
VERTEX
  8
W77LXLIFT
 62
3
 10
2082.744
 20
-6896.846
 30
-2321.000
 70
    32
  0
VERTEX
  8
W77LXLIFT
 62
3
 10
2088.005
 20
-6893.020
 30
-2321.000
 70
    32
  0
VERTEX
  8
W77LXLIFT
 62
3
 10
2094.092
 20
-6891.732
 30
-2321.000
 70
    32
  0
VERTEX
  8
W77LXLIFT
 62
3
 10
2090.611
 20
-6884.827
 30
-2321.000
 70
    32
  0
VERTEX
  8
W77LXLIFT
 62
3
 10
2087.515
 20
-6870.547
 30
-2321.000
 70
    32
  0
VERTEX
  8
W77LXLIFT
 62
3
 10
2088.694
 20
-6851.198
 30
-2321.000
 70
    32
  0
VERTEX
  8
W77LXLIFT
 62
3
 10
2088.604
 20
-6848.786
 30
-2321.000
 70
    32
  0
VERTEX
  8
W77LXLIFT
 62
3
 10
2087.889
 20
-6846.708
 30
-2321.000
 70
    32
  0
VERTEX
  8
W77LXLIFT
 62
3
 10
2081.420
 20
-6836.641
 30
-2321.000
 70
    32
  0
VERTEX
  8
W77LXLIFT
 62
3
 10
2079.085
 20
-6831.510
 30
-2321.000
 70
    32
  0
VERTEX
  8
W77LXLIFT
 62
3
 10
2077.897
 20
-6829.982
 30
-2321.000
 70
    32
  0
VERTEX
  8
W77LXLIFT
 62
3
 10
2066.363
 20
-6827.370
 30
-2321.000
 70
    32
  0
VERTEX
  8
W77LXLIFT
 62
3
 10
2055.902
 20
-6832.825
 30
-2321.000
 70
    32
  0
VERTEX
  8
W77LXLIFT
 62
3
 10
2049.429
 20
-6852.147
 30
-2321.000
 70
    32
  0
VERTEX
  8
W77LXLIFT
 62
3
 10
2050.217
 20
-6856.004
 30
-2321.000
 70
    32
  0
VERTEX
  8
W77LXLIFT
 62
3
 10
2058.556
 20
-6870.239
 30
-2321.000
 70
    32
  0
VERTEX
  8
W77LXLIFT
 62
3
 10
2055.903
 20
-6875.774
 30
-2321.000
 70
    32
  0
VERTEX
  8
W77LXLIFT
 62
3
 10
2039.783
 20
-6870.482
 30
-2321.000
 70
    32
  0
VERTEX
  8
W77LXLIFT
 62
3
 10
2025.274
 20
-6880.414
 30
-2321.000
 70
    32
  0
VERTEX
  8
W77LXLIFT
 62
3
 10
2028.276
 20
-6891.210
 30
-2321.000
 70
    32
  0
VERTEX
  8
W77LXLIFT
 62
3
 10
2030.579
 20
-6898.732
 30
-2321.000
 70
    32
  0
VERTEX
  8
W77LXLIFT
 62
3
 10
2028.921
 20
-6903.240
 30
-2321.000
 70
    32
  0
VERTEX
  8
W77LXLIFT
 62
3
 10
2027.508
 20
-6905.962
 30
-2321.000
 70
    32
  0
VERTEX
  8
W77LXLIFT
 62
3
 10
2032.773
 20
-6915.696
 30
-2321.000
 70
    32
  0
VERTEX
  8
W77LXLIFT
 62
3
 10
2034.153
 20
-6921.609
 30
-2321.000
 70
    32
  0
VERTEX
  8
W77LXLIFT
 62
3
 10
2037.972
 20
-6928.383
 30
-2321.000
 70
    32
  0
VERTEX
  8
W77LXLIFT
 62
3
 10
2038.418
 20
-6933.126
 30
-2321.000
 70
    32
  0
VERTEX
  8
W77LXLIFT
 62
3
 10
2037.647
 20
-6942.391
 30
-2321.000
 70
    32
  0
VERTEX
  8
W77LXLIFT
 62
3
 10
2038.083
 20
-6951.232
 30
-2321.000
 70
    32
  0
VERTEX
  8
W77LXLIFT
 62
3
 10
2039.657
 20
-6955.287
 30
-2321.000
 70
    32
  0
VERTEX
  8
W77LXLIFT
 62
3
 10
2042.734
 20
-6959.032
 30
-2321.000
 70
    32
  0
VERTEX
  8
W77LXLIFT
 62
3
 10
2042.854
 20
-6961.638
 30
-2321.000
 70
    32
  0
VERTEX
  8
W77LXLIFT
 62
3
 10
2041.609
 20
-6969.623
 30
-2321.000
 70
    32
  0
VERTEX
  8
W77LXLIFT
 62
3
 10
2041.969
 20
-6971.198
 30
-2321.000
 70
    32
  0
VERTEX
  8
W77LXLIFT
 62
3
 10
2043.566
 20
-6972.545
 30
-2321.000
 70
    32
  0
VERTEX
  8
W77LXLIFT
 62
3
 10
2054.001
 20
-6980.455
 30
-2321.000
 70
    32
  0
VERTEX
  8
W77LXLIFT
 62
3
 10
2054.977
 20
-6981.380
 30
-2321.000
 70
    32
  0
VERTEX
  8
W77LXLIFT
 62
3
 10
2055.806
 20
-6983.162
 30
-2321.000
 70
    32
  0
VERTEX
  8
W77LXLIFT
 62
3
 10
2063.161
 20
-7010.472
 30
-2321.000
 70
    32
  0
VERTEX
  8
W77LXLIFT
 62
3
 10
2063.023
 20
-7013.476
 30
-2321.000
 70
    32
  0
VERTEX
  8
W77LXLIFT
 62
3
 10
2063.078
 20
-7027.108
 30
-2321.000
 70
    32
  0
VERTEX
  8
W77LXLIFT
 62
3
 10
2063.594
 20
-7028.143
 30
-2321.000
 70
    32
  0
VERTEX
  8
W77LXLIFT
 62
3
 10
2081.653
 20
-7050.039
 30
-2321.000
 70
    32
  0
SEQEND
  8
W77LXLIFT
  0
POLYLINE
  8
W77LXLIFT
 62
3
 66
     1
 70
     9
  0
VERTEX
  8
W77LXLIFT
 62
3
 10
1975.203
 20
-6796.320
 30
-2326.000
 70
    32
  0
VERTEX
  8
W77LXLIFT
 62
3
 10
1975.957
 20
-6792.666
 30
-2326.000
 70
    32
  0
VERTEX
  8
W77LXLIFT
 62
3
 10
1978.879
 20
-6790.708
 30
-2326.000
 70
    32
  0
VERTEX
  8
W77LXLIFT
 62
3
 10
1982.639
 20
-6790.849
 30
-2326.000
 70
    32
  0
VERTEX
  8
W77LXLIFT
 62
3
 10
1986.032
 20
-6792.757
 30
-2326.000
 70
    32
  0
VERTEX
  8
W77LXLIFT
 62
3
 10
1996.175
 20
-6814.113
 30
-2326.000
 70
    32
  0
VERTEX
  8
W77LXLIFT
 62
3
 10
2002.359
 20
-6826.212
 30
-2326.000
 70
    32
  0
VERTEX
  8
W77LXLIFT
 62
3
 10
2011.758
 20
-6847.126
 30
-2326.000
 70
    32
  0
VERTEX
  8
W77LXLIFT
 62
3
 10
2013.212
 20
-6848.574
 30
-2326.000
 70
    32
  0
VERTEX
  8
W77LXLIFT
 62
3
 10
2027.277
 20
-6845.630
 30
-2326.000
 70
    32
  0
VERTEX
  8
W77LXLIFT
 62
3
 10
2029.502
 20
-6844.057
 30
-2326.000
 70
    32
  0
VERTEX
  8
W77LXLIFT
 62
3
 10
2029.239
 20
-6841.552
 30
-2326.000
 70
    32
  0
VERTEX
  8
W77LXLIFT
 62
3
 10
2032.433
 20
-6813.783
 30
-2326.000
 70
    32
  0
VERTEX
  8
W77LXLIFT
 62
3
 10
2033.555
 20
-6812.021
 30
-2326.000
 70
    32
  0
VERTEX
  8
W77LXLIFT
 62
3
 10
2036.898
 20
-6807.613
 30
-2326.000
 70
    32
  0
VERTEX
  8
W77LXLIFT
 62
3
 10
2035.960
 20
-6784.810
 30
-2326.000
 70
    32
  0
VERTEX
  8
W77LXLIFT
 62
3
 10
2034.682
 20
-6780.870
 30
-2326.000
 70
    32
  0
VERTEX
  8
W77LXLIFT
 62
3
 10
2032.470
 20
-6777.589
 30
-2326.000
 70
    32
  0
VERTEX
  8
W77LXLIFT
 62
3
 10
2025.649
 20
-6772.507
 30
-2326.000
 70
    32
  0
VERTEX
  8
W77LXLIFT
 62
3
 10
2024.017
 20
-6769.893
 30
-2326.000
 70
    32
  0
VERTEX
  8
W77LXLIFT
 62
3
 10
2017.241
 20
-6755.737
 30
-2326.000
 70
    32
  0
VERTEX
  8
W77LXLIFT
 62
3
 10
2022.374
 20
-6748.988
 30
-2326.000
 70
    32
  0
VERTEX
  8
W77LXLIFT
 62
3
 10
2020.748
 20
-6728.716
 30
-2326.000
 70
    32
  0
VERTEX
  8
W77LXLIFT
 62
3
 10
2022.744
 20
-6725.905
 30
-2326.000
 70
    32
  0
VERTEX
  8
W77LXLIFT
 62
3
 10
2015.270
 20
-6716.549
 30
-2326.000
 70
    32
  0
VERTEX
  8
W77LXLIFT
 62
3
 10
2011.512
 20
-6711.993
 30
-2326.000
 70
    32
  0
VERTEX
  8
W77LXLIFT
 62
3
 10
2010.501
 20
-6709.801
 30
-2326.000
 70
    32
  0
VERTEX
  8
W77LXLIFT
 62
3
 10
2010.090
 20
-6708.154
 30
-2326.000
 70
    32
  0
VERTEX
  8
W77LXLIFT
 62
3
 10
2009.530
 20
-6697.462
 30
-2326.000
 70
    32
  0
VERTEX
  8
W77LXLIFT
 62
3
 10
1994.641
 20
-6658.577
 30
-2326.000
 70
    32
  0
VERTEX
  8
W77LXLIFT
 62
3
 10
1994.092
 20
-6651.861
 30
-2326.000
 70
    32
  0
VERTEX
  8
W77LXLIFT
 62
3
 10
1993.989
 20
-6648.059
 30
-2326.000
 70
    32
  0
VERTEX
  8
W77LXLIFT
 62
3
 10
1992.122
 20
-6641.305
 30
-2326.000
 70
    32
  0
VERTEX
  8
W77LXLIFT
 62
3
 10
1987.216
 20
-6639.391
 30
-2326.000
 70
    32
  0
VERTEX
  8
W77LXLIFT
 62
3
 10
1980.348
 20
-6639.724
 30
-2326.000
 70
    32
  0
VERTEX
  8
W77LXLIFT
 62
3
 10
1973.421
 20
-6641.498
 30
-2326.000
 70
    32
  0
VERTEX
  8
W77LXLIFT
 62
3
 10
1970.583
 20
-6642.966
 30
-2326.000
 70
    32
  0
VERTEX
  8
W77LXLIFT
 62
3
 10
1966.003
 20
-6663.748
 30
-2326.000
 70
    32
  0
VERTEX
  8
W77LXLIFT
 62
3
 10
1972.350
 20
-6702.427
 30
-2326.000
 70
    32
  0
VERTEX
  8
W77LXLIFT
 62
3
 10
1966.801
 20
-6704.627
 30
-2326.000
 70
    32
  0
VERTEX
  8
W77LXLIFT
 62
3
 10
1960.256
 20
-6695.367
 30
-2326.000
 70
    32
  0
VERTEX
  8
W77LXLIFT
 62
3
 10
1957.401
 20
-6689.957
 30
-2326.000
 70
    32
  0
VERTEX
  8
W77LXLIFT
 62
3
 10
1956.058
 20
-6682.726
 30
-2326.000
 70
    32
  0
VERTEX
  8
W77LXLIFT
 62
3
 10
1955.432
 20
-6681.231
 30
-2326.000
 70
    32
  0
VERTEX
  8
W77LXLIFT
 62
3
 10
1947.318
 20
-6668.989
 30
-2326.000
 70
    32
  0
VERTEX
  8
W77LXLIFT
 62
3
 10
1942.274
 20
-6668.249
 30
-2326.000
 70
    32
  0
VERTEX
  8
W77LXLIFT
 62
3
 10
1935.427
 20
-6670.289
 30
-2326.000
 70
    32
  0
VERTEX
  8
W77LXLIFT
 62
3
 10
1930.503
 20
-6700.788
 30
-2326.000
 70
    32
  0
VERTEX
  8
W77LXLIFT
 62
3
 10
1944.960
 20
-6723.831
 30
-2326.000
 70
    32
  0
VERTEX
  8
W77LXLIFT
 62
3
 10
1952.628
 20
-6739.402
 30
-2326.000
 70
    32
  0
VERTEX
  8
W77LXLIFT
 62
3
 10
1953.412
 20
-6750.258
 30
-2326.000
 70
    32
  0
VERTEX
  8
W77LXLIFT
 62
3
 10
1957.302
 20
-6756.981
 30
-2326.000
 70
    32
  0
VERTEX
  8
W77LXLIFT
 62
3
 10
1958.697
 20
-6772.357
 30
-2326.000
 70
    32
  0
SEQEND
  8
W77LXLIFT
  0
POLYLINE
  8
W77LXLIFT
 62
11
 66
     1
 70
     9
  0
VERTEX
  8
W77LXLIFT
 62
11
 10
1893.889
 20
-6449.005
 30
-2312.000
 70
    32
  0
VERTEX
  8
W77LXLIFT
 62
11
 10
1904.765
 20
-6449.145
 30
-2312.000
 70
    32
  0
VERTEX
  8
W77LXLIFT
 62
11
 10
1906.431
 20
-6459.361
 30
-2312.000
 70
    32
  0
VERTEX
  8
W77LXLIFT
 62
11
 10
1913.816
 20
-6469.659
 30
-2312.000
 70
    32
  0
VERTEX
  8
W77LXLIFT
 62
11
 10
1917.362
 20
-6471.541
 30
-2312.000
 70
    32
  0
VERTEX
  8
W77LXLIFT
 62
11
 10
1933.251
 20
-6463.462
 30
-2312.000
 70
    32
  0
VERTEX
  8
W77LXLIFT
 62
11
 10
1951.983
 20
-6493.692
 30
-2312.000
 70
    32
  0
VERTEX
  8
W77LXLIFT
 62
11
 10
1953.893
 20
-6495.568
 30
-2312.000
 70
    32
  0
VERTEX
  8
W77LXLIFT
 62
11
 10
1957.543
 20
-6498.789
 30
-2312.000
 70
    32
  0
VERTEX
  8
W77LXLIFT
 62
11
 10
1961.006
 20
-6507.587
 30
-2312.000
 70
    32
  0
VERTEX
  8
W77LXLIFT
 62
11
 10
1973.944
 20
-6519.832
 30
-2312.000
 70
    32
  0
VERTEX
  8
W77LXLIFT
 62
11
 10
1974.132
 20
-6522.633
 30
-2312.000
 70
    32
  0
VERTEX
  8
W77LXLIFT
 62
11
 10
1972.872
 20
-6528.230
 30
-2312.000
 70
    32
  0
VERTEX
  8
W77LXLIFT
 62
11
 10
1978.003
 20
-6530.047
 30
-2312.000
 70
    32
  0
VERTEX
  8
W77LXLIFT
 62
11
 10
1980.857
 20
-6532.324
 30
-2312.000
 70
    32
  0
VERTEX
  8
W77LXLIFT
 62
11
 10
1983.472
 20
-6536.516
 30
-2312.000
 70
    32
  0
VERTEX
  8
W77LXLIFT
 62
11
 10
1992.979
 20
-6566.929
 30
-2312.000
 70
    32
  0
VERTEX
  8
W77LXLIFT
 62
11
 10
1991.964
 20
-6570.171
 30
-2312.000
 70
    32
  0
VERTEX
  8
W77LXLIFT
 62
11
 10
1993.218
 20
-6590.590
 30
-2312.000
 70
    32
  0
VERTEX
  8
W77LXLIFT
 62
11
 10
1992.461
 20
-6591.794
 30
-2312.000
 70
    32
  0
VERTEX
  8
W77LXLIFT
 62
11
 10
1986.776
 20
-6599.087
 30
-2312.000
 70
    32
  0
VERTEX
  8
W77LXLIFT
 62
11
 10
1984.551
 20
-6603.210
 30
-2312.000
 70
    32
  0
VERTEX
  8
W77LXLIFT
 62
11
 10
1982.922
 20
-6607.551
 30
-2312.000
 70
    32
  0
VERTEX
  8
W77LXLIFT
 62
11
 10
1975.773
 20
-6657.703
 30
-2312.000
 70
    32
  0
VERTEX
  8
W77LXLIFT
 62
11
 10
1959.735
 20
-6660.341
 30
-2312.000
 70
    32
  0
VERTEX
  8
W77LXLIFT
 62
11
 10
1929.705
 20
-6653.025
 30
-2312.000
 70
    32
  0
VERTEX
  8
W77LXLIFT
 62
11
 10
1927.355
 20
-6651.143
 30
-2312.000
 70
    32
  0
VERTEX
  8
W77LXLIFT
 62
11
 10
1926.999
 20
-6647.811
 30
-2312.000
 70
    32
  0
VERTEX
  8
W77LXLIFT
 62
11
 10
1947.461
 20
-6566.747
 30
-2312.000
 70
    32
  0
VERTEX
  8
W77LXLIFT
 62
11
 10
1944.535
 20
-6562.128
 30
-2312.000
 70
    32
  0
VERTEX
  8
W77LXLIFT
 62
11
 10
1936.840
 20
-6554.994
 30
-2312.000
 70
    32
  0
VERTEX
  8
W77LXLIFT
 62
11
 10
1930.732
 20
-6551.385
 30
-2312.000
 70
    32
  0
VERTEX
  8
W77LXLIFT
 62
11
 10
1930.530
 20
-6548.267
 30
-2312.000
 70
    32
  0
VERTEX
  8
W77LXLIFT
 62
11
 10
1929.936
 20
-6527.258
 30
-2312.000
 70
    32
  0
VERTEX
  8
W77LXLIFT
 62
11
 10
1928.337
 20
-6525.809
 30
-2312.000
 70
    32
  0
VERTEX
  8
W77LXLIFT
 62
11
 10
1923.354
 20
-6522.252
 30
-2312.000
 70
    32
  0
VERTEX
  8
W77LXLIFT
 62
11
 10
1920.412
 20
-6505.347
 30
-2312.000
 70
    32
  0
VERTEX
  8
W77LXLIFT
 62
11
 10
1917.188
 20
-6497.027
 30
-2312.000
 70
    32
  0
VERTEX
  8
W77LXLIFT
 62
11
 10
1913.026
 20
-6492.654
 30
-2312.000
 70
    32
  0
VERTEX
  8
W77LXLIFT
 62
11
 10
1901.878
 20
-6493.039
 30
-2312.000
 70
    32
  0
VERTEX
  8
W77LXLIFT
 62
11
 10
1892.823
 20
-6480.146
 30
-2312.000
 70
    32
  0
VERTEX
  8
W77LXLIFT
 62
11
 10
1891.773
 20
-6473.618
 30
-2312.000
 70
    32
  0
VERTEX
  8
W77LXLIFT
 62
11
 10
1881.197
 20
-6459.982
 30
-2312.000
 70
    32
  0
SEQEND
  8
W77LXLIFT
  0
POLYLINE
  8
W77LXLIFT
 62
3
 66
     1
 70
     9
  0
VERTEX
  8
W77LXLIFT
 62
3
 10
1995.258
 20
-6811.461
 30
-2300.000
 70
    32
  0
VERTEX
  8
W77LXLIFT
 62
3
 10
2008.328
 20
-6835.255
 30
-2300.000
 70
    32
  0
VERTEX
  8
W77LXLIFT
 62
3
 10
2010.697
 20
-6839.408
 30
-2300.000
 70
    32
  0
VERTEX
  8
W77LXLIFT
 62
3
 10
2012.380
 20
-6841.122
 30
-2300.000
 70
    32
  0
VERTEX
  8
W77LXLIFT
 62
3
 10
2015.110
 20
-6840.986
 30
-2300.000
 70
    32
  0
VERTEX
  8
W77LXLIFT
 62
3
 10
2019.237
 20
-6839.179
 30
-2300.000
 70
    32
  0
VERTEX
  8
W77LXLIFT
 62
3
 10
2026.406
 20
-6837.663
 30
-2300.000
 70
    32
  0
VERTEX
  8
W77LXLIFT
 62
3
 10
2027.285
 20
-6812.100
 30
-2300.000
 70
    32
  0
VERTEX
  8
W77LXLIFT
 62
3
 10
2026.728
 20
-6808.043
 30
-2300.000
 70
    32
  0
VERTEX
  8
W77LXLIFT
 62
3
 10
2026.358
 20
-6804.394
 30
-2300.000
 70
    32
  0
VERTEX
  8
W77LXLIFT
 62
3
 10
2027.399
 20
-6800.589
 30
-2300.000
 70
    32
  0
VERTEX
  8
W77LXLIFT
 62
3
 10
2028.323
 20
-6797.522
 30
-2300.000
 70
    32
  0
VERTEX
  8
W77LXLIFT
 62
3
 10
2028.717
 20
-6794.623
 30
-2300.000
 70
    32
  0
VERTEX
  8
W77LXLIFT
 62
3
 10
2026.294
 20
-6783.217
 30
-2300.000
 70
    32
  0
VERTEX
  8
W77LXLIFT
 62
3
 10
2026.105
 20
-6776.825
 30
-2300.000
 70
    32
  0
VERTEX
  8
W77LXLIFT
 62
3
 10
2026.569
 20
-6772.677
 30
-2300.000
 70
    32
  0
VERTEX
  8
W77LXLIFT
 62
3
 10
2026.297
 20
-6769.610
 30
-2300.000
 70
    32
  0
VERTEX
  8
W77LXLIFT
 62
3
 10
2000.535
 20
-6731.217
 30
-2300.000
 70
    32
  0
VERTEX
  8
W77LXLIFT
 62
3
 10
1988.016
 20
-6733.906
 30
-2300.000
 70
    32
  0
VERTEX
  8
W77LXLIFT
 62
3
 10
1971.223
 20
-6746.126
 30
-2300.000
 70
    32
  0
VERTEX
  8
W77LXLIFT
 62
3
 10
1976.337
 20
-6756.444
 30
-2300.000
 70
    32
  0
VERTEX
  8
W77LXLIFT
 62
3
 10
1961.263
 20
-6760.557
 30
-2300.000
 70
    32
  0
VERTEX
  8
W77LXLIFT
 62
3
 10
1958.425
 20
-6770.567
 30
-2300.000
 70
    32
  0
VERTEX
  8
W77LXLIFT
 62
3
 10
1970.553
 20
-6781.550
 30
-2300.000
 70
    32
  0
VERTEX
  8
W77LXLIFT
 62
3
 10
1977.051
 20
-6788.685
 30
-2300.000
 70
    32
  0
VERTEX
  8
W77LXLIFT
 62
3
 10
1984.403
 20
-6795.198
 30
-2300.000
 70
    32
  0
VERTEX
  8
W77LXLIFT
 62
3
 10
1989.749
 20
-6802.844
 30
-2300.000
 70
    32
  0
SEQEND
  8
W77LXLIFT
  0
POLYLINE
  8
W77LXLIFT
 62
3
 66
     1
 70
     9
  0
VERTEX
  8
W77LXLIFT
 62
3
 10
2022.163
 20
-6921.160
 30
-2298.000
 70
    32
  0
VERTEX
  8
W77LXLIFT
 62
3
 10
2030.660
 20
-6933.150
 30
-2298.000
 70
    32
  0
VERTEX
  8
W77LXLIFT
 62
3
 10
2031.072
 20
-6934.479
 30
-2298.000
 70
    32
  0
VERTEX
  8
W77LXLIFT
 62
3
 10
2031.079
 20
-6937.507
 30
-2298.000
 70
    32
  0
VERTEX
  8
W77LXLIFT
 62
3
 10
2030.159
 20
-6941.959
 30
-2298.000
 70
    32
  0
VERTEX
  8
W77LXLIFT
 62
3
 10
2030.215
 20
-6944.302
 30
-2298.000
 70
    32
  0
VERTEX
  8
W77LXLIFT
 62
3
 10
2031.685
 20
-6947.255
 30
-2298.000
 70
    32
  0
VERTEX
  8
W77LXLIFT
 62
3
 10
2033.376
 20
-6948.857
 30
-2298.000
 70
    32
  0
VERTEX
  8
W77LXLIFT
 62
3
 10
2043.121
 20
-6987.790
 30
-2298.000
 70
    32
  0
VERTEX
  8
W77LXLIFT
 62
3
 10
2045.531
 20
-6990.393
 30
-2298.000
 70
    32
  0
VERTEX
  8
W77LXLIFT
 62
3
 10
2056.558
 20
-7012.700
 30
-2298.000
 70
    32
  0
VERTEX
  8
W77LXLIFT
 62
3
 10
2063.165
 20
-7030.055
 30
-2298.000
 70
    32
  0
VERTEX
  8
W77LXLIFT
 62
3
 10
2066.633
 20
-7034.282
 30
-2298.000
 70
    32
  0
VERTEX
  8
W77LXLIFT
 62
3
 10
2075.149
 20
-7041.168
 30
-2298.000
 70
    32
  0
VERTEX
  8
W77LXLIFT
 62
3
 10
2084.681
 20
-7039.959
 30
-2298.000
 70
    32
  0
VERTEX
  8
W77LXLIFT
 62
3
 10
2088.283
 20
-7036.074
 30
-2298.000
 70
    32
  0
VERTEX
  8
W77LXLIFT
 62
3
 10
2074.902
 20
-7000.075
 30
-2298.000
 70
    32
  0
VERTEX
  8
W77LXLIFT
 62
3
 10
2067.372
 20
-6990.640
 30
-2298.000
 70
    32
  0
VERTEX
  8
W77LXLIFT
 62
3
 10
2064.511
 20
-6982.729
 30
-2298.000
 70
    32
  0
VERTEX
  8
W77LXLIFT
 62
3
 10
2062.570
 20
-6970.366
 30
-2298.000
 70
    32
  0
VERTEX
  8
W77LXLIFT
 62
3
 10
2063.048
 20
-6960.165
 30
-2298.000
 70
    32
  0
VERTEX
  8
W77LXLIFT
 62
3
 10
2065.591
 20
-6953.899
 30
-2298.000
 70
    32
  0
VERTEX
  8
W77LXLIFT
 62
3
 10
2068.240
 20
-6949.290
 30
-2298.000
 70
    32
  0
VERTEX
  8
W77LXLIFT
 62
3
 10
2068.943
 20
-6943.477
 30
-2298.000
 70
    32
  0
VERTEX
  8
W77LXLIFT
 62
3
 10
2069.886
 20
-6939.660
 30
-2298.000
 70
    32
  0
VERTEX
  8
W77LXLIFT
 62
3
 10
2069.753
 20
-6935.097
 30
-2298.000
 70
    32
  0
VERTEX
  8
W77LXLIFT
 62
3
 10
2068.989
 20
-6932.071
 30
-2298.000
 70
    32
  0
VERTEX
  8
W77LXLIFT
 62
3
 10
2067.517
 20
-6928.361
 30
-2298.000
 70
    32
  0
VERTEX
  8
W77LXLIFT
 62
3
 10
2066.251
 20
-6924.937
 30
-2298.000
 70
    32
  0
VERTEX
  8
W77LXLIFT
 62
3
 10
2066.487
 20
-6916.210
 30
-2298.000
 70
    32
  0
VERTEX
  8
W77LXLIFT
 62
3
 10
2076.022
 20
-6880.446
 30
-2298.000
 70
    32
  0
VERTEX
  8
W77LXLIFT
 62
3
 10
2078.633
 20
-6872.614
 30
-2298.000
 70
    32
  0
VERTEX
  8
W77LXLIFT
 62
3
 10
2079.142
 20
-6866.833
 30
-2298.000
 70
    32
  0
VERTEX
  8
W77LXLIFT
 62
3
 10
2081.916
 20
-6858.776
 30
-2298.000
 70
    32
  0
VERTEX
  8
W77LXLIFT
 62
3
 10
2074.793
 20
-6834.967
 30
-2298.000
 70
    32
  0
VERTEX
  8
W77LXLIFT
 62
3
 10
2067.703
 20
-6825.541
 30
-2298.000
 70
    32
  0
VERTEX
  8
W77LXLIFT
 62
3
 10
2066.997
 20
-6820.633
 30
-2298.000
 70
    32
  0
VERTEX
  8
W77LXLIFT
 62
3
 10
2047.023
 20
-6822.837
 30
-2298.000
 70
    32
  0
VERTEX
  8
W77LXLIFT
 62
3
 10
2045.579
 20
-6831.238
 30
-2298.000
 70
    32
  0
VERTEX
  8
W77LXLIFT
 62
3
 10
2040.840
 20
-6834.748
 30
-2298.000
 70
    32
  0
VERTEX
  8
W77LXLIFT
 62
3
 10
2044.558
 20
-6845.511
 30
-2298.000
 70
    32
  0
VERTEX
  8
W77LXLIFT
 62
3
 10
2045.349
 20
-6851.443
 30
-2298.000
 70
    32
  0
VERTEX
  8
W77LXLIFT
 62
3
 10
2043.610
 20
-6856.265
 30
-2298.000
 70
    32
  0
VERTEX
  8
W77LXLIFT
 62
3
 10
2039.344
 20
-6864.960
 30
-2298.000
 70
    32
  0
VERTEX
  8
W77LXLIFT
 62
3
 10
2034.491
 20
-6872.234
 30
-2298.000
 70
    32
  0
VERTEX
  8
W77LXLIFT
 62
3
 10
2030.249
 20
-6878.095
 30
-2298.000
 70
    32
  0
VERTEX
  8
W77LXLIFT
 62
3
 10
2029.059
 20
-6881.115
 30
-2298.000
 70
    32
  0
VERTEX
  8
W77LXLIFT
 62
3
 10
2028.951
 20
-6887.908
 30
-2298.000
 70
    32
  0
VERTEX
  8
W77LXLIFT
 62
3
 10
2028.822
 20
-6894.067
 30
-2298.000
 70
    32
  0
VERTEX
  8
W77LXLIFT
 62
3
 10
2029.701
 20
-6898.310
 30
-2298.000
 70
    32
  0
VERTEX
  8
W77LXLIFT
 62
3
 10
2029.124
 20
-6900.674
 30
-2298.000
 70
    32
  0
VERTEX
  8
W77LXLIFT
 62
3
 10
2026.574
 20
-6903.913
 30
-2298.000
 70
    32
  0
VERTEX
  8
W77LXLIFT
 62
3
 10
2021.520
 20
-6908.190
 30
-2298.000
 70
    32
  0
VERTEX
  8
W77LXLIFT
 62
3
 10
2017.219
 20
-6910.952
 30
-2298.000
 70
    32
  0
VERTEX
  8
W77LXLIFT
 62
3
 10
2014.697
 20
-6912.870
 30
-2298.000
 70
    32
  0
SEQEND
  8
W77LXLIFT
  0
POLYLINE
  8
W77LXLIFT
 62
3
 66
     1
 70
     9
  0
VERTEX
  8
W77LXLIFT
 62
3
 10
1986.583
 20
-6830.687
 30
-2289.000
 70
    32
  0
VERTEX
  8
W77LXLIFT
 62
3
 10
1986.816
 20
-6825.428
 30
-2289.000
 70
    32
  0
VERTEX
  8
W77LXLIFT
 62
3
 10
1988.077
 20
-6817.375
 30
-2289.000
 70
    32
  0
VERTEX
  8
W77LXLIFT
 62
3
 10
1988.223
 20
-6805.354
 30
-2289.000
 70
    32
  0
VERTEX
  8
W77LXLIFT
 62
3
 10
1985.796
 20
-6799.406
 30
-2289.000
 70
    32
  0
VERTEX
  8
W77LXLIFT
 62
3
 10
1975.735
 20
-6788.105
 30
-2289.000
 70
    32
  0
VERTEX
  8
W77LXLIFT
 62
3
 10
1967.777
 20
-6779.734
 30
-2289.000
 70
    32
  0
VERTEX
  8
W77LXLIFT
 62
3
 10
1966.053
 20
-6777.181
 30
-2289.000
 70
    32
  0
VERTEX
  8
W77LXLIFT
 62
3
 10
1966.704
 20
-6771.297
 30
-2289.000
 70
    32
  0
VERTEX
  8
W77LXLIFT
 62
3
 10
1970.553
 20
-6763.227
 30
-2289.000
 70
    32
  0
VERTEX
  8
W77LXLIFT
 62
3
 10
1975.096
 20
-6758.992
 30
-2289.000
 70
    32
  0
VERTEX
  8
W77LXLIFT
 62
3
 10
1977.568
 20
-6757.759
 30
-2289.000
 70
    32
  0
VERTEX
  8
W77LXLIFT
 62
3
 10
1978.282
 20
-6756.489
 30
-2289.000
 70
    32
  0
VERTEX
  8
W77LXLIFT
 62
3
 10
1979.725
 20
-6752.312
 30
-2289.000
 70
    32
  0
VERTEX
  8
W77LXLIFT
 62
3
 10
1981.611
 20
-6749.658
 30
-2289.000
 70
    32
  0
VERTEX
  8
W77LXLIFT
 62
3
 10
1985.167
 20
-6747.972
 30
-2289.000
 70
    32
  0
VERTEX
  8
W77LXLIFT
 62
3
 10
1991.312
 20
-6746.271
 30
-2289.000
 70
    32
  0
VERTEX
  8
W77LXLIFT
 62
3
 10
1995.748
 20
-6744.603
 30
-2289.000
 70
    32
  0
VERTEX
  8
W77LXLIFT
 62
3
 10
1998.827
 20
-6744.668
 30
-2289.000
 70
    32
  0
VERTEX
  8
W77LXLIFT
 62
3
 10
2009.941
 20
-6751.098
 30
-2289.000
 70
    32
  0
VERTEX
  8
W77LXLIFT
 62
3
 10
2012.679
 20
-6754.007
 30
-2289.000
 70
    32
  0
VERTEX
  8
W77LXLIFT
 62
3
 10
2014.363
 20
-6756.806
 30
-2289.000
 70
    32
  0
VERTEX
  8
W77LXLIFT
 62
3
 10
2016.591
 20
-6769.721
 30
-2289.000
 70
    32
  0
VERTEX
  8
W77LXLIFT
 62
3
 10
2018.710
 20
-6783.690
 30
-2289.000
 70
    32
  0
VERTEX
  8
W77LXLIFT
 62
3
 10
2020.712
 20
-6795.685
 30
-2289.000
 70
    32
  0
VERTEX
  8
W77LXLIFT
 62
3
 10
2020.674
 20
-6801.670
 30
-2289.000
 70
    32
  0
VERTEX
  8
W77LXLIFT
 62
3
 10
2022.089
 20
-6839.107
 30
-2289.000
 70
    32
  0
VERTEX
  8
W77LXLIFT
 62
3
 10
2018.575
 20
-6841.304
 30
-2289.000
 70
    32
  0
VERTEX
  8
W77LXLIFT
 62
3
 10
2015.917
 20
-6842.129
 30
-2289.000
 70
    32
  0
VERTEX
  8
W77LXLIFT
 62
3
 10
2008.297
 20
-6842.832
 30
-2289.000
 70
    32
  0
VERTEX
  8
W77LXLIFT
 62
3
 10
1997.505
 20
-6842.887
 30
-2289.000
 70
    32
  0
SEQEND
  8
W77LXLIFT
  0
POLYLINE
  8
W77LXLIFT
 62
2
 66
     1
 70
     9
  0
VERTEX
  8
W77LXLIFT
 62
2
 10
1926.430
 20
-6527.890
 30
-2299.000
 70
    32
  0
VERTEX
  8
W77LXLIFT
 62
2
 10
1931.053
 20
-6536.595
 30
-2299.000
 70
    32
  0
VERTEX
  8
W77LXLIFT
 62
2
 10
1932.917
 20
-6546.739
 30
-2299.000
 70
    32
  0
VERTEX
  8
W77LXLIFT
 62
2
 10
1939.308
 20
-6563.491
 30
-2299.000
 70
    32
  0
VERTEX
  8
W77LXLIFT
 62
2
 10
1949.544
 20
-6566.434
 30
-2299.000
 70
    32
  0
VERTEX
  8
W77LXLIFT
 62
2
 10
1968.767
 20
-6562.278
 30
-2299.000
 70
    32
  0
VERTEX
  8
W77LXLIFT
 62
2
 10
1970.643
 20
-6555.082
 30
-2299.000
 70
    32
  0
VERTEX
  8
W77LXLIFT
 62
2
 10
1970.635
 20
-6547.072
 30
-2299.000
 70
    32
  0
VERTEX
  8
W77LXLIFT
 62
2
 10
1968.993
 20
-6544.785
 30
-2299.000
 70
    32
  0
VERTEX
  8
W77LXLIFT
 62
2
 10
1967.783
 20
-6543.703
 30
-2299.000
 70
    32
  0
VERTEX
  8
W77LXLIFT
 62
2
 10
1967.681
 20
-6539.335
 30
-2299.000
 70
    32
  0
VERTEX
  8
W77LXLIFT
 62
2
 10
1967.425
 20
-6525.546
 30
-2299.000
 70
    32
  0
VERTEX
  8
W77LXLIFT
 62
2
 10
1966.753
 20
-6522.346
 30
-2299.000
 70
    32
  0
VERTEX
  8
W77LXLIFT
 62
2
 10
1951.395
 20
-6511.813
 30
-2299.000
 70
    32
  0
VERTEX
  8
W77LXLIFT
 62
2
 10
1948.248
 20
-6509.089
 30
-2299.000
 70
    32
  0
VERTEX
  8
W77LXLIFT
 62
2
 10
1937.104
 20
-6480.584
 30
-2299.000
 70
    32
  0
VERTEX
  8
W77LXLIFT
 62
2
 10
1914.954
 20
-6479.151
 30
-2299.000
 70
    32
  0
VERTEX
  8
W77LXLIFT
 62
2
 10
1896.695
 20
-6457.484
 30
-2299.000
 70
    32
  0
VERTEX
  8
W77LXLIFT
 62
2
 10
1891.629
 20
-6460.688
 30
-2299.000
 70
    32
  0
VERTEX
  8
W77LXLIFT
 62
2
 10
1888.329
 20
-6466.956
 30
-2299.000
 70
    32
  0
VERTEX
  8
W77LXLIFT
 62
2
 10
1886.637
 20
-6474.560
 30
-2299.000
 70
    32
  0
VERTEX
  8
W77LXLIFT
 62
2
 10
1885.793
 20
-6481.232
 30
-2299.000
 70
    32
  0
VERTEX
  8
W77LXLIFT
 62
2
 10
1889.402
 20
-6484.600
 30
-2299.000
 70
    32
  0
VERTEX
  8
W77LXLIFT
 62
2
 10
1898.106
 20
-6488.426
 30
-2299.000
 70
    32
  0
VERTEX
  8
W77LXLIFT
 62
2
 10
1909.044
 20
-6494.007
 30
-2299.000
 70
    32
  0
VERTEX
  8
W77LXLIFT
 62
2
 10
1916.034
 20
-6499.822
 30
-2299.000
 70
    32
  0
VERTEX
  8
W77LXLIFT
 62
2
 10
1917.620
 20
-6504.750
 30
-2299.000
 70
    32
  0
VERTEX
  8
W77LXLIFT
 62
2
 10
1916.250
 20
-6509.632
 30
-2299.000
 70
    32
  0
SEQEND
  8
W77LXLIFT
  0
POLYLINE
  8
W77LXLIFT
 62
3
 66
     1
 70
     9
  0
VERTEX
  8
W77LXLIFT
 62
3
 10
2011.794
 20
-6925.974
 30
-2277.000
 70
    32
  0
VERTEX
  8
W77LXLIFT
 62
3
 10
2028.221
 20
-6930.285
 30
-2277.000
 70
    32
  0
VERTEX
  8
W77LXLIFT
 62
3
 10
2028.266
 20
-6965.997
 30
-2277.000
 70
    32
  0
VERTEX
  8
W77LXLIFT
 62
3
 10
2033.171
 20
-6971.456
 30
-2277.000
 70
    32
  0
VERTEX
  8
W77LXLIFT
 62
3
 10
2035.700
 20
-6975.267
 30
-2277.000
 70
    32
  0
VERTEX
  8
W77LXLIFT
 62
3
 10
2036.870
 20
-6982.007
 30
-2277.000
 70
    32
  0
VERTEX
  8
W77LXLIFT
 62
3
 10
2037.375
 20
-6985.868
 30
-2277.000
 70
    32
  0
VERTEX
  8
W77LXLIFT
 62
3
 10
2039.167
 20
-6989.560
 30
-2277.000
 70
    32
  0
VERTEX
  8
W77LXLIFT
 62
3
 10
2042.167
 20
-6993.574
 30
-2277.000
 70
    32
  0
VERTEX
  8
W77LXLIFT
 62
3
 10
2054.571
 20
-7006.739
 30
-2277.000
 70
    32
  0
VERTEX
  8
W77LXLIFT
 62
3
 10
2066.882
 20
-7035.568
 30
-2277.000
 70
    32
  0
VERTEX
  8
W77LXLIFT
 62
3
 10
2084.333
 20
-7032.426
 30
-2277.000
 70
    32
  0
VERTEX
  8
W77LXLIFT
 62
3
 10
2085.226
 20
-7030.808
 30
-2277.000
 70
    32
  0
VERTEX
  8
W77LXLIFT
 62
3
 10
2079.881
 20
-7014.510
 30
-2277.000
 70
    32
  0
VERTEX
  8
W77LXLIFT
 62
3
 10
2073.468
 20
-6999.738
 30
-2277.000
 70
    32
  0
VERTEX
  8
W77LXLIFT
 62
3
 10
2066.811
 20
-6990.343
 30
-2277.000
 70
    32
  0
VERTEX
  8
W77LXLIFT
 62
3
 10
2062.964
 20
-6986.505
 30
-2277.000
 70
    32
  0
VERTEX
  8
W77LXLIFT
 62
3
 10
2060.858
 20
-6983.580
 30
-2277.000
 70
    32
  0
VERTEX
  8
W77LXLIFT
 62
3
 10
2059.157
 20
-6979.714
 30
-2277.000
 70
    32
  0
VERTEX
  8
W77LXLIFT
 62
3
 10
2057.787
 20
-6974.202
 30
-2277.000
 70
    32
  0
VERTEX
  8
W77LXLIFT
 62
3
 10
2057.385
 20
-6970.484
 30
-2277.000
 70
    32
  0
VERTEX
  8
W77LXLIFT
 62
3
 10
2057.807
 20
-6934.218
 30
-2277.000
 70
    32
  0
VERTEX
  8
W77LXLIFT
 62
3
 10
2056.343
 20
-6928.123
 30
-2277.000
 70
    32
  0
VERTEX
  8
W77LXLIFT
 62
3
 10
2054.762
 20
-6923.520
 30
-2277.000
 70
    32
  0
VERTEX
  8
W77LXLIFT
 62
3
 10
2052.453
 20
-6918.359
 30
-2277.000
 70
    32
  0
VERTEX
  8
W77LXLIFT
 62
3
 10
2050.690
 20
-6914.105
 30
-2277.000
 70
    32
  0
VERTEX
  8
W77LXLIFT
 62
3
 10
2048.795
 20
-6910.270
 30
-2277.000
 70
    32
  0
VERTEX
  8
W77LXLIFT
 62
3
 10
2048.489
 20
-6907.890
 30
-2277.000
 70
    32
  0
VERTEX
  8
W77LXLIFT
 62
3
 10
2049.091
 20
-6904.965
 30
-2277.000
 70
    32
  0
VERTEX
  8
W77LXLIFT
 62
3
 10
2050.817
 20
-6902.098
 30
-2277.000
 70
    32
  0
VERTEX
  8
W77LXLIFT
 62
3
 10
2053.382
 20
-6899.492
 30
-2277.000
 70
    32
  0
VERTEX
  8
W77LXLIFT
 62
3
 10
2063.349
 20
-6892.424
 30
-2277.000
 70
    32
  0
VERTEX
  8
W77LXLIFT
 62
3
 10
2064.601
 20
-6891.305
 30
-2277.000
 70
    32
  0
VERTEX
  8
W77LXLIFT
 62
3
 10
2067.748
 20
-6888.606
 30
-2277.000
 70
    32
  0
VERTEX
  8
W77LXLIFT
 62
3
 10
2067.942
 20
-6885.867
 30
-2277.000
 70
    32
  0
VERTEX
  8
W77LXLIFT
 62
3
 10
2067.688
 20
-6883.558
 30
-2277.000
 70
    32
  0
VERTEX
  8
W77LXLIFT
 62
3
 10
2069.129
 20
-6880.896
 30
-2277.000
 70
    32
  0
VERTEX
  8
W77LXLIFT
 62
3
 10
2070.244
 20
-6878.685
 30
-2277.000
 70
    32
  0
VERTEX
  8
W77LXLIFT
 62
3
 10
2075.380
 20
-6869.571
 30
-2277.000
 70
    32
  0
VERTEX
  8
W77LXLIFT
 62
3
 10
2077.240
 20
-6861.624
 30
-2277.000
 70
    32
  0
VERTEX
  8
W77LXLIFT
 62
3
 10
2078.380
 20
-6855.386
 30
-2277.000
 70
    32
  0
VERTEX
  8
W77LXLIFT
 62
3
 10
2078.785
 20
-6851.737
 30
-2277.000
 70
    32
  0
VERTEX
  8
W77LXLIFT
 62
3
 10
2077.895
 20
-6848.695
 30
-2277.000
 70
    32
  0
VERTEX
  8
W77LXLIFT
 62
3
 10
2076.040
 20
-6844.615
 30
-2277.000
 70
    32
  0
VERTEX
  8
W77LXLIFT
 62
3
 10
2076.188
 20
-6840.609
 30
-2277.000
 70
    32
  0
VERTEX
  8
W77LXLIFT
 62
3
 10
2076.216
 20
-6837.339
 30
-2277.000
 70
    32
  0
VERTEX
  8
W77LXLIFT
 62
3
 10
2074.025
 20
-6836.101
 30
-2277.000
 70
    32
  0
VERTEX
  8
W77LXLIFT
 62
3
 10
2069.305
 20
-6831.051
 30
-2277.000
 70
    32
  0
VERTEX
  8
W77LXLIFT
 62
3
 10
2052.051
 20
-6826.795
 30
-2277.000
 70
    32
  0
VERTEX
  8
W77LXLIFT
 62
3
 10
2044.427
 20
-6831.851
 30
-2277.000
 70
    32
  0
VERTEX
  8
W77LXLIFT
 62
3
 10
2039.261
 20
-6851.603
 30
-2277.000
 70
    32
  0
VERTEX
  8
W77LXLIFT
 62
3
 10
2031.280
 20
-6851.500
 30
-2277.000
 70
    32
  0
VERTEX
  8
W77LXLIFT
 62
3
 10
2030.776
 20
-6869.303
 30
-2277.000
 70
    32
  0
VERTEX
  8
W77LXLIFT
 62
3
 10
2029.592
 20
-6872.322
 30
-2277.000
 70
    32
  0
VERTEX
  8
W77LXLIFT
 62
3
 10
2028.088
 20
-6874.596
 30
-2277.000
 70
    32
  0
VERTEX
  8
W77LXLIFT
 62
3
 10
2020.020
 20
-6880.839
 30
-2277.000
 70
    32
  0
VERTEX
  8
W77LXLIFT
 62
3
 10
2019.695
 20
-6883.998
 30
-2277.000
 70
    32
  0
VERTEX
  8
W77LXLIFT
 62
3
 10
2019.416
 20
-6904.671
 30
-2277.000
 70
    32
  0
VERTEX
  8
W77LXLIFT
 62
3
 10
2015.839
 20
-6909.630
 30
-2277.000
 70
    32
  0
VERTEX
  8
W77LXLIFT
 62
3
 10
2013.379
 20
-6913.134
 30
-2277.000
 70
    32
  0
SEQEND
  8
W77LXLIFT
  0
POLYLINE
  8
W77LXLIFT
 62
1
 66
     1
 70
     9
  0
VERTEX
  8
W77LXLIFT
 62
1
 10
2014.217
 20
-6912.360
 30
-2267.000
 70
    32
  0
VERTEX
  8
W77LXLIFT
 62
1
 10
2019.583
 20
-6904.921
 30
-2267.000
 70
    32
  0
VERTEX
  8
W77LXLIFT
 62
1
 10
2020.379
 20
-6901.964
 30
-2267.000
 70
    32
  0
VERTEX
  8
W77LXLIFT
 62
1
 10
2020.743
 20
-6879.606
 30
-2267.000
 70
    32
  0
VERTEX
  8
W77LXLIFT
 62
1
 10
2028.934
 20
-6873.382
 30
-2267.000
 70
    32
  0
VERTEX
  8
W77LXLIFT
 62
1
 10
2030.826
 20
-6871.045
 30
-2267.000
 70
    32
  0
VERTEX
  8
W77LXLIFT
 62
1
 10
2031.662
 20
-6867.843
 30
-2267.000
 70
    32
  0
VERTEX
  8
W77LXLIFT
 62
1
 10
2032.260
 20
-6850.623
 30
-2267.000
 70
    32
  0
VERTEX
  8
W77LXLIFT
 62
1
 10
2038.455
 20
-6851.253
 30
-2267.000
 70
    32
  0
VERTEX
  8
W77LXLIFT
 62
1
 10
2040.557
 20
-6850.714
 30
-2267.000
 70
    32
  0
VERTEX
  8
W77LXLIFT
 62
1
 10
2044.742
 20
-6830.803
 30
-2267.000
 70
    32
  0
VERTEX
  8
W77LXLIFT
 62
1
 10
2052.754
 20
-6825.683
 30
-2267.000
 70
    32
  0
VERTEX
  8
W77LXLIFT
 62
1
 10
2070.140
 20
-6829.520
 30
-2267.000
 70
    32
  0
VERTEX
  8
W77LXLIFT
 62
1
 10
2075.013
 20
-6834.784
 30
-2267.000
 70
    32
  0
VERTEX
  8
W77LXLIFT
 62
1
 10
2076.591
 20
-6835.922
 30
-2267.000
 70
    32
  0
VERTEX
  8
W77LXLIFT
 62
1
 10
2077.148
 20
-6837.146
 30
-2267.000
 70
    32
  0
VERTEX
  8
W77LXLIFT
 62
1
 10
2077.020
 20
-6843.738
 30
-2267.000
 70
    32
  0
VERTEX
  8
W77LXLIFT
 62
1
 10
2079.588
 20
-6850.012
 30
-2267.000
 70
    32
  0
VERTEX
  8
W77LXLIFT
 62
1
 10
2079.423
 20
-6852.189
 30
-2267.000
 70
    32
  0
VERTEX
  8
W77LXLIFT
 62
1
 10
2078.856
 20
-6856.064
 30
-2267.000
 70
    32
  0
VERTEX
  8
W77LXLIFT
 62
1
 10
2077.940
 20
-6862.464
 30
-2267.000
 70
    32
  0
VERTEX
  8
W77LXLIFT
 62
1
 10
2076.622
 20
-6867.854
 30
-2267.000
 70
    32
  0
VERTEX
  8
W77LXLIFT
 62
1
 10
2068.911
 20
-6881.965
 30
-2267.000
 70
    32
  0
VERTEX
  8
W77LXLIFT
 62
1
 10
2068.674
 20
-6884.193
 30
-2267.000
 70
    32
  0
VERTEX
  8
W77LXLIFT
 62
1
 10
2068.857
 20
-6886.553
 30
-2267.000
 70
    32
  0
VERTEX
  8
W77LXLIFT
 62
1
 10
2068.443
 20
-6887.934
 30
-2267.000
 70
    32
  0
VERTEX
  8
W77LXLIFT
 62
1
 10
2066.548
 20
-6889.515
 30
-2267.000
 70
    32
  0
VERTEX
  8
W77LXLIFT
 62
1
 10
2051.817
 20
-6901.098
 30
-2267.000
 70
    32
  0
VERTEX
  8
W77LXLIFT
 62
1
 10
2049.521
 20
-6904.376
 30
-2267.000
 70
    32
  0
VERTEX
  8
W77LXLIFT
 62
1
 10
2049.019
 20
-6906.688
 30
-2267.000
 70
    32
  0
VERTEX
  8
W77LXLIFT
 62
1
 10
2049.969
 20
-6909.361
 30
-2267.000
 70
    32
  0
VERTEX
  8
W77LXLIFT
 62
1
 10
2054.760
 20
-6919.776
 30
-2267.000
 70
    32
  0
VERTEX
  8
W77LXLIFT
 62
1
 10
2057.429
 20
-6928.144
 30
-2267.000
 70
    32
  0
VERTEX
  8
W77LXLIFT
 62
1
 10
2058.885
 20
-6934.678
 30
-2267.000
 70
    32
  0
VERTEX
  8
W77LXLIFT
 62
1
 10
2059.153
 20
-6940.767
 30
-2267.000
 70
    32
  0
VERTEX
  8
W77LXLIFT
 62
1
 10
2058.125
 20
-6971.079
 30
-2267.000
 70
    32
  0
VERTEX
  8
W77LXLIFT
 62
1
 10
2059.281
 20
-6976.746
 30
-2267.000
 70
    32
  0
VERTEX
  8
W77LXLIFT
 62
1
 10
2061.367
 20
-6982.501
 30
-2267.000
 70
    32
  0
VERTEX
  8
W77LXLIFT
 62
1
 10
2064.620
 20
-6986.116
 30
-2267.000
 70
    32
  0
VERTEX
  8
W77LXLIFT
 62
1
 10
2068.961
 20
-6990.789
 30
-2267.000
 70
    32
  0
VERTEX
  8
W77LXLIFT
 62
1
 10
2074.129
 20
-6998.116
 30
-2267.000
 70
    32
  0
VERTEX
  8
W77LXLIFT
 62
1
 10
2086.492
 20
-7029.725
 30
-2267.000
 70
    32
  0
VERTEX
  8
W77LXLIFT
 62
1
 10
2085.405
 20
-7031.374
 30
-2267.000
 70
    32
  0
VERTEX
  8
W77LXLIFT
 62
1
 10
2084.172
 20
-7032.370
 30
-2267.000
 70
    32
  0
VERTEX
  8
W77LXLIFT
 62
1
 10
2068.159
 20
-7034.802
 30
-2267.000
 70
    32
  0
VERTEX
  8
W77LXLIFT
 62
1
 10
2056.650
 20
-7007.237
 30
-2267.000
 70
    32
  0
VERTEX
  8
W77LXLIFT
 62
1
 10
2053.907
 20
-7003.579
 30
-2267.000
 70
    32
  0
VERTEX
  8
W77LXLIFT
 62
1
 10
2040.721
 20
-6989.028
 30
-2267.000
 70
    32
  0
VERTEX
  8
W77LXLIFT
 62
1
 10
2038.663
 20
-6985.418
 30
-2267.000
 70
    32
  0
VERTEX
  8
W77LXLIFT
 62
1
 10
2037.938
 20
-6982.907
 30
-2267.000
 70
    32
  0
VERTEX
  8
W77LXLIFT
 62
1
 10
2037.716
 20
-6978.085
 30
-2267.000
 70
    32
  0
VERTEX
  8
W77LXLIFT
 62
1
 10
2036.751
 20
-6974.339
 30
-2267.000
 70
    32
  0
VERTEX
  8
W77LXLIFT
 62
1
 10
2033.247
 20
-6969.172
 30
-2267.000
 70
    32
  0
VERTEX
  8
W77LXLIFT
 62
1
 10
2029.152
 20
-6964.538
 30
-2267.000
 70
    32
  0
VERTEX
  8
W77LXLIFT
 62
1
 10
2029.118
 20
-6929.142
 30
-2267.000
 70
    32
  0
VERTEX
  8
W77LXLIFT
 62
1
 10
2012.314
 20
-6925.211
 30
-2267.000
 70
    32
  0
SEQEND
  8
W77LXLIFT
  0
POLYLINE
  8
W77LXLIFT
 62
11
 66
     1
 70
     9
  0
VERTEX
  8
W77LXLIFT
 62
11
 10
1909.955
 20
-6529.143
 30
-2278.000
 70
    32
  0
VERTEX
  8
W77LXLIFT
 62
11
 10
1915.152
 20
-6536.998
 30
-2278.000
 70
    32
  0
VERTEX
  8
W77LXLIFT
 62
11
 10
1930.210
 20
-6540.492
 30
-2278.000
 70
    32
  0
VERTEX
  8
W77LXLIFT
 62
11
 10
1939.329
 20
-6564.693
 30
-2278.000
 70
    32
  0
VERTEX
  8
W77LXLIFT
 62
11
 10
1945.862
 20
-6570.184
 30
-2278.000
 70
    32
  0
VERTEX
  8
W77LXLIFT
 62
11
 10
1964.719
 20
-6564.029
 30
-2278.000
 70
    32
  0
VERTEX
  8
W77LXLIFT
 62
11
 10
1971.794
 20
-6556.686
 30
-2278.000
 70
    32
  0
VERTEX
  8
W77LXLIFT
 62
11
 10
1964.048
 20
-6534.099
 30
-2278.000
 70
    32
  0
VERTEX
  8
W77LXLIFT
 62
11
 10
1967.791
 20
-6514.858
 30
-2278.000
 70
    32
  0
VERTEX
  8
W77LXLIFT
 62
11
 10
1942.528
 20
-6505.582
 30
-2278.000
 70
    32
  0
VERTEX
  8
W77LXLIFT
 62
11
 10
1931.777
 20
-6490.127
 30
-2278.000
 70
    32
  0
VERTEX
  8
W77LXLIFT
 62
11
 10
1917.900
 20
-6463.817
 30
-2278.000
 70
    32
  0
VERTEX
  8
W77LXLIFT
 62
11
 10
1898.484
 20
-6472.212
 30
-2278.000
 70
    32
  0
VERTEX
  8
W77LXLIFT
 62
11
 10
1901.847
 20
-6490.798
 30
-2278.000
 70
    32
  0
VERTEX
  8
W77LXLIFT
 62
11
 10
1905.604
 20
-6493.624
 30
-2278.000
 70
    32
  0
VERTEX
  8
W77LXLIFT
 62
11
 10
1911.792
 20
-6507.696
 30
-2278.000
 70
    32
  0
VERTEX
  8
W77LXLIFT
 62
11
 10
1901.600
 20
-6515.975
 30
-2278.000
 70
    32
  0
SEQEND
  8
W77LXLIFT
  0
POLYLINE
  8
W77LXLIFT
 62
1
 66
     1
 70
     9
  0
VERTEX
  8
W77LXLIFT
 62
1
 10
1902.508
 20
-6515.149
 30
-2266.000
 70
    32
  0
VERTEX
  8
W77LXLIFT
 62
1
 10
1912.956
 20
-6506.471
 30
-2266.000
 70
    32
  0
VERTEX
  8
W77LXLIFT
 62
1
 10
1906.287
 20
-6492.635
 30
-2266.000
 70
    32
  0
VERTEX
  8
W77LXLIFT
 62
1
 10
1902.775
 20
-6489.849
 30
-2266.000
 70
    32
  0
VERTEX
  8
W77LXLIFT
 62
1
 10
1899.678
 20
-6471.181
 30
-2266.000
 70
    32
  0
VERTEX
  8
W77LXLIFT
 62
1
 10
1918.797
 20
-6462.674
 30
-2266.000
 70
    32
  0
VERTEX
  8
W77LXLIFT
 62
1
 10
1932.532
 20
-6489.086
 30
-2266.000
 70
    32
  0
VERTEX
  8
W77LXLIFT
 62
1
 10
1942.699
 20
-6503.878
 30
-2266.000
 70
    32
  0
VERTEX
  8
W77LXLIFT
 62
1
 10
1968.894
 20
-6514.001
 30
-2266.000
 70
    32
  0
VERTEX
  8
W77LXLIFT
 62
1
 10
1964.905
 20
-6533.201
 30
-2266.000
 70
    32
  0
VERTEX
  8
W77LXLIFT
 62
1
 10
1972.865
 20
-6555.635
 30
-2266.000
 70
    32
  0
VERTEX
  8
W77LXLIFT
 62
1
 10
1965.627
 20
-6563.203
 30
-2266.000
 70
    32
  0
VERTEX
  8
W77LXLIFT
 62
1
 10
1946.964
 20
-6569.327
 30
-2266.000
 70
    32
  0
VERTEX
  8
W77LXLIFT
 62
1
 10
1940.195
 20
-6563.356
 30
-2266.000
 70
    32
  0
VERTEX
  8
W77LXLIFT
 62
1
 10
1931.108
 20
-6539.349
 30
-2266.000
 70
    32
  0
VERTEX
  8
W77LXLIFT
 62
1
 10
1916.101
 20
-6535.927
 30
-2266.000
 70
    32
  0
VERTEX
  8
W77LXLIFT
 62
1
 10
1910.843
 20
-6528.439
 30
-2266.000
 70
    32
  0
SEQEND
  8
W77LXLIFT
  0
POLYLINE
  8
W77LXLIFT
 62
1
 66
     1
 70
     9
  0
VERTEX
  8
W77LXLIFT
 62
1
 10
2120.715
 20
-6777.387
 30
-2402.000
 70
    32
  0
VERTEX
  8
W77LXLIFT
 62
1
 10
2132.219
 20
-6770.124
 30
-2402.000
 70
    32
  0
VERTEX
  8
W77LXLIFT
 62
1
 10
2133.905
 20
-6768.431
 30
-2402.000
 70
    32
  0
VERTEX
  8
W77LXLIFT
 62
1
 10
2135.432
 20
-6766.965
 30
-2402.000
 70
    32
  0
VERTEX
  8
W77LXLIFT
 62
1
 10
2136.398
 20
-6765.918
 30
-2402.000
 70
    32
  0
VERTEX
  8
W77LXLIFT
 62
1
 10
2137.539
 20
-6764.959
 30
-2402.000
 70
    32
  0
VERTEX
  8
W77LXLIFT
 62
1
 10
2139.432
 20
-6763.984
 30
-2402.000
 70
    32
  0
VERTEX
  8
W77LXLIFT
 62
1
 10
2140.851
 20
-6763.691
 30
-2402.000
 70
    32
  0
VERTEX
  8
W77LXLIFT
 62
1
 10
2141.969
 20
-6764.167
 30
-2402.000
 70
    32
  0
VERTEX
  8
W77LXLIFT
 62
1
 10
2153.025
 20
-6771.972
 30
-2402.000
 70
    32
  0
VERTEX
  8
W77LXLIFT
 62
1
 10
2155.663
 20
-6773.608
 30
-2402.000
 70
    32
  0
VERTEX
  8
W77LXLIFT
 62
1
 10
2157.251
 20
-6775.153
 30
-2402.000
 70
    32
  0
VERTEX
  8
W77LXLIFT
 62
1
 10
2158.593
 20
-6777.100
 30
-2402.000
 70
    32
  0
VERTEX
  8
W77LXLIFT
 62
1
 10
2161.047
 20
-6781.711
 30
-2402.000
 70
    32
  0
VERTEX
  8
W77LXLIFT
 62
1
 10
2163.185
 20
-6786.776
 30
-2402.000
 70
    32
  0
VERTEX
  8
W77LXLIFT
 62
1
 10
2164.066
 20
-6790.594
 30
-2402.000
 70
    32
  0
VERTEX
  8
W77LXLIFT
 62
1
 10
2164.527
 20
-6794.289
 30
-2402.000
 70
    32
  0
VERTEX
  8
W77LXLIFT
 62
1
 10
2163.570
 20
-6803.843
 30
-2402.000
 70
    32
  0
VERTEX
  8
W77LXLIFT
 62
1
 10
2163.056
 20
-6806.082
 30
-2402.000
 70
    32
  0
VERTEX
  8
W77LXLIFT
 62
1
 10
2162.194
 20
-6807.269
 30
-2402.000
 70
    32
  0
VERTEX
  8
W77LXLIFT
 62
1
 10
2161.230
 20
-6807.879
 30
-2402.000
 70
    32
  0
VERTEX
  8
W77LXLIFT
 62
1
 10
2147.187
 20
-6815.398
 30
-2402.000
 70
    32
  0
VERTEX
  8
W77LXLIFT
 62
1
 10
2145.909
 20
-6815.586
 30
-2402.000
 70
    32
  0
VERTEX
  8
W77LXLIFT
 62
1
 10
2144.052
 20
-6815.878
 30
-2402.000
 70
    32
  0
VERTEX
  8
W77LXLIFT
 62
1
 10
2141.496
 20
-6816.256
 30
-2402.000
 70
    32
  0
VERTEX
  8
W77LXLIFT
 62
1
 10
2140.550
 20
-6816.305
 30
-2402.000
 70
    32
  0
VERTEX
  8
W77LXLIFT
 62
1
 10
2139.694
 20
-6815.743
 30
-2402.000
 70
    32
  0
VERTEX
  8
W77LXLIFT
 62
1
 10
2138.698
 20
-6815.284
 30
-2402.000
 70
    32
  0
VERTEX
  8
W77LXLIFT
 62
1
 10
2128.279
 20
-6805.258
 30
-2402.000
 70
    32
  0
VERTEX
  8
W77LXLIFT
 62
1
 10
2125.293
 20
-6803.009
 30
-2402.000
 70
    32
  0
VERTEX
  8
W77LXLIFT
 62
1
 10
2119.346
 20
-6790.196
 30
-2402.000
 70
    32
  0
VERTEX
  8
W77LXLIFT
 62
1
 10
2118.550
 20
-6787.078
 30
-2402.000
 70
    32
  0
VERTEX
  8
W77LXLIFT
 62
1
 10
2117.381
 20
-6780.090
 30
-2402.000
 70
    32
  0
SEQEND
  8
W77LXLIFT
  0
POLYLINE
  8
W77LXLIFT
 62
13
 66
     1
 70
     9
  0
VERTEX
  8
W77LXLIFT
 62
13
 10
2267.272
 20
-6955.838
 30
-2358.000
 70
    32
  0
VERTEX
  8
W77LXLIFT
 62
13
 10
2269.683
 20
-6961.138
 30
-2358.000
 70
    32
  0
VERTEX
  8
W77LXLIFT
 62
13
 10
2270.536
 20
-6962.472
 30
-2358.000
 70
    32
  0
VERTEX
  8
W77LXLIFT
 62
13
 10
2272.058
 20
-6962.782
 30
-2358.000
 70
    32
  0
VERTEX
  8
W77LXLIFT
 62
13
 10
2279.942
 20
-6965.761
 30
-2358.000
 70
    32
  0
VERTEX
  8
W77LXLIFT
 62
13
 10
2283.267
 20
-6967.371
 30
-2358.000
 70
    32
  0
VERTEX
  8
W77LXLIFT
 62
13
 10
2286.002
 20
-6969.514
 30
-2358.000
 70
    32
  0
VERTEX
  8
W77LXLIFT
 62
13
 10
2288.706
 20
-6974.169
 30
-2358.000
 70
    32
  0
VERTEX
  8
W77LXLIFT
 62
13
 10
2288.630
 20
-6975.415
 30
-2358.000
 70
    32
  0
VERTEX
  8
W77LXLIFT
 62
13
 10
2288.203
 20
-6978.428
 30
-2358.000
 70
    32
  0
VERTEX
  8
W77LXLIFT
 62
13
 10
2293.251
 20
-6984.533
 30
-2358.000
 70
    32
  0
VERTEX
  8
W77LXLIFT
 62
13
 10
2290.390
 20
-6988.976
 30
-2358.000
 70
    32
  0
VERTEX
  8
W77LXLIFT
 62
13
 10
2291.400
 20
-6991.279
 30
-2358.000
 70
    32
  0
VERTEX
  8
W77LXLIFT
 62
13
 10
2292.721
 20
-6994.766
 30
-2358.000
 70
    32
  0
VERTEX
  8
W77LXLIFT
 62
13
 10
2293.196
 20
-6998.429
 30
-2358.000
 70
    32
  0
VERTEX
  8
W77LXLIFT
 62
13
 10
2286.538
 20
-7005.716
 30
-2358.000
 70
    32
  0
VERTEX
  8
W77LXLIFT
 62
13
 10
2287.686
 20
-7009.111
 30
-2358.000
 70
    32
  0
VERTEX
  8
W77LXLIFT
 62
13
 10
2287.726
 20
-7011.571
 30
-2358.000
 70
    32
  0
VERTEX
  8
W77LXLIFT
 62
13
 10
2287.759
 20
-7014.470
 30
-2358.000
 70
    32
  0
VERTEX
  8
W77LXLIFT
 62
13
 10
2289.054
 20
-7017.503
 30
-2358.000
 70
    32
  0
VERTEX
  8
W77LXLIFT
 62
13
 10
2289.439
 20
-7018.456
 30
-2358.000
 70
    32
  0
VERTEX
  8
W77LXLIFT
 62
13
 10
2290.920
 20
-7020.961
 30
-2358.000
 70
    32
  0
VERTEX
  8
W77LXLIFT
 62
13
 10
2292.862
 20
-7024.108
 30
-2358.000
 70
    32
  0
VERTEX
  8
W77LXLIFT
 62
13
 10
2293.701
 20
-7027.075
 30
-2358.000
 70
    32
  0
VERTEX
  8
W77LXLIFT
 62
13
 10
2293.431
 20
-7028.353
 30
-2358.000
 70
    32
  0
VERTEX
  8
W77LXLIFT
 62
13
 10
2292.528
 20
-7029.653
 30
-2358.000
 70
    32
  0
VERTEX
  8
W77LXLIFT
 62
13
 10
2279.638
 20
-7035.801
 30
-2358.000
 70
    32
  0
VERTEX
  8
W77LXLIFT
 62
13
 10
2278.720
 20
-7036.030
 30
-2358.000
 70
    32
  0
VERTEX
  8
W77LXLIFT
 62
13
 10
2277.262
 20
-7034.157
 30
-2358.000
 70
    32
  0
VERTEX
  8
W77LXLIFT
 62
13
 10
2276.130
 20
-7031.834
 30
-2358.000
 70
    32
  0
VERTEX
  8
W77LXLIFT
 62
13
 10
2275.776
 20
-7030.140
 30
-2358.000
 70
    32
  0
VERTEX
  8
W77LXLIFT
 62
13
 10
2274.563
 20
-7028.308
 30
-2358.000
 70
    32
  0
VERTEX
  8
W77LXLIFT
 62
13
 10
2272.821
 20
-7026.640
 30
-2358.000
 70
    32
  0
VERTEX
  8
W77LXLIFT
 62
13
 10
2270.651
 20
-7025.281
 30
-2358.000
 70
    32
  0
VERTEX
  8
W77LXLIFT
 62
13
 10
2268.535
 20
-7024.749
 30
-2358.000
 70
    32
  0
VERTEX
  8
W77LXLIFT
 62
13
 10
2267.922
 20
-7024.273
 30
-2358.000
 70
    32
  0
VERTEX
  8
W77LXLIFT
 62
13
 10
2266.077
 20
-7022.839
 30
-2358.000
 70
    32
  0
VERTEX
  8
W77LXLIFT
 62
13
 10
2264.294
 20
-7018.712
 30
-2358.000
 70
    32
  0
VERTEX
  8
W77LXLIFT
 62
13
 10
2262.528
 20
-7016.412
 30
-2358.000
 70
    32
  0
VERTEX
  8
W77LXLIFT
 62
13
 10
2261.011
 20
-7014.907
 30
-2358.000
 70
    32
  0
VERTEX
  8
W77LXLIFT
 62
13
 10
2260.740
 20
-7013.479
 30
-2358.000
 70
    32
  0
VERTEX
  8
W77LXLIFT
 62
13
 10
2260.611
 20
-7011.948
 30
-2358.000
 70
    32
  0
VERTEX
  8
W77LXLIFT
 62
13
 10
2260.827
 20
-7009.844
 30
-2358.000
 70
    32
  0
VERTEX
  8
W77LXLIFT
 62
13
 10
2260.379
 20
-7007.569
 30
-2358.000
 70
    32
  0
VERTEX
  8
W77LXLIFT
 62
13
 10
2259.508
 20
-7004.407
 30
-2358.000
 70
    32
  0
VERTEX
  8
W77LXLIFT
 62
13
 10
2258.116
 20
-7000.972
 30
-2358.000
 70
    32
  0
VERTEX
  8
W77LXLIFT
 62
13
 10
2257.003
 20
-6998.527
 30
-2358.000
 70
    32
  0
VERTEX
  8
W77LXLIFT
 62
13
 10
2255.292
 20
-6997.053
 30
-2358.000
 70
    32
  0
VERTEX
  8
W77LXLIFT
 62
13
 10
2253.589
 20
-6995.141
 30
-2358.000
 70
    32
  0
VERTEX
  8
W77LXLIFT
 62
13
 10
2253.332
 20
-6994.784
 30
-2358.000
 70
    32
  0
VERTEX
  8
W77LXLIFT
 62
13
 10
2253.409
 20
-6993.539
 30
-2358.000
 70
    32
  0
VERTEX
  8
W77LXLIFT
 62
13
 10
2253.537
 20
-6992.364
 30
-2358.000
 70
    32
  0
VERTEX
  8
W77LXLIFT
 62
13
 10
2253.508
 20
-6990.220
 30
-2358.000
 70
    32
  0
VERTEX
  8
W77LXLIFT
 62
13
 10
2252.977
 20
-6987.680
 30
-2358.000
 70
    32
  0
VERTEX
  8
W77LXLIFT
 62
13
 10
2252.203
 20
-6985.856
 30
-2358.000
 70
    32
  0
VERTEX
  8
W77LXLIFT
 62
13
 10
2250.749
 20
-6984.739
 30
-2358.000
 70
    32
  0
VERTEX
  8
W77LXLIFT
 62
13
 10
2248.476
 20
-6983.237
 30
-2358.000
 70
    32
  0
VERTEX
  8
W77LXLIFT
 62
13
 10
2254.280
 20
-6961.844
 30
-2358.000
 70
    32
  0
SEQEND
  8
W77LXLIFT
  0
POLYLINE
  8
W77LXLIFT
 62
1
 66
     1
 70
     9
  0
VERTEX
  8
W77LXLIFT
 62
1
 10
2268.272
 20
-6954.838
 30
-2348.000
 70
    32
  0
VERTEX
  8
W77LXLIFT
 62
1
 10
2270.683
 20
-6960.138
 30
-2348.000
 70
    32
  0
VERTEX
  8
W77LXLIFT
 62
1
 10
2271.536
 20
-6961.472
 30
-2348.000
 70
    32
  0
VERTEX
  8
W77LXLIFT
 62
1
 10
2273.058
 20
-6961.782
 30
-2348.000
 70
    32
  0
VERTEX
  8
W77LXLIFT
 62
1
 10
2280.942
 20
-6964.761
 30
-2348.000
 70
    32
  0
VERTEX
  8
W77LXLIFT
 62
1
 10
2284.267
 20
-6966.371
 30
-2348.000
 70
    32
  0
VERTEX
  8
W77LXLIFT
 62
1
 10
2287.002
 20
-6968.514
 30
-2348.000
 70
    32
  0
VERTEX
  8
W77LXLIFT
 62
1
 10
2289.706
 20
-6973.169
 30
-2348.000
 70
    32
  0
VERTEX
  8
W77LXLIFT
 62
1
 10
2289.630
 20
-6974.415
 30
-2348.000
 70
    32
  0
VERTEX
  8
W77LXLIFT
 62
1
 10
2289.203
 20
-6977.428
 30
-2348.000
 70
    32
  0
VERTEX
  8
W77LXLIFT
 62
1
 10
2294.251
 20
-6983.533
 30
-2348.000
 70
    32
  0
VERTEX
  8
W77LXLIFT
 62
1
 10
2291.390
 20
-6987.976
 30
-2348.000
 70
    32
  0
VERTEX
  8
W77LXLIFT
 62
1
 10
2292.400
 20
-6990.279
 30
-2348.000
 70
    32
  0
VERTEX
  8
W77LXLIFT
 62
1
 10
2293.721
 20
-6993.766
 30
-2348.000
 70
    32
  0
VERTEX
  8
W77LXLIFT
 62
1
 10
2294.196
 20
-6997.429
 30
-2348.000
 70
    32
  0
VERTEX
  8
W77LXLIFT
 62
1
 10
2287.538
 20
-7004.716
 30
-2348.000
 70
    32
  0
VERTEX
  8
W77LXLIFT
 62
1
 10
2288.686
 20
-7008.111
 30
-2348.000
 70
    32
  0
VERTEX
  8
W77LXLIFT
 62
1
 10
2288.726
 20
-7010.571
 30
-2348.000
 70
    32
  0
VERTEX
  8
W77LXLIFT
 62
1
 10
2288.759
 20
-7013.470
 30
-2348.000
 70
    32
  0
VERTEX
  8
W77LXLIFT
 62
1
 10
2290.054
 20
-7016.503
 30
-2348.000
 70
    32
  0
VERTEX
  8
W77LXLIFT
 62
1
 10
2290.439
 20
-7017.456
 30
-2348.000
 70
    32
  0
VERTEX
  8
W77LXLIFT
 62
1
 10
2291.920
 20
-7019.961
 30
-2348.000
 70
    32
  0
VERTEX
  8
W77LXLIFT
 62
1
 10
2293.862
 20
-7023.108
 30
-2348.000
 70
    32
  0
VERTEX
  8
W77LXLIFT
 62
1
 10
2294.701
 20
-7026.075
 30
-2348.000
 70
    32
  0
VERTEX
  8
W77LXLIFT
 62
1
 10
2294.431
 20
-7027.353
 30
-2348.000
 70
    32
  0
VERTEX
  8
W77LXLIFT
 62
1
 10
2293.528
 20
-7028.653
 30
-2348.000
 70
    32
  0
VERTEX
  8
W77LXLIFT
 62
1
 10
2280.638
 20
-7034.801
 30
-2348.000
 70
    32
  0
VERTEX
  8
W77LXLIFT
 62
1
 10
2279.720
 20
-7035.030
 30
-2348.000
 70
    32
  0
VERTEX
  8
W77LXLIFT
 62
1
 10
2278.262
 20
-7033.157
 30
-2348.000
 70
    32
  0
VERTEX
  8
W77LXLIFT
 62
1
 10
2277.130
 20
-7030.834
 30
-2348.000
 70
    32
  0
VERTEX
  8
W77LXLIFT
 62
1
 10
2276.776
 20
-7029.140
 30
-2348.000
 70
    32
  0
VERTEX
  8
W77LXLIFT
 62
1
 10
2275.563
 20
-7027.308
 30
-2348.000
 70
    32
  0
VERTEX
  8
W77LXLIFT
 62
1
 10
2273.821
 20
-7025.640
 30
-2348.000
 70
    32
  0
VERTEX
  8
W77LXLIFT
 62
1
 10
2271.651
 20
-7024.281
 30
-2348.000
 70
    32
  0
VERTEX
  8
W77LXLIFT
 62
1
 10
2269.535
 20
-7023.749
 30
-2348.000
 70
    32
  0
VERTEX
  8
W77LXLIFT
 62
1
 10
2268.922
 20
-7023.273
 30
-2348.000
 70
    32
  0
VERTEX
  8
W77LXLIFT
 62
1
 10
2267.077
 20
-7021.839
 30
-2348.000
 70
    32
  0
VERTEX
  8
W77LXLIFT
 62
1
 10
2265.294
 20
-7017.712
 30
-2348.000
 70
    32
  0
VERTEX
  8
W77LXLIFT
 62
1
 10
2263.528
 20
-7015.412
 30
-2348.000
 70
    32
  0
VERTEX
  8
W77LXLIFT
 62
1
 10
2262.011
 20
-7013.907
 30
-2348.000
 70
    32
  0
VERTEX
  8
W77LXLIFT
 62
1
 10
2261.740
 20
-7012.479
 30
-2348.000
 70
    32
  0
VERTEX
  8
W77LXLIFT
 62
1
 10
2261.611
 20
-7010.948
 30
-2348.000
 70
    32
  0
VERTEX
  8
W77LXLIFT
 62
1
 10
2261.827
 20
-7008.844
 30
-2348.000
 70
    32
  0
VERTEX
  8
W77LXLIFT
 62
1
 10
2261.379
 20
-7006.569
 30
-2348.000
 70
    32
  0
VERTEX
  8
W77LXLIFT
 62
1
 10
2260.508
 20
-7003.407
 30
-2348.000
 70
    32
  0
VERTEX
  8
W77LXLIFT
 62
1
 10
2259.116
 20
-6999.972
 30
-2348.000
 70
    32
  0
VERTEX
  8
W77LXLIFT
 62
1
 10
2258.003
 20
-6997.527
 30
-2348.000
 70
    32
  0
VERTEX
  8
W77LXLIFT
 62
1
 10
2256.292
 20
-6996.053
 30
-2348.000
 70
    32
  0
VERTEX
  8
W77LXLIFT
 62
1
 10
2254.589
 20
-6994.141
 30
-2348.000
 70
    32
  0
VERTEX
  8
W77LXLIFT
 62
1
 10
2254.332
 20
-6993.784
 30
-2348.000
 70
    32
  0
VERTEX
  8
W77LXLIFT
 62
1
 10
2254.409
 20
-6992.539
 30
-2348.000
 70
    32
  0
VERTEX
  8
W77LXLIFT
 62
1
 10
2254.537
 20
-6991.364
 30
-2348.000
 70
    32
  0
VERTEX
  8
W77LXLIFT
 62
1
 10
2254.508
 20
-6989.220
 30
-2348.000
 70
    32
  0
VERTEX
  8
W77LXLIFT
 62
1
 10
2253.977
 20
-6986.680
 30
-2348.000
 70
    32
  0
VERTEX
  8
W77LXLIFT
 62
1
 10
2253.203
 20
-6984.856
 30
-2348.000
 70
    32
  0
VERTEX
  8
W77LXLIFT
 62
1
 10
2251.749
 20
-6983.739
 30
-2348.000
 70
    32
  0
VERTEX
  8
W77LXLIFT
 62
1
 10
2249.476
 20
-6982.237
 30
-2348.000
 70
    32
  0
VERTEX
  8
W77LXLIFT
 62
1
 10
2255.280
 20
-6960.844
 30
-2348.000
 70
    32
  0
SEQEND
  8
W77LXLIFT
  0
POLYLINE
  8
W77LXLIFT
 62
3
 66
     1
 70
     9
  0
VERTEX
  8
W77LXLIFT
 62
3
 10
2069.641
 20
-6990.363
 30
-2343.000
 70
    32
  0
VERTEX
  8
W77LXLIFT
 62
3
 10
2058.618
 20
-6982.146
 30
-2343.000
 70
    32
  0
VERTEX
  8
W77LXLIFT
 62
3
 10
2053.427
 20
-6976.451
 30
-2343.000
 70
    32
  0
VERTEX
  8
W77LXLIFT
 62
3
 10
2053.258
 20
-6975.163
 30
-2343.000
 70
    32
  0
VERTEX
  8
W77LXLIFT
 62
3
 10
2053.069
 20
-6973.997
 30
-2343.000
 70
    32
  0
VERTEX
  8
W77LXLIFT
 62
3
 10
2053.888
 20
-6969.718
 30
-2343.000
 70
    32
  0
VERTEX
  8
W77LXLIFT
 62
3
 10
2053.458
 20
-6957.986
 30
-2343.000
 70
    32
  0
VERTEX
  8
W77LXLIFT
 62
3
 10
2052.384
 20
-6953.337
 30
-2343.000
 70
    32
  0
VERTEX
  8
W77LXLIFT
 62
3
 10
2046.055
 20
-6933.274
 30
-2343.000
 70
    32
  0
VERTEX
  8
W77LXLIFT
 62
3
 10
2042.426
 20
-6922.221
 30
-2343.000
 70
    32
  0
VERTEX
  8
W77LXLIFT
 62
3
 10
2047.457
 20
-6910.241
 30
-2343.000
 70
    32
  0
VERTEX
  8
W77LXLIFT
 62
3
 10
2047.153
 20
-6908.616
 30
-2343.000
 70
    32
  0
VERTEX
  8
W77LXLIFT
 62
3
 10
2039.190
 20
-6895.915
 30
-2343.000
 70
    32
  0
VERTEX
  8
W77LXLIFT
 62
3
 10
2035.124
 20
-6885.611
 30
-2343.000
 70
    32
  0
VERTEX
  8
W77LXLIFT
 62
3
 10
2030.691
 20
-6877.959
 30
-2343.000
 70
    32
  0
VERTEX
  8
W77LXLIFT
 62
3
 10
2030.665
 20
-6876.568
 30
-2343.000
 70
    32
  0
VERTEX
  8
W77LXLIFT
 62
3
 10
2031.775
 20
-6875.550
 30
-2343.000
 70
    32
  0
VERTEX
  8
W77LXLIFT
 62
3
 10
2039.594
 20
-6871.649
 30
-2343.000
 70
    32
  0
VERTEX
  8
W77LXLIFT
 62
3
 10
2041.433
 20
-6871.191
 30
-2343.000
 70
    32
  0
VERTEX
  8
W77LXLIFT
 62
3
 10
2043.538
 20
-6870.649
 30
-2343.000
 70
    32
  0
VERTEX
  8
W77LXLIFT
 62
3
 10
2057.858
 20
-6884.191
 30
-2343.000
 70
    32
  0
VERTEX
  8
W77LXLIFT
 62
3
 10
2058.678
 20
-6884.576
 30
-2343.000
 70
    32
  0
VERTEX
  8
W77LXLIFT
 62
3
 10
2059.955
 20
-6884.090
 30
-2343.000
 70
    32
  0
VERTEX
  8
W77LXLIFT
 62
3
 10
2063.915
 20
-6877.546
 30
-2343.000
 70
    32
  0
VERTEX
  8
W77LXLIFT
 62
3
 10
2063.874
 20
-6875.081
 30
-2343.000
 70
    32
  0
VERTEX
  8
W77LXLIFT
 62
3
 10
2063.487
 20
-6873.190
 30
-2343.000
 70
    32
  0
VERTEX
  8
W77LXLIFT
 62
3
 10
2058.933
 20
-6863.564
 30
-2343.000
 70
    32
  0
VERTEX
  8
W77LXLIFT
 62
3
 10
2058.569
 20
-6862.307
 30
-2343.000
 70
    32
  0
VERTEX
  8
W77LXLIFT
 62
3
 10
2058.717
 20
-6861.007
 30
-2343.000
 70
    32
  0
VERTEX
  8
W77LXLIFT
 62
3
 10
2055.294
 20
-6854.905
 30
-2343.000
 70
    32
  0
VERTEX
  8
W77LXLIFT
 62
3
 10
2055.051
 20
-6850.958
 30
-2343.000
 70
    32
  0
VERTEX
  8
W77LXLIFT
 62
3
 10
2055.070
 20
-6848.124
 30
-2343.000
 70
    32
  0
VERTEX
  8
W77LXLIFT
 62
3
 10
2057.316
 20
-6844.769
 30
-2343.000
 70
    32
  0
VERTEX
  8
W77LXLIFT
 62
3
 10
2067.363
 20
-6838.393
 30
-2343.000
 70
    32
  0
VERTEX
  8
W77LXLIFT
 62
3
 10
2076.502
 20
-6839.181
 30
-2343.000
 70
    32
  0
VERTEX
  8
W77LXLIFT
 62
3
 10
2082.729
 20
-6838.488
 30
-2343.000
 70
    32
  0
VERTEX
  8
W77LXLIFT
 62
3
 10
2083.949
 20
-6839.127
 30
-2343.000
 70
    32
  0
VERTEX
  8
W77LXLIFT
 62
3
 10
2087.057
 20
-6843.287
 30
-2343.000
 70
    32
  0
VERTEX
  8
W77LXLIFT
 62
3
 10
2088.514
 20
-6844.406
 30
-2343.000
 70
    32
  0
VERTEX
  8
W77LXLIFT
 62
3
 10
2094.703
 20
-6846.670
 30
-2343.000
 70
    32
  0
VERTEX
  8
W77LXLIFT
 62
3
 10
2099.283
 20
-6853.023
 30
-2343.000
 70
    32
  0
VERTEX
  8
W77LXLIFT
 62
3
 10
2102.039
 20
-6856.243
 30
-2343.000
 70
    32
  0
VERTEX
  8
W77LXLIFT
 62
3
 10
2099.675
 20
-6872.376
 30
-2343.000
 70
    32
  0
VERTEX
  8
W77LXLIFT
 62
3
 10
2092.518
 20
-6886.974
 30
-2343.000
 70
    32
  0
VERTEX
  8
W77LXLIFT
 62
3
 10
2088.113
 20
-6899.371
 30
-2343.000
 70
    32
  0
VERTEX
  8
W77LXLIFT
 62
3
 10
2088.290
 20
-6904.884
 30
-2343.000
 70
    32
  0
VERTEX
  8
W77LXLIFT
 62
3
 10
2088.020
 20
-6906.164
 30
-2343.000
 70
    32
  0
VERTEX
  8
W77LXLIFT
 62
3
 10
2083.802
 20
-6912.351
 30
-2343.000
 70
    32
  0
VERTEX
  8
W77LXLIFT
 62
3
 10
2080.787
 20
-6915.392
 30
-2343.000
 70
    32
  0
VERTEX
  8
W77LXLIFT
 62
3
 10
2080.386
 20
-6917.092
 30
-2343.000
 70
    32
  0
VERTEX
  8
W77LXLIFT
 62
3
 10
2085.219
 20
-6943.658
 30
-2343.000
 70
    32
  0
VERTEX
  8
W77LXLIFT
 62
3
 10
2085.047
 20
-6960.271
 30
-2343.000
 70
    32
  0
VERTEX
  8
W77LXLIFT
 62
3
 10
2083.653
 20
-6968.870
 30
-2343.000
 70
    32
  0
VERTEX
  8
W77LXLIFT
 62
3
 10
2082.303
 20
-6971.362
 30
-2343.000
 70
    32
  0
VERTEX
  8
W77LXLIFT
 62
3
 10
2081.963
 20
-6980.069
 30
-2343.000
 70
    32
  0
VERTEX
  8
W77LXLIFT
 62
3
 10
2082.357
 20
-6983.473
 30
-2343.000
 70
    32
  0
VERTEX
  8
W77LXLIFT
 62
3
 10
2082.150
 20
-6988.147
 30
-2343.000
 70
    32
  0
VERTEX
  8
W77LXLIFT
 62
3
 10
2085.062
 20
-6994.995
 30
-2343.000
 70
    32
  0
VERTEX
  8
W77LXLIFT
 62
3
 10
2090.977
 20
-7017.397
 30
-2343.000
 70
    32
  0
VERTEX
  8
W77LXLIFT
 62
3
 10
2100.025
 20
-7046.348
 30
-2343.000
 70
    32
  0
VERTEX
  8
W77LXLIFT
 62
3
 10
2101.350
 20
-7049.841
 30
-2343.000
 70
    32
  0
VERTEX
  8
W77LXLIFT
 62
3
 10
2101.014
 20
-7052.686
 30
-2343.000
 70
    32
  0
VERTEX
  8
W77LXLIFT
 62
3
 10
2088.810
 20
-7054.868
 30
-2343.000
 70
    32
  0
VERTEX
  8
W77LXLIFT
 62
3
 10
2086.969
 20
-7047.950
 30
-2343.000
 70
    32
  0
VERTEX
  8
W77LXLIFT
 62
3
 10
2086.859
 20
-7041.629
 30
-2343.000
 70
    32
  0
VERTEX
  8
W77LXLIFT
 62
3
 10
2084.784
 20
-7034.989
 30
-2343.000
 70
    32
  0
VERTEX
  8
W77LXLIFT
 62
3
 10
2081.437
 20
-7027.638
 30
-2343.000
 70
    32
  0
VERTEX
  8
W77LXLIFT
 62
3
 10
2076.121
 20
-7005.218
 30
-2343.000
 70
    32
  0
VERTEX
  8
W77LXLIFT
 62
3
 10
2073.808
 20
-6998.098
 30
-2343.000
 70
    32
  0
VERTEX
  8
W77LXLIFT
 62
3
 10
2071.684
 20
-6994.155
 30
-2343.000
 70
    32
  0
SEQEND
  8
W77LXLIFT
  0
POINT
  8
W77LXLIFT
 62
1
 10
1964.611
 20
-6716.597
 30
-2220.000
  0
LINE
  8
W77LXLIFT
 62
8
 10
2355.805
 20
-7057.924
 30
-2334.000
 11
2359.450
 21
-7072.118
 31
-2433.000
  0
POINT
  8
W77LXLIFT
 62
1
 10
2355.805
 20
-7057.924
 30
-2334.000
  0
POINT
  8
W77LXLIFT
 62
1
 10
2359.450
 20
-7072.118
 30
-2433.000
  0
LINE
  8
W77LXLIFT
 62
11
 10
2078.132
 20
-7156.160
 30
-2439.000
 11
2090.842
 21
-7161.043
 31
-2348.000
  0
POINT
  8
W77LXLIFT
 62
1
 10
2078.132
 20
-7156.160
 30
-2439.000
  0
POINT
  8
W77LXLIFT
 62
1
 10
2090.842
 20
-7161.043
 30
-2348.000
  0
POLYLINE
  8
W77LXLIFT
 62
1
 66
     1
 70
     9
  0
VERTEX
  8
W77LXLIFT
 62
1
 10
1987.583
 20
-6829.687
 30
-2279.000
 70
    32
  0
VERTEX
  8
W77LXLIFT
 62
1
 10
1987.816
 20
-6824.428
 30
-2279.000
 70
    32
  0
VERTEX
  8
W77LXLIFT
 62
1
 10
1989.077
 20
-6816.375
 30
-2279.000
 70
    32
  0
VERTEX
  8
W77LXLIFT
 62
1
 10
1989.223
 20
-6804.354
 30
-2279.000
 70
    32
  0
VERTEX
  8
W77LXLIFT
 62
1
 10
1986.796
 20
-6798.406
 30
-2279.000
 70
    32
  0
VERTEX
  8
W77LXLIFT
 62
1
 10
1976.735
 20
-6787.105
 30
-2279.000
 70
    32
  0
VERTEX
  8
W77LXLIFT
 62
1
 10
1968.777
 20
-6778.734
 30
-2279.000
 70
    32
  0
VERTEX
  8
W77LXLIFT
 62
1
 10
1967.053
 20
-6776.181
 30
-2279.000
 70
    32
  0
VERTEX
  8
W77LXLIFT
 62
1
 10
1967.704
 20
-6770.297
 30
-2279.000
 70
    32
  0
VERTEX
  8
W77LXLIFT
 62
1
 10
1971.553
 20
-6762.227
 30
-2279.000
 70
    32
  0
VERTEX
  8
W77LXLIFT
 62
1
 10
1976.096
 20
-6757.992
 30
-2279.000
 70
    32
  0
VERTEX
  8
W77LXLIFT
 62
1
 10
1978.568
 20
-6756.759
 30
-2279.000
 70
    32
  0
VERTEX
  8
W77LXLIFT
 62
1
 10
1979.282
 20
-6755.489
 30
-2279.000
 70
    32
  0
VERTEX
  8
W77LXLIFT
 62
1
 10
1980.725
 20
-6751.312
 30
-2279.000
 70
    32
  0
VERTEX
  8
W77LXLIFT
 62
1
 10
1982.611
 20
-6748.658
 30
-2279.000
 70
    32
  0
VERTEX
  8
W77LXLIFT
 62
1
 10
1986.167
 20
-6746.972
 30
-2279.000
 70
    32
  0
VERTEX
  8
W77LXLIFT
 62
1
 10
1992.312
 20
-6745.271
 30
-2279.000
 70
    32
  0
VERTEX
  8
W77LXLIFT
 62
1
 10
1996.748
 20
-6743.603
 30
-2279.000
 70
    32
  0
VERTEX
  8
W77LXLIFT
 62
1
 10
1999.827
 20
-6743.668
 30
-2279.000
 70
    32
  0
VERTEX
  8
W77LXLIFT
 62
1
 10
2010.941
 20
-6750.098
 30
-2279.000
 70
    32
  0
VERTEX
  8
W77LXLIFT
 62
1
 10
2013.679
 20
-6753.007
 30
-2279.000
 70
    32
  0
VERTEX
  8
W77LXLIFT
 62
1
 10
2015.363
 20
-6755.806
 30
-2279.000
 70
    32
  0
VERTEX
  8
W77LXLIFT
 62
1
 10
2017.591
 20
-6768.721
 30
-2279.000
 70
    32
  0
VERTEX
  8
W77LXLIFT
 62
1
 10
2019.710
 20
-6782.690
 30
-2279.000
 70
    32
  0
VERTEX
  8
W77LXLIFT
 62
1
 10
2021.712
 20
-6794.685
 30
-2279.000
 70
    32
  0
VERTEX
  8
W77LXLIFT
 62
1
 10
2021.674
 20
-6800.670
 30
-2279.000
 70
    32
  0
VERTEX
  8
W77LXLIFT
 62
1
 10
2023.089
 20
-6838.107
 30
-2279.000
 70
    32
  0
VERTEX
  8
W77LXLIFT
 62
1
 10
2019.575
 20
-6840.304
 30
-2279.000
 70
    32
  0
VERTEX
  8
W77LXLIFT
 62
1
 10
2016.917
 20
-6841.129
 30
-2279.000
 70
    32
  0
VERTEX
  8
W77LXLIFT
 62
1
 10
2009.297
 20
-6841.832
 30
-2279.000
 70
    32
  0
VERTEX
  8
W77LXLIFT
 62
1
 10
1998.505
 20
-6841.887
 30
-2279.000
 70
    32
  0
SEQEND
  8
W77LXLIFT
  0
POINT
  8
W77LXLIFT
 62
1
 10
1997.317
 20
-6771.832
 30
-2279.000
  0
LINE
  8
W77LXLIFT
 62
3
 10
1964.611
 20
-6716.597
 30
-2220.000
 11
1997.317
 21
-6771.832
 31
-2279.000
  0
POLYLINE
  8
W77LXLIFT
 62
2
 66
     1
 70
     9
  0
VERTEX
  8
W77LXLIFT
 62
2
 10
1765.386
 20
-5774.407
 30
-2416.142
 70
    32
  0
VERTEX
  8
W77LXLIFT
 62
2
 10
1766.365
 20
-5781.139
 30
-2416.153
 70
    32
  0
VERTEX
  8
W77LXLIFT
 62
2
 10
1773.864
 20
-5798.552
 30
-2416.120
 70
    32
  0
VERTEX
  8
W77LXLIFT
 62
2
 10
1776.692
 20
-5810.016
 30
-2416.124
 70
    32
  0
VERTEX
  8
W77LXLIFT
 62
2
 10
1775.839
 20
-5812.264
 30
-2416.142
 70
    32
  0
VERTEX
  8
W77LXLIFT
 62
2
 10
1789.135
 20
-5846.349
 30
-2416.095
 70
    32
  0
VERTEX
  8
W77LXLIFT
 62
2
 10
1794.198
 20
-5855.856
 30
-2416.058
 70
    32
  0
VERTEX
  8
W77LXLIFT
 62
2
 10
1798.153
 20
-5870.952
 30
-2415.996
 70
    32
  0
VERTEX
  8
W77LXLIFT
 62
2
 10
1805.126
 20
-5890.619
 30
-2415.917
 70
    32
  0
VERTEX
  8
W77LXLIFT
 62
2
 10
1796.973
 20
-5897.235
 30
-2415.888
 70
    32
  0
VERTEX
  8
W77LXLIFT
 62
2
 10
1787.510
 20
-5898.818
 30
-2415.880
 70
    32
  0
VERTEX
  8
W77LXLIFT
 62
2
 10
1782.339
 20
-5892.248
 30
-2415.906
 70
    32
  0
VERTEX
  8
W77LXLIFT
 62
2
 10
1773.331
 20
-5889.488
 30
-2415.916
 70
    32
  0
VERTEX
  8
W77LXLIFT
 62
2
 10
1771.949
 20
-5882.224
 30
-2415.946
 70
    32
  0
VERTEX
  8
W77LXLIFT
 62
2
 10
1766.571
 20
-5881.740
 30
-2415.947
 70
    32
  0
VERTEX
  8
W77LXLIFT
 62
2
 10
1766.571
 20
-5881.740
 30
-2415.947
 70
    32
  0
VERTEX
  8
W77LXLIFT
 62
2
 10
1760.382
 20
-5863.777
 30
-2416.019
 70
    32
  0
VERTEX
  8
W77LXLIFT
 62
2
 10
1749.884
 20
-5836.144
 30
-2416.131
 70
    32
  0
VERTEX
  8
W77LXLIFT
 62
2
 10
1743.456
 20
-5814.449
 30
-2416.218
 70
    32
  0
VERTEX
  8
W77LXLIFT
 62
2
 10
1738.752
 20
-5794.378
 30
-2416.300
 70
    32
  0
VERTEX
  8
W77LXLIFT
 62
2
 10
1738.214
 20
-5786.679
 30
-2416.331
 70
    32
  0
VERTEX
  8
W77LXLIFT
 62
2
 10
1734.408
 20
-5777.716
 30
-2416.367
 70
    32
  0
VERTEX
  8
W77LXLIFT
 62
2
 10
1726.567
 20
-5765.150
 30
-2416.417
 70
    32
  0
VERTEX
  8
W77LXLIFT
 62
2
 10
1725.276
 20
-5757.097
 30
-2416.450
 70
    32
  0
VERTEX
  8
W77LXLIFT
 62
2
 10
1733.604
 20
-5748.242
 30
-2416.439
 70
    32
  0
VERTEX
  8
W77LXLIFT
 62
2
 10
1747.552
 20
-5747.478
 30
-2416.268
 70
    32
  0
VERTEX
  8
W77LXLIFT
 62
2
 10
1752.116
 20
-5762.133
 30
-2416.262
 70
    32
  0
VERTEX
  8
W77LXLIFT
 62
2
 10
1757.970
 20
-5766.134
 30
-2416.204
 70
    32
  0
SEQEND
  8
W77LXLIFT
  0
POLYLINE
  8
W77LXLIFT
 62
1
 66
     1
 70
     9
  0
VERTEX
  8
W77LXLIFT
 62
1
 10
2023.567
 20
-6655.627
 30
-2402.000
 70
    32
  0
VERTEX
  8
W77LXLIFT
 62
1
 10
2021.752
 20
-6654.358
 30
-2402.000
 70
    32
  0
VERTEX
  8
W77LXLIFT
 62
1
 10
2019.970
 20
-6653.720
 30
-2402.000
 70
    32
  0
VERTEX
  8
W77LXLIFT
 62
1
 10
2009.854
 20
-6652.728
 30
-2402.000
 70
    32
  0
VERTEX
  8
W77LXLIFT
 62
1
 10
2008.931
 20
-6651.778
 30
-2402.000
 70
    32
  0
VERTEX
  8
W77LXLIFT
 62
1
 10
2008.798
 20
-6650.132
 30
-2402.000
 70
    32
  0
VERTEX
  8
W77LXLIFT
 62
1
 10
2006.987
 20
-6640.354
 30
-2402.000
 70
    32
  0
VERTEX
  8
W77LXLIFT
 62
1
 10
2005.287
 20
-6637.037
 30
-2402.000
 70
    32
  0
VERTEX
  8
W77LXLIFT
 62
1
 10
2002.080
 20
-6633.748
 30
-2402.000
 70
    32
  0
VERTEX
  8
W77LXLIFT
 62
1
 10
1996.372
 20
-6630.028
 30
-2402.000
 70
    32
  0
VERTEX
  8
W77LXLIFT
 62
1
 10
1993.915
 20
-6627.600
 30
-2402.000
 70
    32
  0
VERTEX
  8
W77LXLIFT
 62
1
 10
1991.875
 20
-6625.735
 30
-2402.000
 70
    32
  0
VERTEX
  8
W77LXLIFT
 62
1
 10
1986.287
 20
-6618.654
 30
-2402.000
 70
    32
  0
VERTEX
  8
W77LXLIFT
 62
1
 10
1985.349
 20
-6616.951
 30
-2402.000
 70
    32
  0
VERTEX
  8
W77LXLIFT
 62
1
 10
1985.468
 20
-6614.028
 30
-2402.000
 70
    32
  0
VERTEX
  8
W77LXLIFT
 62
1
 10
1985.289
 20
-6610.998
 30
-2402.000
 70
    32
  0
VERTEX
  8
W77LXLIFT
 62
1
 10
1983.468
 20
-6607.225
 30
-2402.000
 70
    32
  0
VERTEX
  8
W77LXLIFT
 62
1
 10
1980.418
 20
-6604.148
 30
-2402.000
 70
    32
  0
VERTEX
  8
W77LXLIFT
 62
1
 10
1975.899
 20
-6600.853
 30
-2402.000
 70
    32
  0
VERTEX
  8
W77LXLIFT
 62
1
 10
1981.344
 20
-6589.392
 30
-2402.000
 70
    32
  0
VERTEX
  8
W77LXLIFT
 62
1
 10
1983.522
 20
-6587.774
 30
-2402.000
 70
    32
  0
VERTEX
  8
W77LXLIFT
 62
1
 10
1988.485
 20
-6585.941
 30
-2402.000
 70
    32
  0
VERTEX
  8
W77LXLIFT
 62
1
 10
1997.496
 20
-6583.391
 30
-2402.000
 70
    32
  0
VERTEX
  8
W77LXLIFT
 62
1
 10
1999.502
 20
-6585.064
 30
-2402.000
 70
    32
  0
VERTEX
  8
W77LXLIFT
 62
1
 10
2005.238
 20
-6590.290
 30
-2402.000
 70
    32
  0
VERTEX
  8
W77LXLIFT
 62
1
 10
2008.294
 20
-6592.055
 30
-2402.000
 70
    32
  0
VERTEX
  8
W77LXLIFT
 62
1
 10
2010.061
 20
-6592.378
 30
-2402.000
 70
    32
  0
VERTEX
  8
W77LXLIFT
 62
1
 10
2011.171
 20
-6590.790
 30
-2402.000
 70
    32
  0
VERTEX
  8
W77LXLIFT
 62
1
 10
2012.414
 20
-6587.031
 30
-2402.000
 70
    32
  0
VERTEX
  8
W77LXLIFT
 62
1
 10
2012.356
 20
-6584.457
 30
-2402.000
 70
    32
  0
VERTEX
  8
W77LXLIFT
 62
1
 10
2007.559
 20
-6576.679
 30
-2402.000
 70
    32
  0
VERTEX
  8
W77LXLIFT
 62
1
 10
1995.310
 20
-6560.043
 30
-2402.000
 70
    32
  0
VERTEX
  8
W77LXLIFT
 62
1
 10
1991.094
 20
-6555.541
 30
-2402.000
 70
    32
  0
VERTEX
  8
W77LXLIFT
 62
1
 10
1999.474
 20
-6545.390
 30
-2402.000
 70
    32
  0
VERTEX
  8
W77LXLIFT
 62
1
 10
2005.855
 20
-6547.520
 30
-2402.000
 70
    32
  0
VERTEX
  8
W77LXLIFT
 62
1
 10
2019.076
 20
-6566.052
 30
-2402.000
 70
    32
  0
VERTEX
  8
W77LXLIFT
 62
1
 10
2019.648
 20
-6567.263
 30
-2402.000
 70
    32
  0
VERTEX
  8
W77LXLIFT
 62
1
 10
2021.636
 20
-6569.058
 30
-2402.000
 70
    32
  0
VERTEX
  8
W77LXLIFT
 62
1
 10
2023.718
 20
-6569.365
 30
-2402.000
 70
    32
  0
VERTEX
  8
W77LXLIFT
 62
1
 10
2026.820
 20
-6568.696
 30
-2402.000
 70
    32
  0
VERTEX
  8
W77LXLIFT
 62
1
 10
2039.078
 20
-6579.765
 30
-2402.000
 70
    32
  0
VERTEX
  8
W77LXLIFT
 62
1
 10
2028.589
 20
-6610.566
 30
-2402.000
 70
    32
  0
VERTEX
  8
W77LXLIFT
 62
1
 10
2026.989
 20
-6615.899
 30
-2402.000
 70
    32
  0
VERTEX
  8
W77LXLIFT
 62
1
 10
2026.655
 20
-6619.854
 30
-2402.000
 70
    32
  0
VERTEX
  8
W77LXLIFT
 62
1
 10
2027.993
 20
-6626.058
 30
-2402.000
 70
    32
  0
VERTEX
  8
W77LXLIFT
 62
1
 10
2031.199
 20
-6636.981
 30
-2402.000
 70
    32
  0
VERTEX
  8
W77LXLIFT
 62
1
 10
2032.801
 20
-6642.661
 30
-2402.000
 70
    32
  0
VERTEX
  8
W77LXLIFT
 62
1
 10
2035.739
 20
-6649.466
 30
-2402.000
 70
    32
  0
SEQEND
  8
W77LXLIFT
  0
POLYLINE
  8
W77LXLIFT
 62
6
 66
     1
 70
     9
  0
VERTEX
  8
W77LXLIFT
 62
6
 10
2175.937
 20
-6588.178
 30
-2361.180
 70
    32
  0
VERTEX
  8
W77LXLIFT
 62
6
 10
2205.966
 20
-6572.468
 30
-2412.960
 70
    32
  0
VERTEX
  8
W77LXLIFT
 62
6
 10
2215.314
 20
-6567.577
 30
-2412.750
 70
    32
  0
VERTEX
  8
W77LXLIFT
 62
6
 10
2204.061
 20
-6573.464
 30
-2390.560
 70
    32
  0
VERTEX
  8
W77LXLIFT
 62
6
 10
2207.215
 20
-6571.814
 30
-2386.560
 70
    32
  0
VERTEX
  8
W77LXLIFT
 62
6
 10
2207.091
 20
-6571.879
 30
-2378.350
 70
    32
  0
VERTEX
  8
W77LXLIFT
 62
6
 10
2195.652
 20
-6577.864
 30
-2361.110
 70
    32
  0
SEQEND
  8
W77LXLIFT
  0
POLYLINE
  8
W77LXLIFT
 62
6
 66
     1
 70
     9
  0
VERTEX
  8
W77LXLIFT
 62
6
 10
2171.511
 20
-6581.465
 30
-2360.970
 70
    32
  0
VERTEX
  8
W77LXLIFT
 62
6
 10
2205.261
 20
-6563.808
 30
-2412.420
 70
    32
  0
VERTEX
  8
W77LXLIFT
 62
6
 10
2202.080
 20
-6565.472
 30
-2395.780
 70
    32
  0
VERTEX
  8
W77LXLIFT
 62
6
 10
2201.655
 20
-6565.695
 30
-2386.490
 70
    32
  0
VERTEX
  8
W77LXLIFT
 62
6
 10
2184.430
 20
-6574.706
 30
-2360.990
 70
    32
  0
SEQEND
  8
W77LXLIFT
  0
POLYLINE
  8
W77LXLIFT
 62
6
 66
     1
 70
     9
  0
VERTEX
  8
W77LXLIFT
 62
6
 10
2179.486
 20
-6595.350
 30
-2361.030
 70
    32
  0
VERTEX
  8
W77LXLIFT
 62
6
 10
2208.186
 20
-6580.335
 30
-2412.380
 70
    32
  0
VERTEX
  8
W77LXLIFT
 62
6
 10
2214.299
 20
-6577.137
 30
-2412.250
 70
    32
  0
VERTEX
  8
W77LXLIFT
 62
6
 10
2217.321
 20
-6575.556
 30
-2404.570
 70
    32
  0
VERTEX
  8
W77LXLIFT
 62
6
 10
2211.349
 20
-6578.680
 30
-2386.080
 70
    32
  0
VERTEX
  8
W77LXLIFT
 62
6
 10
2204.021
 20
-6582.514
 30
-2368.730
 70
    32
  0
VERTEX
  8
W77LXLIFT
 62
6
 10
2199.307
 20
-6584.980
 30
-2360.970
 70
    32
  0
SEQEND
  8
W77LXLIFT
  0
POLYLINE
  8
W77LXLIFT
 62
6
 66
     1
 70
     9
  0
VERTEX
  8
W77LXLIFT
 62
6
 10
2183.407
 20
-6602.327
 30
-2361.100
 70
    32
  0
VERTEX
  8
W77LXLIFT
 62
6
 10
2208.802
 20
-6589.042
 30
-2412.270
 70
    32
  0
VERTEX
  8
W77LXLIFT
 62
6
 10
2222.208
 20
-6582.028
 30
-2412.520
 70
    32
  0
VERTEX
  8
W77LXLIFT
 62
6
 10
2191.895
 20
-6597.886
 30
-2361.120
 70
    32
  0
SEQEND
  8
W77LXLIFT
  0
POLYLINE
  8
W77LXLIFT
 62
6
 66
     1
 70
     9
  0
VERTEX
  8
W77LXLIFT
 62
6
 10
2188.701
 20
-6608.586
 30
-2360.930
 70
    32
  0
VERTEX
  8
W77LXLIFT
 62
6
 10
2212.758
 20
-6596.000
 30
-2412.560
 70
    32
  0
VERTEX
  8
W77LXLIFT
 62
6
 10
2226.847
 20
-6588.630
 30
-2412.820
 70
    32
  0
VERTEX
  8
W77LXLIFT
 62
6
 10
2228.052
 20
-6587.999
 30
-2405.210
 70
    32
  0
VERTEX
  8
W77LXLIFT
 62
6
 10
2201.168
 20
-6602.064
 30
-2360.950
 70
    32
  0
SEQEND
  8
W77LXLIFT
  0
POLYLINE
  8
W77LXLIFT
 62
6
 66
     1
 70
     9
  0
VERTEX
  8
W77LXLIFT
 62
6
 10
2191.045
 20
-6616.388
 30
-2360.990
 70
    32
  0
VERTEX
  8
W77LXLIFT
 62
6
 10
2213.117
 20
-6604.841
 30
-2412.560
 70
    32
  0
VERTEX
  8
W77LXLIFT
 62
6
 10
2230.413
 20
-6595.793
 30
-2412.720
 70
    32
  0
VERTEX
  8
W77LXLIFT
 62
6
 10
2228.933
 20
-6596.567
 30
-2401.500
 70
    32
  0
VERTEX
  8
W77LXLIFT
 62
6
 10
2218.336
 20
-6602.111
 30
-2379.750
 70
    32
  0
VERTEX
  8
W77LXLIFT
 62
6
 10
2204.894
 20
-6609.143
 30
-2360.970
 70
    32
  0
SEQEND
  8
W77LXLIFT
  0
POLYLINE
  8
W77LXLIFT
 62
6
 66
     1
 70
     9
  0
VERTEX
  8
W77LXLIFT
 62
6
 10
2194.723
 20
-6632.521
 30
-2360.990
 70
    32
  0
VERTEX
  8
W77LXLIFT
 62
6
 10
2221.349
 20
-6618.592
 30
-2402.790
 70
    32
  0
VERTEX
  8
W77LXLIFT
 62
6
 10
2221.393
 20
-6618.569
 30
-2394.060
 70
    32
  0
VERTEX
  8
W77LXLIFT
 62
6
 10
2230.378
 20
-6613.868
 30
-2393.980
 70
    32
  0
VERTEX
  8
W77LXLIFT
 62
6
 10
2205.099
 20
-6627.093
 30
-2360.960
 70
    32
  0
SEQEND
  8
W77LXLIFT
  0
POLYLINE
  8
W77LXLIFT
 62
6
 66
     1
 70
     9
  0
VERTEX
  8
W77LXLIFT
 62
6
 10
2220.509
 20
-6673.203
 30
-2361.320
 70
    32
  0
VERTEX
  8
W77LXLIFT
 62
6
 10
2240.614
 20
-6662.685
 30
-2412.300
 70
    32
  0
VERTEX
  8
W77LXLIFT
 62
6
 10
2260.586
 20
-6652.237
 30
-2412.630
 70
    32
  0
VERTEX
  8
W77LXLIFT
 62
6
 10
2234.252
 20
-6666.014
 30
-2361.060
 70
    32
  0
SEQEND
  8
W77LXLIFT
  0
POLYLINE
  8
W77LXLIFT
 62
6
 66
     1
 70
     9
  0
VERTEX
  8
W77LXLIFT
 62
6
 10
2216.605
 20
-6666.217
 30
-2361.720
 70
    32
  0
VERTEX
  8
W77LXLIFT
 62
6
 10
2239.599
 20
-6654.188
 30
-2413.010
 70
    32
  0
VERTEX
  8
W77LXLIFT
 62
6
 10
2239.661
 20
-6654.155
 30
-2394.130
 70
    32
  0
VERTEX
  8
W77LXLIFT
 62
6
 10
2243.400
 20
-6652.199
 30
-2394.390
 70
    32
  0
VERTEX
  8
W77LXLIFT
 62
6
 10
2227.185
 20
-6660.682
 30
-2361.610
 70
    32
  0
SEQEND
  8
W77LXLIFT
  0
POLYLINE
  8
W77LXLIFT
 62
6
 66
     1
 70
     9
  0
VERTEX
  8
W77LXLIFT
 62
6
 10
2205.950
 20
-6644.705
 30
-2360.950
 70
    32
  0
VERTEX
  8
W77LXLIFT
 62
6
 10
2218.939
 20
-6637.910
 30
-2393.950
 70
    32
  0
VERTEX
  8
W77LXLIFT
 62
6
 10
2236.377
 20
-6628.787
 30
-2393.720
 70
    32
  0
VERTEX
  8
W77LXLIFT
 62
6
 10
2219.666
 20
-6637.530
 30
-2361.130
 70
    32
  0
SEQEND
  8
W77LXLIFT
  0
POLYLINE
  8
W77LXLIFT
 62
6
 66
     1
 70
     9
  0
VERTEX
  8
W77LXLIFT
 62
6
 10
2205.786
 20
-6653.820
 30
-2361.130
 70
    32
  0
VERTEX
  8
W77LXLIFT
 62
6
 10
2224.535
 20
-6644.011
 30
-2394.020
 70
    32
  0
VERTEX
  8
W77LXLIFT
 62
6
 10
2242.026
 20
-6634.860
 30
-2393.900
 70
    32
  0
VERTEX
  8
W77LXLIFT
 62
6
 10
2221.540
 20
-6645.578
 30
-2361.170
 70
    32
  0
SEQEND
  8
W77LXLIFT
  0
POLYLINE
  8
W77LXLIFT
 62
6
 66
     1
 70
     9
  0
VERTEX
  8
W77LXLIFT
 62
6
 10
2214.527
 20
-6658.275
 30
-2360.730
 70
    32
  0
VERTEX
  8
W77LXLIFT
 62
6
 10
2230.928
 20
-6649.695
 30
-2396.390
 70
    32
  0
VERTEX
  8
W77LXLIFT
 62
6
 10
2230.751
 20
-6649.788
 30
-2393.950
 70
    32
  0
VERTEX
  8
W77LXLIFT
 62
6
 10
2242.545
 20
-6643.618
 30
-2393.940
 70
    32
  0
VERTEX
  8
W77LXLIFT
 62
6
 10
2226.560
 20
-6651.980
 30
-2360.730
 70
    32
  0
SEQEND
  8
W77LXLIFT
  0
POLYLINE
  8
W77LXLIFT
 62
6
 66
     1
 70
     9
  0
VERTEX
  8
W77LXLIFT
 62
6
 10
2194.710
 20
-6641.557
 30
-2361.020
 70
    32
  0
VERTEX
  8
W77LXLIFT
 62
6
 10
2215.266
 20
-6630.803
 30
-2394.070
 70
    32
  0
VERTEX
  8
W77LXLIFT
 62
6
 10
2231.978
 20
-6622.060
 30
-2394.100
 70
    32
  0
VERTEX
  8
W77LXLIFT
 62
6
 10
2210.216
 20
-6633.445
 30
-2360.910
 70
    32
  0
SEQEND
  8
W77LXLIFT
  0
POLYLINE
  8
W77LXLIFT
 62
6
 66
     1
 70
     9
  0
VERTEX
  8
W77LXLIFT
 62
6
 10
2196.189
 20
-6622.726
 30
-2361.000
 70
    32
  0
VERTEX
  8
W77LXLIFT
 62
6
 10
2213.352
 20
-6613.747
 30
-2414.020
 70
    32
  0
VERTEX
  8
W77LXLIFT
 62
6
 10
2219.280
 20
-6610.646
 30
-2414.130
 70
    32
  0
VERTEX
  8
W77LXLIFT
 62
6
 10
2219.262
 20
-6610.655
 30
-2393.890
 70
    32
  0
VERTEX
  8
W77LXLIFT
 62
6
 10
2229.363
 20
-6605.370
 30
-2394.010
 70
    32
  0
VERTEX
  8
W77LXLIFT
 62
6
 10
2208.426
 20
-6616.324
 30
-2360.910
 70
    32
  0
SEQEND
  8
W77LXLIFT
  0
POLYLINE
  8
W77LXLIFT
 62
7
 66
     1
 70
     9
  0
VERTEX
  8
W77LXLIFT
 62
7
 10
1716.385
 20
-5752.479
 30
-2266.000
 70
    32
  0
VERTEX
  8
W77LXLIFT
 62
7
 10
1719.736
 20
-5751.332
 30
-2330.819
 70
    32
  0
VERTEX
  8
W77LXLIFT
 62
7
 10
1718.744
 20
-5751.672
 30
-2332.915
 70
    32
  0
VERTEX
  8
W77LXLIFT
 62
7
 10
1717.752
 20
-5752.011
 30
-2335.011
 70
    32
  0
VERTEX
  8
W77LXLIFT
 62
7
 10
1713.783
 20
-5753.369
 30
-2334.312
 70
    32
  0
VERTEX
  8
W77LXLIFT
 62
7
 10
1711.799
 20
-5754.048
 30
-2334.312
 70
    32
  0
VERTEX
  8
W77LXLIFT
 62
7
 10
1709.484
 20
-5754.840
 30
-2327.326
 70
    32
  0
VERTEX
  8
W77LXLIFT
 62
7
 10
1707.499
 20
-5755.519
 30
-2311.606
 70
    32
  0
VERTEX
  8
W77LXLIFT
 62
7
 10
1706.149
 20
-5755.981
 30
-2265.828
 70
    32
  0
SEQEND
  8
W77LXLIFT
  0
POLYLINE
  8
W77LXLIFT
 62
6
 66
     1
 70
     9
  0
VERTEX
  8
W77LXLIFT
 62
6
 10
1653.798
 20
-5778.123
 30
-2300.000
 70
    32
  0
VERTEX
  8
W77LXLIFT
 62
6
 10
1664.269
 20
-5774.540
 30
-2269.975
 70
    32
  0
VERTEX
  8
W77LXLIFT
 62
6
 10
1668.128
 20
-5773.219
 30
-2266.069
 70
    32
  0
VERTEX
  8
W77LXLIFT
 62
6
 10
1692.262
 20
-5764.961
 30
-2266.000
 70
    32
  0
VERTEX
  8
W77LXLIFT
 62
6
 10
1687.811
 20
-5766.484
 30
-2272.414
 70
    32
  0
VERTEX
  8
W77LXLIFT
 62
6
 10
1665.926
 20
-5773.972
 30
-2300.000
 70
    32
  0
SEQEND
  8
W77LXLIFT
  0
POLYLINE
  8
W77LXLIFT
 62
6
 66
     1
 70
     9
  0
VERTEX
  8
W77LXLIFT
 62
6
 10
1654.309
 20
-5782.175
 30
-2300.000
 70
    32
  0
VERTEX
  8
W77LXLIFT
 62
6
 10
1663.493
 20
-5779.033
 30
-2273.665
 70
    32
  0
VERTEX
  8
W77LXLIFT
 62
6
 10
1669.629
 20
-5776.933
 30
-2265.972
 70
    32
  0
VERTEX
  8
W77LXLIFT
 62
6
 10
1696.059
 20
-5767.889
 30
-2265.972
 70
    32
  0
VERTEX
  8
W77LXLIFT
 62
6
 10
1690.753
 20
-5769.705
 30
-2275.416
 70
    32
  0
VERTEX
  8
W77LXLIFT
 62
6
 10
1671.373
 20
-5776.336
 30
-2299.845
 70
    32
  0
SEQEND
  8
W77LXLIFT
  0
POLYLINE
  8
W77LXLIFT
 62
6
 66
     1
 70
     9
  0
VERTEX
  8
W77LXLIFT
 62
6
 10
1656.616
 20
-5785.614
 30
-2300.000
 70
    32
  0
VERTEX
  8
W77LXLIFT
 62
6
 10
1665.778
 20
-5782.479
 30
-2273.728
 70
    32
  0
VERTEX
  8
W77LXLIFT
 62
6
 10
1669.487
 20
-5781.209
 30
-2265.933
 70
    32
  0
VERTEX
  8
W77LXLIFT
 62
6
 10
1694.512
 20
-5772.646
 30
-2265.933
 70
    32
  0
VERTEX
  8
W77LXLIFT
 62
6
 10
1689.154
 20
-5774.480
 30
-2273.302
 70
    32
  0
VERTEX
  8
W77LXLIFT
 62
6
 10
1672.464
 20
-5780.191
 30
-2300.000
 70
    32
  0
SEQEND
  8
W77LXLIFT
  0
POLYLINE
  8
W77LXLIFT
 62
7
 66
     1
 70
     9
  0
VERTEX
  8
W77LXLIFT
 62
7
 10
1720.298
 20
-5759.595
 30
-2266.000
 70
    32
  0
VERTEX
  8
W77LXLIFT
 62
7
 10
1724.685
 20
-5758.094
 30
-2357.980
 70
    32
  0
VERTEX
  8
W77LXLIFT
 62
7
 10
1724.685
 20
-5758.094
 30
-2360.039
 70
    32
  0
VERTEX
  8
W77LXLIFT
 62
7
 10
1722.735
 20
-5758.761
 30
-2361.069
 70
    32
  0
VERTEX
  8
W77LXLIFT
 62
7
 10
1712.499
 20
-5762.264
 30
-2347.169
 70
    32
  0
VERTEX
  8
W77LXLIFT
 62
7
 10
1710.062
 20
-5763.098
 30
-2265.828
 70
    32
  0
SEQEND
  8
W77LXLIFT
  0
POLYLINE
  8
W77LXLIFT
 62
7
 66
     1
 70
     9
  0
VERTEX
  8
W77LXLIFT
 62
7
 10
1726.303
 20
-5765.996
 30
-2265.927
 70
    32
  0
VERTEX
  8
W77LXLIFT
 62
7
 10
1727.588
 20
-5765.556
 30
-2308.003
 70
    32
  0
VERTEX
  8
W77LXLIFT
 62
7
 10
1726.732
 20
-5765.849
 30
-2310.718
 70
    32
  0
VERTEX
  8
W77LXLIFT
 62
7
 10
1725.447
 20
-5766.289
 30
-2316.599
 70
    32
  0
VERTEX
  8
W77LXLIFT
 62
7
 10
1725.875
 20
-5766.142
 30
-2325.648
 70
    32
  0
VERTEX
  8
W77LXLIFT
 62
7
 10
1725.447
 20
-5766.289
 30
-2329.720
 70
    32
  0
VERTEX
  8
W77LXLIFT
 62
7
 10
1725.018
 20
-5766.435
 30
-2334.696
 70
    32
  0
VERTEX
  8
W77LXLIFT
 62
7
 10
1723.733
 20
-5766.875
 30
-2338.768
 70
    32
  0
VERTEX
  8
W77LXLIFT
 62
7
 10
1722.448
 20
-5767.315
 30
-2340.578
 70
    32
  0
VERTEX
  8
W77LXLIFT
 62
7
 10
1720.735
 20
-5767.901
 30
-2338.768
 70
    32
  0
VERTEX
  8
W77LXLIFT
 62
7
 10
1716.023
 20
-5769.514
 30
-2335.601
 70
    32
  0
VERTEX
  8
W77LXLIFT
 62
7
 10
1713.453
 20
-5770.393
 30
-2329.720
 70
    32
  0
VERTEX
  8
W77LXLIFT
 62
7
 10
1710.026
 20
-5771.566
 30
-2315.694
 70
    32
  0
VERTEX
  8
W77LXLIFT
 62
7
 10
1716.880
 20
-5769.220
 30
-2265.927
 70
    32
  0
SEQEND
  8
W77LXLIFT
  0
POLYLINE
  8
W77LXLIFT
 62
6
 66
     1
 70
     9
  0
VERTEX
  8
W77LXLIFT
 62
6
 10
1651.917
 20
-5791.449
 30
-2300.261
 70
    32
  0
VERTEX
  8
W77LXLIFT
 62
6
 10
1644.550
 20
-5793.970
 30
-2285.945
 70
    32
  0
VERTEX
  8
W77LXLIFT
 62
6
 10
1646.209
 20
-5793.402
 30
-2281.241
 70
    32
  0
VERTEX
  8
W77LXLIFT
 62
6
 10
1648.840
 20
-5792.502
 30
-2276.543
 70
    32
  0
VERTEX
  8
W77LXLIFT
 62
6
 10
1652.818
 20
-5791.141
 30
-2272.057
 70
    32
  0
VERTEX
  8
W77LXLIFT
 62
6
 10
1659.327
 20
-5788.914
 30
-2266.000
 70
    32
  0
VERTEX
  8
W77LXLIFT
 62
6
 10
1694.506
 20
-5776.876
 30
-2266.044
 70
    32
  0
VERTEX
  8
W77LXLIFT
 62
6
 10
1689.502
 20
-5778.589
 30
-2273.301
 70
    32
  0
VERTEX
  8
W77LXLIFT
 62
6
 10
1672.811
 20
-5784.300
 30
-2300.000
 70
    32
  0
SEQEND
  8
W77LXLIFT
  0
POLYLINE
  8
W77LXLIFT
 62
6
 66
     1
 70
     9
  0
VERTEX
  8
W77LXLIFT
 62
6
 10
1654.393
 20
-5799.057
 30
-2301.688
 70
    32
  0
VERTEX
  8
W77LXLIFT
 62
6
 10
1639.575
 20
-5804.128
 30
-2280.812
 70
    32
  0
VERTEX
  8
W77LXLIFT
 62
6
 10
1641.689
 20
-5803.404
 30
-2266.000
 70
    32
  0
VERTEX
  8
W77LXLIFT
 62
6
 10
1691.089
 20
-5786.501
 30
-2266.000
 70
    32
  0
VERTEX
  8
W77LXLIFT
 62
6
 10
1674.558
 20
-5792.157
 30
-2300.000
 70
    32
  0
VERTEX
  8
W77LXLIFT
 62
6
 10
1654.393
 20
-5799.057
 30
-2300.000
 70
    32
  0
SEQEND
  8
W77LXLIFT
  0
POLYLINE
  8
W77LXLIFT
 62
6
 66
     1
 70
     9
  0
VERTEX
  8
W77LXLIFT
 62
6
 10
1655.755
 20
-5802.819
 30
-2301.763
 70
    32
  0
VERTEX
  8
W77LXLIFT
 62
6
 10
1640.870
 20
-5807.912
 30
-2280.792
 70
    32
  0
VERTEX
  8
W77LXLIFT
 62
6
 10
1643.010
 20
-5807.180
 30
-2275.393
 70
    32
  0
VERTEX
  8
W77LXLIFT
 62
6
 10
1644.272
 20
-5806.748
 30
-2266.000
 70
    32
  0
VERTEX
  8
W77LXLIFT
 62
6
 10
1692.992
 20
-5790.077
 30
-2266.012
 70
    32
  0
VERTEX
  8
W77LXLIFT
 62
6
 10
1689.635
 20
-5791.226
 30
-2271.499
 70
    32
  0
VERTEX
  8
W77LXLIFT
 62
6
 10
1675.844
 20
-5795.945
 30
-2300.000
 70
    32
  0
VERTEX
  8
W77LXLIFT
 62
6
 10
1655.755
 20
-5802.819
 30
-2300.000
 70
    32
  0
SEQEND
  8
W77LXLIFT
  0
POLYLINE
  8
W77LXLIFT
 62
6
 66
     1
 70
     9
  0
VERTEX
  8
W77LXLIFT
 62
6
 10
1695.412
 20
-5890.714
 30
-2272.080
 70
    32
  0
VERTEX
  8
W77LXLIFT
 62
6
 10
1703.797
 20
-5887.845
 30
-2266.000
 70
    32
  0
VERTEX
  8
W77LXLIFT
 62
6
 10
1711.233
 20
-5885.300
 30
-2266.000
 70
    32
  0
VERTEX
  8
W77LXLIFT
 62
6
 10
1733.526
 20
-5877.672
 30
-2272.393
 70
    32
  0
VERTEX
  8
W77LXLIFT
 62
6
 10
1711.625
 20
-5885.166
 30
-2300.000
 70
    32
  0
VERTEX
  8
W77LXLIFT
 62
6
 10
1693.173
 20
-5891.480
 30
-2299.980
 70
    32
  0
SEQEND
  8
W77LXLIFT
  0
POLYLINE
  8
W77LXLIFT
 62
6
 66
     1
 70
     9
  0
VERTEX
  8
W77LXLIFT
 62
6
 10
1688.062
 20
-5876.318
 30
-2289.762
 70
    32
  0
VERTEX
  8
W77LXLIFT
 62
6
 10
1695.714
 20
-5873.700
 30
-2266.000
 70
    32
  0
VERTEX
  8
W77LXLIFT
 62
6
 10
1710.674
 20
-5868.581
 30
-2266.000
 70
    32
  0
VERTEX
  8
W77LXLIFT
 62
6
 10
1725.918
 20
-5863.364
 30
-2273.281
 70
    32
  0
VERTEX
  8
W77LXLIFT
 62
6
 10
1709.436
 20
-5869.004
 30
-2299.951
 70
    32
  0
VERTEX
  8
W77LXLIFT
 62
6
 10
1690.098
 20
-5875.621
 30
-2300.000
 70
    32
  0
SEQEND
  8
W77LXLIFT
  0
POLYLINE
  8
W77LXLIFT
 62
6
 66
     1
 70
     9
  0
VERTEX
  8
W77LXLIFT
 62
6
 10
1684.637
 20
-5869.035
 30
-2300.000
 70
    32
  0
VERTEX
  8
W77LXLIFT
 62
6
 10
1683.080
 20
-5869.567
 30
-2292.172
 70
    32
  0
VERTEX
  8
W77LXLIFT
 62
6
 10
1691.648
 20
-5866.636
 30
-2266.000
 70
    32
  0
VERTEX
  8
W77LXLIFT
 62
6
 10
1709.416
 20
-5860.556
 30
-2266.000
 70
    32
  0
VERTEX
  8
W77LXLIFT
 62
6
 10
1726.664
 20
-5854.654
 30
-2272.413
 70
    32
  0
VERTEX
  8
W77LXLIFT
 62
6
 10
1704.779
 20
-5862.142
 30
-2300.000
 70
    32
  0
SEQEND
  8
W77LXLIFT
  0
POLYLINE
  8
W77LXLIFT
 62
6
 66
     1
 70
     9
  0
VERTEX
  8
W77LXLIFT
 62
6
 10
1681.706
 20
-5857.355
 30
-2300.000
 70
    32
  0
VERTEX
  8
W77LXLIFT
 62
6
 10
1679.845
 20
-5857.991
 30
-2290.641
 70
    32
  0
VERTEX
  8
W77LXLIFT
 62
6
 10
1685.436
 20
-5856.078
 30
-2266.000
 70
    32
  0
VERTEX
  8
W77LXLIFT
 62
6
 10
1704.316
 20
-5849.618
 30
-2266.000
 70
    32
  0
VERTEX
  8
W77LXLIFT
 62
6
 10
1719.004
 20
-5844.592
 30
-2272.423
 70
    32
  0
VERTEX
  8
W77LXLIFT
 62
6
 10
1697.127
 20
-5852.078
 30
-2300.000
 70
    32
  0
SEQEND
  8
W77LXLIFT
  0
POLYLINE
  8
W77LXLIFT
 62
6
 66
     1
 70
     9
  0
VERTEX
  8
W77LXLIFT
 62
6
 10
1680.411
 20
-5853.570
 30
-2300.000
 70
    32
  0
VERTEX
  8
W77LXLIFT
 62
6
 10
1674.963
 20
-5855.434
 30
-2272.610
 70
    32
  0
VERTEX
  8
W77LXLIFT
 62
6
 10
1683.155
 20
-5852.631
 30
-2266.000
 70
    32
  0
VERTEX
  8
W77LXLIFT
 62
6
 10
1703.421
 20
-5845.696
 30
-2266.000
 70
    32
  0
VERTEX
  8
W77LXLIFT
 62
6
 10
1717.709
 20
-5840.807
 30
-2272.423
 70
    32
  0
VERTEX
  8
W77LXLIFT
 62
6
 10
1695.832
 20
-5848.293
 30
-2300.000
 70
    32
  0
SEQEND
  8
W77LXLIFT
  0
POLYLINE
  8
W77LXLIFT
 62
6
 66
     1
 70
     9
  0
VERTEX
  8
W77LXLIFT
 62
6
 10
1679.550
 20
-5862.320
 30
-2300.002
 70
    32
  0
VERTEX
  8
W77LXLIFT
 62
6
 10
1687.581
 20
-5859.572
 30
-2266.000
 70
    32
  0
VERTEX
  8
W77LXLIFT
 62
6
 10
1706.961
 20
-5852.940
 30
-2265.957
 70
    32
  0
VERTEX
  8
W77LXLIFT
 62
6
 10
1720.299
 20
-5848.376
 30
-2272.423
 70
    32
  0
VERTEX
  8
W77LXLIFT
 62
6
 10
1698.422
 20
-5855.862
 30
-2300.000
 70
    32
  0
SEQEND
  8
W77LXLIFT
  0
POLYLINE
  8
W77LXLIFT
 62
6
 66
     1
 70
     9
  0
VERTEX
  8
W77LXLIFT
 62
6
 10
1691.393
 20
-5879.406
 30
-2300.000
 70
    32
  0
VERTEX
  8
W77LXLIFT
 62
6
 10
1689.416
 20
-5880.082
 30
-2290.061
 70
    32
  0
VERTEX
  8
W77LXLIFT
 62
6
 10
1697.747
 20
-5877.232
 30
-2266.000
 70
    32
  0
VERTEX
  8
W77LXLIFT
 62
6
 10
1710.753
 20
-5872.781
 30
-2266.000
 70
    32
  0
VERTEX
  8
W77LXLIFT
 62
6
 10
1727.213
 20
-5867.149
 30
-2273.281
 70
    32
  0
VERTEX
  8
W77LXLIFT
 62
6
 10
1710.522
 20
-5872.860
 30
-2299.980
 70
    32
  0
SEQEND
  8
W77LXLIFT
  0
POLYLINE
  8
W77LXLIFT
 62
6
 66
     1
 70
     9
  0
VERTEX
  8
W77LXLIFT
 62
6
 10
1692.678
 20
-5883.194
 30
-2300.000
 70
    32
  0
VERTEX
  8
W77LXLIFT
 62
6
 10
1690.625
 20
-5883.896
 30
-2289.675
 70
    32
  0
VERTEX
  8
W77LXLIFT
 62
6
 10
1696.587
 20
-5881.856
 30
-2272.080
 70
    32
  0
VERTEX
  8
W77LXLIFT
 62
6
 10
1699.777
 20
-5880.765
 30
-2266.000
 70
    32
  0
VERTEX
  8
W77LXLIFT
 62
6
 10
1711.830
 20
-5876.640
 30
-2266.000
 70
    32
  0
VERTEX
  8
W77LXLIFT
 62
6
 10
1724.747
 20
-5872.220
 30
-2271.489
 70
    32
  0
VERTEX
  8
W77LXLIFT
 62
6
 10
1728.499
 20
-5870.937
 30
-2273.281
 70
    32
  0
VERTEX
  8
W77LXLIFT
 62
6
 10
1711.808
 20
-5876.648
 30
-2299.980
 70
    32
  0
SEQEND
  8
W77LXLIFT
  0
POLYLINE
  8
W77LXLIFT
 62
6
 66
     1
 70
     9
  0
VERTEX
  8
W77LXLIFT
 62
6
 10
1686.897
 20
-5872.489
 30
-2300.000
 70
    32
  0
VERTEX
  8
W77LXLIFT
 62
6
 10
1685.694
 20
-5872.901
 30
-2293.953
 70
    32
  0
VERTEX
  8
W77LXLIFT
 62
6
 10
1693.681
 20
-5870.168
 30
-2266.000
 70
    32
  0
VERTEX
  8
W77LXLIFT
 62
6
 10
1693.681
 20
-5870.168
 30
-2266.000
 70
    32
  0
VERTEX
  8
W77LXLIFT
 62
6
 10
1709.743
 20
-5864.671
 30
-2266.000
 70
    32
  0
VERTEX
  8
W77LXLIFT
 62
6
 10
1722.721
 20
-5860.231
 30
-2273.301
 70
    32
  0
VERTEX
  8
W77LXLIFT
 62
6
 10
1706.030
 20
-5865.942
 30
-2300.000
 70
    32
  0
SEQEND
  8
W77LXLIFT
  0
POLYLINE
  8
W77LXLIFT
 62
6
 66
     1
 70
     9
  0
VERTEX
  8
W77LXLIFT
 62
6
 10
1683.342
 20
-5865.250
 30
-2300.000
 70
    32
  0
VERTEX
  8
W77LXLIFT
 62
6
 10
1682.232
 20
-5865.630
 30
-2294.417
 70
    32
  0
VERTEX
  8
W77LXLIFT
 62
6
 10
1689.614
 20
-5863.104
 30
-2266.000
 70
    32
  0
VERTEX
  8
W77LXLIFT
 62
6
 10
1709.561
 20
-5856.278
 30
-2266.065
 70
    32
  0
VERTEX
  8
W77LXLIFT
 62
6
 10
1725.369
 20
-5850.869
 30
-2272.413
 70
    32
  0
VERTEX
  8
W77LXLIFT
 62
6
 10
1703.484
 20
-5858.358
 30
-2300.000
 70
    32
  0
SEQEND
  8
W77LXLIFT
  0
POLYLINE
  8
W77LXLIFT
 62
6
 66
     1
 70
     9
  0
VERTEX
  8
W77LXLIFT
 62
6
 10
1677.235
 20
-5850.429
 30
-2300.000
 70
    32
  0
VERTEX
  8
W77LXLIFT
 62
6
 10
1677.235
 20
-5850.429
 30
-2300.000
 70
    32
  0
VERTEX
  8
W77LXLIFT
 62
6
 10
1671.786
 20
-5852.294
 30
-2272.600
 70
    32
  0
VERTEX
  8
W77LXLIFT
 62
6
 10
1680.874
 20
-5849.184
 30
-2266.000
 70
    32
  0
VERTEX
  8
W77LXLIFT
 62
6
 10
1701.676
 20
-5842.066
 30
-2266.000
 70
    32
  0
VERTEX
  8
W77LXLIFT
 62
6
 10
1719.262
 20
-5836.048
 30
-2272.413
 70
    32
  0
VERTEX
  8
W77LXLIFT
 62
6
 10
1697.377
 20
-5843.537
 30
-2300.000
 70
    32
  0
SEQEND
  8
W77LXLIFT
  0
POLYLINE
  8
W77LXLIFT
 62
6
 66
     1
 70
     9
  0
VERTEX
  8
W77LXLIFT
 62
6
 10
1675.940
 20
-5846.644
 30
-2300.000
 70
    32
  0
VERTEX
  8
W77LXLIFT
 62
6
 10
1670.491
 20
-5848.509
 30
-2272.600
 70
    32
  0
VERTEX
  8
W77LXLIFT
 62
6
 10
1679.344
 20
-5845.480
 30
-2266.000
 70
    32
  0
VERTEX
  8
W77LXLIFT
 62
6
 10
1696.527
 20
-5839.600
 30
-2266.000
 70
    32
  0
VERTEX
  8
W77LXLIFT
 62
6
 10
1717.967
 20
-5832.264
 30
-2272.413
 70
    32
  0
VERTEX
  8
W77LXLIFT
 62
6
 10
1696.082
 20
-5839.752
 30
-2300.000
 70
    32
  0
SEQEND
  8
W77LXLIFT
  0
POLYLINE
  8
W77LXLIFT
 62
6
 66
     1
 70
     9
  0
VERTEX
  8
W77LXLIFT
 62
6
 10
1674.645
 20
-5842.860
 30
-2300.000
 70
    32
  0
VERTEX
  8
W77LXLIFT
 62
6
 10
1669.196
 20
-5844.724
 30
-2272.600
 70
    32
  0
VERTEX
  8
W77LXLIFT
 62
6
 10
1678.309
 20
-5841.606
 30
-2266.000
 70
    32
  0
VERTEX
  8
W77LXLIFT
 62
6
 10
1695.068
 20
-5835.872
 30
-2266.000
 70
    32
  0
VERTEX
  8
W77LXLIFT
 62
6
 10
1716.672
 20
-5828.479
 30
-2272.413
 70
    32
  0
VERTEX
  8
W77LXLIFT
 62
6
 10
1694.787
 20
-5835.968
 30
-2300.000
 70
    32
  0
SEQEND
  8
W77LXLIFT
  0
POLYLINE
  8
W77LXLIFT
 62
6
 66
     1
 70
     9
  0
VERTEX
  8
W77LXLIFT
 62
6
 10
1673.350
 20
-5839.075
 30
-2300.000
 70
    32
  0
VERTEX
  8
W77LXLIFT
 62
6
 10
1667.901
 20
-5840.940
 30
-2272.600
 70
    32
  0
VERTEX
  8
W77LXLIFT
 62
6
 10
1677.275
 20
-5837.732
 30
-2266.000
 70
    32
  0
VERTEX
  8
W77LXLIFT
 62
6
 10
1694.120
 20
-5831.968
 30
-2266.000
 70
    32
  0
VERTEX
  8
W77LXLIFT
 62
6
 10
1715.377
 20
-5824.694
 30
-2272.413
 70
    32
  0
VERTEX
  8
W77LXLIFT
 62
6
 10
1693.492
 20
-5832.183
 30
-2300.000
 70
    32
  0
SEQEND
  8
W77LXLIFT
  0
POLYLINE
  8
W77LXLIFT
 62
6
 66
     1
 70
     9
  0
VERTEX
  8
W77LXLIFT
 62
6
 10
1672.055
 20
-5835.291
 30
-2300.000
 70
    32
  0
VERTEX
  8
W77LXLIFT
 62
6
 10
1666.606
 20
-5837.155
 30
-2272.600
 70
    32
  0
VERTEX
  8
W77LXLIFT
 62
6
 10
1676.290
 20
-5833.842
 30
-2266.069
 70
    32
  0
VERTEX
  8
W77LXLIFT
 62
6
 10
1694.045
 20
-5827.766
 30
-2266.069
 70
    32
  0
VERTEX
  8
W77LXLIFT
 62
6
 10
1714.082
 20
-5820.910
 30
-2272.413
 70
    32
  0
VERTEX
  8
W77LXLIFT
 62
6
 10
1692.197
 20
-5828.398
 30
-2300.000
 70
    32
  0
SEQEND
  8
W77LXLIFT
  0
POLYLINE
  8
W77LXLIFT
 62
6
 66
     1
 70
     9
  0
VERTEX
  8
W77LXLIFT
 62
6
 10
1669.854
 20
-5831.816
 30
-2300.000
 70
    32
  0
VERTEX
  8
W77LXLIFT
 62
6
 10
1664.604
 20
-5833.613
 30
-2284.993
 70
    32
  0
VERTEX
  8
W77LXLIFT
 62
6
 10
1665.311
 20
-5833.371
 30
-2272.600
 70
    32
  0
VERTEX
  8
W77LXLIFT
 62
6
 10
1674.749
 20
-5830.141
 30
-2266.000
 70
    32
  0
VERTEX
  8
W77LXLIFT
 62
6
 10
1706.425
 20
-5819.302
 30
-2266.000
 70
    32
  0
VERTEX
  8
W77LXLIFT
 62
6
 10
1712.787
 20
-5817.125
 30
-2272.413
 70
    32
  0
VERTEX
  8
W77LXLIFT
 62
6
 10
1690.903
 20
-5824.614
 30
-2299.999
 70
    32
  0
SEQEND
  8
W77LXLIFT
  0
POLYLINE
  8
W77LXLIFT
 62
6
 66
     1
 70
     9
  0
VERTEX
  8
W77LXLIFT
 62
6
 10
1669.476
 20
-5827.718
 30
-2300.000
 70
    32
  0
VERTEX
  8
W77LXLIFT
 62
6
 10
1664.025
 20
-5829.583
 30
-2272.590
 70
    32
  0
VERTEX
  8
W77LXLIFT
 62
6
 10
1673.205
 20
-5826.442
 30
-2266.000
 70
    32
  0
VERTEX
  8
W77LXLIFT
 62
6
 10
1707.559
 20
-5814.686
 30
-2266.000
 70
    32
  0
VERTEX
  8
W77LXLIFT
 62
6
 10
1711.501
 20
-5813.338
 30
-2272.403
 70
    32
  0
VERTEX
  8
W77LXLIFT
 62
6
 10
1689.609
 20
-5820.829
 30
-2300.000
 70
    32
  0
SEQEND
  8
W77LXLIFT
  0
POLYLINE
  8
W77LXLIFT
 62
6
 66
     1
 70
     9
  0
VERTEX
  8
W77LXLIFT
 62
6
 10
1668.162
 20
-5823.940
 30
-2300.000
 70
    32
  0
VERTEX
  8
W77LXLIFT
 62
6
 10
1662.711
 20
-5825.805
 30
-2272.590
 70
    32
  0
VERTEX
  8
W77LXLIFT
 62
6
 10
1671.343
 20
-5822.851
 30
-2266.000
 70
    32
  0
VERTEX
  8
W77LXLIFT
 62
6
 10
1708.807
 20
-5810.032
 30
-2266.089
 70
    32
  0
VERTEX
  8
W77LXLIFT
 62
6
 10
1710.187
 20
-5809.559
 30
-2272.403
 70
    32
  0
VERTEX
  8
W77LXLIFT
 62
6
 10
1688.295
 20
-5817.051
 30
-2300.000
 70
    32
  0
SEQEND
  8
W77LXLIFT
  0
POLYLINE
  8
W77LXLIFT
 62
6
 66
     1
 70
     9
  0
VERTEX
  8
W77LXLIFT
 62
6
 10
1662.383
 20
-5813.234
 30
-2300.000
 70
    32
  0
VERTEX
  8
W77LXLIFT
 62
6
 10
1656.934
 20
-5815.099
 30
-2272.600
 70
    32
  0
VERTEX
  8
W77LXLIFT
 62
6
 10
1652.019
 20
-5816.780
 30
-2266.000
 70
    32
  0
VERTEX
  8
W77LXLIFT
 62
6
 10
1709.935
 20
-5796.963
 30
-2266.000
 70
    32
  0
VERTEX
  8
W77LXLIFT
 62
6
 10
1704.410
 20
-5798.853
 30
-2272.413
 70
    32
  0
VERTEX
  8
W77LXLIFT
 62
6
 10
1682.525
 20
-5806.342
 30
-2300.000
 70
    32
  0
SEQEND
  8
W77LXLIFT
  0
POLYLINE
  8
W77LXLIFT
 62
6
 66
     1
 70
     9
  0
VERTEX
  8
W77LXLIFT
 62
6
 10
1657.955
 20
-5806.294
 30
-2300.010
 70
    32
  0
VERTEX
  8
W77LXLIFT
 62
6
 10
1648.764
 20
-5809.439
 30
-2273.738
 70
    32
  0
VERTEX
  8
W77LXLIFT
 62
6
 10
1646.854
 20
-5810.092
 30
-2266.000
 70
    32
  0
VERTEX
  8
W77LXLIFT
 62
6
 10
1700.020
 20
-5791.900
 30
-2265.898
 70
    32
  0
VERTEX
  8
W77LXLIFT
 62
6
 10
1694.682
 20
-5793.727
 30
-2273.301
 70
    32
  0
VERTEX
  8
W77LXLIFT
 62
6
 10
1678.528
 20
-5799.254
 30
-2300.089
 70
    32
  0
SEQEND
  8
W77LXLIFT
  0
POLYLINE
  8
W77LXLIFT
 62
6
 66
     1
 70
     9
  0
VERTEX
  8
W77LXLIFT
 62
6
 10
1663.680
 20
-5817.018
 30
-2300.000
 70
    32
  0
VERTEX
  8
W77LXLIFT
 62
6
 10
1657.450
 20
-5819.150
 30
-2268.675
 70
    32
  0
VERTEX
  8
W77LXLIFT
 62
6
 10
1654.602
 20
-5820.124
 30
-2266.000
 70
    32
  0
VERTEX
  8
W77LXLIFT
 62
6
 10
1710.099
 20
-5801.134
 30
-2266.000
 70
    32
  0
VERTEX
  8
W77LXLIFT
 62
6
 10
1710.455
 20
-5801.013
 30
-2272.423
 70
    32
  0
VERTEX
  8
W77LXLIFT
 62
6
 10
1688.578
 20
-5808.498
 30
-2300.000
 70
    32
  0
SEQEND
  8
W77LXLIFT
  0
POLYLINE
  8
W77LXLIFT
 62
6
 66
     1
 70
     9
  0
VERTEX
  8
W77LXLIFT
 62
6
 10
1694.411
 20
-5895.284
 30
-2299.980
 70
    32
  0
VERTEX
  8
W77LXLIFT
 62
6
 10
1696.650
 20
-5894.518
 30
-2272.080
 70
    32
  0
VERTEX
  8
W77LXLIFT
 62
6
 10
1705.026
 20
-5891.652
 30
-2267.383
 70
    32
  0
VERTEX
  8
W77LXLIFT
 62
6
 10
1720.079
 20
-5886.501
 30
-2271.489
 70
    32
  0
VERTEX
  8
W77LXLIFT
 62
6
 10
1730.033
 20
-5883.095
 30
-2272.393
 70
    32
  0
VERTEX
  8
W77LXLIFT
 62
6
 10
1708.133
 20
-5890.589
 30
-2300.000
 70
    32
  0
SEQEND
  8
W77LXLIFT
  0
POLYLINE
  8
W77LXLIFT
 62
6
 66
     1
 70
     9
  0
VERTEX
  8
W77LXLIFT
 62
6
 10
1697.080
 20
-5898.598
 30
-2300.000
 70
    32
  0
VERTEX
  8
W77LXLIFT
 62
6
 10
1696.201
 20
-5898.899
 30
-2272.007
 70
    32
  0
VERTEX
  8
W77LXLIFT
 62
6
 10
1698.587
 20
-5898.083
 30
-2270.000
 70
    32
  0
VERTEX
  8
W77LXLIFT
 62
6
 10
1701.560
 20
-5897.065
 30
-2270.000
 70
    32
  0
VERTEX
  8
W77LXLIFT
 62
6
 10
1714.198
 20
-5892.741
 30
-2273.707
 70
    32
  0
VERTEX
  8
W77LXLIFT
 62
6
 10
1719.633
 20
-5890.881
 30
-2271.489
 70
    32
  0
VERTEX
  8
W77LXLIFT
 62
6
 10
1729.588
 20
-5887.475
 30
-2272.393
 70
    32
  0
VERTEX
  8
W77LXLIFT
 62
6
 10
1707.687
 20
-5894.969
 30
-2300.000
 70
    32
  0
SEQEND
  8
W77LXLIFT
  0
POLYLINE
  8
W77LXLIFT
 62
6
 66
     1
 70
     9
  0
VERTEX
  8
W77LXLIFT
 62
6
 10
1698.262
 20
-5902.422
 30
-2300.000
 70
    32
  0
VERTEX
  8
W77LXLIFT
 62
6
 10
1697.383
 20
-5902.722
 30
-2272.007
 70
    32
  0
VERTEX
  8
W77LXLIFT
 62
6
 10
1699.941
 20
-5901.847
 30
-2270.000
 70
    32
  0
VERTEX
  8
W77LXLIFT
 62
6
 10
1702.779
 20
-5900.876
 30
-2270.000
 70
    32
  0
VERTEX
  8
W77LXLIFT
 62
6
 10
1706.032
 20
-5899.763
 30
-2272.031
 70
    32
  0
VERTEX
  8
W77LXLIFT
 62
6
 10
1710.889
 20
-5898.101
 30
-2272.611
 70
    32
  0
VERTEX
  8
W77LXLIFT
 62
6
 10
1715.398
 20
-5896.558
 30
-2273.707
 70
    32
  0
VERTEX
  8
W77LXLIFT
 62
6
 10
1706.229
 20
-5899.695
 30
-2300.000
 70
    32
  0
SEQEND
  8
W77LXLIFT
  0
POLYLINE
  8
W77LXLIFT
 62
7
 66
     1
 70
     9
  0
VERTEX
  8
W77LXLIFT
 62
7
 10
1739.082
 20
-5770.079
 30
-2265.846
 70
    32
  0
VERTEX
  8
W77LXLIFT
 62
7
 10
1746.027
 20
-5767.702
 30
-2341.298
 70
    32
  0
VERTEX
  8
W77LXLIFT
 62
7
 10
1745.696
 20
-5767.815
 30
-2343.744
 70
    32
  0
VERTEX
  8
W77LXLIFT
 62
7
 10
1743.050
 20
-5768.721
 30
-2345.141
 70
    32
  0
VERTEX
  8
W77LXLIFT
 62
7
 10
1739.743
 20
-5769.852
 30
-2343.744
 70
    32
  0
VERTEX
  8
W77LXLIFT
 62
7
 10
1737.097
 20
-5770.758
 30
-2338.504
 70
    32
  0
VERTEX
  8
W77LXLIFT
 62
7
 10
1734.782
 20
-5771.550
 30
-2332.915
 70
    32
  0
VERTEX
  8
W77LXLIFT
 62
7
 10
1730.814
 20
-5772.908
 30
-2329.072
 70
    32
  0
VERTEX
  8
W77LXLIFT
 62
7
 10
1728.498
 20
-5773.700
 30
-2323.832
 70
    32
  0
VERTEX
  8
W77LXLIFT
 62
7
 10
1725.191
 20
-5774.832
 30
-2265.846
 70
    32
  0
SEQEND
  8
W77LXLIFT
  0
POLYLINE
  8
W77LXLIFT
 62
7
 66
     1
 70
     9
  0
VERTEX
  8
W77LXLIFT
 62
7
 10
1742.489
 20
-5777.368
 30
-2265.872
 70
    32
  0
VERTEX
  8
W77LXLIFT
 62
7
 10
1755.577
 20
-5772.890
 30
-2402.000
 70
    32
  0
VERTEX
  8
W77LXLIFT
 62
7
 10
1732.826
 20
-5780.674
 30
-2402.000
 70
    32
  0
VERTEX
  8
W77LXLIFT
 62
7
 10
1702.104
 20
-5791.187
 30
-2370.534
 70
    32
  0
VERTEX
  8
W77LXLIFT
 62
7
 10
1726.036
 20
-5782.998
 30
-2265.872
 70
    32
  0
SEQEND
  8
W77LXLIFT
  0
POLYLINE
  8
W77LXLIFT
 62
7
 66
     1
 70
     9
  0
VERTEX
  8
W77LXLIFT
 62
7
 10
1766.711
 20
-5819.812
 30
-2265.872
 70
    32
  0
VERTEX
  8
W77LXLIFT
 62
7
 10
1770.077
 20
-5818.660
 30
-2309.316
 70
    32
  0
VERTEX
  8
W77LXLIFT
 62
7
 10
1764.842
 20
-5820.452
 30
-2334.198
 70
    32
  0
VERTEX
  8
W77LXLIFT
 62
7
 10
1769.703
 20
-5818.788
 30
-2402.130
 70
    32
  0
VERTEX
  8
W77LXLIFT
 62
7
 10
1745.771
 20
-5826.977
 30
-2402.130
 70
    32
  0
VERTEX
  8
W77LXLIFT
 62
7
 10
1740.910
 20
-5828.641
 30
-2370.534
 70
    32
  0
VERTEX
  8
W77LXLIFT
 62
7
 10
1746.893
 20
-5826.593
 30
-2333.013
 70
    32
  0
VERTEX
  8
W77LXLIFT
 62
7
 10
1737.545
 20
-5829.792
 30
-2290.359
 70
    32
  0
VERTEX
  8
W77LXLIFT
 62
7
 10
1751.754
 20
-5824.930
 30
-2265.872
 70
    32
  0
SEQEND
  8
W77LXLIFT
  0
POLYLINE
  8
W77LXLIFT
 62
7
 66
     1
 70
     9
  0
VERTEX
  8
W77LXLIFT
 62
7
 10
1755.557
 20
-5806.718
 30
-2265.880
 70
    32
  0
VERTEX
  8
W77LXLIFT
 62
7
 10
1764.157
 20
-5803.775
 30
-2402.139
 70
    32
  0
VERTEX
  8
W77LXLIFT
 62
7
 10
1747.704
 20
-5809.405
 30
-2402.139
 70
    32
  0
VERTEX
  8
W77LXLIFT
 62
7
 10
1737.608
 20
-5812.860
 30
-2386.735
 70
    32
  0
VERTEX
  8
W77LXLIFT
 62
7
 10
1742.095
 20
-5811.324
 30
-2300.636
 70
    32
  0
VERTEX
  8
W77LXLIFT
 62
7
 10
1732.373
 20
-5814.651
 30
-2287.998
 70
    32
  0
VERTEX
  8
W77LXLIFT
 62
7
 10
1744.713
 20
-5810.429
 30
-2265.880
 70
    32
  0
SEQEND
  8
W77LXLIFT
  0
POLYLINE
  8
W77LXLIFT
 62
7
 66
     1
 70
     9
  0
VERTEX
  8
W77LXLIFT
 62
7
 10
1744.963
 20
-5793.432
 30
-2266.182
 70
    32
  0
VERTEX
  8
W77LXLIFT
 62
7
 10
1760.684
 20
-5788.053
 30
-2401.976
 70
    32
  0
VERTEX
  8
W77LXLIFT
 62
7
 10
1738.155
 20
-5795.762
 30
-2402.000
 70
    32
  0
VERTEX
  8
W77LXLIFT
 62
7
 10
1738.155
 20
-5795.762
 30
-2414.000
 70
    32
  0
VERTEX
  8
W77LXLIFT
 62
7
 10
1717.014
 20
-5802.996
 30
-2373.931
 70
    32
  0
VERTEX
  8
W77LXLIFT
 62
7
 10
1735.879
 20
-5796.541
 30
-2266.182
 70
    32
  0
SEQEND
  8
W77LXLIFT
  0
POLYLINE
  8
W77LXLIFT
 62
7
 66
     1
 70
     9
  0
VERTEX
  8
W77LXLIFT
 62
7
 10
1742.175
 20
-5785.931
 30
-2265.900
 70
    32
  0
VERTEX
  8
W77LXLIFT
 62
7
 10
1747.183
 20
-5784.217
 30
-2352.738
 70
    32
  0
VERTEX
  8
W77LXLIFT
 62
7
 10
1752.609
 20
-5782.361
 30
-2361.555
 70
    32
  0
VERTEX
  8
W77LXLIFT
 62
7
 10
1757.199
 20
-5780.790
 30
-2402.109
 70
    32
  0
VERTEX
  8
W77LXLIFT
 62
7
 10
1735.497
 20
-5788.216
 30
-2402.109
 70
    32
  0
VERTEX
  8
W77LXLIFT
 62
7
 10
1711.709
 20
-5796.356
 30
-2373.016
 70
    32
  0
VERTEX
  8
W77LXLIFT
 62
7
 10
1730.907
 20
-5789.787
 30
-2265.900
 70
    32
  0
SEQEND
  8
W77LXLIFT
  0
POLYLINE
  8
W77LXLIFT
 62
7
 66
     1
 70
     9
  0
VERTEX
  8
W77LXLIFT
 62
7
 10
1770.811
 20
-5835.320
 30
-2265.880
 70
    32
  0
VERTEX
  8
W77LXLIFT
 62
7
 10
1770.063
 20
-5835.576
 30
-2303.796
 70
    32
  0
VERTEX
  8
W77LXLIFT
 62
7
 10
1769.315
 20
-5835.832
 30
-2310.115
 70
    32
  0
VERTEX
  8
W77LXLIFT
 62
7
 10
1761.836
 20
-5838.391
 30
-2326.308
 70
    32
  0
VERTEX
  8
W77LXLIFT
 62
7
 10
1760.340
 20
-5838.903
 30
-2265.880
 70
    32
  0
SEQEND
  8
W77LXLIFT
  0
POLYLINE
  8
W77LXLIFT
 62
7
 66
     1
 70
     9
  0
VERTEX
  8
W77LXLIFT
 62
7
 10
1766.320
 20
-5828.401
 30
-2266.164
 70
    32
  0
VERTEX
  8
W77LXLIFT
 62
7
 10
1769.660
 20
-5827.258
 30
-2401.820
 70
    32
  0
VERTEX
  8
W77LXLIFT
 62
7
 10
1748.131
 20
-5834.625
 30
-2401.820
 70
    32
  0
VERTEX
  8
W77LXLIFT
 62
7
 10
1734.767
 20
-5839.198
 30
-2377.512
 70
    32
  0
VERTEX
  8
W77LXLIFT
 62
7
 10
1755.183
 20
-5832.212
 30
-2266.164
 70
    32
  0
SEQEND
  8
W77LXLIFT
  0
POLYLINE
  8
W77LXLIFT
 62
7
 66
     1
 70
     9
  0
VERTEX
  8
W77LXLIFT
 62
7
 10
1761.516
 20
-5813.134
 30
-2265.842
 70
    32
  0
VERTEX
  8
W77LXLIFT
 62
7
 10
1770.884
 20
-5809.929
 30
-2354.887
 70
    32
  0
VERTEX
  8
W77LXLIFT
 62
7
 10
1766.920
 20
-5811.285
 30
-2402.074
 70
    32
  0
VERTEX
  8
W77LXLIFT
 62
7
 10
1751.428
 20
-5816.586
 30
-2402.074
 70
    32
  0
VERTEX
  8
W77LXLIFT
 62
7
 10
1728.370
 20
-5824.476
 30
-2368.967
 70
    32
  0
VERTEX
  8
W77LXLIFT
 62
7
 10
1747.825
 20
-5817.819
 30
-2265.842
 70
    32
  0
SEQEND
  8
W77LXLIFT
  0
POLYLINE
  8
W77LXLIFT
 62
7
 66
     1
 70
     9
  0
VERTEX
  8
W77LXLIFT
 62
7
 10
1865.768
 20
-6109.178
 30
-2424.000
 70
    32
  0
VERTEX
  8
W77LXLIFT
 62
7
 10
1875.022
 20
-6102.768
 30
-2424.000
 70
    32
  0
VERTEX
  8
W77LXLIFT
 62
7
 10
1889.469
 20
-6103.116
 30
-2424.000
 70
    32
  0
VERTEX
  8
W77LXLIFT
 62
7
 10
1899.413
 20
-6106.824
 30
-2424.000
 70
    32
  0
VERTEX
  8
W77LXLIFT
 62
7
 10
1906.794
 20
-6106.479
 30
-2424.000
 70
    32
  0
VERTEX
  8
W77LXLIFT
 62
7
 10
1931.377
 20
-6119.001
 30
-2424.000
 70
    32
  0
VERTEX
  8
W77LXLIFT
 62
7
 10
1930.502
 20
-6126.911
 30
-2424.000
 70
    32
  0
VERTEX
  8
W77LXLIFT
 62
7
 10
1929.712
 20
-6132.618
 30
-2424.000
 70
    32
  0
VERTEX
  8
W77LXLIFT
 62
7
 10
1925.277
 20
-6137.150
 30
-2424.000
 70
    32
  0
VERTEX
  8
W77LXLIFT
 62
7
 10
1921.117
 20
-6145.031
 30
-2424.000
 70
    32
  0
VERTEX
  8
W77LXLIFT
 62
7
 10
1918.433
 20
-6153.788
 30
-2424.000
 70
    32
  0
VERTEX
  8
W77LXLIFT
 62
7
 10
1918.679
 20
-6158.048
 30
-2424.000
 70
    32
  0
VERTEX
  8
W77LXLIFT
 62
7
 10
1910.136
 20
-6168.005
 30
-2424.000
 70
    32
  0
VERTEX
  8
W77LXLIFT
 62
7
 10
1897.101
 20
-6157.215
 30
-2424.000
 70
    32
  0
VERTEX
  8
W77LXLIFT
 62
7
 10
1887.026
 20
-6148.753
 30
-2424.000
 70
    32
  0
VERTEX
  8
W77LXLIFT
 62
7
 10
1871.374
 20
-6133.130
 30
-2424.000
 70
    32
  0
VERTEX
  8
W77LXLIFT
 62
7
 10
1863.695
 20
-6120.225
 30
-2424.000
 70
    32
  0
SEQEND
  8
W77LXLIFT
  0
POLYLINE
  8
W77LXLIFT
 62
7
 66
     1
 70
     9
  0
VERTEX
  8
W77LXLIFT
 62
7
 10
1865.078
 20
-6109.500
 30
-2414.000
 70
    32
  0
VERTEX
  8
W77LXLIFT
 62
7
 10
1874.332
 20
-6103.090
 30
-2414.000
 70
    32
  0
VERTEX
  8
W77LXLIFT
 62
7
 10
1888.779
 20
-6103.438
 30
-2414.000
 70
    32
  0
VERTEX
  8
W77LXLIFT
 62
7
 10
1898.723
 20
-6107.146
 30
-2414.000
 70
    32
  0
VERTEX
  8
W77LXLIFT
 62
7
 10
1906.104
 20
-6106.801
 30
-2414.000
 70
    32
  0
VERTEX
  8
W77LXLIFT
 62
7
 10
1930.687
 20
-6119.323
 30
-2414.000
 70
    32
  0
VERTEX
  8
W77LXLIFT
 62
7
 10
1929.812
 20
-6127.233
 30
-2414.000
 70
    32
  0
VERTEX
  8
W77LXLIFT
 62
7
 10
1929.022
 20
-6132.940
 30
-2414.000
 70
    32
  0
VERTEX
  8
W77LXLIFT
 62
7
 10
1924.587
 20
-6137.472
 30
-2414.000
 70
    32
  0
VERTEX
  8
W77LXLIFT
 62
7
 10
1920.427
 20
-6145.353
 30
-2414.000
 70
    32
  0
VERTEX
  8
W77LXLIFT
 62
7
 10
1917.743
 20
-6154.110
 30
-2414.000
 70
    32
  0
VERTEX
  8
W77LXLIFT
 62
7
 10
1917.989
 20
-6158.370
 30
-2414.000
 70
    32
  0
VERTEX
  8
W77LXLIFT
 62
7
 10
1909.446
 20
-6168.327
 30
-2414.000
 70
    32
  0
VERTEX
  8
W77LXLIFT
 62
7
 10
1896.411
 20
-6157.537
 30
-2414.000
 70
    32
  0
VERTEX
  8
W77LXLIFT
 62
7
 10
1886.336
 20
-6149.075
 30
-2414.000
 70
    32
  0
VERTEX
  8
W77LXLIFT
 62
7
 10
1870.684
 20
-6133.452
 30
-2414.000
 70
    32
  0
VERTEX
  8
W77LXLIFT
 62
7
 10
1863.006
 20
-6120.547
 30
-2414.000
 70
    32
  0
SEQEND
  8
W77LXLIFT
  0
POLYLINE
  8
W77LXLIFT
 62
4
 66
     1
 70
     9
  0
VERTEX
  8
W77LXLIFT
 62
4
 10
1943.734
 20
-6337.548
 30
-2414.000
 70
    32
  0
VERTEX
  8
W77LXLIFT
 62
4
 10
1947.299
 20
-6331.679
 30
-2414.000
 70
    32
  0
VERTEX
  8
W77LXLIFT
 62
4
 10
1947.653
 20
-6320.319
 30
-2414.000
 70
    32
  0
VERTEX
  8
W77LXLIFT
 62
4
 10
1944.779
 20
-6311.903
 30
-2414.000
 70
    32
  0
VERTEX
  8
W77LXLIFT
 62
4
 10
1937.266
 20
-6305.040
 30
-2414.000
 70
    32
  0
VERTEX
  8
W77LXLIFT
 62
4
 10
1923.304
 20
-6300.929
 30
-2414.000
 70
    32
  0
VERTEX
  8
W77LXLIFT
 62
4
 10
1917.114
 20
-6305.113
 30
-2414.000
 70
    32
  0
VERTEX
  8
W77LXLIFT
 62
4
 10
1906.932
 20
-6302.581
 30
-2414.000
 70
    32
  0
VERTEX
  8
W77LXLIFT
 62
4
 10
1900.465
 20
-6295.808
 30
-2414.000
 70
    32
  0
VERTEX
  8
W77LXLIFT
 62
4
 10
1898.715
 20
-6286.454
 30
-2414.000
 70
    32
  0
VERTEX
  8
W77LXLIFT
 62
4
 10
1901.166
 20
-6280.378
 30
-2414.000
 70
    32
  0
VERTEX
  8
W77LXLIFT
 62
4
 10
1902.301
 20
-6275.425
 30
-2414.000
 70
    32
  0
VERTEX
  8
W77LXLIFT
 62
4
 10
1900.684
 20
-6271.247
 30
-2414.000
 70
    32
  0
VERTEX
  8
W77LXLIFT
 62
4
 10
1907.150
 20
-6263.610
 30
-2414.000
 70
    32
  0
VERTEX
  8
W77LXLIFT
 62
4
 10
1915.398
 20
-6269.256
 30
-2414.000
 70
    32
  0
VERTEX
  8
W77LXLIFT
 62
4
 10
1919.695
 20
-6269.647
 30
-2414.000
 70
    32
  0
VERTEX
  8
W77LXLIFT
 62
4
 10
1924.609
 20
-6273.469
 30
-2414.000
 70
    32
  0
VERTEX
  8
W77LXLIFT
 62
4
 10
1934.093
 20
-6275.271
 30
-2414.000
 70
    32
  0
VERTEX
  8
W77LXLIFT
 62
4
 10
1944.109
 20
-6286.720
 30
-2414.000
 70
    32
  0
VERTEX
  8
W77LXLIFT
 62
4
 10
1955.922
 20
-6306.887
 30
-2414.000
 70
    32
  0
VERTEX
  8
W77LXLIFT
 62
4
 10
1960.313
 20
-6308.651
 30
-2414.000
 70
    32
  0
VERTEX
  8
W77LXLIFT
 62
4
 10
1962.082
 20
-6315.932
 30
-2414.000
 70
    32
  0
VERTEX
  8
W77LXLIFT
 62
4
 10
1969.254
 20
-6324.625
 30
-2414.000
 70
    32
  0
VERTEX
  8
W77LXLIFT
 62
4
 10
1973.464
 20
-6339.640
 30
-2414.000
 70
    32
  0
VERTEX
  8
W77LXLIFT
 62
4
 10
1979.154
 20
-6345.970
 30
-2414.000
 70
    32
  0
VERTEX
  8
W77LXLIFT
 62
4
 10
1976.985
 20
-6356.717
 30
-2414.000
 70
    32
  0
VERTEX
  8
W77LXLIFT
 62
4
 10
1983.851
 20
-6371.537
 30
-2414.000
 70
    32
  0
VERTEX
  8
W77LXLIFT
 62
4
 10
1976.274
 20
-6376.615
 30
-2414.000
 70
    32
  0
VERTEX
  8
W77LXLIFT
 62
4
 10
1966.196
 20
-6364.143
 30
-2414.000
 70
    32
  0
VERTEX
  8
W77LXLIFT
 62
4
 10
1958.682
 20
-6350.768
 30
-2414.000
 70
    32
  0
VERTEX
  8
W77LXLIFT
 62
4
 10
1952.837
 20
-6350.447
 30
-2414.000
 70
    32
  0
VERTEX
  8
W77LXLIFT
 62
4
 10
1943.734
 20
-6337.548
 30
-2414.000
 70
    32
  0
SEQEND
  8
W77LXLIFT
  0
LINE
  8
W77LXLIFT
 62
4
 10
1943.734
 20
-6337.548
 30
-2414.000
 11
1952.837
 21
-6350.447
 31
-2414.000
  0
POLYLINE
  8
W77LXLIFT
 62
1
 66
     1
 70
     9
  0
VERTEX
  8
W77LXLIFT
 62
1
 10
1971.974
 20
-6355.800
 30
-2387.479
 70
    32
  0
VERTEX
  8
W77LXLIFT
 62
1
 10
1971.756
 20
-6351.911
 30
-2387.260
 70
    32
  0
VERTEX
  8
W77LXLIFT
 62
1
 10
1970.996
 20
-6338.371
 30
-2386.487
 70
    32
  0
VERTEX
  8
W77LXLIFT
 62
1
 10
1969.834
 20
-6336.748
 30
-2386.378
 70
    32
  0
VERTEX
  8
W77LXLIFT
 62
1
 10
1961.554
 20
-6325.176
 30
-2387.298
 70
    32
  0
VERTEX
  8
W77LXLIFT
 62
1
 10
1958.971
 20
-6322.738
 30
-2387.521
 70
    32
  0
VERTEX
  8
W77LXLIFT
 62
1
 10
1955.529
 20
-6319.488
 30
-2387.826
 70
    32
  0
VERTEX
  8
W77LXLIFT
 62
1
 10
1950.765
 20
-6314.990
 30
-2387.792
 70
    32
  0
VERTEX
  8
W77LXLIFT
 62
1
 10
1948.267
 20
-6310.526
 30
-2387.770
 70
    32
  0
VERTEX
  8
W77LXLIFT
 62
1
 10
1944.892
 20
-6307.231
 30
-2387.746
 70
    32
  0
VERTEX
  8
W77LXLIFT
 62
1
 10
1943.446
 20
-6306.257
 30
-2387.737
 70
    32
  0
VERTEX
  8
W77LXLIFT
 62
1
 10
1939.711
 20
-6303.743
 30
-2387.594
 70
    32
  0
VERTEX
  8
W77LXLIFT
 62
1
 10
1937.952
 20
-6301.839
 30
-2387.523
 70
    32
  0
VERTEX
  8
W77LXLIFT
 62
1
 10
1933.671
 20
-6297.206
 30
-2387.488
 70
    32
  0
VERTEX
  8
W77LXLIFT
 62
1
 10
1933.085
 20
-6296.471
 30
-2387.484
 70
    32
  0
VERTEX
  8
W77LXLIFT
 62
1
 10
1931.135
 20
-6294.024
 30
-2386.851
 70
    32
  0
VERTEX
  8
W77LXLIFT
 62
1
 10
1928.916
 20
-6291.241
 30
-2387.220
 70
    32
  0
VERTEX
  8
W77LXLIFT
 62
1
 10
1928.014
 20
-6290.109
 30
-2387.849
 70
    32
  0
VERTEX
  8
W77LXLIFT
 62
1
 10
1910.726
 20
-6268.420
 30
-2387.921
 70
    32
  0
VERTEX
  8
W77LXLIFT
 62
1
 10
1905.895
 20
-6262.360
 30
-2388.039
 70
    32
  0
VERTEX
  8
W77LXLIFT
 62
1
 10
1900.177
 20
-6268.313
 30
-2388.010
 70
    32
  0
VERTEX
  8
W77LXLIFT
 62
1
 10
1891.071
 20
-6278.799
 30
-2387.951
 70
    32
  0
VERTEX
  8
W77LXLIFT
 62
1
 10
1895.182
 20
-6285.197
 30
-2387.835
 70
    32
  0
VERTEX
  8
W77LXLIFT
 62
1
 10
1906.752
 20
-6295.925
 30
-2387.602
 70
    32
  0
VERTEX
  8
W77LXLIFT
 62
1
 10
1910.059
 20
-6298.991
 30
-2387.599
 70
    32
  0
VERTEX
  8
W77LXLIFT
 62
1
 10
1911.534
 20
-6300.709
 30
-2387.594
 70
    32
  0
VERTEX
  8
W77LXLIFT
 62
1
 10
1916.224
 20
-6306.170
 30
-2384.482
 70
    32
  0
VERTEX
  8
W77LXLIFT
 62
1
 10
1916.582
 20
-6306.587
 30
-2384.427
 70
    32
  0
VERTEX
  8
W77LXLIFT
 62
1
 10
1918.521
 20
-6308.846
 30
-2385.044
 70
    32
  0
VERTEX
  8
W77LXLIFT
 62
1
 10
1926.467
 20
-6313.462
 30
-2387.224
 70
    32
  0
VERTEX
  8
W77LXLIFT
 62
1
 10
1927.313
 20
-6313.953
 30
-2387.235
 70
    32
  0
VERTEX
  8
W77LXLIFT
 62
1
 10
1927.924
 20
-6314.576
 30
-2387.240
 70
    32
  0
VERTEX
  8
W77LXLIFT
 62
1
 10
1940.888
 20
-6327.791
 30
-2387.760
 70
    32
  0
VERTEX
  8
W77LXLIFT
 62
1
 10
1941.282
 20
-6328.233
 30
-2387.776
 70
    32
  0
VERTEX
  8
W77LXLIFT
 62
1
 10
1941.897
 20
-6328.923
 30
-2387.781
 70
    32
  0
VERTEX
  8
W77LXLIFT
 62
1
 10
1947.012
 20
-6334.662
 30
-2387.276
 70
    32
  0
VERTEX
  8
W77LXLIFT
 62
1
 10
1951.813
 20
-6342.198
 30
-2386.682
 70
    32
  0
VERTEX
  8
W77LXLIFT
 62
1
 10
1953.007
 20
-6344.072
 30
-2386.538
 70
    32
  0
VERTEX
  8
W77LXLIFT
 62
1
 10
1954.383
 20
-6346.231
 30
-2386.680
 70
    32
  0
VERTEX
  8
W77LXLIFT
 62
1
 10
1958.895
 20
-6353.313
 30
-2387.141
 70
    32
  0
VERTEX
  8
W77LXLIFT
 62
1
 10
1971.974
 20
-6355.800
 30
-2387.479
 70
    32
  0
SEQEND
  8
W77LXLIFT
  0
POLYLINE
  8
W77LXLIFT
 62
1
 66
     1
 70
     9
  0
VERTEX
  8
W77LXLIFT
 62
1
 10
1975.388
 20
-6375.000
 30
-2394.405
 70
    32
  0
VERTEX
  8
W77LXLIFT
 62
1
 10
1977.933
 20
-6368.163
 30
-2390.288
 70
    32
  0
VERTEX
  8
W77LXLIFT
 62
1
 10
1978.818
 20
-6365.785
 30
-2391.117
 70
    32
  0
VERTEX
  8
W77LXLIFT
 62
1
 10
1980.803
 20
-6360.451
 30
-2392.843
 70
    32
  0
VERTEX
  8
W77LXLIFT
 62
1
 10
1976.033
 20
-6351.534
 30
-2396.647
 70
    32
  0
VERTEX
  8
W77LXLIFT
 62
1
 10
1976.486
 20
-6341.439
 30
-2400.289
 70
    32
  0
VERTEX
  8
W77LXLIFT
 62
1
 10
1976.556
 20
-6339.879
 30
-2400.292
 70
    32
  0
VERTEX
  8
W77LXLIFT
 62
1
 10
1972.096
 20
-6330.344
 30
-2400.149
 70
    32
  0
VERTEX
  8
W77LXLIFT
 62
1
 10
1971.652
 20
-6329.395
 30
-2400.239
 70
    32
  0
VERTEX
  8
W77LXLIFT
 62
1
 10
1970.932
 20
-6327.857
 30
-2400.288
 70
    32
  0
VERTEX
  8
W77LXLIFT
 62
1
 10
1965.317
 20
-6315.852
 30
-2400.722
 70
    32
  0
VERTEX
  8
W77LXLIFT
 62
1
 10
1959.760
 20
-6315.335
 30
-2400.831
 70
    32
  0
VERTEX
  8
W77LXLIFT
 62
1
 10
1958.843
 20
-6315.250
 30
-2400.812
 70
    32
  0
VERTEX
  8
W77LXLIFT
 62
1
 10
1953.215
 20
-6306.990
 30
-2400.552
 70
    32
  0
VERTEX
  8
W77LXLIFT
 62
1
 10
1941.503
 20
-6302.201
 30
-2400.244
 70
    32
  0
VERTEX
  8
W77LXLIFT
 62
1
 10
1939.916
 20
-6300.887
 30
-2400.190
 70
    32
  0
VERTEX
  8
W77LXLIFT
 62
1
 10
1934.875
 20
-6296.714
 30
-2400.033
 70
    32
  0
VERTEX
  8
W77LXLIFT
 62
1
 10
1934.627
 20
-6296.371
 30
-2400.023
 70
    32
  0
VERTEX
  8
W77LXLIFT
 62
1
 10
1931.876
 20
-6292.560
 30
-2399.758
 70
    32
  0
VERTEX
  8
W77LXLIFT
 62
1
 10
1924.462
 20
-6282.291
 30
-2399.024
 70
    32
  0
VERTEX
  8
W77LXLIFT
 62
1
 10
1921.468
 20
-6277.247
 30
-2398.687
 70
    32
  0
VERTEX
  8
W77LXLIFT
 62
1
 10
1920.006
 20
-6274.784
 30
-2400.846
 70
    32
  0
VERTEX
  8
W77LXLIFT
 62
1
 10
1919.554
 20
-6274.023
 30
-2401.300
 70
    32
  0
VERTEX
  8
W77LXLIFT
 62
1
 10
1917.030
 20
-6269.770
 30
-2400.774
 70
    32
  0
VERTEX
  8
W77LXLIFT
 62
1
 10
1916.753
 20
-6269.405
 30
-2400.727
 70
    32
  0
VERTEX
  8
W77LXLIFT
 62
1
 10
1907.872
 20
-6257.691
 30
-2399.392
 70
    32
  0
VERTEX
  8
W77LXLIFT
 62
1
 10
1899.989
 20
-6263.702
 30
-2399.496
 70
    32
  0
VERTEX
  8
W77LXLIFT
 62
1
 10
1895.647
 20
-6267.014
 30
-2399.656
 70
    32
  0
VERTEX
  8
W77LXLIFT
 62
1
 10
1901.317
 20
-6272.673
 30
-2400.446
 70
    32
  0
VERTEX
  8
W77LXLIFT
 62
1
 10
1899.768
 20
-6284.865
 30
-2401.607
 70
    32
  0
VERTEX
  8
W77LXLIFT
 62
1
 10
1901.563
 20
-6285.885
 30
-2401.780
 70
    32
  0
VERTEX
  8
W77LXLIFT
 62
1
 10
1905.590
 20
-6288.174
 30
-2399.607
 70
    32
  0
VERTEX
  8
W77LXLIFT
 62
1
 10
1905.664
 20
-6288.961
 30
-2399.256
 70
    32
  0
VERTEX
  8
W77LXLIFT
 62
1
 10
1905.748
 20
-6289.852
 30
-2398.687
 70
    32
  0
VERTEX
  8
W77LXLIFT
 62
1
 10
1906.118
 20
-6293.771
 30
-2398.878
 70
    32
  0
VERTEX
  8
W77LXLIFT
 62
1
 10
1906.313
 20
-6295.842
 30
-2398.975
 70
    32
  0
VERTEX
  8
W77LXLIFT
 62
1
 10
1909.211
 20
-6306.841
 30
-2399.556
 70
    32
  0
VERTEX
  8
W77LXLIFT
 62
1
 10
1920.321
 20
-6308.619
 30
-2400.035
 70
    32
  0
VERTEX
  8
W77LXLIFT
 62
1
 10
1924.211
 20
-6309.241
 30
-2400.107
 70
    32
  0
VERTEX
  8
W77LXLIFT
 62
1
 10
1933.067
 20
-6309.415
 30
-2400.247
 70
    32
  0
VERTEX
  8
W77LXLIFT
 62
1
 10
1936.869
 20
-6314.133
 30
-2400.395
 70
    32
  0
VERTEX
  8
W77LXLIFT
 62
1
 10
1937.121
 20
-6321.952
 30
-2400.547
 70
    32
  0
VERTEX
  8
W77LXLIFT
 62
1
 10
1941.203
 20
-6327.613
 30
-2400.718
 70
    32
  0
VERTEX
  8
W77LXLIFT
 62
1
 10
1941.973
 20
-6328.681
 30
-2400.752
 70
    32
  0
VERTEX
  8
W77LXLIFT
 62
1
 10
1942.314
 20
-6329.154
 30
-2400.733
 70
    32
  0
VERTEX
  8
W77LXLIFT
 62
1
 10
1946.517
 20
-6334.983
 30
-2400.525
 70
    32
  0
VERTEX
  8
W77LXLIFT
 62
1
 10
1949.655
 20
-6342.700
 30
-2400.290
 70
    32
  0
VERTEX
  8
W77LXLIFT
 62
1
 10
1949.935
 20
-6343.388
 30
-2400.227
 70
    32
  0
VERTEX
  8
W77LXLIFT
 62
1
 10
1954.594
 20
-6349.947
 30
-2399.533
 70
    32
  0
VERTEX
  8
W77LXLIFT
 62
1
 10
1954.784
 20
-6350.215
 30
-2399.540
 70
    32
  0
VERTEX
  8
W77LXLIFT
 62
1
 10
1955.655
 20
-6351.442
 30
-2398.992
 70
    32
  0
VERTEX
  8
W77LXLIFT
 62
1
 10
1957.062
 20
-6353.423
 30
-2398.085
 70
    32
  0
VERTEX
  8
W77LXLIFT
 62
1
 10
1961.573
 20
-6367.354
 30
-2392.249
 70
    32
  0
VERTEX
  8
W77LXLIFT
 62
1
 10
1961.865
 20
-6368.257
 30
-2392.700
 70
    32
  0
VERTEX
  8
W77LXLIFT
 62
1
 10
1975.388
 20
-6375.000
 30
-2394.405
 70
    32
  0
SEQEND
  8
W77LXLIFT
  0
LINE
  8
W77LXLIFT
 62
1
 10
1961.865
 20
-6368.257
 30
-2392.700
 11
1975.388
 21
-6375.000
 31
-2394.405
  0
LINE
  8
W77LXLIFT
 62
1
 10
1958.895
 20
-6353.313
 30
-2387.141
 11
1971.974
 21
-6355.800
 31
-2387.479
  0
LINE
  8
W77LXLIFT
 62
4
 10
1976.274
 20
-6376.615
 30
-2414.000
 11
1983.851
 21
-6371.537
 31
-2414.000
  0
POLYLINE
  8
W77LXLIFT
 62
6
 66
     1
 70
     9
  0
VERTEX
  8
W77LXLIFT
 62
6
 10
1858.036
 20
-6110.563
 30
-2400.000
 70
    32
  0
VERTEX
  8
W77LXLIFT
 62
6
 10
1865.867
 20
-6108.011
 30
-2400.000
 70
    32
  0
VERTEX
  8
W77LXLIFT
 62
6
 10
1882.262
 20
-6107.939
 30
-2400.000
 70
    32
  0
VERTEX
  8
W77LXLIFT
 62
6
 10
1887.318
 20
-6107.834
 30
-2400.000
 70
    32
  0
VERTEX
  8
W77LXLIFT
 62
6
 10
1899.391
 20
-6105.899
 30
-2400.000
 70
    32
  0
VERTEX
  8
W77LXLIFT
 62
6
 10
1900.901
 20
-6107.556
 30
-2400.000
 70
    32
  0
VERTEX
  8
W77LXLIFT
 62
6
 10
1909.725
 20
-6104.581
 30
-2400.000
 70
    32
  0
VERTEX
  8
W77LXLIFT
 62
6
 10
1923.267
 20
-6118.193
 30
-2400.000
 70
    32
  0
VERTEX
  8
W77LXLIFT
 62
6
 10
1926.826
 20
-6127.159
 30
-2400.000
 70
    32
  0
VERTEX
  8
W77LXLIFT
 62
6
 10
1937.124
 20
-6137.288
 30
-2400.000
 70
    32
  0
VERTEX
  8
W77LXLIFT
 62
6
 10
1930.421
 20
-6148.419
 30
-2400.000
 70
    32
  0
VERTEX
  8
W77LXLIFT
 62
6
 10
1911.406
 20
-6166.868
 30
-2400.000
 70
    32
  0
VERTEX
  8
W77LXLIFT
 62
6
 10
1902.661
 20
-6161.097
 30
-2400.000
 70
    32
  0
VERTEX
  8
W77LXLIFT
 62
6
 10
1896.942
 20
-6161.507
 30
-2400.000
 70
    32
  0
VERTEX
  8
W77LXLIFT
 62
6
 10
1889.088
 20
-6161.222
 30
-2400.000
 70
    32
  0
VERTEX
  8
W77LXLIFT
 62
6
 10
1880.207
 20
-6150.372
 30
-2400.000
 70
    32
  0
VERTEX
  8
W77LXLIFT
 62
6
 10
1872.891
 20
-6139.333
 30
-2400.000
 70
    32
  0
VERTEX
  8
W77LXLIFT
 62
6
 10
1867.819
 20
-6129.124
 30
-2400.000
 70
    32
  0
VERTEX
  8
W77LXLIFT
 62
6
 10
1856.704
 20
-6121.199
 30
-2400.000
 70
    32
  0
SEQEND
  8
W77LXLIFT
  0
POLYLINE
  8
W77LXLIFT
 62
3
 66
     1
 70
     9
  0
VERTEX
  8
W77LXLIFT
 62
3
 10
1717.585
 20
-5847.588
 30
-2346.967
 70
    32
  0
VERTEX
  8
W77LXLIFT
 62
3
 10
1719.078
 20
-5848.760
 30
-2347.210
 70
    32
  0
VERTEX
  8
W77LXLIFT
 62
3
 10
1726.287
 20
-5854.418
 30
-2348.291
 70
    32
  0
VERTEX
  8
W77LXLIFT
 62
3
 10
1738.754
 20
-5858.834
 30
-2349.518
 70
    32
  0
VERTEX
  8
W77LXLIFT
 62
3
 10
1739.781
 20
-5859.198
 30
-2349.607
 70
    32
  0
VERTEX
  8
W77LXLIFT
 62
3
 10
1740.332
 20
-5860.100
 30
-2349.729
 70
    32
  0
VERTEX
  8
W77LXLIFT
 62
3
 10
1744.890
 20
-5867.563
 30
-2350.667
 70
    32
  0
VERTEX
  8
W77LXLIFT
 62
3
 10
1746.779
 20
-5876.683
 30
-2351.657
 70
    32
  0
VERTEX
  8
W77LXLIFT
 62
3
 10
1747.417
 20
-5879.761
 30
-2351.659
 70
    32
  0
VERTEX
  8
W77LXLIFT
 62
3
 10
1747.614
 20
-5880.055
 30
-2351.658
 70
    32
  0
VERTEX
  8
W77LXLIFT
 62
3
 10
1754.404
 20
-5890.174
 30
-2351.843
 70
    32
  0
VERTEX
  8
W77LXLIFT
 62
3
 10
1754.986
 20
-5891.042
 30
-2351.844
 70
    32
  0
VERTEX
  8
W77LXLIFT
 62
3
 10
1749.521
 20
-5903.449
 30
-2351.836
 70
    32
  0
VERTEX
  8
W77LXLIFT
 62
3
 10
1746.366
 20
-5906.739
 30
-2351.833
 70
    32
  0
VERTEX
  8
W77LXLIFT
 62
3
 10
1740.983
 20
-5912.352
 30
-2351.836
 70
    32
  0
VERTEX
  8
W77LXLIFT
 62
3
 10
1736.422
 20
-5914.401
 30
-2351.836
 70
    32
  0
VERTEX
  8
W77LXLIFT
 62
3
 10
1733.001
 20
-5904.465
 30
-2351.824
 70
    32
  0
VERTEX
  8
W77LXLIFT
 62
3
 10
1732.831
 20
-5903.970
 30
-2351.824
 70
    32
  0
VERTEX
  8
W77LXLIFT
 62
3
 10
1732.035
 20
-5903.012
 30
-2351.824
 70
    32
  0
VERTEX
  8
W77LXLIFT
 62
3
 10
1731.493
 20
-5902.359
 30
-2351.811
 70
    32
  0
VERTEX
  8
W77LXLIFT
 62
3
 10
1720.931
 20
-5889.641
 30
-2351.861
 70
    32
  0
VERTEX
  8
W77LXLIFT
 62
3
 10
1720.032
 20
-5888.558
 30
-2351.715
 70
    32
  0
VERTEX
  8
W77LXLIFT
 62
3
 10
1719.833
 20
-5888.319
 30
-2351.680
 70
    32
  0
VERTEX
  8
W77LXLIFT
 62
3
 10
1712.183
 20
-5880.135
 30
-2350.441
 70
    32
  0
VERTEX
  8
W77LXLIFT
 62
3
 10
1710.444
 20
-5872.111
 30
-2349.511
 70
    32
  0
VERTEX
  8
W77LXLIFT
 62
3
 10
1709.649
 20
-5868.444
 30
-2349.029
 70
    32
  0
VERTEX
  8
W77LXLIFT
 62
3
 10
1709.444
 20
-5866.362
 30
-2348.769
 70
    32
  0
VERTEX
  8
W77LXLIFT
 62
3
 10
1708.333
 20
-5855.089
 30
-2347.294
 70
    32
  0
VERTEX
  8
W77LXLIFT
 62
3
 10
1717.585
 20
-5847.588
 30
-2346.967
 70
    32
  0
SEQEND
  8
W77LXLIFT
  0
POLYLINE
  8
W77LXLIFT
 62
8
 66
     1
 70
     9
  0
VERTEX
  8
W77LXLIFT
 62
8
 10
1654.649
 20
-5787.770
 30
-2313.776
 70
    32
  0
VERTEX
  8
W77LXLIFT
 62
8
 10
1654.818
 20
-5789.048
 30
-2313.796
 70
    32
  0
VERTEX
  8
W77LXLIFT
 62
8
 10
1651.286
 20
-5790.925
 30
-2313.806
 70
    32
  0
VERTEX
  8
W77LXLIFT
 62
8
 10
1648.187
 20
-5799.460
 30
-2313.917
 70
    32
  0
VERTEX
  8
W77LXLIFT
 62
8
 10
1650.839
 20
-5803.659
 30
-2313.994
 70
    32
  0
VERTEX
  8
W77LXLIFT
 62
8
 10
1657.651
 20
-5814.445
 30
-2312.909
 70
    32
  0
VERTEX
  8
W77LXLIFT
 62
8
 10
1661.058
 20
-5818.241
 30
-2312.555
 70
    32
  0
VERTEX
  8
W77LXLIFT
 62
8
 10
1665.815
 20
-5823.542
 30
-2312.136
 70
    32
  0
VERTEX
  8
W77LXLIFT
 62
8
 10
1669.805
 20
-5835.192
 30
-2311.288
 70
    32
  0
VERTEX
  8
W77LXLIFT
 62
8
 10
1671.177
 20
-5844.508
 30
-2310.657
 70
    32
  0
VERTEX
  8
W77LXLIFT
 62
8
 10
1671.869
 20
-5849.204
 30
-2310.299
 70
    32
  0
VERTEX
  8
W77LXLIFT
 62
8
 10
1674.315
 20
-5868.002
 30
-2309.128
 70
    32
  0
VERTEX
  8
W77LXLIFT
 62
8
 10
1679.708
 20
-5877.178
 30
-2308.417
 70
    32
  0
VERTEX
  8
W77LXLIFT
 62
8
 10
1684.485
 20
-5880.530
 30
-2308.064
 70
    32
  0
VERTEX
  8
W77LXLIFT
 62
8
 10
1684.485
 20
-5880.530
 30
-2308.102
 70
    32
  0
VERTEX
  8
W77LXLIFT
 62
8
 10
1691.993
 20
-5885.797
 30
-2308.407
 70
    32
  0
VERTEX
  8
W77LXLIFT
 62
8
 10
1700.435
 20
-5892.251
 30
-2308.755
 70
    32
  0
VERTEX
  8
W77LXLIFT
 62
8
 10
1700.613
 20
-5892.387
 30
-2308.753
 70
    32
  0
VERTEX
  8
W77LXLIFT
 62
8
 10
1703.758
 20
-5891.023
 30
-2308.736
 70
    32
  0
VERTEX
  8
W77LXLIFT
 62
8
 10
1706.372
 20
-5889.889
 30
-2308.733
 70
    32
  0
VERTEX
  8
W77LXLIFT
 62
8
 10
1714.680
 20
-5890.324
 30
-2308.721
 70
    32
  0
VERTEX
  8
W77LXLIFT
 62
8
 10
1719.472
 20
-5892.982
 30
-2308.713
 70
    32
  0
VERTEX
  8
W77LXLIFT
 62
8
 10
1721.040
 20
-5891.412
 30
-2308.712
 70
    32
  0
VERTEX
  8
W77LXLIFT
 62
8
 10
1728.670
 20
-5883.777
 30
-2308.711
 70
    32
  0
VERTEX
  8
W77LXLIFT
 62
8
 10
1726.482
 20
-5879.569
 30
-2308.714
 70
    32
  0
VERTEX
  8
W77LXLIFT
 62
8
 10
1727.837
 20
-5877.468
 30
-2308.714
 70
    32
  0
VERTEX
  8
W77LXLIFT
 62
8
 10
1724.772
 20
-5873.449
 30
-2308.717
 70
    32
  0
VERTEX
  8
W77LXLIFT
 62
8
 10
1721.960
 20
-5869.763
 30
-2308.723
 70
    32
  0
VERTEX
  8
W77LXLIFT
 62
8
 10
1718.049
 20
-5867.147
 30
-2308.770
 70
    32
  0
VERTEX
  8
W77LXLIFT
 62
8
 10
1714.506
 20
-5861.601
 30
-2308.833
 70
    32
  0
VERTEX
  8
W77LXLIFT
 62
8
 10
1713.504
 20
-5860.033
 30
-2308.782
 70
    32
  0
VERTEX
  8
W77LXLIFT
 62
8
 10
1712.159
 20
-5859.285
 30
-2308.730
 70
    32
  0
VERTEX
  8
W77LXLIFT
 62
8
 10
1712.159
 20
-5859.285
 30
-2308.373
 70
    32
  0
VERTEX
  8
W77LXLIFT
 62
8
 10
1708.644
 20
-5857.330
 30
-2308.603
 70
    32
  0
VERTEX
  8
W77LXLIFT
 62
8
 10
1706.011
 20
-5853.729
 30
-2308.899
 70
    32
  0
VERTEX
  8
W77LXLIFT
 62
8
 10
1704.387
 20
-5851.508
 30
-2309.109
 70
    32
  0
VERTEX
  8
W77LXLIFT
 62
8
 10
1696.958
 20
-5852.529
 30
-2309.270
 70
    32
  0
VERTEX
  8
W77LXLIFT
 62
8
 10
1694.608
 20
-5852.852
 30
-2309.330
 70
    32
  0
VERTEX
  8
W77LXLIFT
 62
8
 10
1692.900
 20
-5851.873
 30
-2309.445
 70
    32
  0
VERTEX
  8
W77LXLIFT
 62
8
 10
1690.237
 20
-5847.891
 30
-2309.814
 70
    32
  0
VERTEX
  8
W77LXLIFT
 62
8
 10
1691.313
 20
-5840.344
 30
-2310.320
 70
    32
  0
VERTEX
  8
W77LXLIFT
 62
8
 10
1698.182
 20
-5833.973
 30
-2310.559
 70
    32
  0
VERTEX
  8
W77LXLIFT
 62
8
 10
1696.044
 20
-5828.867
 30
-2310.953
 70
    32
  0
VERTEX
  8
W77LXLIFT
 62
8
 10
1689.071
 20
-5812.210
 30
-2312.029
 70
    32
  0
VERTEX
  8
W77LXLIFT
 62
8
 10
1685.084
 20
-5804.628
 30
-2312.544
 70
    32
  0
VERTEX
  8
W77LXLIFT
 62
8
 10
1679.574
 20
-5794.147
 30
-2313.306
 70
    32
  0
VERTEX
  8
W77LXLIFT
 62
8
 10
1675.676
 20
-5792.218
 30
-2313.539
 70
    32
  0
VERTEX
  8
W77LXLIFT
 62
8
 10
1674.219
 20
-5788.062
 30
-2313.881
 70
    32
  0
VERTEX
  8
W77LXLIFT
 62
8
 10
1672.838
 20
-5784.120
 30
-2313.815
 70
    32
  0
VERTEX
  8
W77LXLIFT
 62
8
 10
1671.408
 20
-5780.041
 30
-2313.769
 70
    32
  0
VERTEX
  8
W77LXLIFT
 62
8
 10
1662.772
 20
-5778.912
 30
-2313.716
 70
    32
  0
VERTEX
  8
W77LXLIFT
 62
8
 10
1654.649
 20
-5787.770
 30
-2313.776
 70
    32
  0
SEQEND
  8
W77LXLIFT
  0
POLYLINE
  8
W77LXLIFT
 62
2
 66
     1
 70
     9
  0
VERTEX
  8
W77LXLIFT
 62
2
 10
1669.437
 20
-5780.043
 30
-2318.921
 70
    32
  0
VERTEX
  8
W77LXLIFT
 62
2
 10
1673.264
 20
-5782.889
 30
-2320.288
 70
    32
  0
VERTEX
  8
W77LXLIFT
 62
2
 10
1677.357
 20
-5785.913
 30
-2321.747
 70
    32
  0
VERTEX
  8
W77LXLIFT
 62
2
 10
1679.662
 20
-5787.616
 30
-2322.184
 70
    32
  0
VERTEX
  8
W77LXLIFT
 62
2
 10
1685.871
 20
-5792.204
 30
-2322.725
 70
    32
  0
VERTEX
  8
W77LXLIFT
 62
2
 10
1691.941
 20
-5793.467
 30
-2323.066
 70
    32
  0
VERTEX
  8
W77LXLIFT
 62
2
 10
1696.222
 20
-5794.358
 30
-2322.870
 70
    32
  0
VERTEX
  8
W77LXLIFT
 62
2
 10
1707.503
 20
-5817.164
 30
-2321.386
 70
    32
  0
VERTEX
  8
W77LXLIFT
 62
2
 10
1709.795
 20
-5821.797
 30
-2321.063
 70
    32
  0
VERTEX
  8
W77LXLIFT
 62
2
 10
1712.765
 20
-5827.801
 30
-2320.824
 70
    32
  0
VERTEX
  8
W77LXLIFT
 62
2
 10
1717.493
 20
-5839.856
 30
-2320.371
 70
    32
  0
VERTEX
  8
W77LXLIFT
 62
2
 10
1720.911
 20
-5844.122
 30
-2320.175
 70
    32
  0
VERTEX
  8
W77LXLIFT
 62
2
 10
1724.873
 20
-5847.369
 30
-2319.998
 70
    32
  0
VERTEX
  8
W77LXLIFT
 62
2
 10
1726.691
 20
-5849.374
 30
-2319.901
 70
    32
  0
VERTEX
  8
W77LXLIFT
 62
2
 10
1729.720
 20
-5852.715
 30
-2319.714
 70
    32
  0
VERTEX
  8
W77LXLIFT
 62
2
 10
1730.825
 20
-5853.934
 30
-2319.689
 70
    32
  0
VERTEX
  8
W77LXLIFT
 62
2
 10
1737.669
 20
-5865.251
 30
-2319.561
 70
    32
  0
VERTEX
  8
W77LXLIFT
 62
2
 10
1735.654
 20
-5870.642
 30
-2319.511
 70
    32
  0
VERTEX
  8
W77LXLIFT
 62
2
 10
1737.525
 20
-5875.203
 30
-2319.462
 70
    32
  0
VERTEX
  8
W77LXLIFT
 62
2
 10
1739.191
 20
-5879.266
 30
-2319.627
 70
    32
  0
VERTEX
  8
W77LXLIFT
 62
2
 10
1741.926
 20
-5896.582
 30
-2320.290
 70
    32
  0
VERTEX
  8
W77LXLIFT
 62
2
 10
1742.099
 20
-5897.674
 30
-2320.331
 70
    32
  0
VERTEX
  8
W77LXLIFT
 62
2
 10
1740.930
 20
-5899.122
 30
-2320.370
 70
    32
  0
VERTEX
  8
W77LXLIFT
 62
2
 10
1737.191
 20
-5903.754
 30
-2320.370
 70
    32
  0
VERTEX
  8
W77LXLIFT
 62
2
 10
1736.598
 20
-5907.903
 30
-2320.370
 70
    32
  0
VERTEX
  8
W77LXLIFT
 62
2
 10
1736.207
 20
-5910.636
 30
-2320.370
 70
    32
  0
VERTEX
  8
W77LXLIFT
 62
2
 10
1733.915
 20
-5910.968
 30
-2320.370
 70
    32
  0
VERTEX
  8
W77LXLIFT
 62
2
 10
1727.997
 20
-5911.825
 30
-2320.370
 70
    32
  0
VERTEX
  8
W77LXLIFT
 62
2
 10
1718.608
 20
-5905.614
 30
-2320.370
 70
    32
  0
VERTEX
  8
W77LXLIFT
 62
2
 10
1716.781
 20
-5904.406
 30
-2320.308
 70
    32
  0
VERTEX
  8
W77LXLIFT
 62
2
 10
1713.746
 20
-5896.555
 30
-2319.998
 70
    32
  0
VERTEX
  8
W77LXLIFT
 62
2
 10
1715.458
 20
-5889.758
 30
-2319.774
 70
    32
  0
VERTEX
  8
W77LXLIFT
 62
2
 10
1713.334
 20
-5886.528
 30
-2319.638
 70
    32
  0
VERTEX
  8
W77LXLIFT
 62
2
 10
1710.861
 20
-5882.769
 30
-2319.475
 70
    32
  0
VERTEX
  8
W77LXLIFT
 62
2
 10
1707.323
 20
-5880.708
 30
-2319.467
 70
    32
  0
VERTEX
  8
W77LXLIFT
 62
2
 10
1696.700
 20
-5874.517
 30
-2319.628
 70
    32
  0
VERTEX
  8
W77LXLIFT
 62
2
 10
1692.623
 20
-5867.323
 30
-2319.758
 70
    32
  0
VERTEX
  8
W77LXLIFT
 62
2
 10
1688.088
 20
-5859.320
 30
-2320.160
 70
    32
  0
VERTEX
  8
W77LXLIFT
 62
2
 10
1692.967
 20
-5854.279
 30
-2320.281
 70
    32
  0
VERTEX
  8
W77LXLIFT
 62
2
 10
1695.548
 20
-5848.992
 30
-2320.451
 70
    32
  0
VERTEX
  8
W77LXLIFT
 62
2
 10
1700.940
 20
-5843.457
 30
-2320.583
 70
    32
  0
VERTEX
  8
W77LXLIFT
 62
2
 10
1702.645
 20
-5839.507
 30
-2320.684
 70
    32
  0
VERTEX
  8
W77LXLIFT
 62
2
 10
1698.138
 20
-5836.922
 30
-2320.853
 70
    32
  0
VERTEX
  8
W77LXLIFT
 62
2
 10
1694.292
 20
-5837.453
 30
-2320.916
 70
    32
  0
VERTEX
  8
W77LXLIFT
 62
2
 10
1690.786
 20
-5834.182
 30
-2321.084
 70
    32
  0
VERTEX
  8
W77LXLIFT
 62
2
 10
1683.874
 20
-5827.735
 30
-2321.665
 70
    32
  0
VERTEX
  8
W77LXLIFT
 62
2
 10
1683.233
 20
-5818.704
 30
-2322.161
 70
    32
  0
VERTEX
  8
W77LXLIFT
 62
2
 10
1680.391
 20
-5814.101
 30
-2322.503
 70
    32
  0
VERTEX
  8
W77LXLIFT
 62
2
 10
1675.385
 20
-5805.991
 30
-2323.066
 70
    32
  0
VERTEX
  8
W77LXLIFT
 62
2
 10
1671.795
 20
-5800.175
 30
-2322.470
 70
    32
  0
VERTEX
  8
W77LXLIFT
 62
2
 10
1667.776
 20
-5796.825
 30
-2321.671
 70
    32
  0
VERTEX
  8
W77LXLIFT
 62
2
 10
1662.977
 20
-5792.825
 30
-2319.964
 70
    32
  0
VERTEX
  8
W77LXLIFT
 62
2
 10
1661.063
 20
-5791.230
 30
-2319.248
 70
    32
  0
VERTEX
  8
W77LXLIFT
 62
2
 10
1669.437
 20
-5780.043
 30
-2318.921
 70
    32
  0
SEQEND
  8
W77LXLIFT
  0
POLYLINE
  8
W77LXLIFT
 62
6
 66
     1
 70
     9
  0
VERTEX
  8
W77LXLIFT
 62
6
 10
1682.020
 20
-5800.183
 30
-2332.520
 70
    32
  0
VERTEX
  8
W77LXLIFT
 62
6
 10
1679.016
 20
-5794.906
 30
-2332.693
 70
    32
  0
VERTEX
  8
W77LXLIFT
 62
6
 10
1673.999
 20
-5786.091
 30
-2333.009
 70
    32
  0
VERTEX
  8
W77LXLIFT
 62
6
 10
1673.640
 20
-5780.485
 30
-2333.169
 70
    32
  0
VERTEX
  8
W77LXLIFT
 62
6
 10
1669.952
 20
-5772.358
 30
-2333.192
 70
    32
  0
VERTEX
  8
W77LXLIFT
 62
6
 10
1665.856
 20
-5763.333
 30
-2333.197
 70
    32
  0
VERTEX
  8
W77LXLIFT
 62
6
 10
1671.255
 20
-5757.987
 30
-2333.198
 70
    32
  0
VERTEX
  8
W77LXLIFT
 62
6
 10
1677.184
 20
-5757.025
 30
-2333.197
 70
    32
  0
VERTEX
  8
W77LXLIFT
 62
6
 10
1679.219
 20
-5756.695
 30
-2333.199
 70
    32
  0
VERTEX
  8
W77LXLIFT
 62
6
 10
1685.920
 20
-5772.671
 30
-2333.211
 70
    32
  0
VERTEX
  8
W77LXLIFT
 62
6
 10
1689.960
 20
-5782.302
 30
-2332.887
 70
    32
  0
VERTEX
  8
W77LXLIFT
 62
6
 10
1695.730
 20
-5793.016
 30
-2332.508
 70
    32
  0
VERTEX
  8
W77LXLIFT
 62
6
 10
1704.444
 20
-5797.562
 30
-2332.258
 70
    32
  0
VERTEX
  8
W77LXLIFT
 62
6
 10
1704.331
 20
-5804.166
 30
-2332.077
 70
    32
  0
VERTEX
  8
W77LXLIFT
 62
6
 10
1707.115
 20
-5811.029
 30
-2331.847
 70
    32
  0
VERTEX
  8
W77LXLIFT
 62
6
 10
1720.196
 20
-5823.038
 30
-2331.328
 70
    32
  0
VERTEX
  8
W77LXLIFT
 62
6
 10
1720.183
 20
-5823.052
 30
-2331.328
 70
    32
  0
VERTEX
  8
W77LXLIFT
 62
6
 10
1714.044
 20
-5829.607
 30
-2331.286
 70
    32
  0
VERTEX
  8
W77LXLIFT
 62
6
 10
1715.327
 20
-5836.353
 30
-2331.110
 70
    32
  0
VERTEX
  8
W77LXLIFT
 62
6
 10
1716.817
 20
-5844.191
 30
-2330.290
 70
    32
  0
VERTEX
  8
W77LXLIFT
 62
6
 10
1732.289
 20
-5846.751
 30
-2330.107
 70
    32
  0
VERTEX
  8
W77LXLIFT
 62
6
 10
1738.390
 20
-5857.249
 30
-2329.936
 70
    32
  0
VERTEX
  8
W77LXLIFT
 62
6
 10
1741.099
 20
-5866.425
 30
-2329.814
 70
    32
  0
VERTEX
  8
W77LXLIFT
 62
6
 10
1742.439
 20
-5870.966
 30
-2329.733
 70
    32
  0
VERTEX
  8
W77LXLIFT
 62
6
 10
1742.575
 20
-5871.424
 30
-2330.093
 70
    32
  0
VERTEX
  8
W77LXLIFT
 62
6
 10
1744.488
 20
-5877.906
 30
-2333.049
 70
    32
  0
VERTEX
  8
W77LXLIFT
 62
6
 10
1744.547
 20
-5877.993
 30
-2333.095
 70
    32
  0
VERTEX
  8
W77LXLIFT
 62
6
 10
1752.496
 20
-5889.589
 30
-2331.388
 70
    32
  0
VERTEX
  8
W77LXLIFT
 62
6
 10
1749.031
 20
-5894.240
 30
-2330.782
 70
    32
  0
VERTEX
  8
W77LXLIFT
 62
6
 10
1745.608
 20
-5898.835
 30
-2330.466
 70
    32
  0
VERTEX
  8
W77LXLIFT
 62
6
 10
1745.659
 20
-5899.012
 30
-2330.450
 70
    32
  0
VERTEX
  8
W77LXLIFT
 62
6
 10
1747.555
 20
-5905.529
 30
-2330.473
 70
    32
  0
VERTEX
  8
W77LXLIFT
 62
6
 10
1747.777
 20
-5906.292
 30
-2330.468
 70
    32
  0
VERTEX
  8
W77LXLIFT
 62
6
 10
1745.199
 20
-5908.292
 30
-2330.463
 70
    32
  0
VERTEX
  8
W77LXLIFT
 62
6
 10
1742.366
 20
-5910.489
 30
-2330.449
 70
    32
  0
VERTEX
  8
W77LXLIFT
 62
6
 10
1735.929
 20
-5911.731
 30
-2330.410
 70
    32
  0
VERTEX
  8
W77LXLIFT
 62
6
 10
1732.347
 20
-5903.383
 30
-2330.373
 70
    32
  0
VERTEX
  8
W77LXLIFT
 62
6
 10
1730.517
 20
-5899.119
 30
-2330.778
 70
    32
  0
VERTEX
  8
W77LXLIFT
 62
6
 10
1724.246
 20
-5889.372
 30
-2331.750
 70
    32
  0
VERTEX
  8
W77LXLIFT
 62
6
 10
1722.445
 20
-5886.573
 30
-2332.161
 70
    32
  0
VERTEX
  8
W77LXLIFT
 62
6
 10
1720.508
 20
-5883.561
 30
-2329.733
 70
    32
  0
VERTEX
  8
W77LXLIFT
 62
6
 10
1716.092
 20
-5876.698
 30
-2329.876
 70
    32
  0
VERTEX
  8
W77LXLIFT
 62
6
 10
1709.515
 20
-5857.110
 30
-2330.231
 70
    32
  0
VERTEX
  8
W77LXLIFT
 62
6
 10
1706.683
 20
-5849.634
 30
-2330.337
 70
    32
  0
VERTEX
  8
W77LXLIFT
 62
6
 10
1705.966
 20
-5849.810
 30
-2330.343
 70
    32
  0
VERTEX
  8
W77LXLIFT
 62
6
 10
1703.175
 20
-5844.780
 30
-2330.966
 70
    32
  0
VERTEX
  8
W77LXLIFT
 62
6
 10
1703.149
 20
-5844.732
 30
-2330.974
 70
    32
  0
VERTEX
  8
W77LXLIFT
 62
6
 10
1703.714
 20
-5834.171
 30
-2331.364
 70
    32
  0
VERTEX
  8
W77LXLIFT
 62
6
 10
1699.446
 20
-5827.607
 30
-2331.589
 70
    32
  0
VERTEX
  8
W77LXLIFT
 62
6
 10
1682.020
 20
-5800.183
 30
-2332.520
 70
    32
  0
SEQEND
  8
W77LXLIFT
  0
POLYLINE
  8
W77LXLIFT
 62
7
 66
     1
 70
     9
  0
VERTEX
  8
W77LXLIFT
 62
7
 10
1662.492
 20
-5772.036
 30
-2298.800
 70
    32
  0
VERTEX
  8
W77LXLIFT
 62
7
 10
1672.693
 20
-5774.937
 30
-2296.483
 70
    32
  0
VERTEX
  8
W77LXLIFT
 62
7
 10
1675.064
 20
-5783.222
 30
-2294.247
 70
    32
  0
VERTEX
  8
W77LXLIFT
 62
7
 10
1676.227
 20
-5788.985
 30
-2295.383
 70
    32
  0
VERTEX
  8
W77LXLIFT
 62
7
 10
1681.302
 20
-5799.008
 30
-2297.648
 70
    32
  0
VERTEX
  8
W77LXLIFT
 62
7
 10
1684.720
 20
-5802.551
 30
-2298.601
 70
    32
  0
VERTEX
  8
W77LXLIFT
 62
7
 10
1689.105
 20
-5807.094
 30
-2299.860
 70
    32
  0
VERTEX
  8
W77LXLIFT
 62
7
 10
1692.765
 20
-5810.887
 30
-2299.937
 70
    32
  0
VERTEX
  8
W77LXLIFT
 62
7
 10
1691.286
 20
-5812.233
 30
-2299.934
 70
    32
  0
VERTEX
  8
W77LXLIFT
 62
7
 10
1701.802
 20
-5839.816
 30
-2300.210
 70
    32
  0
VERTEX
  8
W77LXLIFT
 62
7
 10
1703.709
 20
-5842.728
 30
-2299.998
 70
    32
  0
VERTEX
  8
W77LXLIFT
 62
7
 10
1700.112
 20
-5848.371
 30
-2299.668
 70
    32
  0
VERTEX
  8
W77LXLIFT
 62
7
 10
1700.087
 20
-5848.410
 30
-2299.665
 70
    32
  0
VERTEX
  8
W77LXLIFT
 62
7
 10
1708.509
 20
-5858.972
 30
-2298.893
 70
    32
  0
VERTEX
  8
W77LXLIFT
 62
7
 10
1716.819
 20
-5866.860
 30
-2298.295
 70
    32
  0
VERTEX
  8
W77LXLIFT
 62
7
 10
1726.149
 20
-5875.715
 30
-2298.315
 70
    32
  0
VERTEX
  8
W77LXLIFT
 62
7
 10
1712.515
 20
-5890.640
 30
-2298.287
 70
    32
  0
VERTEX
  8
W77LXLIFT
 62
7
 10
1709.517
 20
-5900.685
 30
-2298.281
 70
    32
  0
VERTEX
  8
W77LXLIFT
 62
7
 10
1710.044
 20
-5904.440
 30
-2298.283
 70
    32
  0
VERTEX
  8
W77LXLIFT
 62
7
 10
1710.776
 20
-5909.662
 30
-2298.294
 70
    32
  0
VERTEX
  8
W77LXLIFT
 62
7
 10
1695.903
 20
-5913.378
 30
-2298.293
 70
    32
  0
VERTEX
  8
W77LXLIFT
 62
7
 10
1694.189
 20
-5904.380
 30
-2298.273
 70
    32
  0
VERTEX
  8
W77LXLIFT
 62
7
 10
1685.912
 20
-5901.723
 30
-2298.263
 70
    32
  0
VERTEX
  8
W77LXLIFT
 62
7
 10
1687.508
 20
-5891.808
 30
-2298.243
 70
    32
  0
VERTEX
  8
W77LXLIFT
 62
7
 10
1685.161
 20
-5886.231
 30
-2298.229
 70
    32
  0
VERTEX
  8
W77LXLIFT
 62
7
 10
1679.989
 20
-5873.942
 30
-2298.218
 70
    32
  0
VERTEX
  8
W77LXLIFT
 62
7
 10
1677.931
 20
-5869.050
 30
-2298.557
 70
    32
  0
VERTEX
  8
W77LXLIFT
 62
7
 10
1670.165
 20
-5850.596
 30
-2299.852
 70
    32
  0
VERTEX
  8
W77LXLIFT
 62
7
 10
1668.986
 20
-5846.622
 30
-2300.027
 70
    32
  0
VERTEX
  8
W77LXLIFT
 62
7
 10
1667.093
 20
-5840.238
 30
-2299.944
 70
    32
  0
VERTEX
  8
W77LXLIFT
 62
7
 10
1661.806
 20
-5820.009
 30
-2299.689
 70
    32
  0
VERTEX
  8
W77LXLIFT
 62
7
 10
1655.443
 20
-5801.957
 30
-2295.730
 70
    32
  0
VERTEX
  8
W77LXLIFT
 62
7
 10
1653.651
 20
-5797.007
 30
-2294.679
 70
    32
  0
VERTEX
  8
W77LXLIFT
 62
7
 10
1651.929
 20
-5791.492
 30
-2296.190
 70
    32
  0
VERTEX
  8
W77LXLIFT
 62
7
 10
1649.005
 20
-5780.964
 30
-2299.066
 70
    32
  0
VERTEX
  8
W77LXLIFT
 62
7
 10
1662.652
 20
-5772.082
 30
-2298.763
 70
    32
  0
SEQEND
  8
W77LXLIFT
  0
POLYLINE
  8
W77LXLIFT
 62
6
 66
     1
 70
     9
  0
VERTEX
  8
W77LXLIFT
 62
6
 10
1957.774
 20
-6350.762
 30
-2370.963
 70
    32
  0
VERTEX
  8
W77LXLIFT
 62
6
 10
1956.431
 20
-6348.613
 30
-2370.609
 70
    32
  0
VERTEX
  8
W77LXLIFT
 62
6
 10
1954.144
 20
-6344.954
 30
-2369.855
 70
    32
  0
VERTEX
  8
W77LXLIFT
 62
6
 10
1953.188
 20
-6343.425
 30
-2370.444
 70
    32
  0
VERTEX
  8
W77LXLIFT
 62
6
 10
1952.433
 20
-6342.719
 30
-2370.782
 70
    32
  0
VERTEX
  8
W77LXLIFT
 62
6
 10
1949.616
 20
-6340.084
 30
-2372.296
 70
    32
  0
VERTEX
  8
W77LXLIFT
 62
6
 10
1945.660
 20
-6336.384
 30
-2372.770
 70
    32
  0
VERTEX
  8
W77LXLIFT
 62
6
 10
1944.681
 20
-6335.065
 30
-2372.913
 70
    32
  0
VERTEX
  8
W77LXLIFT
 62
6
 10
1938.493
 20
-6326.731
 30
-2373.809
 70
    32
  0
VERTEX
  8
W77LXLIFT
 62
6
 10
1929.263
 20
-6325.468
 30
-2374.420
 70
    32
  0
VERTEX
  8
W77LXLIFT
 62
6
 10
1926.684
 20
-6323.439
 30
-2374.699
 70
    32
  0
VERTEX
  8
W77LXLIFT
 62
6
 10
1925.981
 20
-6322.886
 30
-2374.701
 70
    32
  0
VERTEX
  8
W77LXLIFT
 62
6
 10
1922.046
 20
-6319.790
 30
-2374.695
 70
    32
  0
VERTEX
  8
W77LXLIFT
 62
6
 10
1919.568
 20
-6308.677
 30
-2374.682
 70
    32
  0
VERTEX
  8
W77LXLIFT
 62
6
 10
1914.796
 20
-6305.704
 30
-2374.677
 70
    32
  0
VERTEX
  8
W77LXLIFT
 62
6
 10
1909.459
 20
-6302.379
 30
-2374.767
 70
    32
  0
VERTEX
  8
W77LXLIFT
 62
6
 10
1903.922
 20
-6298.930
 30
-2374.850
 70
    32
  0
VERTEX
  8
W77LXLIFT
 62
6
 10
1894.269
 20
-6296.351
 30
-2374.958
 70
    32
  0
VERTEX
  8
W77LXLIFT
 62
6
 10
1891.656
 20
-6288.411
 30
-2375.065
 70
    32
  0
VERTEX
  8
W77LXLIFT
 62
6
 10
1890.869
 20
-6286.021
 30
-2375.064
 70
    32
  0
VERTEX
  8
W77LXLIFT
 62
6
 10
1881.550
 20
-6265.345
 30
-2375.061
 70
    32
  0
VERTEX
  8
W77LXLIFT
 62
6
 10
1884.203
 20
-6259.184
 30
-2375.056
 70
    32
  0
VERTEX
  8
W77LXLIFT
 62
6
 10
1880.300
 20
-6248.855
 30
-2375.054
 70
    32
  0
VERTEX
  8
W77LXLIFT
 62
6
 10
1877.831
 20
-6242.320
 30
-2375.056
 70
    32
  0
VERTEX
  8
W77LXLIFT
 62
6
 10
1891.757
 20
-6235.430
 30
-2375.056
 70
    32
  0
VERTEX
  8
W77LXLIFT
 62
6
 10
1907.498
 20
-6267.243
 30
-2375.047
 70
    32
  0
VERTEX
  8
W77LXLIFT
 62
6
 10
1908.533
 20
-6268.483
 30
-2375.046
 70
    32
  0
VERTEX
  8
W77LXLIFT
 62
6
 10
1912.869
 20
-6273.679
 30
-2375.046
 70
    32
  0
VERTEX
  8
W77LXLIFT
 62
6
 10
1914.025
 20
-6275.064
 30
-2375.022
 70
    32
  0
VERTEX
  8
W77LXLIFT
 62
6
 10
1923.700
 20
-6286.656
 30
-2374.796
 70
    32
  0
VERTEX
  8
W77LXLIFT
 62
6
 10
1929.681
 20
-6292.645
 30
-2374.670
 70
    32
  0
VERTEX
  8
W77LXLIFT
 62
6
 10
1931.188
 20
-6294.155
 30
-2374.673
 70
    32
  0
VERTEX
  8
W77LXLIFT
 62
6
 10
1938.113
 20
-6301.090
 30
-2374.660
 70
    32
  0
VERTEX
  8
W77LXLIFT
 62
6
 10
1943.998
 20
-6308.956
 30
-2374.651
 70
    32
  0
VERTEX
  8
W77LXLIFT
 62
6
 10
1944.919
 20
-6310.187
 30
-2374.518
 70
    32
  0
VERTEX
  8
W77LXLIFT
 62
6
 10
1949.806
 20
-6316.720
 30
-2373.805
 70
    32
  0
VERTEX
  8
W77LXLIFT
 62
6
 10
1960.051
 20
-6330.633
 30
-2372.296
 70
    32
  0
VERTEX
  8
W77LXLIFT
 62
6
 10
1960.593
 20
-6331.369
 30
-2371.938
 70
    32
  0
VERTEX
  8
W77LXLIFT
 62
6
 10
1962.544
 20
-6334.019
 30
-2370.855
 70
    32
  0
VERTEX
  8
W77LXLIFT
 62
6
 10
1966.715
 20
-6337.163
 30
-2369.180
 70
    32
  0
VERTEX
  8
W77LXLIFT
 62
6
 10
1967.390
 20
-6337.672
 30
-2369.304
 70
    32
  0
VERTEX
  8
W77LXLIFT
 62
6
 10
1969.335
 20
-6344.515
 30
-2370.590
 70
    32
  0
VERTEX
  8
W77LXLIFT
 62
6
 10
1973.155
 20
-6348.004
 30
-2371.396
 70
    32
  0
VERTEX
  8
W77LXLIFT
 62
6
 10
1957.774
 20
-6350.762
 30
-2370.963
 70
    32
  0
SEQEND
  8
W77LXLIFT
  0
POLYLINE
  8
W77LXLIFT
 62
8
 66
     1
 70
     9
  0
VERTEX
  8
W77LXLIFT
 62
8
 10
1889.229
 20
-6325.372
 30
-2360.000
 70
    32
  0
VERTEX
  8
W77LXLIFT
 62
8
 10
1885.747
 20
-6308.086
 30
-2359.000
 70
    32
  0
VERTEX
  8
W77LXLIFT
 62
8
 10
1884.659
 20
-6294.798
 30
-2360.416
 70
    32
  0
VERTEX
  8
W77LXLIFT
 62
8
 10
1887.447
 20
-6293.573
 30
-2360.398
 70
    32
  0
VERTEX
  8
W77LXLIFT
 62
8
 10
1894.216
 20
-6290.598
 30
-2360.237
 70
    32
  0
VERTEX
  8
W77LXLIFT
 62
8
 10
1895.601
 20
-6289.989
 30
-2360.267
 70
    32
  0
VERTEX
  8
W77LXLIFT
 62
8
 10
1903.128
 20
-6292.639
 30
-2360.986
 70
    32
  0
VERTEX
  8
W77LXLIFT
 62
8
 10
1909.062
 20
-6297.944
 30
-2361.856
 70
    32
  0
VERTEX
  8
W77LXLIFT
 62
8
 10
1910.557
 20
-6299.280
 30
-2362.043
 70
    32
  0
VERTEX
  8
W77LXLIFT
 62
8
 10
1913.037
 20
-6304.680
 30
-2362.633
 70
    32
  0
VERTEX
  8
W77LXLIFT
 62
8
 10
1914.320
 20
-6307.473
 30
-2362.078
 70
    32
  0
VERTEX
  8
W77LXLIFT
 62
8
 10
1914.018
 20
-6314.188
 30
-2361.205
 70
    32
  0
VERTEX
  8
W77LXLIFT
 62
8
 10
1921.920
 20
-6330.557
 30
-2358.666
 70
    32
  0
VERTEX
  8
W77LXLIFT
 62
8
 10
1928.474
 20
-6339.308
 30
-2360.000
 70
    32
  0
VERTEX
  8
W77LXLIFT
 62
8
 10
1930.221
 20
-6341.870
 30
-2360.000
 70
    32
  0
VERTEX
  8
W77LXLIFT
 62
8
 10
1940.422
 20
-6334.997
 30
-2360.000
 70
    32
  0
VERTEX
  8
W77LXLIFT
 62
8
 10
1939.156
 20
-6332.159
 30
-2360.000
 70
    32
  0
VERTEX
  8
W77LXLIFT
 62
8
 10
1939.387
 20
-6322.966
 30
-2360.150
 70
    32
  0
VERTEX
  8
W77LXLIFT
 62
8
 10
1937.607
 20
-6312.866
 30
-2360.150
 70
    32
  0
VERTEX
  8
W77LXLIFT
 62
8
 10
1937.211
 20
-6310.622
 30
-2360.460
 70
    32
  0
VERTEX
  8
W77LXLIFT
 62
8
 10
1942.353
 20
-6301.818
 30
-2361.336
 70
    32
  0
VERTEX
  8
W77LXLIFT
 62
8
 10
1936.539
 20
-6297.170
 30
-2362.232
 70
    32
  0
VERTEX
  8
W77LXLIFT
 62
8
 10
1934.800
 20
-6295.779
 30
-2362.511
 70
    32
  0
VERTEX
  8
W77LXLIFT
 62
8
 10
1933.278
 20
-6294.562
 30
-2362.640
 70
    32
  0
VERTEX
  8
W77LXLIFT
 62
8
 10
1932.694
 20
-6294.095
 30
-2362.640
 70
    32
  0
VERTEX
  8
W77LXLIFT
 62
8
 10
1932.148
 20
-6293.659
 30
-2362.576
 70
    32
  0
VERTEX
  8
W77LXLIFT
 62
8
 10
1931.676
 20
-6293.282
 30
-2362.521
 70
    32
  0
VERTEX
  8
W77LXLIFT
 62
8
 10
1925.071
 20
-6279.468
 30
-2361.001
 70
    32
  0
VERTEX
  8
W77LXLIFT
 62
8
 10
1923.829
 20
-6276.869
 30
-2360.715
 70
    32
  0
VERTEX
  8
W77LXLIFT
 62
8
 10
1920.294
 20
-6271.767
 30
-2360.101
 70
    32
  0
VERTEX
  8
W77LXLIFT
 62
8
 10
1919.791
 20
-6271.042
 30
-2360.002
 70
    32
  0
VERTEX
  8
W77LXLIFT
 62
8
 10
1919.638
 20
-6270.820
 30
-2359.972
 70
    32
  0
VERTEX
  8
W77LXLIFT
 62
8
 10
1919.381
 20
-6270.450
 30
-2359.921
 70
    32
  0
VERTEX
  8
W77LXLIFT
 62
8
 10
1919.140
 20
-6270.102
 30
-2359.940
 70
    32
  0
VERTEX
  8
W77LXLIFT
 62
8
 10
1918.788
 20
-6269.593
 30
-2359.969
 70
    32
  0
VERTEX
  8
W77LXLIFT
 62
8
 10
1917.749
 20
-6268.094
 30
-2360.054
 70
    32
  0
VERTEX
  8
W77LXLIFT
 62
8
 10
1912.631
 20
-6268.569
 30
-2360.230
 70
    32
  0
VERTEX
  8
W77LXLIFT
 62
8
 10
1904.632
 20
-6269.312
 30
-2360.506
 70
    32
  0
VERTEX
  8
W77LXLIFT
 62
8
 10
1901.331
 20
-6264.744
 30
-2360.769
 70
    32
  0
VERTEX
  8
W77LXLIFT
 62
8
 10
1899.847
 20
-6262.690
 30
-2360.888
 70
    32
  0
VERTEX
  8
W77LXLIFT
 62
8
 10
1898.792
 20
-6261.231
 30
-2360.972
 70
    32
  0
VERTEX
  8
W77LXLIFT
 62
8
 10
1898.193
 20
-6260.402
 30
-2360.985
 70
    32
  0
VERTEX
  8
W77LXLIFT
 62
8
 10
1896.956
 20
-6258.690
 30
-2361.011
 70
    32
  0
VERTEX
  8
W77LXLIFT
 62
8
 10
1896.169
 20
-6257.600
 30
-2361.027
 70
    32
  0
VERTEX
  8
W77LXLIFT
 62
8
 10
1896.131
 20
-6257.548
 30
-2361.039
 70
    32
  0
VERTEX
  8
W77LXLIFT
 62
8
 10
1895.886
 20
-6257.209
 30
-2361.118
 70
    32
  0
VERTEX
  8
W77LXLIFT
 62
8
 10
1894.727
 20
-6255.391
 30
-2361.526
 70
    32
  0
VERTEX
  8
W77LXLIFT
 62
8
 10
1894.201
 20
-6254.567
 30
-2361.711
 70
    32
  0
VERTEX
  8
W77LXLIFT
 62
8
 10
1892.677
 20
-6252.175
 30
-2362.248
 70
    32
  0
VERTEX
  8
W77LXLIFT
 62
8
 10
1892.564
 20
-6251.999
 30
-2362.288
 70
    32
  0
VERTEX
  8
W77LXLIFT
 62
8
 10
1891.796
 20
-6250.795
 30
-2362.663
 70
    32
  0
VERTEX
  8
W77LXLIFT
 62
8
 10
1891.204
 20
-6249.865
 30
-2362.545
 70
    32
  0
VERTEX
  8
W77LXLIFT
 62
8
 10
1890.431
 20
-6248.654
 30
-2362.390
 70
    32
  0
VERTEX
  8
W77LXLIFT
 62
8
 10
1888.681
 20
-6245.910
 30
-2361.962
 70
    32
  0
VERTEX
  8
W77LXLIFT
 62
8
 10
1887.457
 20
-6243.989
 30
-2361.663
 70
    32
  0
VERTEX
  8
W77LXLIFT
 62
8
 10
1887.388
 20
-6243.881
 30
-2361.646
 70
    32
  0
VERTEX
  8
W77LXLIFT
 62
8
 10
1887.292
 20
-6243.650
 30
-2361.612
 70
    32
  0
VERTEX
  8
W77LXLIFT
 62
8
 10
1887.107
 20
-6243.202
 30
-2361.618
 70
    32
  0
VERTEX
  8
W77LXLIFT
 62
8
 10
1886.778
 20
-6242.408
 30
-2361.628
 70
    32
  0
VERTEX
  8
W77LXLIFT
 62
8
 10
1886.722
 20
-6242.271
 30
-2361.626
 70
    32
  0
VERTEX
  8
W77LXLIFT
 62
8
 10
1884.394
 20
-6236.646
 30
-2361.522
 70
    32
  0
VERTEX
  8
W77LXLIFT
 62
8
 10
1882.776
 20
-6232.735
 30
-2361.522
 70
    32
  0
VERTEX
  8
W77LXLIFT
 62
8
 10
1880.490
 20
-6231.724
 30
-2361.521
 70
    32
  0
VERTEX
  8
W77LXLIFT
 62
8
 10
1878.949
 20
-6228.753
 30
-2361.520
 70
    32
  0
VERTEX
  8
W77LXLIFT
 62
8
 10
1877.739
 20
-6226.422
 30
-2361.519
 70
    32
  0
VERTEX
  8
W77LXLIFT
 62
8
 10
1870.418
 20
-6215.645
 30
-2361.511
 70
    32
  0
VERTEX
  8
W77LXLIFT
 62
8
 10
1866.053
 20
-6209.140
 30
-2361.500
 70
    32
  0
VERTEX
  8
W77LXLIFT
 62
8
 10
1856.297
 20
-6212.762
 30
-2361.500
 70
    32
  0
VERTEX
  8
W77LXLIFT
 62
8
 10
1858.825
 20
-6222.526
 30
-2361.511
 70
    32
  0
VERTEX
  8
W77LXLIFT
 62
8
 10
1861.209
 20
-6231.870
 30
-2361.512
 70
    32
  0
VERTEX
  8
W77LXLIFT
 62
8
 10
1863.787
 20
-6240.101
 30
-2361.512
 70
    32
  0
VERTEX
  8
W77LXLIFT
 62
8
 10
1862.481
 20
-6243.852
 30
-2361.512
 70
    32
  0
VERTEX
  8
W77LXLIFT
 62
8
 10
1862.392
 20
-6244.105
 30
-2361.511
 70
    32
  0
VERTEX
  8
W77LXLIFT
 62
8
 10
1861.641
 20
-6246.263
 30
-2361.541
 70
    32
  0
VERTEX
  8
W77LXLIFT
 62
8
 10
1861.637
 20
-6246.274
 30
-2361.541
 70
    32
  0
VERTEX
  8
W77LXLIFT
 62
8
 10
1861.591
 20
-6246.406
 30
-2361.539
 70
    32
  0
VERTEX
  8
W77LXLIFT
 62
8
 10
1863.280
 20
-6251.881
 30
-2361.468
 70
    32
  0
VERTEX
  8
W77LXLIFT
 62
8
 10
1863.516
 20
-6252.645
 30
-2361.575
 70
    32
  0
VERTEX
  8
W77LXLIFT
 62
8
 10
1863.792
 20
-6253.539
 30
-2361.700
 70
    32
  0
VERTEX
  8
W77LXLIFT
 62
8
 10
1863.942
 20
-6254.026
 30
-2361.755
 70
    32
  0
VERTEX
  8
W77LXLIFT
 62
8
 10
1864.268
 20
-6255.081
 30
-2361.875
 70
    32
  0
VERTEX
  8
W77LXLIFT
 62
8
 10
1866.421
 20
-6262.057
 30
-2362.663
 70
    32
  0
VERTEX
  8
W77LXLIFT
 62
8
 10
1860.434
 20
-6266.771
 30
-2362.867
 70
    32
  0
VERTEX
  8
W77LXLIFT
 62
8
 10
1862.508
 20
-6268.408
 30
-2363.122
 70
    32
  0
VERTEX
  8
W77LXLIFT
 62
8
 10
1863.574
 20
-6269.249
 30
-2363.252
 70
    32
  0
VERTEX
  8
W77LXLIFT
 62
8
 10
1863.835
 20
-6269.454
 30
-2363.167
 70
    32
  0
VERTEX
  8
W77LXLIFT
 62
8
 10
1864.110
 20
-6269.672
 30
-2363.078
 70
    32
  0
VERTEX
  8
W77LXLIFT
 62
8
 10
1864.865
 20
-6270.267
 30
-2362.833
 70
    32
  0
VERTEX
  8
W77LXLIFT
 62
8
 10
1868.388
 20
-6273.047
 30
-2361.687
 70
    32
  0
VERTEX
  8
W77LXLIFT
 62
8
 10
1869.379
 20
-6273.367
 30
-2361.462
 70
    32
  0
VERTEX
  8
W77LXLIFT
 62
8
 10
1871.438
 20
-6274.030
 30
-2360.996
 70
    32
  0
VERTEX
  8
W77LXLIFT
 62
8
 10
1871.540
 20
-6274.063
 30
-2360.972
 70
    32
  0
VERTEX
  8
W77LXLIFT
 62
8
 10
1872.259
 20
-6274.295
 30
-2360.861
 70
    32
  0
VERTEX
  8
W77LXLIFT
 62
8
 10
1872.421
 20
-6274.629
 30
-2360.792
 70
    32
  0
VERTEX
  8
W77LXLIFT
 62
8
 10
1872.596
 20
-6274.990
 30
-2360.716
 70
    32
  0
VERTEX
  8
W77LXLIFT
 62
8
 10
1872.713
 20
-6275.232
 30
-2360.713
 70
    32
  0
VERTEX
  8
W77LXLIFT
 62
8
 10
1875.488
 20
-6281.105
 30
-2360.589
 70
    32
  0
VERTEX
  8
W77LXLIFT
 62
8
 10
1875.538
 20
-6289.066
 30
-2359.000
 70
    32
  0
VERTEX
  8
W77LXLIFT
 62
8
 10
1875.441
 20
-6299.150
 30
-2359.000
 70
    32
  0
VERTEX
  8
W77LXLIFT
 62
8
 10
1876.229
 20
-6305.107
 30
-2359.000
 70
    32
  0
VERTEX
  8
W77LXLIFT
 62
8
 10
1872.106
 20
-6309.660
 30
-2359.000
 70
    32
  0
VERTEX
  8
W77LXLIFT
 62
8
 10
1872.092
 20
-6309.695
 30
-2360.000
 70
    32
  0
VERTEX
  8
W77LXLIFT
 62
8
 10
1872.972
 20
-6311.958
 30
-2360.000
 70
    32
  0
VERTEX
  8
W77LXLIFT
 62
8
 10
1871.502
 20
-6317.349
 30
-2360.000
 70
    32
  0
VERTEX
  8
W77LXLIFT
 62
8
 10
1878.213
 20
-6333.242
 30
-2360.000
 70
    32
  0
VERTEX
  8
W77LXLIFT
 62
8
 10
1885.370
 20
-6348.975
 30
-2360.000
 70
    32
  0
VERTEX
  8
W77LXLIFT
 62
8
 10
1890.735
 20
-6353.556
 30
-2360.000
 70
    32
  0
VERTEX
  8
W77LXLIFT
 62
8
 10
1903.846
 20
-6371.152
 30
-2360.000
 70
    32
  0
VERTEX
  8
W77LXLIFT
 62
8
 10
1909.197
 20
-6385.853
 30
-2360.000
 70
    32
  0
VERTEX
  8
W77LXLIFT
 62
8
 10
1917.182
 20
-6398.421
 30
-2360.000
 70
    32
  0
VERTEX
  8
W77LXLIFT
 62
8
 10
1928.314
 20
-6392.735
 30
-2360.000
 70
    32
  0
VERTEX
  8
W77LXLIFT
 62
8
 10
1919.679
 20
-6374.750
 30
-2360.000
 70
    32
  0
VERTEX
  8
W77LXLIFT
 62
8
 10
1919.388
 20
-6368.484
 30
-2360.000
 70
    32
  0
VERTEX
  8
W77LXLIFT
 62
8
 10
1912.197
 20
-6359.964
 30
-2360.000
 70
    32
  0
VERTEX
  8
W77LXLIFT
 62
8
 10
1902.677
 20
-6349.846
 30
-2360.000
 70
    32
  0
VERTEX
  8
W77LXLIFT
 62
8
 10
1889.229
 20
-6325.372
 30
-2360.000
 70
    32
  0
SEQEND
  8
W77LXLIFT
  0
POLYLINE
  8
W77LXLIFT
 62
2
 66
     1
 70
     9
  0
VERTEX
  8
W77LXLIFT
 62
2
 10
1917.342
 20
-6309.029
 30
-2359.901
 70
    32
  0
VERTEX
  8
W77LXLIFT
 62
2
 10
1908.157
 20
-6298.633
 30
-2359.901
 70
    32
  0
VERTEX
  8
W77LXLIFT
 62
2
 10
1899.271
 20
-6291.172
 30
-2359.901
 70
    32
  0
VERTEX
  8
W77LXLIFT
 62
2
 10
1899.458
 20
-6289.068
 30
-2359.901
 70
    32
  0
VERTEX
  8
W77LXLIFT
 62
2
 10
1888.676
 20
-6281.523
 30
-2359.901
 70
    32
  0
VERTEX
  8
W77LXLIFT
 62
2
 10
1885.976
 20
-6279.163
 30
-2359.901
 70
    32
  0
VERTEX
  8
W77LXLIFT
 62
2
 10
1885.938
 20
-6276.716
 30
-2359.901
 70
    32
  0
VERTEX
  8
W77LXLIFT
 62
2
 10
1889.572
 20
-6273.168
 30
-2359.901
 70
    32
  0
VERTEX
  8
W77LXLIFT
 62
2
 10
1900.265
 20
-6269.039
 30
-2359.901
 70
    32
  0
VERTEX
  8
W77LXLIFT
 62
2
 10
1906.053
 20
-6271.902
 30
-2359.901
 70
    32
  0
VERTEX
  8
W77LXLIFT
 62
2
 10
1911.462
 20
-6272.314
 30
-2359.901
 70
    32
  0
VERTEX
  8
W77LXLIFT
 62
2
 10
1915.377
 20
-6274.894
 30
-2359.901
 70
    32
  0
VERTEX
  8
W77LXLIFT
 62
2
 10
1922.079
 20
-6281.911
 30
-2359.901
 70
    32
  0
VERTEX
  8
W77LXLIFT
 62
2
 10
1926.432
 20
-6285.122
 30
-2359.901
 70
    32
  0
VERTEX
  8
W77LXLIFT
 62
2
 10
1929.301
 20
-6289.848
 30
-2359.901
 70
    32
  0
VERTEX
  8
W77LXLIFT
 62
2
 10
1931.602
 20
-6294.552
 30
-2359.901
 70
    32
  0
VERTEX
  8
W77LXLIFT
 62
2
 10
1932.304
 20
-6298.174
 30
-2359.901
 70
    32
  0
VERTEX
  8
W77LXLIFT
 62
2
 10
1934.179
 20
-6302.336
 30
-2359.901
 70
    32
  0
VERTEX
  8
W77LXLIFT
 62
2
 10
1936.798
 20
-6305.132
 30
-2359.901
 70
    32
  0
VERTEX
  8
W77LXLIFT
 62
2
 10
1935.484
 20
-6313.795
 30
-2359.901
 70
    32
  0
VERTEX
  8
W77LXLIFT
 62
2
 10
1936.224
 20
-6317.785
 30
-2359.901
 70
    32
  0
VERTEX
  8
W77LXLIFT
 62
2
 10
1937.929
 20
-6321.334
 30
-2359.901
 70
    32
  0
VERTEX
  8
W77LXLIFT
 62
2
 10
1937.035
 20
-6323.600
 30
-2359.901
 70
    32
  0
VERTEX
  8
W77LXLIFT
 62
2
 10
1934.828
 20
-6323.243
 30
-2359.901
 70
    32
  0
VERTEX
  8
W77LXLIFT
 62
2
 10
1934.168
 20
-6332.395
 30
-2359.901
 70
    32
  0
VERTEX
  8
W77LXLIFT
 62
2
 10
1931.322
 20
-6331.859
 30
-2359.901
 70
    32
  0
VERTEX
  8
W77LXLIFT
 62
2
 10
1929.735
 20
-6333.819
 30
-2359.901
 70
    32
  0
VERTEX
  8
W77LXLIFT
 62
2
 10
1928.026
 20
-6332.212
 30
-2359.901
 70
    32
  0
VERTEX
  8
W77LXLIFT
 62
2
 10
1925.858
 20
-6331.429
 30
-2359.901
 70
    32
  0
SEQEND
  8
W77LXLIFT
  0
POLYLINE
  8
W77LXLIFT
 62
2
 66
     1
 70
     9
  0
VERTEX
  8
W77LXLIFT
 62
2
 10
1936.110
 20
-6309.266
 30
-2354.830
 70
    32
  0
VERTEX
  8
W77LXLIFT
 62
2
 10
1928.396
 20
-6315.073
 30
-2354.830
 70
    32
  0
VERTEX
  8
W77LXLIFT
 62
2
 10
1925.064
 20
-6314.140
 30
-2354.830
 70
    32
  0
VERTEX
  8
W77LXLIFT
 62
2
 10
1919.486
 20
-6309.855
 30
-2354.830
 70
    32
  0
VERTEX
  8
W77LXLIFT
 62
2
 10
1912.891
 20
-6305.257
 30
-2354.830
 70
    32
  0
VERTEX
  8
W77LXLIFT
 62
2
 10
1904.139
 20
-6295.135
 30
-2354.830
 70
    32
  0
VERTEX
  8
W77LXLIFT
 62
2
 10
1893.384
 20
-6284.860
 30
-2354.830
 70
    32
  0
VERTEX
  8
W77LXLIFT
 62
2
 10
1887.219
 20
-6279.748
 30
-2354.830
 70
    32
  0
VERTEX
  8
W77LXLIFT
 62
2
 10
1888.082
 20
-6278.283
 30
-2354.830
 70
    32
  0
VERTEX
  8
W77LXLIFT
 62
2
 10
1894.758
 20
-6274.193
 30
-2354.830
 70
    32
  0
VERTEX
  8
W77LXLIFT
 62
2
 10
1898.928
 20
-6271.075
 30
-2354.830
 70
    32
  0
VERTEX
  8
W77LXLIFT
 62
2
 10
1899.776
 20
-6271.136
 30
-2354.830
 70
    32
  0
VERTEX
  8
W77LXLIFT
 62
2
 10
1905.046
 20
-6273.374
 30
-2354.830
 70
    32
  0
VERTEX
  8
W77LXLIFT
 62
2
 10
1907.121
 20
-6274.006
 30
-2354.830
 70
    32
  0
VERTEX
  8
W77LXLIFT
 62
2
 10
1911.503
 20
-6276.126
 30
-2354.830
 70
    32
  0
VERTEX
  8
W77LXLIFT
 62
2
 10
1915.842
 20
-6280.348
 30
-2354.830
 70
    32
  0
VERTEX
  8
W77LXLIFT
 62
2
 10
1919.764
 20
-6282.572
 30
-2354.830
 70
    32
  0
VERTEX
  8
W77LXLIFT
 62
2
 10
1922.135
 20
-6285.029
 30
-2354.830
 70
    32
  0
VERTEX
  8
W77LXLIFT
 62
2
 10
1923.738
 20
-6285.212
 30
-2354.830
 70
    32
  0
VERTEX
  8
W77LXLIFT
 62
2
 10
1925.868
 20
-6287.913
 30
-2354.830
 70
    32
  0
VERTEX
  8
W77LXLIFT
 62
2
 10
1926.420
 20
-6290.129
 30
-2354.830
 70
    32
  0
VERTEX
  8
W77LXLIFT
 62
2
 10
1929.081
 20
-6292.721
 30
-2354.830
 70
    32
  0
VERTEX
  8
W77LXLIFT
 62
2
 10
1930.562
 20
-6300.019
 30
-2354.830
 70
    32
  0
VERTEX
  8
W77LXLIFT
 62
2
 10
1932.631
 20
-6301.941
 30
-2354.830
 70
    32
  0
VERTEX
  8
W77LXLIFT
 62
2
 10
1934.620
 20
-6305.029
 30
-2354.830
 70
    32
  0
SEQEND
  8
W77LXLIFT
  0
POLYLINE
  8
W77LXLIFT
 62
2
 66
     1
 70
     9
  0
VERTEX
  8
W77LXLIFT
 62
2
 10
1935.287
 20
-6310.458
 30
-2349.759
 70
    32
  0
VERTEX
  8
W77LXLIFT
 62
2
 10
1926.910
 20
-6315.544
 30
-2349.759
 70
    32
  0
VERTEX
  8
W77LXLIFT
 62
2
 10
1924.502
 20
-6314.189
 30
-2349.759
 70
    32
  0
VERTEX
  8
W77LXLIFT
 62
2
 10
1922.330
 20
-6314.002
 30
-2349.759
 70
    32
  0
VERTEX
  8
W77LXLIFT
 62
2
 10
1918.245
 20
-6310.851
 30
-2349.759
 70
    32
  0
VERTEX
  8
W77LXLIFT
 62
2
 10
1917.248
 20
-6310.999
 30
-2349.759
 70
    32
  0
VERTEX
  8
W77LXLIFT
 62
2
 10
1909.019
 20
-6303.529
 30
-2349.759
 70
    32
  0
VERTEX
  8
W77LXLIFT
 62
2
 10
1905.289
 20
-6297.078
 30
-2349.759
 70
    32
  0
VERTEX
  8
W77LXLIFT
 62
2
 10
1900.786
 20
-6292.944
 30
-2349.759
 70
    32
  0
VERTEX
  8
W77LXLIFT
 62
2
 10
1895.872
 20
-6288.420
 30
-2349.759
 70
    32
  0
VERTEX
  8
W77LXLIFT
 62
2
 10
1892.698
 20
-6284.137
 30
-2349.759
 70
    32
  0
VERTEX
  8
W77LXLIFT
 62
2
 10
1886.908
 20
-6279.538
 30
-2349.759
 70
    32
  0
VERTEX
  8
W77LXLIFT
 62
2
 10
1887.977
 20
-6278.115
 30
-2349.759
 70
    32
  0
VERTEX
  8
W77LXLIFT
 62
2
 10
1893.363
 20
-6275.480
 30
-2349.759
 70
    32
  0
VERTEX
  8
W77LXLIFT
 62
2
 10
1898.072
 20
-6271.493
 30
-2349.759
 70
    32
  0
VERTEX
  8
W77LXLIFT
 62
2
 10
1907.498
 20
-6275.404
 30
-2349.759
 70
    32
  0
VERTEX
  8
W77LXLIFT
 62
2
 10
1911.763
 20
-6278.094
 30
-2349.759
 70
    32
  0
VERTEX
  8
W77LXLIFT
 62
2
 10
1913.834
 20
-6278.994
 30
-2349.759
 70
    32
  0
VERTEX
  8
W77LXLIFT
 62
2
 10
1916.693
 20
-6282.117
 30
-2349.759
 70
    32
  0
VERTEX
  8
W77LXLIFT
 62
2
 10
1918.725
 20
-6283.626
 30
-2349.759
 70
    32
  0
VERTEX
  8
W77LXLIFT
 62
2
 10
1921.104
 20
-6284.482
 30
-2349.759
 70
    32
  0
VERTEX
  8
W77LXLIFT
 62
2
 10
1925.105
 20
-6289.259
 30
-2349.759
 70
    32
  0
VERTEX
  8
W77LXLIFT
 62
2
 10
1928.593
 20
-6295.718
 30
-2349.759
 70
    32
  0
VERTEX
  8
W77LXLIFT
 62
2
 10
1930.163
 20
-6301.251
 30
-2349.759
 70
    32
  0
VERTEX
  8
W77LXLIFT
 62
2
 10
1932.171
 20
-6305.749
 30
-2349.759
 70
    32
  0
VERTEX
  8
W77LXLIFT
 62
2
 10
1933.631
 20
-6306.231
 30
-2349.759
 70
    32
  0
SEQEND
  8
W77LXLIFT
  0
POLYLINE
  8
W77LXLIFT
 62
2
 66
     1
 70
     9
  0
VERTEX
  8
W77LXLIFT
 62
2
 10
1934.576
 20
-6311.727
 30
-2344.688
 70
    32
  0
VERTEX
  8
W77LXLIFT
 62
2
 10
1926.630
 20
-6316.261
 30
-2344.688
 70
    32
  0
VERTEX
  8
W77LXLIFT
 62
2
 10
1923.563
 20
-6315.423
 30
-2344.688
 70
    32
  0
VERTEX
  8
W77LXLIFT
 62
2
 10
1921.131
 20
-6315.294
 30
-2344.688
 70
    32
  0
VERTEX
  8
W77LXLIFT
 62
2
 10
1912.711
 20
-6310.318
 30
-2344.688
 70
    32
  0
VERTEX
  8
W77LXLIFT
 62
2
 10
1908.492
 20
-6303.954
 30
-2344.688
 70
    32
  0
VERTEX
  8
W77LXLIFT
 62
2
 10
1905.021
 20
-6301.255
 30
-2344.688
 70
    32
  0
VERTEX
  8
W77LXLIFT
 62
2
 10
1903.194
 20
-6297.043
 30
-2344.688
 70
    32
  0
VERTEX
  8
W77LXLIFT
 62
2
 10
1888.715
 20
-6282.046
 30
-2344.688
 70
    32
  0
VERTEX
  8
W77LXLIFT
 62
2
 10
1887.061
 20
-6279.634
 30
-2344.688
 70
    32
  0
VERTEX
  8
W77LXLIFT
 62
2
 10
1894.432
 20
-6274.595
 30
-2344.688
 70
    32
  0
VERTEX
  8
W77LXLIFT
 62
2
 10
1897.268
 20
-6272.153
 30
-2344.688
 70
    32
  0
VERTEX
  8
W77LXLIFT
 62
2
 10
1900.231
 20
-6272.713
 30
-2344.688
 70
    32
  0
VERTEX
  8
W77LXLIFT
 62
2
 10
1909.468
 20
-6277.621
 30
-2344.688
 70
    32
  0
VERTEX
  8
W77LXLIFT
 62
2
 10
1916.208
 20
-6282.086
 30
-2344.688
 70
    32
  0
VERTEX
  8
W77LXLIFT
 62
2
 10
1919.351
 20
-6284.802
 30
-2344.688
 70
    32
  0
VERTEX
  8
W77LXLIFT
 62
2
 10
1923.862
 20
-6290.832
 30
-2344.688
 70
    32
  0
VERTEX
  8
W77LXLIFT
 62
2
 10
1926.382
 20
-6296.653
 30
-2344.688
 70
    32
  0
VERTEX
  8
W77LXLIFT
 62
2
 10
1931.096
 20
-6304.145
 30
-2344.688
 70
    32
  0
VERTEX
  8
W77LXLIFT
 62
2
 10
1934.184
 20
-6309.127
 30
-2344.688
 70
    32
  0
SEQEND
  8
W77LXLIFT
  0
POLYLINE
  8
W77LXLIFT
 62
2
 66
     1
 70
     9
  0
VERTEX
  8
W77LXLIFT
 62
2
 10
1934.745
 20
-6312.189
 30
-2339.617
 70
    32
  0
VERTEX
  8
W77LXLIFT
 62
2
 10
1927.622
 20
-6316.348
 30
-2339.617
 70
    32
  0
VERTEX
  8
W77LXLIFT
 62
2
 10
1923.902
 20
-6316.902
 30
-2339.617
 70
    32
  0
VERTEX
  8
W77LXLIFT
 62
2
 10
1916.103
 20
-6314.903
 30
-2339.617
 70
    32
  0
VERTEX
  8
W77LXLIFT
 62
2
 10
1909.934
 20
-6310.769
 30
-2339.617
 70
    32
  0
VERTEX
  8
W77LXLIFT
 62
2
 10
1906.696
 20
-6303.872
 30
-2339.617
 70
    32
  0
VERTEX
  8
W77LXLIFT
 62
2
 10
1903.126
 20
-6299.811
 30
-2339.617
 70
    32
  0
VERTEX
  8
W77LXLIFT
 62
2
 10
1898.104
 20
-6293.265
 30
-2339.617
 70
    32
  0
VERTEX
  8
W77LXLIFT
 62
2
 10
1892.071
 20
-6287.832
 30
-2339.617
 70
    32
  0
VERTEX
  8
W77LXLIFT
 62
2
 10
1885.731
 20
-6280.520
 30
-2339.617
 70
    32
  0
VERTEX
  8
W77LXLIFT
 62
2
 10
1890.409
 20
-6276.939
 30
-2339.617
 70
    32
  0
VERTEX
  8
W77LXLIFT
 62
2
 10
1896.199
 20
-6272.975
 30
-2339.617
 70
    32
  0
VERTEX
  8
W77LXLIFT
 62
2
 10
1897.560
 20
-6272.711
 30
-2339.617
 70
    32
  0
VERTEX
  8
W77LXLIFT
 62
2
 10
1904.576
 20
-6276.686
 30
-2339.617
 70
    32
  0
VERTEX
  8
W77LXLIFT
 62
2
 10
1910.473
 20
-6279.149
 30
-2339.617
 70
    32
  0
VERTEX
  8
W77LXLIFT
 62
2
 10
1916.711
 20
-6284.451
 30
-2339.617
 70
    32
  0
VERTEX
  8
W77LXLIFT
 62
2
 10
1924.158
 20
-6293.268
 30
-2339.617
 70
    32
  0
VERTEX
  8
W77LXLIFT
 62
2
 10
1926.509
 20
-6299.496
 30
-2339.617
 70
    32
  0
VERTEX
  8
W77LXLIFT
 62
2
 10
1931.241
 20
-6305.145
 30
-2339.617
 70
    32
  0
VERTEX
  8
W77LXLIFT
 62
2
 10
1934.434
 20
-6310.299
 30
-2339.617
 70
    32
  0
SEQEND
  8
W77LXLIFT
  0
POLYLINE
  8
W77LXLIFT
 62
2
 66
     1
 70
     9
  0
VERTEX
  8
W77LXLIFT
 62
2
 10
1934.680
 20
-6312.768
 30
-2334.546
 70
    32
  0
VERTEX
  8
W77LXLIFT
 62
2
 10
1925.100
 20
-6317.630
 30
-2334.546
 70
    32
  0
VERTEX
  8
W77LXLIFT
 62
2
 10
1922.321
 20
-6318.008
 30
-2334.546
 70
    32
  0
VERTEX
  8
W77LXLIFT
 62
2
 10
1917.637
 20
-6316.319
 30
-2334.546
 70
    32
  0
VERTEX
  8
W77LXLIFT
 62
2
 10
1916.336
 20
-6316.717
 30
-2334.546
 70
    32
  0
VERTEX
  8
W77LXLIFT
 62
2
 10
1914.268
 20
-6315.608
 30
-2334.546
 70
    32
  0
VERTEX
  8
W77LXLIFT
 62
2
 10
1913.989
 20
-6314.769
 30
-2334.546
 70
    32
  0
VERTEX
  8
W77LXLIFT
 62
2
 10
1912.268
 20
-6313.905
 30
-2334.546
 70
    32
  0
VERTEX
  8
W77LXLIFT
 62
2
 10
1908.896
 20
-6313.262
 30
-2334.546
 70
    32
  0
VERTEX
  8
W77LXLIFT
 62
2
 10
1906.868
 20
-6309.739
 30
-2334.546
 70
    32
  0
VERTEX
  8
W77LXLIFT
 62
2
 10
1906.690
 20
-6307.536
 30
-2334.546
 70
    32
  0
VERTEX
  8
W77LXLIFT
 62
2
 10
1904.398
 20
-6303.458
 30
-2334.546
 70
    32
  0
VERTEX
  8
W77LXLIFT
 62
2
 10
1902.592
 20
-6301.981
 30
-2334.546
 70
    32
  0
VERTEX
  8
W77LXLIFT
 62
2
 10
1899.140
 20
-6296.311
 30
-2334.546
 70
    32
  0
VERTEX
  8
W77LXLIFT
 62
2
 10
1894.317
 20
-6291.182
 30
-2334.546
 70
    32
  0
VERTEX
  8
W77LXLIFT
 62
2
 10
1889.617
 20
-6286.504
 30
-2334.546
 70
    32
  0
VERTEX
  8
W77LXLIFT
 62
2
 10
1885.712
 20
-6280.666
 30
-2334.546
 70
    32
  0
VERTEX
  8
W77LXLIFT
 62
2
 10
1891.657
 20
-6275.523
 30
-2334.546
 70
    32
  0
VERTEX
  8
W77LXLIFT
 62
2
 10
1895.624
 20
-6273.615
 30
-2334.546
 70
    32
  0
VERTEX
  8
W77LXLIFT
 62
2
 10
1898.056
 20
-6273.583
 30
-2334.546
 70
    32
  0
VERTEX
  8
W77LXLIFT
 62
2
 10
1902.238
 20
-6276.025
 30
-2334.546
 70
    32
  0
VERTEX
  8
W77LXLIFT
 62
2
 10
1907.993
 20
-6279.041
 30
-2334.546
 70
    32
  0
VERTEX
  8
W77LXLIFT
 62
2
 10
1912.715
 20
-6282.074
 30
-2334.546
 70
    32
  0
VERTEX
  8
W77LXLIFT
 62
2
 10
1916.449
 20
-6287.238
 30
-2334.546
 70
    32
  0
VERTEX
  8
W77LXLIFT
 62
2
 10
1922.686
 20
-6292.620
 30
-2334.546
 70
    32
  0
VERTEX
  8
W77LXLIFT
 62
2
 10
1926.593
 20
-6300.852
 30
-2334.546
 70
    32
  0
VERTEX
  8
W77LXLIFT
 62
2
 10
1928.446
 20
-6303.823
 30
-2334.546
 70
    32
  0
VERTEX
  8
W77LXLIFT
 62
2
 10
1931.433
 20
-6307.749
 30
-2334.546
 70
    32
  0
VERTEX
  8
W77LXLIFT
 62
2
 10
1934.357
 20
-6310.828
 30
-2334.546
 70
    32
  0
SEQEND
  8
W77LXLIFT
  0
POLYLINE
  8
W77LXLIFT
 62
2
 66
     1
 70
     9
  0
VERTEX
  8
W77LXLIFT
 62
2
 10
1914.540
 20
-6317.641
 30
-2329.475
 70
    32
  0
VERTEX
  8
W77LXLIFT
 62
2
 10
1911.523
 20
-6314.340
 30
-2329.475
 70
    32
  0
VERTEX
  8
W77LXLIFT
 62
2
 10
1910.316
 20
-6313.748
 30
-2329.475
 70
    32
  0
VERTEX
  8
W77LXLIFT
 62
2
 10
1906.957
 20
-6314.595
 30
-2329.475
 70
    32
  0
VERTEX
  8
W77LXLIFT
 62
2
 10
1905.627
 20
-6309.387
 30
-2329.475
 70
    32
  0
VERTEX
  8
W77LXLIFT
 62
2
 10
1903.337
 20
-6304.107
 30
-2329.475
 70
    32
  0
VERTEX
  8
W77LXLIFT
 62
2
 10
1898.067
 20
-6297.399
 30
-2329.475
 70
    32
  0
VERTEX
  8
W77LXLIFT
 62
2
 10
1887.190
 20
-6284.631
 30
-2329.475
 70
    32
  0
VERTEX
  8
W77LXLIFT
 62
2
 10
1885.258
 20
-6280.600
 30
-2329.475
 70
    32
  0
VERTEX
  8
W77LXLIFT
 62
2
 10
1891.318
 20
-6275.589
 30
-2329.475
 70
    32
  0
VERTEX
  8
W77LXLIFT
 62
2
 10
1896.094
 20
-6273.794
 30
-2329.475
 70
    32
  0
VERTEX
  8
W77LXLIFT
 62
2
 10
1903.177
 20
-6277.921
 30
-2329.475
 70
    32
  0
VERTEX
  8
W77LXLIFT
 62
2
 10
1908.627
 20
-6280.704
 30
-2329.475
 70
    32
  0
VERTEX
  8
W77LXLIFT
 62
2
 10
1913.362
 20
-6286.387
 30
-2329.475
 70
    32
  0
VERTEX
  8
W77LXLIFT
 62
2
 10
1919.100
 20
-6291.562
 30
-2329.475
 70
    32
  0
VERTEX
  8
W77LXLIFT
 62
2
 10
1922.812
 20
-6294.716
 30
-2329.475
 70
    32
  0
VERTEX
  8
W77LXLIFT
 62
2
 10
1924.404
 20
-6300.030
 30
-2329.475
 70
    32
  0
VERTEX
  8
W77LXLIFT
 62
2
 10
1925.568
 20
-6304.796
 30
-2329.475
 70
    32
  0
VERTEX
  8
W77LXLIFT
 62
2
 10
1930.017
 20
-6307.812
 30
-2329.475
 70
    32
  0
VERTEX
  8
W77LXLIFT
 62
2
 10
1933.479
 20
-6310.544
 30
-2329.475
 70
    32
  0
VERTEX
  8
W77LXLIFT
 62
2
 10
1933.700
 20
-6313.131
 30
-2329.475
 70
    32
  0
VERTEX
  8
W77LXLIFT
 62
2
 10
1930.156
 20
-6315.195
 30
-2329.475
 70
    32
  0
VERTEX
  8
W77LXLIFT
 62
2
 10
1925.367
 20
-6316.941
 30
-2329.475
 70
    32
  0
VERTEX
  8
W77LXLIFT
 62
2
 10
1924.329
 20
-6318.259
 30
-2329.475
 70
    32
  0
VERTEX
  8
W77LXLIFT
 62
2
 10
1922.696
 20
-6317.483
 30
-2329.475
 70
    32
  0
VERTEX
  8
W77LXLIFT
 62
2
 10
1916.102
 20
-6316.752
 30
-2329.475
 70
    32
  0
SEQEND
  8
W77LXLIFT
  0
POLYLINE
  8
W77LXLIFT
 62
2
 66
     1
 70
     9
  0
VERTEX
  8
W77LXLIFT
 62
2
 10
1920.734
 20
-6304.717
 30
-2324.404
 70
    32
  0
VERTEX
  8
W77LXLIFT
 62
2
 10
1906.103
 20
-6298.719
 30
-2324.404
 70
    32
  0
VERTEX
  8
W77LXLIFT
 62
2
 10
1898.041
 20
-6297.624
 30
-2324.404
 70
    32
  0
VERTEX
  8
W77LXLIFT
 62
2
 10
1893.879
 20
-6294.552
 30
-2324.404
 70
    32
  0
VERTEX
  8
W77LXLIFT
 62
2
 10
1888.083
 20
-6287.327
 30
-2324.404
 70
    32
  0
VERTEX
  8
W77LXLIFT
 62
2
 10
1885.693
 20
-6283.838
 30
-2324.404
 70
    32
  0
VERTEX
  8
W77LXLIFT
 62
2
 10
1885.739
 20
-6281.094
 30
-2324.404
 70
    32
  0
VERTEX
  8
W77LXLIFT
 62
2
 10
1889.663
 20
-6278.929
 30
-2324.404
 70
    32
  0
VERTEX
  8
W77LXLIFT
 62
2
 10
1891.134
 20
-6276.843
 30
-2324.404
 70
    32
  0
VERTEX
  8
W77LXLIFT
 62
2
 10
1895.184
 20
-6274.554
 30
-2324.404
 70
    32
  0
VERTEX
  8
W77LXLIFT
 62
2
 10
1896.709
 20
-6274.721
 30
-2324.404
 70
    32
  0
VERTEX
  8
W77LXLIFT
 62
2
 10
1898.883
 20
-6277.520
 30
-2324.404
 70
    32
  0
VERTEX
  8
W77LXLIFT
 62
2
 10
1904.395
 20
-6279.523
 30
-2324.404
 70
    32
  0
VERTEX
  8
W77LXLIFT
 62
2
 10
1907.111
 20
-6282.428
 30
-2324.404
 70
    32
  0
VERTEX
  8
W77LXLIFT
 62
2
 10
1911.443
 20
-6287.823
 30
-2324.404
 70
    32
  0
VERTEX
  8
W77LXLIFT
 62
2
 10
1915.164
 20
-6291.124
 30
-2324.404
 70
    32
  0
VERTEX
  8
W77LXLIFT
 62
2
 10
1918.200
 20
-6294.540
 30
-2324.404
 70
    32
  0
VERTEX
  8
W77LXLIFT
 62
2
 10
1922.002
 20
-6295.605
 30
-2324.404
 70
    32
  0
VERTEX
  8
W77LXLIFT
 62
2
 10
1922.388
 20
-6303.439
 30
-2324.404
 70
    32
  0
SEQEND
  8
W77LXLIFT
  0
POLYLINE
  8
W77LXLIFT
 62
2
 66
     1
 70
     9
  0
VERTEX
  8
W77LXLIFT
 62
2
 10
1897.360
 20
-6281.182
 30
-2318.319
 70
    32
  0
VERTEX
  8
W77LXLIFT
 62
2
 10
1896.054
 20
-6282.998
 30
-2318.319
 70
    32
  0
VERTEX
  8
W77LXLIFT
 62
2
 10
1895.111
 20
-6286.400
 30
-2318.319
 70
    32
  0
VERTEX
  8
W77LXLIFT
 62
2
 10
1894.509
 20
-6286.952
 30
-2318.319
 70
    32
  0
VERTEX
  8
W77LXLIFT
 62
2
 10
1893.580
 20
-6288.663
 30
-2318.319
 70
    32
  0
VERTEX
  8
W77LXLIFT
 62
2
 10
1891.433
 20
-6290.086
 30
-2318.319
 70
    32
  0
VERTEX
  8
W77LXLIFT
 62
2
 10
1889.135
 20
-6288.579
 30
-2318.319
 70
    32
  0
VERTEX
  8
W77LXLIFT
 62
2
 10
1889.145
 20
-6287.066
 30
-2318.319
 70
    32
  0
VERTEX
  8
W77LXLIFT
 62
2
 10
1888.135
 20
-6285.662
 30
-2318.319
 70
    32
  0
VERTEX
  8
W77LXLIFT
 62
2
 10
1888.427
 20
-6282.952
 30
-2318.319
 70
    32
  0
VERTEX
  8
W77LXLIFT
 62
2
 10
1888.848
 20
-6282.270
 30
-2318.319
 70
    32
  0
VERTEX
  8
W77LXLIFT
 62
2
 10
1890.607
 20
-6281.094
 30
-2318.319
 70
    32
  0
VERTEX
  8
W77LXLIFT
 62
2
 10
1891.672
 20
-6281.380
 30
-2318.319
 70
    32
  0
VERTEX
  8
W77LXLIFT
 62
2
 10
1892.399
 20
-6280.661
 30
-2318.319
 70
    32
  0
VERTEX
  8
W77LXLIFT
 62
2
 10
1894.076
 20
-6280.604
 30
-2318.319
 70
    32
  0
VERTEX
  8
W77LXLIFT
 62
2
 10
1897.048
 20
-6281.020
 30
-2318.319
 70
    32
  0
SEQEND
  8
W77LXLIFT
  0
POLYLINE
  8
W77LXLIFT
 62
8
 66
     1
 70
     9
  0
VERTEX
  8
W77LXLIFT
 62
8
 10
2241.899
 20
-6984.776
 30
-2318.000
 70
    32
  0
VERTEX
  8
W77LXLIFT
 62
8
 10
2242.939
 20
-6976.994
 30
-2318.000
 70
    32
  0
VERTEX
  8
W77LXLIFT
 62
8
 10
2245.230
 20
-6974.488
 30
-2318.000
 70
    32
  0
VERTEX
  8
W77LXLIFT
 62
8
 10
2241.460
 20
-6960.187
 30
-2318.000
 70
    32
  0
VERTEX
  8
W77LXLIFT
 62
8
 10
2243.609
 20
-6953.929
 30
-2318.000
 70
    32
  0
VERTEX
  8
W77LXLIFT
 62
8
 10
2241.111
 20
-6944.598
 30
-2318.000
 70
    32
  0
VERTEX
  8
W77LXLIFT
 62
8
 10
2253.995
 20
-6939.018
 30
-2318.000
 70
    32
  0
VERTEX
  8
W77LXLIFT
 62
8
 10
2258.336
 20
-6954.610
 30
-2318.000
 70
    32
  0
VERTEX
  8
W77LXLIFT
 62
8
 10
2267.891
 20
-6972.163
 30
-2318.000
 70
    32
  0
VERTEX
  8
W77LXLIFT
 62
8
 10
2280.628
 20
-6987.351
 30
-2318.000
 70
    32
  0
VERTEX
  8
W77LXLIFT
 62
8
 10
2284.604
 20
-6995.962
 30
-2318.000
 70
    32
  0
VERTEX
  8
W77LXLIFT
 62
8
 10
2292.885
 20
-7012.445
 30
-2318.000
 70
    32
  0
VERTEX
  8
W77LXLIFT
 62
8
 10
2302.465
 20
-7018.040
 30
-2318.000
 70
    32
  0
VERTEX
  8
W77LXLIFT
 62
8
 10
2300.800
 20
-7025.099
 30
-2318.000
 70
    32
  0
VERTEX
  8
W77LXLIFT
 62
8
 10
2309.552
 20
-7034.214
 30
-2318.000
 70
    32
  0
VERTEX
  8
W77LXLIFT
 62
8
 10
2299.622
 20
-7041.224
 30
-2318.000
 70
    32
  0
VERTEX
  8
W77LXLIFT
 62
8
 10
2292.756
 20
-7031.418
 30
-2318.000
 70
    32
  0
VERTEX
  8
W77LXLIFT
 62
8
 10
2288.447
 20
-7027.921
 30
-2318.000
 70
    32
  0
VERTEX
  8
W77LXLIFT
 62
8
 10
2273.004
 20
-7025.680
 30
-2318.000
 70
    32
  0
VERTEX
  8
W77LXLIFT
 62
8
 10
2265.783
 20
-7022.708
 30
-2318.000
 70
    32
  0
VERTEX
  8
W77LXLIFT
 62
8
 10
2259.689
 20
-7006.705
 30
-2318.000
 70
    32
  0
VERTEX
  8
W77LXLIFT
 62
8
 10
2255.146
 20
-6998.774
 30
-2318.000
 70
    32
  0
VERTEX
  8
W77LXLIFT
 62
8
 10
2241.899
 20
-6984.776
 30
-2318.000
 70
    32
  0
SEQEND
  8
W77LXLIFT
  0
POLYLINE
  8
W77LXLIFT
 62
2
 66
     1
 70
     9
  0
VERTEX
  8
W77LXLIFT
 62
2
 10
2263.921
 20
-7006.943
 30
-2331.000
 70
    32
  0
VERTEX
  8
W77LXLIFT
 62
2
 10
2256.661
 20
-6998.210
 30
-2331.000
 70
    32
  0
VERTEX
  8
W77LXLIFT
 62
2
 10
2249.721
 20
-6996.327
 30
-2331.000
 70
    32
  0
VERTEX
  8
W77LXLIFT
 62
2
 10
2246.790
 20
-6979.471
 30
-2331.000
 70
    32
  0
VERTEX
  8
W77LXLIFT
 62
2
 10
2249.773
 20
-6977.807
 30
-2331.000
 70
    32
  0
VERTEX
  8
W77LXLIFT
 62
2
 10
2248.215
 20
-6968.978
 30
-2331.000
 70
    32
  0
VERTEX
  8
W77LXLIFT
 62
2
 10
2245.002
 20
-6964.527
 30
-2331.000
 70
    32
  0
VERTEX
  8
W77LXLIFT
 62
2
 10
2240.397
 20
-6961.591
 30
-2331.000
 70
    32
  0
VERTEX
  8
W77LXLIFT
 62
2
 10
2242.505
 20
-6949.395
 30
-2331.000
 70
    32
  0
VERTEX
  8
W77LXLIFT
 62
2
 10
2234.713
 20
-6933.869
 30
-2331.000
 70
    32
  0
VERTEX
  8
W77LXLIFT
 62
2
 10
2245.227
 20
-6927.771
 30
-2331.000
 70
    32
  0
VERTEX
  8
W77LXLIFT
 62
2
 10
2253.282
 20
-6940.833
 30
-2331.000
 70
    32
  0
VERTEX
  8
W77LXLIFT
 62
2
 10
2262.592
 20
-6951.865
 30
-2331.000
 70
    32
  0
VERTEX
  8
W77LXLIFT
 62
2
 10
2273.507
 20
-6961.144
 30
-2331.000
 70
    32
  0
VERTEX
  8
W77LXLIFT
 62
2
 10
2281.175
 20
-6972.224
 30
-2331.000
 70
    32
  0
VERTEX
  8
W77LXLIFT
 62
2
 10
2285.029
 20
-6985.689
 30
-2331.000
 70
    32
  0
VERTEX
  8
W77LXLIFT
 62
2
 10
2292.579
 20
-6995.617
 30
-2331.000
 70
    32
  0
VERTEX
  8
W77LXLIFT
 62
2
 10
2303.698
 20
-7007.072
 30
-2331.000
 70
    32
  0
VERTEX
  8
W77LXLIFT
 62
2
 10
2305.221
 20
-7011.523
 30
-2331.000
 70
    32
  0
VERTEX
  8
W77LXLIFT
 62
2
 10
2303.956
 20
-7020.923
 30
-2331.000
 70
    32
  0
VERTEX
  8
W77LXLIFT
 62
2
 10
2311.656
 20
-7036.770
 30
-2331.000
 70
    32
  0
VERTEX
  8
W77LXLIFT
 62
2
 10
2301.463
 20
-7042.229
 30
-2331.000
 70
    32
  0
VERTEX
  8
W77LXLIFT
 62
2
 10
2293.809
 20
-7031.186
 30
-2331.000
 70
    32
  0
VERTEX
  8
W77LXLIFT
 62
2
 10
2276.568
 20
-7032.324
 30
-2331.000
 70
    32
  0
VERTEX
  8
W77LXLIFT
 62
2
 10
2271.744
 20
-7025.264
 30
-2331.000
 70
    32
  0
VERTEX
  8
W77LXLIFT
 62
2
 10
2268.892
 20
-7013.859
 30
-2331.000
 70
    32
  0
SEQEND
  8
W77LXLIFT
  0
POLYLINE
  8
W77LXLIFT
 62
6
 66
     1
 70
     9
  0
VERTEX
  8
W77LXLIFT
 62
6
 10
2252.244
 20
-6998.417
 30
-2303.399
 70
    32
  0
VERTEX
  8
W77LXLIFT
 62
6
 10
2256.764
 20
-7000.898
 30
-2303.576
 70
    32
  0
VERTEX
  8
W77LXLIFT
 62
6
 10
2262.545
 20
-7013.796
 30
-2304.205
 70
    32
  0
VERTEX
  8
W77LXLIFT
 62
6
 10
2263.035
 20
-7017.380
 30
-2304.361
 70
    32
  0
VERTEX
  8
W77LXLIFT
 62
6
 10
2263.252
 20
-7018.961
 30
-2304.747
 70
    32
  0
VERTEX
  8
W77LXLIFT
 62
6
 10
2264.165
 20
-7025.638
 30
-2306.069
 70
    32
  0
VERTEX
  8
W77LXLIFT
 62
6
 10
2265.041
 20
-7032.042
 30
-2306.012
 70
    32
  0
VERTEX
  8
W77LXLIFT
 62
6
 10
2270.504
 20
-7032.168
 30
-2305.869
 70
    32
  0
VERTEX
  8
W77LXLIFT
 62
6
 10
2276.193
 20
-7039.042
 30
-2305.490
 70
    32
  0
VERTEX
  8
W77LXLIFT
 62
6
 10
2277.155
 20
-7039.582
 30
-2305.447
 70
    32
  0
VERTEX
  8
W77LXLIFT
 62
6
 10
2279.329
 20
-7040.803
 30
-2305.313
 70
    32
  0
VERTEX
  8
W77LXLIFT
 62
6
 10
2285.816
 20
-7040.363
 30
-2305.078
 70
    32
  0
VERTEX
  8
W77LXLIFT
 62
6
 10
2297.027
 20
-7040.245
 30
-2304.644
 70
    32
  0
VERTEX
  8
W77LXLIFT
 62
6
 10
2298.027
 20
-7040.235
 30
-2304.580
 70
    32
  0
VERTEX
  8
W77LXLIFT
 62
6
 10
2302.552
 20
-7040.950
 30
-2304.269
 70
    32
  0
VERTEX
  8
W77LXLIFT
 62
6
 10
2304.270
 20
-7041.221
 30
-2304.551
 70
    32
  0
VERTEX
  8
W77LXLIFT
 62
6
 10
2307.957
 20
-7041.804
 30
-2305.184
 70
    32
  0
VERTEX
  8
W77LXLIFT
 62
6
 10
2308.441
 20
-7042.012
 30
-2305.277
 70
    32
  0
VERTEX
  8
W77LXLIFT
 62
6
 10
2319.427
 20
-7046.735
 30
-2305.226
 70
    32
  0
VERTEX
  8
W77LXLIFT
 62
6
 10
2320.328
 20
-7047.122
 30
-2305.221
 70
    32
  0
VERTEX
  8
W77LXLIFT
 62
6
 10
2325.482
 20
-7041.450
 30
-2305.211
 70
    32
  0
VERTEX
  8
W77LXLIFT
 62
6
 10
2326.525
 20
-7037.218
 30
-2305.215
 70
    32
  0
VERTEX
  8
W77LXLIFT
 62
6
 10
2324.105
 20
-7034.762
 30
-2305.229
 70
    32
  0
VERTEX
  8
W77LXLIFT
 62
6
 10
2316.791
 20
-7033.115
 30
-2305.260
 70
    32
  0
VERTEX
  8
W77LXLIFT
 62
6
 10
2312.938
 20
-7032.248
 30
-2305.277
 70
    32
  0
VERTEX
  8
W77LXLIFT
 62
6
 10
2311.448
 20
-7031.912
 30
-2305.014
 70
    32
  0
VERTEX
  8
W77LXLIFT
 62
6
 10
2307.921
 20
-7031.118
 30
-2304.418
 70
    32
  0
VERTEX
  8
W77LXLIFT
 62
6
 10
2307.024
 20
-7030.949
 30
-2304.269
 70
    32
  0
VERTEX
  8
W77LXLIFT
 62
6
 10
2294.429
 20
-7028.572
 30
-2305.147
 70
    32
  0
VERTEX
  8
W77LXLIFT
 62
6
 10
2286.675
 20
-7016.220
 30
-2306.000
 70
    32
  0
VERTEX
  8
W77LXLIFT
 62
6
 10
2282.820
 20
-7007.342
 30
-2304.274
 70
    32
  0
VERTEX
  8
W77LXLIFT
 62
6
 10
2273.616
 20
-6986.148
 30
-2303.370
 70
    32
  0
VERTEX
  8
W77LXLIFT
 62
6
 10
2268.094
 20
-6981.114
 30
-2303.093
 70
    32
  0
VERTEX
  8
W77LXLIFT
 62
6
 10
2264.105
 20
-6977.478
 30
-2303.624
 70
    32
  0
VERTEX
  8
W77LXLIFT
 62
6
 10
2262.795
 20
-6976.203
 30
-2303.803
 70
    32
  0
VERTEX
  8
W77LXLIFT
 62
6
 10
2259.943
 20
-6973.427
 30
-2303.795
 70
    32
  0
VERTEX
  8
W77LXLIFT
 62
6
 10
2258.151
 20
-6971.682
 30
-2303.879
 70
    32
  0
VERTEX
  8
W77LXLIFT
 62
6
 10
2257.810
 20
-6967.309
 30
-2304.084
 70
    32
  0
VERTEX
  8
W77LXLIFT
 62
6
 10
2257.305
 20
-6960.838
 30
-2304.287
 70
    32
  0
VERTEX
  8
W77LXLIFT
 62
6
 10
2259.350
 20
-6951.148
 30
-2304.562
 70
    32
  0
VERTEX
  8
W77LXLIFT
 62
6
 10
2248.924
 20
-6939.572
 30
-2305.018
 70
    32
  0
VERTEX
  8
W77LXLIFT
 62
6
 10
2244.282
 20
-6934.418
 30
-2305.003
 70
    32
  0
VERTEX
  8
W77LXLIFT
 62
6
 10
2239.949
 20
-6925.745
 30
-2304.991
 70
    32
  0
VERTEX
  8
W77LXLIFT
 62
6
 10
2237.546
 20
-6925.723
 30
-2304.982
 70
    32
  0
VERTEX
  8
W77LXLIFT
 62
6
 10
2235.678
 20
-6925.706
 30
-2304.987
 70
    32
  0
VERTEX
  8
W77LXLIFT
 62
6
 10
2235.678
 20
-6925.706
 30
-2305.000
 70
    32
  0
VERTEX
  8
W77LXLIFT
 62
6
 10
2228.202
 20
-6911.789
 30
-2305.000
 70
    32
  0
VERTEX
  8
W77LXLIFT
 62
6
 10
2217.624
 20
-6917.454
 30
-2305.000
 70
    32
  0
VERTEX
  8
W77LXLIFT
 62
6
 10
2227.078
 20
-6935.109
 30
-2305.000
 70
    32
  0
VERTEX
  8
W77LXLIFT
 62
6
 10
2227.078
 20
-6935.109
 30
-2304.976
 70
    32
  0
VERTEX
  8
W77LXLIFT
 62
6
 10
2229.999
 20
-6940.585
 30
-2304.946
 70
    32
  0
VERTEX
  8
W77LXLIFT
 62
6
 10
2233.237
 20
-6946.655
 30
-2304.955
 70
    32
  0
VERTEX
  8
W77LXLIFT
 62
6
 10
2239.088
 20
-6957.626
 30
-2304.563
 70
    32
  0
VERTEX
  8
W77LXLIFT
 62
6
 10
2239.757
 20
-6958.880
 30
-2304.504
 70
    32
  0
VERTEX
  8
W77LXLIFT
 62
6
 10
2240.941
 20
-6966.712
 30
-2304.135
 70
    32
  0
VERTEX
  8
W77LXLIFT
 62
6
 10
2241.496
 20
-6981.471
 30
-2303.442
 70
    32
  0
VERTEX
  8
W77LXLIFT
 62
6
 10
2252.244
 20
-6998.417
 30
-2303.399
 70
    32
  0
VERTEX
  8
W77LXLIFT
 62
6
 10
2252.244
 20
-6998.417
 30
-2303.399
 70
    32
  0
SEQEND
  8
W77LXLIFT
  0
POLYLINE
  8
W77LXLIFT
 62
3
 66
     1
 70
     8
  0
VERTEX
  8
W77LXLIFT
 62
3
 10
2227.153
 20
-6921.851
 30
-2287.000
 70
    32
  0
VERTEX
  8
W77LXLIFT
 62
3
 10
2230.788
 20
-6926.400
 30
-2287.000
 70
    32
  0
VERTEX
  8
W77LXLIFT
 62
3
 10
2231.251
 20
-6927.122
 30
-2287.000
 70
    32
  0
VERTEX
  8
W77LXLIFT
 62
3
 10
2240.217
 20
-6938.347
 30
-2287.000
 70
    32
  0
VERTEX
  8
W77LXLIFT
 62
3
 10
2241.425
 20
-6939.698
 30
-2287.000
 70
    32
  0
VERTEX
  8
W77LXLIFT
 62
3
 10
2241.807
 20
-6939.959
 30
-2287.000
 70
    32
  0
VERTEX
  8
W77LXLIFT
 62
3
 10
2249.646
 20
-6953.100
 30
-2287.000
 70
    32
  0
VERTEX
  8
W77LXLIFT
 62
3
 10
2249.510
 20
-6956.427
 30
-2287.000
 70
    32
  0
VERTEX
  8
W77LXLIFT
 62
3
 10
2249.591
 20
-6957.438
 30
-2287.000
 70
    32
  0
VERTEX
  8
W77LXLIFT
 62
3
 10
2249.119
 20
-6970.270
 30
-2287.000
 70
    32
  0
VERTEX
  8
W77LXLIFT
 62
3
 10
2249.150
 20
-6970.763
 30
-2287.000
 70
    32
  0
VERTEX
  8
W77LXLIFT
 62
3
 10
2249.357
 20
-6971.442
 30
-2287.000
 70
    32
  0
VERTEX
  8
W77LXLIFT
 62
3
 10
2251.778
 20
-6976.473
 30
-2287.000
 70
    32
  0
VERTEX
  8
W77LXLIFT
 62
3
 10
2251.974
 20
-6977.157
 30
-2287.000
 70
    32
  0
VERTEX
  8
W77LXLIFT
 62
3
 10
2255.472
 20
-6984.416
 30
-2287.000
 70
    32
  0
VERTEX
  8
W77LXLIFT
 62
3
 10
2255.512
 20
-6984.688
 30
-2287.000
 70
    32
  0
VERTEX
  8
W77LXLIFT
 62
3
 10
2257.091
 20
-6988.053
 30
-2287.000
 70
    32
  0
VERTEX
  8
W77LXLIFT
 62
3
 10
2258.310
 20
-6990.602
 30
-2287.000
 70
    32
  0
VERTEX
  8
W77LXLIFT
 62
3
 10
2263.576
 20
-7001.659
 30
-2287.000
 70
    32
  0
VERTEX
  8
W77LXLIFT
 62
3
 10
2263.991
 20
-7002.515
 30
-2287.000
 70
    32
  0
VERTEX
  8
W77LXLIFT
 62
3
 10
2272.129
 20
-7005.141
 30
-2287.000
 70
    32
  0
VERTEX
  8
W77LXLIFT
 62
3
 10
2275.333
 20
-7006.175
 30
-2287.000
 70
    32
  0
VERTEX
  8
W77LXLIFT
 62
3
 10
2279.203
 20
-7013.939
 30
-2287.000
 70
    32
  0
VERTEX
  8
W77LXLIFT
 62
3
 10
2282.517
 20
-7032.047
 30
-2287.000
 70
    32
  0
VERTEX
  8
W77LXLIFT
 62
3
 10
2290.000
 20
-7046.898
 30
-2287.000
 70
    32
  0
VERTEX
  8
W77LXLIFT
 62
3
 10
2281.316
 20
-7051.655
 30
-2287.000
 70
    32
  0
VERTEX
  8
W77LXLIFT
 62
3
 10
2275.977
 20
-7042.801
 30
-2287.000
 70
    32
  0
VERTEX
  8
W77LXLIFT
 62
3
 10
2271.326
 20
-7043.273
 30
-2287.000
 70
    32
  0
VERTEX
  8
W77LXLIFT
 62
3
 10
2270.647
 20
-7043.342
 30
-2287.000
 70
    32
  0
VERTEX
  8
W77LXLIFT
 62
3
 10
2255.228
 20
-7019.942
 30
-2287.000
 70
    32
  0
VERTEX
  8
W77LXLIFT
 62
3
 10
2248.943
 20
-7010.313
 30
-2287.000
 70
    32
  0
VERTEX
  8
W77LXLIFT
 62
3
 10
2246.656
 20
-7006.813
 30
-2287.000
 70
    32
  0
VERTEX
  8
W77LXLIFT
 62
3
 10
2244.587
 20
-7003.644
 30
-2287.000
 70
    32
  0
VERTEX
  8
W77LXLIFT
 62
3
 10
2236.454
 20
-6998.954
 30
-2287.000
 70
    32
  0
VERTEX
  8
W77LXLIFT
 62
3
 10
2233.361
 20
-6986.278
 30
-2287.000
 70
    32
  0
VERTEX
  8
W77LXLIFT
 62
3
 10
2232.050
 20
-6986.614
 30
-2287.000
 70
    32
  0
VERTEX
  8
W77LXLIFT
 62
3
 10
2231.972
 20
-6986.405
 30
-2287.000
 70
    32
  0
VERTEX
  8
W77LXLIFT
 62
3
 10
2231.822
 20
-6985.830
 30
-2287.000
 70
    32
  0
VERTEX
  8
W77LXLIFT
 62
3
 10
2231.668
 20
-6985.370
 30
-2287.000
 70
    32
  0
VERTEX
  8
W77LXLIFT
 62
3
 10
2234.976
 20
-6978.591
 30
-2287.000
 70
    32
  0
VERTEX
  8
W77LXLIFT
 62
3
 10
2234.599
 20
-6971.388
 30
-2287.000
 70
    32
  0
VERTEX
  8
W77LXLIFT
 62
3
 10
2234.513
 20
-6969.742
 30
-2287.000
 70
    32
  0
VERTEX
  8
W77LXLIFT
 62
3
 10
2232.964
 20
-6964.237
 30
-2287.000
 70
    32
  0
VERTEX
  8
W77LXLIFT
 62
3
 10
2232.305
 20
-6963.064
 30
-2287.000
 70
    32
  0
VERTEX
  8
W77LXLIFT
 62
3
 10
2231.906
 20
-6962.533
 30
-2287.000
 70
    32
  0
VERTEX
  8
W77LXLIFT
 62
3
 10
2227.977
 20
-6948.329
 30
-2287.000
 70
    32
  0
VERTEX
  8
W77LXLIFT
 62
3
 10
2226.565
 20
-6947.096
 30
-2287.000
 70
    32
  0
VERTEX
  8
W77LXLIFT
 62
3
 10
2225.812
 20
-6946.122
 30
-2287.000
 70
    32
  0
VERTEX
  8
W77LXLIFT
 62
3
 10
2215.266
 20
-6936.921
 30
-2287.000
 70
    32
  0
VERTEX
  8
W77LXLIFT
 62
3
 10
2214.886
 20
-6936.123
 30
-2287.000
 70
    32
  0
VERTEX
  8
W77LXLIFT
 62
3
 10
2214.775
 20
-6935.648
 30
-2287.000
 70
    32
  0
VERTEX
  8
W77LXLIFT
 62
3
 10
2214.577
 20
-6934.690
 30
-2287.000
 70
    32
  0
VERTEX
  8
W77LXLIFT
 62
3
 10
2214.688
 20
-6934.479
 30
-2287.000
 70
    32
  0
VERTEX
  8
W77LXLIFT
 62
3
 10
2214.472
 20
-6933.814
 30
-2287.000
 70
    32
  0
VERTEX
  8
W77LXLIFT
 62
3
 10
2215.422
 20
-6933.263
 30
-2287.000
 70
    32
  0
VERTEX
  8
W77LXLIFT
 62
3
 10
2218.195
 20
-6926.240
 30
-2287.000
 70
    32
  0
VERTEX
  8
W77LXLIFT
 62
3
 10
2226.384
 20
-6920.092
 30
-2287.000
 70
    32
  0
VERTEX
  8
W77LXLIFT
 62
3
 10
2227.153
 20
-6921.851
 30
-2287.000
 70
    32
  0
SEQEND
  8
W77LXLIFT
  0
POLYLINE
  8
W77LXLIFT
 62
3
 66
     1
 70
     9
  0
VERTEX
  8
W77LXLIFT
 62
3
 10
2270.945
 20
-7004.298
 30
-2282.000
 70
    32
  0
VERTEX
  8
W77LXLIFT
 62
3
 10
2274.379
 20
-7011.189
 30
-2282.000
 70
    32
  0
VERTEX
  8
W77LXLIFT
 62
3
 10
2277.321
 20
-7027.261
 30
-2282.000
 70
    32
  0
VERTEX
  8
W77LXLIFT
 62
3
 10
2283.962
 20
-7040.443
 30
-2282.000
 70
    32
  0
VERTEX
  8
W77LXLIFT
 62
3
 10
2276.254
 20
-7044.664
 30
-2282.000
 70
    32
  0
VERTEX
  8
W77LXLIFT
 62
3
 10
2271.516
 20
-7036.806
 30
-2282.000
 70
    32
  0
VERTEX
  8
W77LXLIFT
 62
3
 10
2267.388
 20
-7037.225
 30
-2282.000
 70
    32
  0
VERTEX
  8
W77LXLIFT
 62
3
 10
2266.785
 20
-7037.286
 30
-2282.000
 70
    32
  0
VERTEX
  8
W77LXLIFT
 62
3
 10
2253.100
 20
-7016.518
 30
-2282.000
 70
    32
  0
VERTEX
  8
W77LXLIFT
 62
3
 10
2247.521
 20
-7007.971
 30
-2282.000
 70
    32
  0
VERTEX
  8
W77LXLIFT
 62
3
 10
2245.492
 20
-7004.865
 30
-2282.000
 70
    32
  0
VERTEX
  8
W77LXLIFT
 62
3
 10
2243.655
 20
-7002.052
 30
-2282.000
 70
    32
  0
VERTEX
  8
W77LXLIFT
 62
3
 10
2236.437
 20
-6997.889
 30
-2282.000
 70
    32
  0
VERTEX
  8
W77LXLIFT
 62
3
 10
2233.692
 20
-6986.638
 30
-2282.000
 70
    32
  0
VERTEX
  8
W77LXLIFT
 62
3
 10
2231.022
 20
-6987.322
 30
-2282.000
 70
    32
  0
VERTEX
  8
W77LXLIFT
 62
3
 10
2230.862
 20
-6986.898
 30
-2282.000
 70
    32
  0
VERTEX
  8
W77LXLIFT
 62
3
 10
2230.558
 20
-6985.727
 30
-2282.000
 70
    32
  0
VERTEX
  8
W77LXLIFT
 62
3
 10
2230.243
 20
-6984.789
 30
-2282.000
 70
    32
  0
VERTEX
  8
W77LXLIFT
 62
3
 10
2233.184
 20
-6978.763
 30
-2282.000
 70
    32
  0
VERTEX
  8
W77LXLIFT
 62
3
 10
2232.849
 20
-6972.360
 30
-2282.000
 70
    32
  0
VERTEX
  8
W77LXLIFT
 62
3
 10
2232.773
 20
-6970.897
 30
-2282.000
 70
    32
  0
VERTEX
  8
W77LXLIFT
 62
3
 10
2231.396
 20
-6966.003
 30
-2282.000
 70
    32
  0
VERTEX
  8
W77LXLIFT
 62
3
 10
2230.088
 20
-6963.676
 30
-2282.000
 70
    32
  0
VERTEX
  8
W77LXLIFT
 62
3
 10
2229.296
 20
-6962.622
 30
-2282.000
 70
    32
  0
VERTEX
  8
W77LXLIFT
 62
3
 10
2225.798
 20
-6949.979
 30
-2282.000
 70
    32
  0
VERTEX
  8
W77LXLIFT
 62
3
 10
2224.541
 20
-6948.882
 30
-2282.000
 70
    32
  0
VERTEX
  8
W77LXLIFT
 62
3
 10
2223.047
 20
-6946.949
 30
-2282.000
 70
    32
  0
VERTEX
  8
W77LXLIFT
 62
3
 10
2213.660
 20
-6938.759
 30
-2282.000
 70
    32
  0
VERTEX
  8
W77LXLIFT
 62
3
 10
2212.907
 20
-6937.176
 30
-2282.000
 70
    32
  0
VERTEX
  8
W77LXLIFT
 62
3
 10
2212.687
 20
-6936.232
 30
-2282.000
 70
    32
  0
VERTEX
  8
W77LXLIFT
 62
3
 10
2212.293
 20
-6934.333
 30
-2282.000
 70
    32
  0
VERTEX
  8
W77LXLIFT
 62
3
 10
2212.513
 20
-6933.914
 30
-2282.000
 70
    32
  0
VERTEX
  8
W77LXLIFT
 62
3
 10
2212.085
 20
-6932.592
 30
-2282.000
 70
    32
  0
VERTEX
  8
W77LXLIFT
 62
3
 10
2213.970
 20
-6931.500
 30
-2282.000
 70
    32
  0
VERTEX
  8
W77LXLIFT
 62
3
 10
2216.438
 20
-6925.249
 30
-2282.000
 70
    32
  0
VERTEX
  8
W77LXLIFT
 62
3
 10
2223.727
 20
-6919.776
 30
-2282.000
 70
    32
  0
VERTEX
  8
W77LXLIFT
 62
3
 10
2225.253
 20
-6923.267
 30
-2282.000
 70
    32
  0
VERTEX
  8
W77LXLIFT
 62
3
 10
2225.253
 20
-6923.267
 30
-2282.000
 70
    32
  0
VERTEX
  8
W77LXLIFT
 62
3
 10
2228.489
 20
-6927.317
 30
-2282.000
 70
    32
  0
VERTEX
  8
W77LXLIFT
 62
3
 10
2229.408
 20
-6928.749
 30
-2282.000
 70
    32
  0
VERTEX
  8
W77LXLIFT
 62
3
 10
2237.389
 20
-6938.740
 30
-2282.000
 70
    32
  0
VERTEX
  8
W77LXLIFT
 62
3
 10
2239.783
 20
-6941.419
 30
-2282.000
 70
    32
  0
VERTEX
  8
W77LXLIFT
 62
3
 10
2240.541
 20
-6941.937
 30
-2282.000
 70
    32
  0
VERTEX
  8
W77LXLIFT
 62
3
 10
2247.518
 20
-6953.632
 30
-2282.000
 70
    32
  0
VERTEX
  8
W77LXLIFT
 62
3
 10
2247.398
 20
-6956.593
 30
-2282.000
 70
    32
  0
VERTEX
  8
W77LXLIFT
 62
3
 10
2247.557
 20
-6958.599
 30
-2282.000
 70
    32
  0
VERTEX
  8
W77LXLIFT
 62
3
 10
2247.138
 20
-6970.013
 30
-2282.000
 70
    32
  0
VERTEX
  8
W77LXLIFT
 62
3
 10
2247.200
 20
-6971.004
 30
-2282.000
 70
    32
  0
VERTEX
  8
W77LXLIFT
 62
3
 10
2247.617
 20
-6972.370
 30
-2282.000
 70
    32
  0
VERTEX
  8
W77LXLIFT
 62
3
 10
2249.768
 20
-6976.841
 30
-2282.000
 70
    32
  0
VERTEX
  8
W77LXLIFT
 62
3
 10
2250.165
 20
-6978.226
 30
-2282.000
 70
    32
  0
VERTEX
  8
W77LXLIFT
 62
3
 10
2253.271
 20
-6984.671
 30
-2282.000
 70
    32
  0
VERTEX
  8
W77LXLIFT
 62
3
 10
2253.352
 20
-6985.227
 30
-2282.000
 70
    32
  0
VERTEX
  8
W77LXLIFT
 62
3
 10
2254.754
 20
-6988.214
 30
-2282.000
 70
    32
  0
VERTEX
  8
W77LXLIFT
 62
3
 10
2255.836
 20
-6990.476
 30
-2282.000
 70
    32
  0
VERTEX
  8
W77LXLIFT
 62
3
 10
2260.509
 20
-7000.290
 30
-2282.000
 70
    32
  0
VERTEX
  8
W77LXLIFT
 62
3
 10
2260.877
 20
-7001.050
 30
-2282.000
 70
    32
  0
VERTEX
  8
W77LXLIFT
 62
3
 10
2268.100
 20
-7003.381
 30
-2282.000
 70
    32
  0
SEQEND
  8
W77LXLIFT
  0
POLYLINE
  8
W77LXLIFT
 62
3
 66
     1
 70
     9
  0
VERTEX
  8
W77LXLIFT
 62
3
 10
2266.556
 20
-7002.422
 30
-2277.000
 70
    32
  0
VERTEX
  8
W77LXLIFT
 62
3
 10
2269.555
 20
-7008.440
 30
-2277.000
 70
    32
  0
VERTEX
  8
W77LXLIFT
 62
3
 10
2272.124
 20
-7022.475
 30
-2277.000
 70
    32
  0
VERTEX
  8
W77LXLIFT
 62
3
 10
2277.924
 20
-7033.987
 30
-2277.000
 70
    32
  0
VERTEX
  8
W77LXLIFT
 62
3
 10
2271.193
 20
-7037.673
 30
-2277.000
 70
    32
  0
VERTEX
  8
W77LXLIFT
 62
3
 10
2267.055
 20
-7030.811
 30
-2277.000
 70
    32
  0
VERTEX
  8
W77LXLIFT
 62
3
 10
2263.450
 20
-7031.177
 30
-2277.000
 70
    32
  0
VERTEX
  8
W77LXLIFT
 62
3
 10
2262.923
 20
-7031.230
 30
-2277.000
 70
    32
  0
VERTEX
  8
W77LXLIFT
 62
3
 10
2250.972
 20
-7013.093
 30
-2277.000
 70
    32
  0
VERTEX
  8
W77LXLIFT
 62
3
 10
2246.100
 20
-7005.629
 30
-2277.000
 70
    32
  0
VERTEX
  8
W77LXLIFT
 62
3
 10
2244.328
 20
-7002.916
 30
-2277.000
 70
    32
  0
VERTEX
  8
W77LXLIFT
 62
3
 10
2242.724
 20
-7000.459
 30
-2277.000
 70
    32
  0
VERTEX
  8
W77LXLIFT
 62
3
 10
2236.420
 20
-6996.824
 30
-2277.000
 70
    32
  0
VERTEX
  8
W77LXLIFT
 62
3
 10
2234.023
 20
-6986.999
 30
-2277.000
 70
    32
  0
VERTEX
  8
W77LXLIFT
 62
3
 10
2229.993
 20
-6988.031
 30
-2277.000
 70
    32
  0
VERTEX
  8
W77LXLIFT
 62
3
 10
2229.753
 20
-6987.390
 30
-2277.000
 70
    32
  0
VERTEX
  8
W77LXLIFT
 62
3
 10
2229.294
 20
-6985.623
 30
-2277.000
 70
    32
  0
VERTEX
  8
W77LXLIFT
 62
3
 10
2228.819
 20
-6984.209
 30
-2277.000
 70
    32
  0
VERTEX
  8
W77LXLIFT
 62
3
 10
2231.392
 20
-6978.935
 30
-2277.000
 70
    32
  0
VERTEX
  8
W77LXLIFT
 62
3
 10
2231.099
 20
-6973.332
 30
-2277.000
 70
    32
  0
VERTEX
  8
W77LXLIFT
 62
3
 10
2231.032
 20
-6972.052
 30
-2277.000
 70
    32
  0
VERTEX
  8
W77LXLIFT
 62
3
 10
2229.827
 20
-6967.769
 30
-2277.000
 70
    32
  0
VERTEX
  8
W77LXLIFT
 62
3
 10
2227.871
 20
-6964.288
 30
-2277.000
 70
    32
  0
VERTEX
  8
W77LXLIFT
 62
3
 10
2226.685
 20
-6962.711
 30
-2277.000
 70
    32
  0
VERTEX
  8
W77LXLIFT
 62
3
 10
2223.620
 20
-6951.629
 30
-2277.000
 70
    32
  0
VERTEX
  8
W77LXLIFT
 62
3
 10
2222.518
 20
-6950.668
 30
-2277.000
 70
    32
  0
VERTEX
  8
W77LXLIFT
 62
3
 10
2220.283
 20
-6947.775
 30
-2277.000
 70
    32
  0
VERTEX
  8
W77LXLIFT
 62
3
 10
2212.055
 20
-6940.597
 30
-2277.000
 70
    32
  0
VERTEX
  8
W77LXLIFT
 62
3
 10
2210.928
 20
-6938.228
 30
-2277.000
 70
    32
  0
VERTEX
  8
W77LXLIFT
 62
3
 10
2210.599
 20
-6936.816
 30
-2277.000
 70
    32
  0
VERTEX
  8
W77LXLIFT
 62
3
 10
2210.009
 20
-6933.975
 30
-2277.000
 70
    32
  0
VERTEX
  8
W77LXLIFT
 62
3
 10
2210.338
 20
-6933.348
 30
-2277.000
 70
    32
  0
VERTEX
  8
W77LXLIFT
 62
3
 10
2209.698
 20
-6931.371
 30
-2277.000
 70
    32
  0
VERTEX
  8
W77LXLIFT
 62
3
 10
2212.518
 20
-6929.737
 30
-2277.000
 70
    32
  0
VERTEX
  8
W77LXLIFT
 62
3
 10
2214.682
 20
-6924.258
 30
-2277.000
 70
    32
  0
VERTEX
  8
W77LXLIFT
 62
3
 10
2221.071
 20
-6919.461
 30
-2277.000
 70
    32
  0
VERTEX
  8
W77LXLIFT
 62
3
 10
2223.354
 20
-6924.683
 30
-2277.000
 70
    32
  0
VERTEX
  8
W77LXLIFT
 62
3
 10
2223.353
 20
-6924.683
 30
-2277.000
 70
    32
  0
VERTEX
  8
W77LXLIFT
 62
3
 10
2226.190
 20
-6928.233
 30
-2277.000
 70
    32
  0
VERTEX
  8
W77LXLIFT
 62
3
 10
2227.564
 20
-6930.375
 30
-2277.000
 70
    32
  0
VERTEX
  8
W77LXLIFT
 62
3
 10
2234.560
 20
-6939.133
 30
-2277.000
 70
    32
  0
VERTEX
  8
W77LXLIFT
 62
3
 10
2238.142
 20
-6943.140
 30
-2277.000
 70
    32
  0
VERTEX
  8
W77LXLIFT
 62
3
 10
2239.276
 20
-6943.915
 30
-2277.000
 70
    32
  0
VERTEX
  8
W77LXLIFT
 62
3
 10
2245.391
 20
-6954.165
 30
-2277.000
 70
    32
  0
VERTEX
  8
W77LXLIFT
 62
3
 10
2245.285
 20
-6956.760
 30
-2277.000
 70
    32
  0
VERTEX
  8
W77LXLIFT
 62
3
 10
2245.524
 20
-6959.760
 30
-2277.000
 70
    32
  0
VERTEX
  8
W77LXLIFT
 62
3
 10
2245.157
 20
-6969.755
 30
-2277.000
 70
    32
  0
VERTEX
  8
W77LXLIFT
 62
3
 10
2245.250
 20
-6971.246
 30
-2277.000
 70
    32
  0
VERTEX
  8
W77LXLIFT
 62
3
 10
2245.876
 20
-6973.298
 30
-2277.000
 70
    32
  0
VERTEX
  8
W77LXLIFT
 62
3
 10
2247.758
 20
-6977.209
 30
-2277.000
 70
    32
  0
VERTEX
  8
W77LXLIFT
 62
3
 10
2248.356
 20
-6979.295
 30
-2277.000
 70
    32
  0
VERTEX
  8
W77LXLIFT
 62
3
 10
2251.069
 20
-6984.926
 30
-2277.000
 70
    32
  0
VERTEX
  8
W77LXLIFT
 62
3
 10
2251.192
 20
-6985.767
 30
-2277.000
 70
    32
  0
VERTEX
  8
W77LXLIFT
 62
3
 10
2252.416
 20
-6988.375
 30
-2277.000
 70
    32
  0
VERTEX
  8
W77LXLIFT
 62
3
 10
2253.361
 20
-6990.351
 30
-2277.000
 70
    32
  0
VERTEX
  8
W77LXLIFT
 62
3
 10
2257.442
 20
-6998.921
 30
-2277.000
 70
    32
  0
VERTEX
  8
W77LXLIFT
 62
3
 10
2257.764
 20
-6999.585
 30
-2277.000
 70
    32
  0
VERTEX
  8
W77LXLIFT
 62
3
 10
2264.072
 20
-7001.620
 30
-2277.000
 70
    32
  0
SEQEND
  8
W77LXLIFT
  0
POLYLINE
  8
W77LXLIFT
 62
3
 66
     1
 70
     9
  0
VERTEX
  8
W77LXLIFT
 62
3
 10
2262.167
 20
-7000.545
 30
-2272.000
 70
    32
  0
VERTEX
  8
W77LXLIFT
 62
3
 10
2264.732
 20
-7005.690
 30
-2272.000
 70
    32
  0
VERTEX
  8
W77LXLIFT
 62
3
 10
2266.928
 20
-7017.689
 30
-2272.000
 70
    32
  0
VERTEX
  8
W77LXLIFT
 62
3
 10
2271.887
 20
-7027.531
 30
-2272.000
 70
    32
  0
VERTEX
  8
W77LXLIFT
 62
3
 10
2266.132
 20
-7030.683
 30
-2272.000
 70
    32
  0
VERTEX
  8
W77LXLIFT
 62
3
 10
2262.594
 20
-7024.816
 30
-2272.000
 70
    32
  0
VERTEX
  8
W77LXLIFT
 62
3
 10
2259.512
 20
-7025.128
 30
-2272.000
 70
    32
  0
VERTEX
  8
W77LXLIFT
 62
3
 10
2259.061
 20
-7025.174
 30
-2272.000
 70
    32
  0
VERTEX
  8
W77LXLIFT
 62
3
 10
2248.844
 20
-7009.668
 30
-2272.000
 70
    32
  0
VERTEX
  8
W77LXLIFT
 62
3
 10
2244.679
 20
-7003.287
 30
-2272.000
 70
    32
  0
VERTEX
  8
W77LXLIFT
 62
3
 10
2243.164
 20
-7000.968
 30
-2272.000
 70
    32
  0
VERTEX
  8
W77LXLIFT
 62
3
 10
2241.792
 20
-6998.867
 30
-2272.000
 70
    32
  0
VERTEX
  8
W77LXLIFT
 62
3
 10
2236.403
 20
-6995.760
 30
-2272.000
 70
    32
  0
VERTEX
  8
W77LXLIFT
 62
3
 10
2234.354
 20
-6987.359
 30
-2272.000
 70
    32
  0
VERTEX
  8
W77LXLIFT
 62
3
 10
2228.965
 20
-6988.739
 30
-2272.000
 70
    32
  0
VERTEX
  8
W77LXLIFT
 62
3
 10
2228.643
 20
-6987.883
 30
-2272.000
 70
    32
  0
VERTEX
  8
W77LXLIFT
 62
3
 10
2228.030
 20
-6985.520
 30
-2272.000
 70
    32
  0
VERTEX
  8
W77LXLIFT
 62
3
 10
2227.394
 20
-6983.628
 30
-2272.000
 70
    32
  0
VERTEX
  8
W77LXLIFT
 62
3
 10
2229.600
 20
-6979.108
 30
-2272.000
 70
    32
  0
VERTEX
  8
W77LXLIFT
 62
3
 10
2229.349
 20
-6974.304
 30
-2272.000
 70
    32
  0
VERTEX
  8
W77LXLIFT
 62
3
 10
2229.292
 20
-6973.207
 30
-2272.000
 70
    32
  0
VERTEX
  8
W77LXLIFT
 62
3
 10
2228.259
 20
-6969.535
 30
-2272.000
 70
    32
  0
VERTEX
  8
W77LXLIFT
 62
3
 10
2225.653
 20
-6964.900
 30
-2272.000
 70
    32
  0
VERTEX
  8
W77LXLIFT
 62
3
 10
2224.075
 20
-6962.800
 30
-2272.000
 70
    32
  0
VERTEX
  8
W77LXLIFT
 62
3
 10
2221.441
 20
-6953.280
 30
-2272.000
 70
    32
  0
VERTEX
  8
W77LXLIFT
 62
3
 10
2220.495
 20
-6952.454
 30
-2272.000
 70
    32
  0
VERTEX
  8
W77LXLIFT
 62
3
 10
2217.518
 20
-6948.602
 30
-2272.000
 70
    32
  0
VERTEX
  8
W77LXLIFT
 62
3
 10
2210.449
 20
-6942.434
 30
-2272.000
 70
    32
  0
VERTEX
  8
W77LXLIFT
 62
3
 10
2208.949
 20
-6939.280
 30
-2272.000
 70
    32
  0
VERTEX
  8
W77LXLIFT
 62
3
 10
2208.510
 20
-6937.400
 30
-2272.000
 70
    32
  0
VERTEX
  8
W77LXLIFT
 62
3
 10
2207.725
 20
-6933.617
 30
-2272.000
 70
    32
  0
VERTEX
  8
W77LXLIFT
 62
3
 10
2208.164
 20
-6932.783
 30
-2272.000
 70
    32
  0
VERTEX
  8
W77LXLIFT
 62
3
 10
2207.312
 20
-6930.150
 30
-2272.000
 70
    32
  0
VERTEX
  8
W77LXLIFT
 62
3
 10
2211.066
 20
-6927.975
 30
-2272.000
 70
    32
  0
VERTEX
  8
W77LXLIFT
 62
3
 10
2212.925
 20
-6923.267
 30
-2272.000
 70
    32
  0
VERTEX
  8
W77LXLIFT
 62
3
 10
2218.414
 20
-6919.146
 30
-2272.000
 70
    32
  0
VERTEX
  8
W77LXLIFT
 62
3
 10
2221.454
 20
-6926.099
 30
-2272.000
 70
    32
  0
VERTEX
  8
W77LXLIFT
 62
3
 10
2221.454
 20
-6926.099
 30
-2272.000
 70
    32
  0
VERTEX
  8
W77LXLIFT
 62
3
 10
2223.890
 20
-6929.149
 30
-2272.000
 70
    32
  0
VERTEX
  8
W77LXLIFT
 62
3
 10
2225.721
 20
-6932.001
 30
-2272.000
 70
    32
  0
VERTEX
  8
W77LXLIFT
 62
3
 10
2231.732
 20
-6939.526
 30
-2272.000
 70
    32
  0
VERTEX
  8
W77LXLIFT
 62
3
 10
2236.501
 20
-6944.861
 30
-2272.000
 70
    32
  0
VERTEX
  8
W77LXLIFT
 62
3
 10
2238.011
 20
-6945.893
 30
-2272.000
 70
    32
  0
VERTEX
  8
W77LXLIFT
 62
3
 10
2243.263
 20
-6954.697
 30
-2272.000
 70
    32
  0
VERTEX
  8
W77LXLIFT
 62
3
 10
2243.172
 20
-6956.926
 30
-2272.000
 70
    32
  0
VERTEX
  8
W77LXLIFT
 62
3
 10
2243.490
 20
-6960.921
 30
-2272.000
 70
    32
  0
VERTEX
  8
W77LXLIFT
 62
3
 10
2243.175
 20
-6969.497
 30
-2272.000
 70
    32
  0
VERTEX
  8
W77LXLIFT
 62
3
 10
2243.299
 20
-6971.487
 30
-2272.000
 70
    32
  0
VERTEX
  8
W77LXLIFT
 62
3
 10
2244.135
 20
-6974.226
 30
-2272.000
 70
    32
  0
VERTEX
  8
W77LXLIFT
 62
3
 10
2245.747
 20
-6977.576
 30
-2272.000
 70
    32
  0
VERTEX
  8
W77LXLIFT
 62
3
 10
2246.546
 20
-6980.364
 30
-2272.000
 70
    32
  0
VERTEX
  8
W77LXLIFT
 62
3
 10
2248.867
 20
-6985.180
 30
-2272.000
 70
    32
  0
VERTEX
  8
W77LXLIFT
 62
3
 10
2249.032
 20
-6986.306
 30
-2272.000
 70
    32
  0
VERTEX
  8
W77LXLIFT
 62
3
 10
2250.079
 20
-6988.536
 30
-2272.000
 70
    32
  0
VERTEX
  8
W77LXLIFT
 62
3
 10
2250.887
 20
-6990.225
 30
-2272.000
 70
    32
  0
VERTEX
  8
W77LXLIFT
 62
3
 10
2254.376
 20
-6997.552
 30
-2272.000
 70
    32
  0
VERTEX
  8
W77LXLIFT
 62
3
 10
2254.651
 20
-6998.119
 30
-2272.000
 70
    32
  0
VERTEX
  8
W77LXLIFT
 62
3
 10
2260.044
 20
-6999.860
 30
-2272.000
 70
    32
  0
SEQEND
  8
W77LXLIFT
  0
POLYLINE
  8
W77LXLIFT
 62
3
 66
     1
 70
     9
  0
VERTEX
  8
W77LXLIFT
 62
3
 10
2257.779
 20
-6998.668
 30
-2267.000
 70
    32
  0
VERTEX
  8
W77LXLIFT
 62
3
 10
2259.908
 20
-7002.940
 30
-2267.000
 70
    32
  0
VERTEX
  8
W77LXLIFT
 62
3
 10
2261.731
 20
-7012.903
 30
-2267.000
 70
    32
  0
VERTEX
  8
W77LXLIFT
 62
3
 10
2265.849
 20
-7021.075
 30
-2267.000
 70
    32
  0
VERTEX
  8
W77LXLIFT
 62
3
 10
2261.070
 20
-7023.692
 30
-2267.000
 70
    32
  0
VERTEX
  8
W77LXLIFT
 62
3
 10
2258.133
 20
-7018.821
 30
-2267.000
 70
    32
  0
VERTEX
  8
W77LXLIFT
 62
3
 10
2255.574
 20
-7019.080
 30
-2267.000
 70
    32
  0
VERTEX
  8
W77LXLIFT
 62
3
 10
2255.200
 20
-7019.118
 30
-2267.000
 70
    32
  0
VERTEX
  8
W77LXLIFT
 62
3
 10
2246.716
 20
-7006.243
 30
-2267.000
 70
    32
  0
VERTEX
  8
W77LXLIFT
 62
3
 10
2243.258
 20
-7000.945
 30
-2267.000
 70
    32
  0
VERTEX
  8
W77LXLIFT
 62
3
 10
2242.000
 20
-6999.019
 30
-2267.000
 70
    32
  0
VERTEX
  8
W77LXLIFT
 62
3
 10
2240.861
 20
-6997.275
 30
-2267.000
 70
    32
  0
VERTEX
  8
W77LXLIFT
 62
3
 10
2236.386
 20
-6994.695
 30
-2267.000
 70
    32
  0
VERTEX
  8
W77LXLIFT
 62
3
 10
2234.684
 20
-6987.720
 30
-2267.000
 70
    32
  0
VERTEX
  8
W77LXLIFT
 62
3
 10
2227.937
 20
-6989.448
 30
-2267.000
 70
    32
  0
VERTEX
  8
W77LXLIFT
 62
3
 10
2227.534
 20
-6988.376
 30
-2267.000
 70
    32
  0
VERTEX
  8
W77LXLIFT
 62
3
 10
2226.766
 20
-6985.416
 30
-2267.000
 70
    32
  0
VERTEX
  8
W77LXLIFT
 62
3
 10
2225.969
 20
-6983.048
 30
-2267.000
 70
    32
  0
VERTEX
  8
W77LXLIFT
 62
3
 10
2227.808
 20
-6979.280
 30
-2267.000
 70
    32
  0
VERTEX
  8
W77LXLIFT
 62
3
 10
2227.599
 20
-6975.276
 30
-2267.000
 70
    32
  0
VERTEX
  8
W77LXLIFT
 62
3
 10
2227.551
 20
-6974.361
 30
-2267.000
 70
    32
  0
VERTEX
  8
W77LXLIFT
 62
3
 10
2226.690
 20
-6971.301
 30
-2267.000
 70
    32
  0
VERTEX
  8
W77LXLIFT
 62
3
 10
2223.436
 20
-6965.512
 30
-2267.000
 70
    32
  0
VERTEX
  8
W77LXLIFT
 62
3
 10
2221.464
 20
-6962.889
 30
-2267.000
 70
    32
  0
VERTEX
  8
W77LXLIFT
 62
3
 10
2219.263
 20
-6954.930
 30
-2267.000
 70
    32
  0
VERTEX
  8
W77LXLIFT
 62
3
 10
2218.471
 20
-6954.239
 30
-2267.000
 70
    32
  0
VERTEX
  8
W77LXLIFT
 62
3
 10
2214.754
 20
-6949.428
 30
-2267.000
 70
    32
  0
VERTEX
  8
W77LXLIFT
 62
3
 10
2208.844
 20
-6944.272
 30
-2267.000
 70
    32
  0
VERTEX
  8
W77LXLIFT
 62
3
 10
2206.970
 20
-6940.333
 30
-2267.000
 70
    32
  0
VERTEX
  8
W77LXLIFT
 62
3
 10
2206.422
 20
-6937.984
 30
-2267.000
 70
    32
  0
VERTEX
  8
W77LXLIFT
 62
3
 10
2205.441
 20
-6933.259
 30
-2267.000
 70
    32
  0
VERTEX
  8
W77LXLIFT
 62
3
 10
2205.989
 20
-6932.217
 30
-2267.000
 70
    32
  0
VERTEX
  8
W77LXLIFT
 62
3
 10
2204.925
 20
-6928.929
 30
-2267.000
 70
    32
  0
VERTEX
  8
W77LXLIFT
 62
3
 10
2209.615
 20
-6926.212
 30
-2267.000
 70
    32
  0
VERTEX
  8
W77LXLIFT
 62
3
 10
2211.169
 20
-6922.276
 30
-2267.000
 70
    32
  0
VERTEX
  8
W77LXLIFT
 62
3
 10
2215.758
 20
-6918.830
 30
-2267.000
 70
    32
  0
VERTEX
  8
W77LXLIFT
 62
3
 10
2219.554
 20
-6927.515
 30
-2267.000
 70
    32
  0
VERTEX
  8
W77LXLIFT
 62
3
 10
2219.554
 20
-6927.516
 30
-2267.000
 70
    32
  0
VERTEX
  8
W77LXLIFT
 62
3
 10
2221.591
 20
-6930.065
 30
-2267.000
 70
    32
  0
VERTEX
  8
W77LXLIFT
 62
3
 10
2223.878
 20
-6933.628
 30
-2267.000
 70
    32
  0
VERTEX
  8
W77LXLIFT
 62
3
 10
2228.903
 20
-6939.919
 30
-2267.000
 70
    32
  0
VERTEX
  8
W77LXLIFT
 62
3
 10
2234.860
 20
-6946.583
 30
-2267.000
 70
    32
  0
VERTEX
  8
W77LXLIFT
 62
3
 10
2236.746
 20
-6947.871
 30
-2267.000
 70
    32
  0
VERTEX
  8
W77LXLIFT
 62
3
 10
2241.135
 20
-6955.229
 30
-2267.000
 70
    32
  0
VERTEX
  8
W77LXLIFT
 62
3
 10
2241.060
 20
-6957.093
 30
-2267.000
 70
    32
  0
VERTEX
  8
W77LXLIFT
 62
3
 10
2241.457
 20
-6962.082
 30
-2267.000
 70
    32
  0
VERTEX
  8
W77LXLIFT
 62
3
 10
2241.194
 20
-6969.239
 30
-2267.000
 70
    32
  0
VERTEX
  8
W77LXLIFT
 62
3
 10
2241.349
 20
-6971.728
 30
-2267.000
 70
    32
  0
VERTEX
  8
W77LXLIFT
 62
3
 10
2242.394
 20
-6975.154
 30
-2267.000
 70
    32
  0
VERTEX
  8
W77LXLIFT
 62
3
 10
2243.737
 20
-6977.944
 30
-2267.000
 70
    32
  0
VERTEX
  8
W77LXLIFT
 62
3
 10
2244.737
 20
-6981.433
 30
-2267.000
 70
    32
  0
VERTEX
  8
W77LXLIFT
 62
3
 10
2246.666
 20
-6985.435
 30
-2267.000
 70
    32
  0
VERTEX
  8
W77LXLIFT
 62
3
 10
2246.872
 20
-6986.845
 30
-2267.000
 70
    32
  0
VERTEX
  8
W77LXLIFT
 62
3
 10
2247.741
 20
-6988.697
 30
-2267.000
 70
    32
  0
VERTEX
  8
W77LXLIFT
 62
3
 10
2248.412
 20
-6990.099
 30
-2267.000
 70
    32
  0
VERTEX
  8
W77LXLIFT
 62
3
 10
2251.309
 20
-6996.183
 30
-2267.000
 70
    32
  0
VERTEX
  8
W77LXLIFT
 62
3
 10
2251.537
 20
-6996.654
 30
-2267.000
 70
    32
  0
VERTEX
  8
W77LXLIFT
 62
3
 10
2256.015
 20
-6998.099
 30
-2267.000
 70
    32
  0
SEQEND
  8
W77LXLIFT
  0
POLYLINE
  8
W77LXLIFT
 62
3
 66
     1
 70
     9
  0
VERTEX
  8
W77LXLIFT
 62
3
 10
2253.390
 20
-6996.791
 30
-2262.000
 70
    32
  0
VERTEX
  8
W77LXLIFT
 62
3
 10
2255.084
 20
-7000.190
 30
-2262.000
 70
    32
  0
VERTEX
  8
W77LXLIFT
 62
3
 10
2256.535
 20
-7008.117
 30
-2262.000
 70
    32
  0
VERTEX
  8
W77LXLIFT
 62
3
 10
2259.811
 20
-7014.619
 30
-2262.000
 70
    32
  0
VERTEX
  8
W77LXLIFT
 62
3
 10
2256.009
 20
-7016.701
 30
-2262.000
 70
    32
  0
VERTEX
  8
W77LXLIFT
 62
3
 10
2253.672
 20
-7012.826
 30
-2262.000
 70
    32
  0
VERTEX
  8
W77LXLIFT
 62
3
 10
2251.636
 20
-7013.032
 30
-2262.000
 70
    32
  0
VERTEX
  8
W77LXLIFT
 62
3
 10
2251.338
 20
-7013.062
 30
-2262.000
 70
    32
  0
VERTEX
  8
W77LXLIFT
 62
3
 10
2244.588
 20
-7002.818
 30
-2262.000
 70
    32
  0
VERTEX
  8
W77LXLIFT
 62
3
 10
2241.836
 20
-6998.603
 30
-2262.000
 70
    32
  0
VERTEX
  8
W77LXLIFT
 62
3
 10
2240.836
 20
-6997.070
 30
-2262.000
 70
    32
  0
VERTEX
  8
W77LXLIFT
 62
3
 10
2239.929
 20
-6995.683
 30
-2262.000
 70
    32
  0
VERTEX
  8
W77LXLIFT
 62
3
 10
2236.369
 20
-6993.630
 30
-2262.000
 70
    32
  0
VERTEX
  8
W77LXLIFT
 62
3
 10
2235.015
 20
-6988.080
 30
-2262.000
 70
    32
  0
VERTEX
  8
W77LXLIFT
 62
3
 10
2226.908
 20
-6990.157
 30
-2262.000
 70
    32
  0
VERTEX
  8
W77LXLIFT
 62
3
 10
2226.424
 20
-6988.868
 30
-2262.000
 70
    32
  0
VERTEX
  8
W77LXLIFT
 62
3
 10
2225.502
 20
-6985.313
 30
-2262.000
 70
    32
  0
VERTEX
  8
W77LXLIFT
 62
3
 10
2224.545
 20
-6982.467
 30
-2262.000
 70
    32
  0
VERTEX
  8
W77LXLIFT
 62
3
 10
2226.016
 20
-6979.452
 30
-2262.000
 70
    32
  0
VERTEX
  8
W77LXLIFT
 62
3
 10
2225.849
 20
-6976.248
 30
-2262.000
 70
    32
  0
VERTEX
  8
W77LXLIFT
 62
3
 10
2225.811
 20
-6975.516
 30
-2262.000
 70
    32
  0
VERTEX
  8
W77LXLIFT
 62
3
 10
2225.122
 20
-6973.068
 30
-2262.000
 70
    32
  0
VERTEX
  8
W77LXLIFT
 62
3
 10
2221.218
 20
-6966.124
 30
-2262.000
 70
    32
  0
VERTEX
  8
W77LXLIFT
 62
3
 10
2218.854
 20
-6962.978
 30
-2262.000
 70
    32
  0
VERTEX
  8
W77LXLIFT
 62
3
 10
2217.084
 20
-6956.580
 30
-2262.000
 70
    32
  0
VERTEX
  8
W77LXLIFT
 62
3
 10
2216.448
 20
-6956.025
 30
-2262.000
 70
    32
  0
VERTEX
  8
W77LXLIFT
 62
3
 10
2211.989
 20
-6950.255
 30
-2262.000
 70
    32
  0
VERTEX
  8
W77LXLIFT
 62
3
 10
2207.238
 20
-6946.110
 30
-2262.000
 70
    32
  0
VERTEX
  8
W77LXLIFT
 62
3
 10
2204.991
 20
-6941.385
 30
-2262.000
 70
    32
  0
VERTEX
  8
W77LXLIFT
 62
3
 10
2204.334
 20
-6938.569
 30
-2262.000
 70
    32
  0
VERTEX
  8
W77LXLIFT
 62
3
 10
2204.334
 20
-6938.569
 30
-2262.000
 70
    32
  0
VERTEX
  8
W77LXLIFT
 62
3
 10
2203.157
 20
-6932.901
 30
-2262.000
 70
    32
  0
VERTEX
  8
W77LXLIFT
 62
3
 10
2203.814
 20
-6931.652
 30
-2262.000
 70
    32
  0
VERTEX
  8
W77LXLIFT
 62
3
 10
2202.538
 20
-6927.708
 30
-2262.000
 70
    32
  0
VERTEX
  8
W77LXLIFT
 62
3
 10
2208.163
 20
-6924.449
 30
-2262.000
 70
    32
  0
VERTEX
  8
W77LXLIFT
 62
3
 10
2209.412
 20
-6921.285
 30
-2262.000
 70
    32
  0
VERTEX
  8
W77LXLIFT
 62
3
 10
2213.101
 20
-6918.515
 30
-2262.000
 70
    32
  0
VERTEX
  8
W77LXLIFT
 62
3
 10
2217.655
 20
-6928.931
 30
-2262.000
 70
    32
  0
VERTEX
  8
W77LXLIFT
 62
3
 10
2217.654
 20
-6928.932
 30
-2262.000
 70
    32
  0
VERTEX
  8
W77LXLIFT
 62
3
 10
2219.292
 20
-6930.981
 30
-2262.000
 70
    32
  0
VERTEX
  8
W77LXLIFT
 62
3
 10
2222.035
 20
-6935.254
 30
-2262.000
 70
    32
  0
VERTEX
  8
W77LXLIFT
 62
3
 10
2226.074
 20
-6940.312
 30
-2262.000
 70
    32
  0
VERTEX
  8
W77LXLIFT
 62
3
 10
2233.219
 20
-6948.304
 30
-2262.000
 70
    32
  0
VERTEX
  8
W77LXLIFT
 62
3
 10
2235.480
 20
-6949.849
 30
-2262.000
 70
    32
  0
VERTEX
  8
W77LXLIFT
 62
3
 10
2239.008
 20
-6955.762
 30
-2262.000
 70
    32
  0
VERTEX
  8
W77LXLIFT
 62
3
 10
2238.947
 20
-6957.259
 30
-2262.000
 70
    32
  0
VERTEX
  8
W77LXLIFT
 62
3
 10
2239.423
 20
-6963.244
 30
-2262.000
 70
    32
  0
VERTEX
  8
W77LXLIFT
 62
3
 10
2239.212
 20
-6968.981
 30
-2262.000
 70
    32
  0
VERTEX
  8
W77LXLIFT
 62
3
 10
2239.399
 20
-6971.969
 30
-2262.000
 70
    32
  0
VERTEX
  8
W77LXLIFT
 62
3
 10
2240.654
 20
-6976.081
 30
-2262.000
 70
    32
  0
VERTEX
  8
W77LXLIFT
 62
3
 10
2241.727
 20
-6978.312
 30
-2262.000
 70
    32
  0
VERTEX
  8
W77LXLIFT
 62
3
 10
2242.928
 20
-6982.501
 30
-2262.000
 70
    32
  0
VERTEX
  8
W77LXLIFT
 62
3
 10
2244.464
 20
-6985.690
 30
-2262.000
 70
    32
  0
VERTEX
  8
W77LXLIFT
 62
3
 10
2244.712
 20
-6987.384
 30
-2262.000
 70
    32
  0
VERTEX
  8
W77LXLIFT
 62
3
 10
2245.404
 20
-6988.858
 30
-2262.000
 70
    32
  0
VERTEX
  8
W77LXLIFT
 62
3
 10
2245.937
 20
-6989.973
 30
-2262.000
 70
    32
  0
VERTEX
  8
W77LXLIFT
 62
3
 10
2248.243
 20
-6994.814
 30
-2262.000
 70
    32
  0
VERTEX
  8
W77LXLIFT
 62
3
 10
2248.424
 20
-6995.189
 30
-2262.000
 70
    32
  0
VERTEX
  8
W77LXLIFT
 62
3
 10
2251.987
 20
-6996.338
 30
-2262.000
 70
    32
  0
SEQEND
  8
W77LXLIFT
  0
POLYLINE
  8
W77LXLIFT
 62
3
 66
     1
 70
     9
  0
VERTEX
  8
W77LXLIFT
 62
3
 10
2249.001
 20
-6994.914
 30
-2257.000
 70
    32
  0
VERTEX
  8
W77LXLIFT
 62
3
 10
2250.260
 20
-6997.440
 30
-2257.000
 70
    32
  0
VERTEX
  8
W77LXLIFT
 62
3
 10
2251.338
 20
-7003.331
 30
-2257.000
 70
    32
  0
VERTEX
  8
W77LXLIFT
 62
3
 10
2253.773
 20
-7008.163
 30
-2257.000
 70
    32
  0
VERTEX
  8
W77LXLIFT
 62
3
 10
2250.948
 20
-7009.711
 30
-2257.000
 70
    32
  0
VERTEX
  8
W77LXLIFT
 62
3
 10
2249.211
 20
-7006.830
 30
-2257.000
 70
    32
  0
VERTEX
  8
W77LXLIFT
 62
3
 10
2247.697
 20
-7006.984
 30
-2257.000
 70
    32
  0
VERTEX
  8
W77LXLIFT
 62
3
 10
2247.476
 20
-7007.006
 30
-2257.000
 70
    32
  0
VERTEX
  8
W77LXLIFT
 62
3
 10
2242.460
 20
-6999.393
 30
-2257.000
 70
    32
  0
VERTEX
  8
W77LXLIFT
 62
3
 10
2240.415
 20
-6996.261
 30
-2257.000
 70
    32
  0
VERTEX
  8
W77LXLIFT
 62
3
 10
2239.671
 20
-6995.122
 30
-2257.000
 70
    32
  0
VERTEX
  8
W77LXLIFT
 62
3
 10
2238.998
 20
-6994.091
 30
-2257.000
 70
    32
  0
VERTEX
  8
W77LXLIFT
 62
3
 10
2236.352
 20
-6992.565
 30
-2257.000
 70
    32
  0
VERTEX
  8
W77LXLIFT
 62
3
 10
2235.346
 20
-6988.441
 30
-2257.000
 70
    32
  0
VERTEX
  8
W77LXLIFT
 62
3
 10
2225.880
 20
-6990.865
 30
-2257.000
 70
    32
  0
VERTEX
  8
W77LXLIFT
 62
3
 10
2225.315
 20
-6989.361
 30
-2257.000
 70
    32
  0
VERTEX
  8
W77LXLIFT
 62
3
 10
2224.238
 20
-6985.210
 30
-2257.000
 70
    32
  0
VERTEX
  8
W77LXLIFT
 62
3
 10
2223.120
 20
-6981.887
 30
-2257.000
 70
    32
  0
VERTEX
  8
W77LXLIFT
 62
3
 10
2224.224
 20
-6979.624
 30
-2257.000
 70
    32
  0
VERTEX
  8
W77LXLIFT
 62
3
 10
2224.099
 20
-6977.220
 30
-2257.000
 70
    32
  0
VERTEX
  8
W77LXLIFT
 62
3
 10
2224.070
 20
-6976.671
 30
-2257.000
 70
    32
  0
VERTEX
  8
W77LXLIFT
 62
3
 10
2223.553
 20
-6974.834
 30
-2257.000
 70
    32
  0
VERTEX
  8
W77LXLIFT
 62
3
 10
2219.001
 20
-6966.736
 30
-2257.000
 70
    32
  0
VERTEX
  8
W77LXLIFT
 62
3
 10
2216.244
 20
-6963.067
 30
-2257.000
 70
    32
  0
VERTEX
  8
W77LXLIFT
 62
3
 10
2214.906
 20
-6958.230
 30
-2257.000
 70
    32
  0
VERTEX
  8
W77LXLIFT
 62
3
 10
2214.425
 20
-6957.811
 30
-2257.000
 70
    32
  0
VERTEX
  8
W77LXLIFT
 62
3
 10
2209.224
 20
-6951.081
 30
-2257.000
 70
    32
  0
VERTEX
  8
W77LXLIFT
 62
3
 10
2205.633
 20
-6947.948
 30
-2257.000
 70
    32
  0
VERTEX
  8
W77LXLIFT
 62
3
 10
2203.012
 20
-6942.437
 30
-2257.000
 70
    32
  0
VERTEX
  8
W77LXLIFT
 62
3
 10
2202.245
 20
-6939.153
 30
-2257.000
 70
    32
  0
VERTEX
  8
W77LXLIFT
 62
3
 10
2202.245
 20
-6939.153
 30
-2257.000
 70
    32
  0
VERTEX
  8
W77LXLIFT
 62
3
 10
2200.873
 20
-6932.543
 30
-2257.000
 70
    32
  0
VERTEX
  8
W77LXLIFT
 62
3
 10
2201.640
 20
-6931.086
 30
-2257.000
 70
    32
  0
VERTEX
  8
W77LXLIFT
 62
3
 10
2200.151
 20
-6926.487
 30
-2257.000
 70
    32
  0
VERTEX
  8
W77LXLIFT
 62
3
 10
2206.711
 20
-6922.686
 30
-2257.000
 70
    32
  0
VERTEX
  8
W77LXLIFT
 62
3
 10
2207.655
 20
-6920.294
 30
-2257.000
 70
    32
  0
VERTEX
  8
W77LXLIFT
 62
3
 10
2210.445
 20
-6918.200
 30
-2257.000
 70
    32
  0
VERTEX
  8
W77LXLIFT
 62
3
 10
2215.755
 20
-6930.348
 30
-2257.000
 70
    32
  0
VERTEX
  8
W77LXLIFT
 62
3
 10
2215.755
 20
-6930.348
 30
-2257.000
 70
    32
  0
VERTEX
  8
W77LXLIFT
 62
3
 10
2216.993
 20
-6931.897
 30
-2257.000
 70
    32
  0
VERTEX
  8
W77LXLIFT
 62
3
 10
2220.191
 20
-6936.881
 30
-2257.000
 70
    32
  0
VERTEX
  8
W77LXLIFT
 62
3
 10
2223.246
 20
-6940.705
 30
-2257.000
 70
    32
  0
VERTEX
  8
W77LXLIFT
 62
3
 10
2231.578
 20
-6950.025
 30
-2257.000
 70
    32
  0
VERTEX
  8
W77LXLIFT
 62
3
 10
2234.215
 20
-6951.827
 30
-2257.000
 70
    32
  0
VERTEX
  8
W77LXLIFT
 62
3
 10
2236.880
 20
-6956.294
 30
-2257.000
 70
    32
  0
VERTEX
  8
W77LXLIFT
 62
3
 10
2236.834
 20
-6957.426
 30
-2257.000
 70
    32
  0
VERTEX
  8
W77LXLIFT
 62
3
 10
2237.390
 20
-6964.405
 30
-2257.000
 70
    32
  0
VERTEX
  8
W77LXLIFT
 62
3
 10
2237.231
 20
-6968.724
 30
-2257.000
 70
    32
  0
VERTEX
  8
W77LXLIFT
 62
3
 10
2237.448
 20
-6972.210
 30
-2257.000
 70
    32
  0
VERTEX
  8
W77LXLIFT
 62
3
 10
2238.913
 20
-6977.009
 30
-2257.000
 70
    32
  0
VERTEX
  8
W77LXLIFT
 62
3
 10
2239.716
 20
-6978.680
 30
-2257.000
 70
    32
  0
VERTEX
  8
W77LXLIFT
 62
3
 10
2241.119
 20
-6983.570
 30
-2257.000
 70
    32
  0
VERTEX
  8
W77LXLIFT
 62
3
 10
2242.263
 20
-6985.945
 30
-2257.000
 70
    32
  0
VERTEX
  8
W77LXLIFT
 62
3
 10
2242.552
 20
-6987.924
 30
-2257.000
 70
    32
  0
VERTEX
  8
W77LXLIFT
 62
3
 10
2243.066
 20
-6989.018
 30
-2257.000
 70
    32
  0
VERTEX
  8
W77LXLIFT
 62
3
 10
2243.463
 20
-6989.848
 30
-2257.000
 70
    32
  0
VERTEX
  8
W77LXLIFT
 62
3
 10
2245.176
 20
-6993.445
 30
-2257.000
 70
    32
  0
VERTEX
  8
W77LXLIFT
 62
3
 10
2245.311
 20
-6993.724
 30
-2257.000
 70
    32
  0
VERTEX
  8
W77LXLIFT
 62
3
 10
2247.959
 20
-6994.578
 30
-2257.000
 70
    32
  0
SEQEND
  8
W77LXLIFT
  0
POLYLINE
  8
W77LXLIFT
 62
3
 66
     1
 70
     9
  0
VERTEX
  8
W77LXLIFT
 62
3
 10
2244.613
 20
-6993.038
 30
-2252.000
 70
    32
  0
VERTEX
  8
W77LXLIFT
 62
3
 10
2245.436
 20
-6994.690
 30
-2252.000
 70
    32
  0
VERTEX
  8
W77LXLIFT
 62
3
 10
2246.142
 20
-6998.546
 30
-2252.000
 70
    32
  0
VERTEX
  8
W77LXLIFT
 62
3
 10
2247.735
 20
-7001.707
 30
-2252.000
 70
    32
  0
VERTEX
  8
W77LXLIFT
 62
3
 10
2245.886
 20
-7002.720
 30
-2252.000
 70
    32
  0
VERTEX
  8
W77LXLIFT
 62
3
 10
2244.750
 20
-7000.835
 30
-2252.000
 70
    32
  0
VERTEX
  8
W77LXLIFT
 62
3
 10
2243.759
 20
-7000.936
 30
-2252.000
 70
    32
  0
VERTEX
  8
W77LXLIFT
 62
3
 10
2243.615
 20
-7000.950
 30
-2252.000
 70
    32
  0
VERTEX
  8
W77LXLIFT
 62
3
 10
2240.332
 20
-6995.969
 30
-2252.000
 70
    32
  0
VERTEX
  8
W77LXLIFT
 62
3
 10
2238.994
 20
-6993.919
 30
-2252.000
 70
    32
  0
VERTEX
  8
W77LXLIFT
 62
3
 10
2238.507
 20
-6993.173
 30
-2252.000
 70
    32
  0
VERTEX
  8
W77LXLIFT
 62
3
 10
2238.067
 20
-6992.499
 30
-2252.000
 70
    32
  0
VERTEX
  8
W77LXLIFT
 62
3
 10
2236.335
 20
-6991.500
 30
-2252.000
 70
    32
  0
VERTEX
  8
W77LXLIFT
 62
3
 10
2235.677
 20
-6988.801
 30
-2252.000
 70
    32
  0
VERTEX
  8
W77LXLIFT
 62
3
 10
2224.851
 20
-6991.574
 30
-2252.000
 70
    32
  0
VERTEX
  8
W77LXLIFT
 62
3
 10
2224.206
 20
-6989.853
 30
-2252.000
 70
    32
  0
VERTEX
  8
W77LXLIFT
 62
3
 10
2222.974
 20
-6985.106
 30
-2252.000
 70
    32
  0
VERTEX
  8
W77LXLIFT
 62
3
 10
2221.696
 20
-6981.306
 30
-2252.000
 70
    32
  0
VERTEX
  8
W77LXLIFT
 62
3
 10
2222.432
 20
-6979.797
 30
-2252.000
 70
    32
  0
VERTEX
  8
W77LXLIFT
 62
3
 10
2222.349
 20
-6978.193
 30
-2252.000
 70
    32
  0
VERTEX
  8
W77LXLIFT
 62
3
 10
2222.329
 20
-6977.826
 30
-2252.000
 70
    32
  0
VERTEX
  8
W77LXLIFT
 62
3
 10
2221.985
 20
-6976.600
 30
-2252.000
 70
    32
  0
VERTEX
  8
W77LXLIFT
 62
3
 10
2216.784
 20
-6967.348
 30
-2252.000
 70
    32
  0
VERTEX
  8
W77LXLIFT
 62
3
 10
2213.633
 20
-6963.155
 30
-2252.000
 70
    32
  0
VERTEX
  8
W77LXLIFT
 62
3
 10
2212.727
 20
-6959.881
 30
-2252.000
 70
    32
  0
VERTEX
  8
W77LXLIFT
 62
3
 10
2212.402
 20
-6959.597
 30
-2252.000
 70
    32
  0
VERTEX
  8
W77LXLIFT
 62
3
 10
2206.460
 20
-6951.908
 30
-2252.000
 70
    32
  0
VERTEX
  8
W77LXLIFT
 62
3
 10
2204.027
 20
-6949.785
 30
-2252.000
 70
    32
  0
VERTEX
  8
W77LXLIFT
 62
3
 10
2201.033
 20
-6943.490
 30
-2252.000
 70
    32
  0
VERTEX
  8
W77LXLIFT
 62
3
 10
2200.157
 20
-6939.737
 30
-2252.000
 70
    32
  0
VERTEX
  8
W77LXLIFT
 62
3
 10
2200.157
 20
-6939.737
 30
-2252.000
 70
    32
  0
VERTEX
  8
W77LXLIFT
 62
3
 10
2198.589
 20
-6932.185
 30
-2252.000
 70
    32
  0
VERTEX
  8
W77LXLIFT
 62
3
 10
2199.465
 20
-6930.521
 30
-2252.000
 70
    32
  0
VERTEX
  8
W77LXLIFT
 62
3
 10
2197.764
 20
-6925.266
 30
-2252.000
 70
    32
  0
VERTEX
  8
W77LXLIFT
 62
3
 10
2205.259
 20
-6920.923
 30
-2252.000
 70
    32
  0
VERTEX
  8
W77LXLIFT
 62
3
 10
2205.899
 20
-6919.303
 30
-2252.000
 70
    32
  0
VERTEX
  8
W77LXLIFT
 62
3
 10
2207.788
 20
-6917.884
 30
-2252.000
 70
    32
  0
VERTEX
  8
W77LXLIFT
 62
3
 10
2213.856
 20
-6931.764
 30
-2252.000
 70
    32
  0
VERTEX
  8
W77LXLIFT
 62
3
 10
2213.855
 20
-6931.764
 30
-2252.000
 70
    32
  0
VERTEX
  8
W77LXLIFT
 62
3
 10
2214.694
 20
-6932.814
 30
-2252.000
 70
    32
  0
VERTEX
  8
W77LXLIFT
 62
3
 10
2218.348
 20
-6938.507
 30
-2252.000
 70
    32
  0
VERTEX
  8
W77LXLIFT
 62
3
 10
2220.417
 20
-6941.098
 30
-2252.000
 70
    32
  0
VERTEX
  8
W77LXLIFT
 62
3
 10
2229.936
 20
-6951.746
 30
-2252.000
 70
    32
  0
VERTEX
  8
W77LXLIFT
 62
3
 10
2232.950
 20
-6953.805
 30
-2252.000
 70
    32
  0
VERTEX
  8
W77LXLIFT
 62
3
 10
2234.753
 20
-6956.827
 30
-2252.000
 70
    32
  0
VERTEX
  8
W77LXLIFT
 62
3
 10
2234.721
 20
-6957.592
 30
-2252.000
 70
    32
  0
VERTEX
  8
W77LXLIFT
 62
3
 10
2235.356
 20
-6965.566
 30
-2252.000
 70
    32
  0
VERTEX
  8
W77LXLIFT
 62
3
 10
2235.249
 20
-6968.466
 30
-2252.000
 70
    32
  0
VERTEX
  8
W77LXLIFT
 62
3
 10
2235.498
 20
-6972.452
 30
-2252.000
 70
    32
  0
VERTEX
  8
W77LXLIFT
 62
3
 10
2237.172
 20
-6977.937
 30
-2252.000
 70
    32
  0
VERTEX
  8
W77LXLIFT
 62
3
 10
2237.706
 20
-6979.047
 30
-2252.000
 70
    32
  0
VERTEX
  8
W77LXLIFT
 62
3
 10
2239.309
 20
-6984.639
 30
-2252.000
 70
    32
  0
VERTEX
  8
W77LXLIFT
 62
3
 10
2240.061
 20
-6986.199
 30
-2252.000
 70
    32
  0
VERTEX
  8
W77LXLIFT
 62
3
 10
2240.393
 20
-6988.463
 30
-2252.000
 70
    32
  0
VERTEX
  8
W77LXLIFT
 62
3
 10
2240.729
 20
-6989.179
 30
-2252.000
 70
    32
  0
VERTEX
  8
W77LXLIFT
 62
3
 10
2240.988
 20
-6989.722
 30
-2252.000
 70
    32
  0
VERTEX
  8
W77LXLIFT
 62
3
 10
2242.109
 20
-6992.076
 30
-2252.000
 70
    32
  0
VERTEX
  8
W77LXLIFT
 62
3
 10
2242.198
 20
-6992.258
 30
-2252.000
 70
    32
  0
VERTEX
  8
W77LXLIFT
 62
3
 10
2243.930
 20
-6992.817
 30
-2252.000
 70
    32
  0
SEQEND
  8
W77LXLIFT
  0
POLYLINE
  8
W77LXLIFT
 62
3
 66
     1
 70
     9
  0
VERTEX
  8
W77LXLIFT
 62
3
 10
2240.224
 20
-6991.161
 30
-2247.000
 70
    32
  0
VERTEX
  8
W77LXLIFT
 62
3
 10
2240.613
 20
-6991.941
 30
-2247.000
 70
    32
  0
VERTEX
  8
W77LXLIFT
 62
3
 10
2240.946
 20
-6993.760
 30
-2247.000
 70
    32
  0
VERTEX
  8
W77LXLIFT
 62
3
 10
2241.697
 20
-6995.252
 30
-2247.000
 70
    32
  0
VERTEX
  8
W77LXLIFT
 62
3
 10
2240.825
 20
-6995.729
 30
-2247.000
 70
    32
  0
VERTEX
  8
W77LXLIFT
 62
3
 10
2240.289
 20
-6994.840
 30
-2247.000
 70
    32
  0
VERTEX
  8
W77LXLIFT
 62
3
 10
2239.821
 20
-6994.887
 30
-2247.000
 70
    32
  0
VERTEX
  8
W77LXLIFT
 62
3
 10
2239.753
 20
-6994.894
 30
-2247.000
 70
    32
  0
VERTEX
  8
W77LXLIFT
 62
3
 10
2238.204
 20
-6992.544
 30
-2247.000
 70
    32
  0
VERTEX
  8
W77LXLIFT
 62
3
 10
2237.573
 20
-6991.576
 30
-2247.000
 70
    32
  0
VERTEX
  8
W77LXLIFT
 62
3
 10
2237.343
 20
-6991.225
 30
-2247.000
 70
    32
  0
VERTEX
  8
W77LXLIFT
 62
3
 10
2237.135
 20
-6990.906
 30
-2247.000
 70
    32
  0
VERTEX
  8
W77LXLIFT
 62
3
 10
2236.318
 20
-6990.435
 30
-2247.000
 70
    32
  0
VERTEX
  8
W77LXLIFT
 62
3
 10
2236.007
 20
-6989.162
 30
-2247.000
 70
    32
  0
VERTEX
  8
W77LXLIFT
 62
3
 10
2223.823
 20
-6992.282
 30
-2247.000
 70
    32
  0
VERTEX
  8
W77LXLIFT
 62
3
 10
2223.096
 20
-6990.346
 30
-2247.000
 70
    32
  0
VERTEX
  8
W77LXLIFT
 62
3
 10
2221.709
 20
-6985.003
 30
-2247.000
 70
    32
  0
VERTEX
  8
W77LXLIFT
 62
3
 10
2220.271
 20
-6980.726
 30
-2247.000
 70
    32
  0
VERTEX
  8
W77LXLIFT
 62
3
 10
2220.641
 20
-6979.969
 30
-2247.000
 70
    32
  0
VERTEX
  8
W77LXLIFT
 62
3
 10
2220.598
 20
-6979.165
 30
-2247.000
 70
    32
  0
VERTEX
  8
W77LXLIFT
 62
3
 10
2220.589
 20
-6978.981
 30
-2247.000
 70
    32
  0
VERTEX
  8
W77LXLIFT
 62
3
 10
2220.416
 20
-6978.366
 30
-2247.000
 70
    32
  0
VERTEX
  8
W77LXLIFT
 62
3
 10
2214.566
 20
-6967.960
 30
-2247.000
 70
    32
  0
VERTEX
  8
W77LXLIFT
 62
3
 10
2211.023
 20
-6963.244
 30
-2247.000
 70
    32
  0
VERTEX
  8
W77LXLIFT
 62
3
 10
2210.549
 20
-6961.531
 30
-2247.000
 70
    32
  0
VERTEX
  8
W77LXLIFT
 62
3
 10
2210.378
 20
-6961.382
 30
-2247.000
 70
    32
  0
VERTEX
  8
W77LXLIFT
 62
3
 10
2203.695
 20
-6952.734
 30
-2247.000
 70
    32
  0
VERTEX
  8
W77LXLIFT
 62
3
 10
2202.422
 20
-6951.623
 30
-2247.000
 70
    32
  0
VERTEX
  8
W77LXLIFT
 62
3
 10
2199.054
 20
-6944.542
 30
-2247.000
 70
    32
  0
VERTEX
  8
W77LXLIFT
 62
3
 10
2198.069
 20
-6940.321
 30
-2247.000
 70
    32
  0
VERTEX
  8
W77LXLIFT
 62
3
 10
2198.069
 20
-6940.321
 30
-2247.000
 70
    32
  0
VERTEX
  8
W77LXLIFT
 62
3
 10
2196.305
 20
-6931.827
 30
-2247.000
 70
    32
  0
VERTEX
  8
W77LXLIFT
 62
3
 10
2197.290
 20
-6929.955
 30
-2247.000
 70
    32
  0
VERTEX
  8
W77LXLIFT
 62
3
 10
2195.378
 20
-6924.045
 30
-2247.000
 70
    32
  0
VERTEX
  8
W77LXLIFT
 62
3
 10
2203.807
 20
-6919.161
 30
-2247.000
 70
    32
  0
VERTEX
  8
W77LXLIFT
 62
3
 10
2204.142
 20
-6918.312
 30
-2247.000
 70
    32
  0
VERTEX
  8
W77LXLIFT
 62
3
 10
2205.132
 20
-6917.569
 30
-2247.000
 70
    32
  0
VERTEX
  8
W77LXLIFT
 62
3
 10
2211.956
 20
-6933.180
 30
-2247.000
 70
    32
  0
VERTEX
  8
W77LXLIFT
 62
3
 10
2211.955
 20
-6933.180
 30
-2247.000
 70
    32
  0
VERTEX
  8
W77LXLIFT
 62
3
 10
2212.395
 20
-6933.730
 30
-2247.000
 70
    32
  0
VERTEX
  8
W77LXLIFT
 62
3
 10
2216.505
 20
-6940.134
 30
-2247.000
 70
    32
  0
VERTEX
  8
W77LXLIFT
 62
3
 10
2217.588
 20
-6941.491
 30
-2247.000
 70
    32
  0
VERTEX
  8
W77LXLIFT
 62
3
 10
2228.295
 20
-6953.468
 30
-2247.000
 70
    32
  0
VERTEX
  8
W77LXLIFT
 62
3
 10
2231.685
 20
-6955.783
 30
-2247.000
 70
    32
  0
VERTEX
  8
W77LXLIFT
 62
3
 10
2232.625
 20
-6957.359
 30
-2247.000
 70
    32
  0
VERTEX
  8
W77LXLIFT
 62
3
 10
2232.609
 20
-6957.758
 30
-2247.000
 70
    32
  0
VERTEX
  8
W77LXLIFT
 62
3
 10
2233.322
 20
-6966.727
 30
-2247.000
 70
    32
  0
VERTEX
  8
W77LXLIFT
 62
3
 10
2233.268
 20
-6968.208
 30
-2247.000
 70
    32
  0
VERTEX
  8
W77LXLIFT
 62
3
 10
2233.548
 20
-6972.693
 30
-2247.000
 70
    32
  0
VERTEX
  8
W77LXLIFT
 62
3
 10
2235.431
 20
-6978.865
 30
-2247.000
 70
    32
  0
VERTEX
  8
W77LXLIFT
 62
3
 10
2235.696
 20
-6979.415
 30
-2247.000
 70
    32
  0
VERTEX
  8
W77LXLIFT
 62
3
 10
2237.500
 20
-6985.708
 30
-2247.000
 70
    32
  0
VERTEX
  8
W77LXLIFT
 62
3
 10
2237.859
 20
-6986.454
 30
-2247.000
 70
    32
  0
VERTEX
  8
W77LXLIFT
 62
3
 10
2238.233
 20
-6989.002
 30
-2247.000
 70
    32
  0
VERTEX
  8
W77LXLIFT
 62
3
 10
2238.391
 20
-6989.340
 30
-2247.000
 70
    32
  0
VERTEX
  8
W77LXLIFT
 62
3
 10
2238.514
 20
-6989.596
 30
-2247.000
 70
    32
  0
VERTEX
  8
W77LXLIFT
 62
3
 10
2239.043
 20
-6990.707
 30
-2247.000
 70
    32
  0
VERTEX
  8
W77LXLIFT
 62
3
 10
2239.084
 20
-6990.793
 30
-2247.000
 70
    32
  0
VERTEX
  8
W77LXLIFT
 62
3
 10
2239.902
 20
-6991.057
 30
-2247.000
 70
    32
  0
SEQEND
  8
W77LXLIFT
  0
POLYLINE
  8
W77LXLIFT
 62
3
 66
     1
 70
     9
  0
VERTEX
  8
W77LXLIFT
 62
3
 10
2038.364
 20
-6402.548
 30
-2289.530
 70
    32
  0
VERTEX
  8
W77LXLIFT
 62
3
 10
2038.554
 20
-6399.870
 30
-2289.339
 70
    32
  0
VERTEX
  8
W77LXLIFT
 62
3
 10
2026.184
 20
-6376.167
 30
-2289.171
 70
    32
  0
VERTEX
  8
W77LXLIFT
 62
3
 10
2029.509
 20
-6369.669
 30
-2289.130
 70
    32
  0
VERTEX
  8
W77LXLIFT
 62
3
 10
2026.604
 20
-6354.397
 30
-2289.025
 70
    32
  0
VERTEX
  8
W77LXLIFT
 62
3
 10
2027.982
 20
-6351.655
 30
-2289.008
 70
    32
  0
VERTEX
  8
W77LXLIFT
 62
3
 10
2027.737
 20
-6343.201
 30
-2288.951
 70
    32
  0
VERTEX
  8
W77LXLIFT
 62
3
 10
2041.458
 20
-6338.650
 30
-2288.931
 70
    32
  0
VERTEX
  8
W77LXLIFT
 62
3
 10
2052.533
 20
-6345.463
 30
-2288.984
 70
    32
  0
VERTEX
  8
W77LXLIFT
 62
3
 10
2053.411
 20
-6349.366
 30
-2289.011
 70
    32
  0
VERTEX
  8
W77LXLIFT
 62
3
 10
2046.830
 20
-6370.969
 30
-2289.151
 70
    32
  0
VERTEX
  8
W77LXLIFT
 62
3
 10
2046.308
 20
-6377.888
 30
-2289.197
 70
    32
  0
VERTEX
  8
W77LXLIFT
 62
3
 10
2048.017
 20
-6385.392
 30
-2289.249
 70
    32
  0
VERTEX
  8
W77LXLIFT
 62
3
 10
2056.489
 20
-6391.956
 30
-2289.508
 70
    32
  0
VERTEX
  8
W77LXLIFT
 62
3
 10
2061.418
 20
-6397.689
 30
-2289.629
 70
    32
  0
VERTEX
  8
W77LXLIFT
 62
3
 10
2065.987
 20
-6412.984
 30
-2289.724
 70
    32
  0
VERTEX
  8
W77LXLIFT
 62
3
 10
2064.641
 20
-6416.016
 30
-2289.730
 70
    32
  0
VERTEX
  8
W77LXLIFT
 62
3
 10
2067.266
 20
-6425.521
 30
-2289.758
 70
    32
  0
VERTEX
  8
W77LXLIFT
 62
3
 10
2074.188
 20
-6431.011
 30
-2289.780
 70
    32
  0
VERTEX
  8
W77LXLIFT
 62
3
 10
2080.750
 20
-6440.359
 30
-2289.812
 70
    32
  0
VERTEX
  8
W77LXLIFT
 62
3
 10
2087.750
 20
-6449.239
 30
-2289.844
 70
    32
  0
VERTEX
  8
W77LXLIFT
 62
3
 10
2084.506
 20
-6456.167
 30
-2289.858
 70
    32
  0
VERTEX
  8
W77LXLIFT
 62
3
 10
2077.171
 20
-6463.626
 30
-2289.870
 70
    32
  0
VERTEX
  8
W77LXLIFT
 62
3
 10
2075.381
 20
-6470.534
 30
-2289.886
 70
    32
  0
VERTEX
  8
W77LXLIFT
 62
3
 10
2074.277
 20
-6479.953
 30
-2289.858
 70
    32
  0
VERTEX
  8
W77LXLIFT
 62
3
 10
2088.092
 20
-6496.975
 30
-2287.827
 70
    32
  0
VERTEX
  8
W77LXLIFT
 62
3
 10
2087.154
 20
-6504.077
 30
-2287.307
 70
    32
  0
VERTEX
  8
W77LXLIFT
 62
3
 10
2097.264
 20
-6517.901
 30
-2285.712
 70
    32
  0
VERTEX
  8
W77LXLIFT
 62
3
 10
2096.779
 20
-6521.089
 30
-2285.482
 70
    32
  0
VERTEX
  8
W77LXLIFT
 62
3
 10
2100.658
 20
-6526.484
 30
-2284.862
 70
    32
  0
VERTEX
  8
W77LXLIFT
 62
3
 10
2087.881
 20
-6535.216
 30
-2284.790
 70
    32
  0
VERTEX
  8
W77LXLIFT
 62
3
 10
2076.582
 20
-6520.335
 30
-2286.527
 70
    32
  0
VERTEX
  8
W77LXLIFT
 62
3
 10
2069.545
 20
-6507.146
 30
-2287.922
 70
    32
  0
VERTEX
  8
W77LXLIFT
 62
3
 10
2063.806
 20
-6500.331
 30
-2288.745
 70
    32
  0
VERTEX
  8
W77LXLIFT
 62
3
 10
2058.642
 20
-6489.822
 30
-2289.834
 70
    32
  0
VERTEX
  8
W77LXLIFT
 62
3
 10
2058.193
 20
-6488.927
 30
-2289.312
 70
    32
  0
VERTEX
  8
W77LXLIFT
 62
3
 10
2058.763
 20
-6479.928
 30
-2289.418
 70
    32
  0
VERTEX
  8
W77LXLIFT
 62
3
 10
2054.207
 20
-6473.911
 30
-2289.477
 70
    32
  0
VERTEX
  8
W77LXLIFT
 62
3
 10
2056.600
 20
-6465.178
 30
-2289.585
 70
    32
  0
VERTEX
  8
W77LXLIFT
 62
3
 10
2054.531
 20
-6459.415
 30
-2289.647
 70
    32
  0
VERTEX
  8
W77LXLIFT
 62
3
 10
2059.679
 20
-6453.756
 30
-2289.727
 70
    32
  0
VERTEX
  8
W77LXLIFT
 62
3
 10
2060.450
 20
-6450.940
 30
-2289.762
 70
    32
  0
VERTEX
  8
W77LXLIFT
 62
3
 10
2059.746
 20
-6446.109
 30
-2289.804
 70
    32
  0
VERTEX
  8
W77LXLIFT
 62
3
 10
2052.352
 20
-6435.571
 30
-2289.768
 70
    32
  0
VERTEX
  8
W77LXLIFT
 62
3
 10
2053.132
 20
-6428.178
 30
-2289.749
 70
    32
  0
VERTEX
  8
W77LXLIFT
 62
3
 10
2048.682
 20
-6420.201
 30
-2289.723
 70
    32
  0
VERTEX
  8
W77LXLIFT
 62
3
 10
2039.331
 20
-6420.060
 30
-2289.712
 70
    32
  0
SEQEND
  8
W77LXLIFT
  0
TEXT
  8
W77LXLIFT
 62
3
 10
2036.261
 20
-6352.853
 30
-2289.022
 40
1.969
  1
BK -2289.022
 50
36.162
 41
 1.0 
  0
TEXT
  8
W77LXLIFT
 62
3
 10
2039.209
 20
-6380.292
 30
-2289.208
 40
1.969
  1
BK -2289.208
 50
36.355
 41
 1.0 
  0
TEXT
  8
W77LXLIFT
 62
3
 10
2070.346
 20
-6448.104
 30
-2289.821
 40
1.969
  1
BK -2289.821
 50
36.355
 41
 1.0 
  0
TEXT
  8
W77LXLIFT
 62
3
 10
2041.226
 20
-6471.869
 30
-2289.273
 40
1.969
  1
-2289.273
 50
22.490
 41
 1.0 
  0
TEXT
  8
W77LXLIFT
 62
3
 10
2046.248
 20
-6473.251
 30
-2289.273
 40
1.969
  1
ST-181T
 50
22.490
 41
 1.0 
  0
POINT
  8
W77LXLIFT
 62
3
 10
2061.347
 20
-6465.740
 30
-2289.273
  0
POLYLINE
  8
W77LXLIFT
 62
3
 66
     1
 70
     9
  0
VERTEX
  8
W77LXLIFT
 62
3
 10
2061.347
 20
-6463.530
 30
-2289.273
 70
    32
  0
VERTEX
  8
W77LXLIFT
 62
3
 10
2063.096
 20
-6466.710
 30
-2289.273
 70
    32
  0
VERTEX
  8
W77LXLIFT
 62
3
 10
2059.597
 20
-6466.708
 30
-2289.273
 70
    32
  0
SEQEND
  8
W77LXLIFT
  0
POINT
  8
W77LXLIFT
 62
3
 10
2064.486
 20
-6473.975
 30
-2289.503
  0
POLYLINE
  8
W77LXLIFT
 62
3
 66
     1
 70
     9
  0
VERTEX
  8
W77LXLIFT
 62
3
 10
2064.486
 20
-6471.765
 30
-2289.503
 70
    32
  0
VERTEX
  8
W77LXLIFT
 62
3
 10
2066.235
 20
-6474.945
 30
-2289.503
 70
    32
  0
VERTEX
  8
W77LXLIFT
 62
3
 10
2062.736
 20
-6474.943
 30
-2289.503
 70
    32
  0
SEQEND
  8
W77LXLIFT
  0
TEXT
  8
W77LXLIFT
 62
3
 10
2048.784
 20
-6481.443
 30
-2289.503
 40
1.969
  1
ST-181S
 50
22.490
 41
 1.0 
  0
TEXT
  8
W77LXLIFT
 62
3
 10
2046.348
 20
-6485.476
 30
-2289.503
 40
1.969
  1
-2289.503
 50
22.490
 41
 1.0 
  0
POLYLINE
  8
W77LXLIFT
 62
6
 66
     1
 70
     9
  0
VERTEX
  8
W77LXLIFT
 62
6
 10
2024.078
 20
-6405.762
 30
-2278.294
 70
    32
  0
VERTEX
  8
W77LXLIFT
 62
6
 10
2029.063
 20
-6406.790
 30
-2278.294
 70
    32
  0
VERTEX
  8
W77LXLIFT
 62
6
 10
2032.550
 20
-6405.747
 30
-2279.052
 70
    32
  0
VERTEX
  8
W77LXLIFT
 62
6
 10
2030.206
 20
-6394.389
 30
-2278.896
 70
    32
  0
VERTEX
  8
W77LXLIFT
 62
6
 10
2033.441
 20
-6389.602
 30
-2278.968
 70
    32
  0
VERTEX
  8
W77LXLIFT
 62
6
 10
2030.066
 20
-6381.886
 30
-2278.779
 70
    32
  0
VERTEX
  8
W77LXLIFT
 62
6
 10
2029.522
 20
-6370.952
 30
-2278.443
 70
    32
  0
VERTEX
  8
W77LXLIFT
 62
6
 10
2024.777
 20
-6353.050
 30
-2278.216
 70
    32
  0
VERTEX
  8
W77LXLIFT
 62
6
 10
2020.407
 20
-6346.732
 30
-2279.366
 70
    32
  0
VERTEX
  8
W77LXLIFT
 62
6
 10
2017.958
 20
-6337.366
 30
-2280.381
 70
    32
  0
VERTEX
  8
W77LXLIFT
 62
6
 10
2014.582
 20
-6330.306
 30
-2279.872
 70
    32
  0
VERTEX
  8
W77LXLIFT
 62
6
 10
2026.808
 20
-6323.548
 30
-2278.441
 70
    32
  0
VERTEX
  8
W77LXLIFT
 62
6
 10
2031.724
 20
-6336.658
 30
-2278.878
 70
    32
  0
VERTEX
  8
W77LXLIFT
 62
6
 10
2035.613
 20
-6338.668
 30
-2278.932
 70
    32
  0
VERTEX
  8
W77LXLIFT
 62
6
 10
2042.772
 20
-6341.983
 30
-2277.221
 70
    32
  0
VERTEX
  8
W77LXLIFT
 62
6
 10
2050.642
 20
-6351.948
 30
-2276.096
 70
    32
  0
VERTEX
  8
W77LXLIFT
 62
6
 10
2052.049
 20
-6358.372
 30
-2276.143
 70
    32
  0
VERTEX
  8
W77LXLIFT
 62
6
 10
2050.150
 20
-6367.626
 30
-2276.579
 70
    32
  0
VERTEX
  8
W77LXLIFT
 62
6
 10
2051.171
 20
-6375.785
 30
-2277.863
 70
    32
  0
VERTEX
  8
W77LXLIFT
 62
6
 10
2050.977
 20
-6381.092
 30
-2277.716
 70
    32
  0
VERTEX
  8
W77LXLIFT
 62
6
 10
2051.720
 20
-6387.042
 30
-2278.434
 70
    32
  0
VERTEX
  8
W77LXLIFT
 62
6
 10
2059.818
 20
-6394.692
 30
-2277.622
 70
    32
  0
VERTEX
  8
W77LXLIFT
 62
6
 10
2063.876
 20
-6407.522
 30
-2276.697
 70
    32
  0
VERTEX
  8
W77LXLIFT
 62
6
 10
2065.389
 20
-6415.464
 30
-2276.899
 70
    32
  0
VERTEX
  8
W77LXLIFT
 62
6
 10
2063.184
 20
-6426.860
 30
-2276.116
 70
    32
  0
VERTEX
  8
W77LXLIFT
 62
6
 10
2058.505
 20
-6431.144
 30
-2278.134
 70
    32
  0
VERTEX
  8
W77LXLIFT
 62
6
 10
2059.347
 20
-6437.103
 30
-2279.388
 70
    32
  0
VERTEX
  8
W77LXLIFT
 62
6
 10
2068.518
 20
-6456.398
 30
-2277.224
 70
    32
  0
VERTEX
  8
W77LXLIFT
 62
6
 10
2068.811
 20
-6462.666
 30
-2278.245
 70
    32
  0
VERTEX
  8
W77LXLIFT
 62
6
 10
2071.747
 20
-6472.297
 30
-2276.411
 70
    32
  0
VERTEX
  8
W77LXLIFT
 62
6
 10
2073.586
 20
-6473.651
 30
-2276.567
 70
    32
  0
VERTEX
  8
W77LXLIFT
 62
6
 10
2085.798
 20
-6496.650
 30
-2275.954
 70
    32
  0
VERTEX
  8
W77LXLIFT
 62
6
 10
2089.302
 20
-6508.250
 30
-2274.896
 70
    32
  0
VERTEX
  8
W77LXLIFT
 62
6
 10
2100.067
 20
-6525.026
 30
-2274.526
 70
    32
  0
VERTEX
  8
W77LXLIFT
 62
6
 10
2095.890
 20
-6534.256
 30
-2277.783
 70
    32
  0
VERTEX
  8
W77LXLIFT
 62
6
 10
2104.776
 20
-6553.261
 30
-2276.487
 70
    32
  0
VERTEX
  8
W77LXLIFT
 62
6
 10
2107.233
 20
-6558.910
 30
-2274.959
 70
    32
  0
VERTEX
  8
W77LXLIFT
 62
6
 10
2109.297
 20
-6570.868
 30
-2277.300
 70
    32
  0
VERTEX
  8
W77LXLIFT
 62
6
 10
2091.595
 20
-6574.151
 30
-2277.300
 70
    32
  0
VERTEX
  8
W77LXLIFT
 62
6
 10
2089.017
 20
-6562.387
 30
-2277.300
 70
    32
  0
VERTEX
  8
W77LXLIFT
 62
6
 10
2084.634
 20
-6543.226
 30
-2278.819
 70
    32
  0
VERTEX
  8
W77LXLIFT
 62
6
 10
2080.995
 20
-6533.954
 30
-2279.602
 70
    32
  0
VERTEX
  8
W77LXLIFT
 62
6
 10
2076.949
 20
-6528.215
 30
-2276.007
 70
    32
  0
VERTEX
  8
W77LXLIFT
 62
6
 10
2065.349
 20
-6508.913
 30
-2277.601
 70
    32
  0
VERTEX
  8
W77LXLIFT
 62
6
 10
2061.657
 20
-6504.796
 30
-2277.151
 70
    32
  0
VERTEX
  8
W77LXLIFT
 62
6
 10
2057.748
 20
-6499.788
 30
-2278.024
 70
    32
  0
VERTEX
  8
W77LXLIFT
 62
6
 10
2052.351
 20
-6487.452
 30
-2279.175
 70
    32
  0
VERTEX
  8
W77LXLIFT
 62
6
 10
2050.569
 20
-6468.496
 30
-2278.522
 70
    32
  0
VERTEX
  8
W77LXLIFT
 62
6
 10
2048.499
 20
-6464.468
 30
-2279.507
 70
    32
  0
VERTEX
  8
W77LXLIFT
 62
6
 10
2046.461
 20
-6461.231
 30
-2279.172
 70
    32
  0
VERTEX
  8
W77LXLIFT
 62
6
 10
2039.255
 20
-6450.714
 30
-2279.257
 70
    32
  0
VERTEX
  8
W77LXLIFT
 62
6
 10
2038.038
 20
-6442.674
 30
-2280.881
 70
    32
  0
VERTEX
  8
W77LXLIFT
 62
6
 10
2039.075
 20
-6433.550
 30
-2281.505
 70
    32
  0
VERTEX
  8
W77LXLIFT
 62
6
 10
2037.331
 20
-6427.955
 30
-2280.539
 70
    32
  0
VERTEX
  8
W77LXLIFT
 62
6
 10
2033.834
 20
-6424.292
 30
-2278.063
 70
    32
  0
VERTEX
  8
W77LXLIFT
 62
6
 10
2025.835
 20
-6423.168
 30
-2278.294
 70
    32
  0
SEQEND
  8
W77LXLIFT
  0
TEXT
  8
W77LXLIFT
 62
6
 10
2025.590
 20
-6409.823
 30
-2278.723
 40
1.969
  1
ST-285S
 41
 1.0 
  0
TEXT
  8
W77LXLIFT
 62
6
 10
2021.984
 20
-6406.605
 30
-2278.723
 40
1.969
  1
-2278.723
 41
 1.0 
  0
POLYLINE
  8
W77LXLIFT
 62
6
 66
     1
 70
     9
  0
VERTEX
  8
W77LXLIFT
 62
6
 10
2042.069
 20
-6403.153
 30
-2278.723
 70
    32
  0
VERTEX
  8
W77LXLIFT
 62
6
 10
2043.818
 20
-6406.333
 30
-2278.723
 70
    32
  0
VERTEX
  8
W77LXLIFT
 62
6
 10
2040.319
 20
-6406.331
 30
-2278.723
 70
    32
  0
SEQEND
  8
W77LXLIFT
  0
POINT
  8
W77LXLIFT
 62
6
 10
2042.069
 20
-6405.363
 30
-2278.723
  0
TEXT
  8
W77LXLIFT
 62
6
 10
2041.492
 20
-6386.238
 30
-2279.016
 40
1.969
  1
BK -2279.016
 41
 1.0 
  0
TEXT
  8
W77LXLIFT
 62
6
 10
2050.856
 20
-6411.122
 30
-2278.294
 40
1.969
  1
BK -2278.294
 50
35.670
 41
 1.0 
  0
TEXT
  8
W77LXLIFT
 62
6
 10
2047.072
 20
-6417.670
 30
-2276.515
 40
1.969
  1
BK -2276.515
 50
35.670
 41
 1.0 
  0
TEXT
  8
W77LXLIFT
 62
6
 10
2049.791
 20
-6429.075
 30
-2279.100
 40
1.969
  1
ST-285T
 41
 1.0 
  0
TEXT
  8
W77LXLIFT
 62
6
 10
2049.718
 20
-6432.563
 30
-2279.100
 40
1.969
  1
-2279.100
 41
 1.0 
  0
POINT
  8
W77LXLIFT
 62
6
 10
2046.697
 20
-6429.051
 30
-2279.100
  0
POLYLINE
  8
W77LXLIFT
 62
6
 66
     1
 70
     9
  0
VERTEX
  8
W77LXLIFT
 62
6
 10
2046.697
 20
-6426.841
 30
-2279.100
 70
    32
  0
VERTEX
  8
W77LXLIFT
 62
6
 10
2048.446
 20
-6430.021
 30
-2279.100
 70
    32
  0
VERTEX
  8
W77LXLIFT
 62
6
 10
2044.947
 20
-6430.019
 30
-2279.100
 70
    32
  0
SEQEND
  8
W77LXLIFT
  0
TEXT
  8
W77LXLIFT
 62
3
 10
2089.478
 20
-6521.415
 30
-2285.812
 40
1.969
  1
BK -2285.812
 50
36.162
 41
 1.0 
  0
POLYLINE
  8
W77LXLIFT
 62
8
 66
     1
 70
     9
  0
VERTEX
  8
W77LXLIFT
 62
8
 10
2141.794
 20
-6609.830
 30
-2401.000
 70
    32
  0
VERTEX
  8
W77LXLIFT
 62
8
 10
2151.293
 20
-6617.800
 30
-2401.000
 70
    32
  0
VERTEX
  8
W77LXLIFT
 62
8
 10
2160.191
 20
-6623.675
 30
-2401.000
 70
    32
  0
VERTEX
  8
W77LXLIFT
 62
8
 10
2165.975
 20
-6626.910
 30
-2401.000
 70
    32
  0
VERTEX
  8
W77LXLIFT
 62
8
 10
2203.452
 20
-6703.750
 30
-2389.000
 70
    32
  0
VERTEX
  8
W77LXLIFT
 62
8
 10
2165.975
 20
-6626.910
 30
-2401.000
 70
    32
  0
VERTEX
  8
W77LXLIFT
 62
8
 10
2203.452
 20
-6703.750
 30
-2389.000
 70
    32
  0
VERTEX
  8
W77LXLIFT
 62
8
 10
2212.536
 20
-6699.784
 30
-2389.000
 70
    32
  0
VERTEX
  8
W77LXLIFT
 62
8
 10
2189.194
 20
-6642.545
 30
-2397.000
 70
    32
  0
VERTEX
  8
W77LXLIFT
 62
8
 10
2194.344
 20
-6638.330
 30
-2397.000
 70
    32
  0
VERTEX
  8
W77LXLIFT
 62
8
 10
2195.796
 20
-6635.943
 30
-2397.000
 70
    32
  0
VERTEX
  8
W77LXLIFT
 62
8
 10
2197.064
 20
-6635.935
 30
-2397.000
 70
    32
  0
VERTEX
  8
W77LXLIFT
 62
8
 10
2223.304
 20
-6645.647
 30
-2394.000
 70
    32
  0
VERTEX
  8
W77LXLIFT
 62
8
 10
2241.878
 20
-6655.326
 30
-2394.000
 70
    32
  0
VERTEX
  8
W77LXLIFT
 62
8
 10
2246.123
 20
-6652.896
 30
-2394.000
 70
    32
  0
VERTEX
  8
W77LXLIFT
 62
8
 10
2253.346
 20
-6655.937
 30
-2394.000
 70
    32
  0
VERTEX
  8
W77LXLIFT
 62
8
 10
2258.180
 20
-6647.664
 30
-2394.000
 70
    32
  0
VERTEX
  8
W77LXLIFT
 62
8
 10
2268.262
 20
-6646.772
 30
-2394.000
 70
    32
  0
VERTEX
  8
W77LXLIFT
 62
8
 10
2273.132
 20
-6635.890
 30
-2394.000
 70
    32
  0
VERTEX
  8
W77LXLIFT
 62
8
 10
2271.922
 20
-6625.344
 30
-2394.000
 70
    32
  0
VERTEX
  8
W77LXLIFT
 62
8
 10
2265.794
 20
-6625.667
 30
-2394.000
 70
    32
  0
VERTEX
  8
W77LXLIFT
 62
8
 10
2257.511
 20
-6615.978
 30
-2394.000
 70
    32
  0
VERTEX
  8
W77LXLIFT
 62
8
 10
2242.061
 20
-6602.327
 30
-2394.000
 70
    32
  0
VERTEX
  8
W77LXLIFT
 62
8
 10
2240.655
 20
-6595.848
 30
-2394.000
 70
    32
  0
VERTEX
  8
W77LXLIFT
 62
8
 10
2235.744
 20
-6594.909
 30
-2394.000
 70
    32
  0
VERTEX
  8
W77LXLIFT
 62
8
 10
2218.504
 20
-6607.808
 30
-2394.000
 70
    32
  0
VERTEX
  8
W77LXLIFT
 62
8
 10
2221.649
 20
-6617.558
 30
-2394.000
 70
    32
  0
VERTEX
  8
W77LXLIFT
 62
8
 10
2220.608
 20
-6621.759
 30
-2394.000
 70
    32
  0
VERTEX
  8
W77LXLIFT
 62
8
 10
2218.750
 20
-6623.009
 30
-2394.000
 70
    32
  0
VERTEX
  8
W77LXLIFT
 62
8
 10
2197.384
 20
-6627.711
 30
-2401.000
 70
    32
  0
VERTEX
  8
W77LXLIFT
 62
8
 10
2188.975
 20
-6626.179
 30
-2401.000
 70
    32
  0
VERTEX
  8
W77LXLIFT
 62
8
 10
2175.724
 20
-6621.614
 30
-2401.000
 70
    32
  0
VERTEX
  8
W77LXLIFT
 62
8
 10
2163.152
 20
-6614.691
 30
-2401.000
 70
    32
  0
VERTEX
  8
W77LXLIFT
 62
8
 10
2153.553
 20
-6607.582
 30
-2401.000
 70
    32
  0
VERTEX
  8
W77LXLIFT
 62
8
 10
2148.736
 20
-6602.586
 30
-2401.000
 70
    32
  0
SEQEND
  8
W77LXLIFT
  0
POLYLINE
  8
W77LXLIFT
 62
3
 66
     1
 70
     9
  0
VERTEX
  8
W77LXLIFT
 62
3
 10
1766.386
 20
-5773.407
 30
-2406.142
 70
    32
  0
VERTEX
  8
W77LXLIFT
 62
3
 10
1767.365
 20
-5780.139
 30
-2406.153
 70
    32
  0
VERTEX
  8
W77LXLIFT
 62
3
 10
1774.864
 20
-5797.552
 30
-2406.120
 70
    32
  0
VERTEX
  8
W77LXLIFT
 62
3
 10
1777.692
 20
-5809.016
 30
-2406.124
 70
    32
  0
VERTEX
  8
W77LXLIFT
 62
3
 10
1776.839
 20
-5811.264
 30
-2406.142
 70
    32
  0
VERTEX
  8
W77LXLIFT
 62
3
 10
1790.135
 20
-5845.349
 30
-2406.095
 70
    32
  0
VERTEX
  8
W77LXLIFT
 62
3
 10
1795.198
 20
-5854.856
 30
-2406.058
 70
    32
  0
VERTEX
  8
W77LXLIFT
 62
3
 10
1799.153
 20
-5869.952
 30
-2405.996
 70
    32
  0
VERTEX
  8
W77LXLIFT
 62
3
 10
1806.126
 20
-5889.619
 30
-2405.917
 70
    32
  0
VERTEX
  8
W77LXLIFT
 62
3
 10
1797.973
 20
-5896.235
 30
-2405.888
 70
    32
  0
VERTEX
  8
W77LXLIFT
 62
3
 10
1788.510
 20
-5897.818
 30
-2405.880
 70
    32
  0
VERTEX
  8
W77LXLIFT
 62
3
 10
1783.339
 20
-5891.248
 30
-2405.906
 70
    32
  0
VERTEX
  8
W77LXLIFT
 62
3
 10
1774.331
 20
-5888.488
 30
-2405.916
 70
    32
  0
VERTEX
  8
W77LXLIFT
 62
3
 10
1772.949
 20
-5881.224
 30
-2405.946
 70
    32
  0
VERTEX
  8
W77LXLIFT
 62
3
 10
1767.571
 20
-5880.740
 30
-2405.947
 70
    32
  0
VERTEX
  8
W77LXLIFT
 62
3
 10
1767.571
 20
-5880.740
 30
-2405.947
 70
    32
  0
VERTEX
  8
W77LXLIFT
 62
3
 10
1761.382
 20
-5862.777
 30
-2406.019
 70
    32
  0
VERTEX
  8
W77LXLIFT
 62
3
 10
1750.884
 20
-5835.144
 30
-2406.131
 70
    32
  0
VERTEX
  8
W77LXLIFT
 62
3
 10
1744.456
 20
-5813.449
 30
-2406.218
 70
    32
  0
VERTEX
  8
W77LXLIFT
 62
3
 10
1739.752
 20
-5793.378
 30
-2406.300
 70
    32
  0
VERTEX
  8
W77LXLIFT
 62
3
 10
1739.214
 20
-5785.679
 30
-2406.331
 70
    32
  0
VERTEX
  8
W77LXLIFT
 62
3
 10
1735.408
 20
-5776.716
 30
-2406.367
 70
    32
  0
VERTEX
  8
W77LXLIFT
 62
3
 10
1727.567
 20
-5764.150
 30
-2406.417
 70
    32
  0
VERTEX
  8
W77LXLIFT
 62
3
 10
1726.276
 20
-5756.097
 30
-2406.450
 70
    32
  0
VERTEX
  8
W77LXLIFT
 62
3
 10
1734.604
 20
-5747.242
 30
-2406.439
 70
    32
  0
VERTEX
  8
W77LXLIFT
 62
3
 10
1748.552
 20
-5746.478
 30
-2406.268
 70
    32
  0
VERTEX
  8
W77LXLIFT
 62
3
 10
1753.116
 20
-5761.133
 30
-2406.262
 70
    32
  0
VERTEX
  8
W77LXLIFT
 62
3
 10
1758.970
 20
-5765.134
 30
-2406.204
 70
    32
  0
SEQEND
  8
W77LXLIFT
  0
POLYLINE
  8
W77LXLIFT
 62
7
 66
     1
 70
     9
  0
VERTEX
  8
W77LXLIFT
 62
7
 10
1766.829
 20
-5769.248
 30
-2400.000
 70
    32
  0
VERTEX
  8
W77LXLIFT
 62
7
 10
1770.600
 20
-5790.600
 30
-2400.000
 70
    32
  0
VERTEX
  8
W77LXLIFT
 62
7
 10
1773.700
 20
-5798.600
 30
-2400.000
 70
    32
  0
VERTEX
  8
W77LXLIFT
 62
7
 10
1781.462
 20
-5828.096
 30
-2400.000
 70
    32
  0
VERTEX
  8
W77LXLIFT
 62
7
 10
1785.700
 20
-5836.200
 30
-2400.000
 70
    32
  0
VERTEX
  8
W77LXLIFT
 62
7
 10
1795.800
 20
-5857.500
 30
-2400.000
 70
    32
  0
VERTEX
  8
W77LXLIFT
 62
7
 10
1806.400
 20
-5892.900
 30
-2400.000
 70
    32
  0
VERTEX
  8
W77LXLIFT
 62
7
 10
1796.100
 20
-5901.600
 30
-2400.000
 70
    32
  0
VERTEX
  8
W77LXLIFT
 62
7
 10
1788.600
 20
-5903.200
 30
-2400.000
 70
    32
  0
VERTEX
  8
W77LXLIFT
 62
7
 10
1781.900
 20
-5894.300
 30
-2400.000
 70
    32
  0
VERTEX
  8
W77LXLIFT
 62
7
 10
1773.500
 20
-5892.100
 30
-2400.000
 70
    32
  0
VERTEX
  8
W77LXLIFT
 62
7
 10
1768.900
 20
-5884.400
 30
-2400.000
 70
    32
  0
VERTEX
  8
W77LXLIFT
 62
7
 10
1754.000
 20
-5856.300
 30
-2400.000
 70
    32
  0
VERTEX
  8
W77LXLIFT
 62
7
 10
1751.131
 20
-5837.234
 30
-2400.000
 70
    32
  0
VERTEX
  8
W77LXLIFT
 62
7
 10
1747.600
 20
-5833.400
 30
-2400.000
 70
    32
  0
VERTEX
  8
W77LXLIFT
 62
7
 10
1742.100
 20
-5833.400
 30
-2400.000
 70
    32
  0
VERTEX
  8
W77LXLIFT
 62
7
 10
1739.600
 20
-5828.700
 30
-2400.000
 70
    32
  0
VERTEX
  8
W77LXLIFT
 62
7
 10
1743.400
 20
-5812.200
 30
-2400.000
 70
    32
  0
VERTEX
  8
W77LXLIFT
 62
7
 10
1735.000
 20
-5787.900
 30
-2400.000
 70
    32
  0
VERTEX
  8
W77LXLIFT
 62
7
 10
1726.900
 20
-5765.700
 30
-2400.000
 70
    32
  0
VERTEX
  8
W77LXLIFT
 62
7
 10
1729.100
 20
-5752.400
 30
-2400.000
 70
    32
  0
VERTEX
  8
W77LXLIFT
 62
7
 10
1748.000
 20
-5748.700
 30
-2400.000
 70
    32
  0
VERTEX
  8
W77LXLIFT
 62
7
 10
1750.900
 20
-5758.000
 30
-2400.000
 70
    32
  0
VERTEX
  8
W77LXLIFT
 62
7
 10
1759.900
 20
-5763.100
 30
-2400.000
 70
    32
  0
SEQEND
  8
W77LXLIFT
  0
POLYLINE
  8
W77LXLIFT
 62
7
 66
     1
 70
     9
  0
VERTEX
  8
W77LXLIFT
 62
7
 10
2271.768
 20
-6764.674
 30
-2361.000
 70
    32
  0
VERTEX
  8
W77LXLIFT
 62
7
 10
2260.632
 20
-6769.146
 30
-2361.000
 70
    32
  0
VERTEX
  8
W77LXLIFT
 62
7
 10
2233.077
 20
-6700.497
 30
-2361.000
 70
    32
  0
VERTEX
  8
W77LXLIFT
 62
7
 10
2226.500
 20
-6690.900
 30
-2361.000
 70
    32
  0
VERTEX
  8
W77LXLIFT
 62
7
 10
2218.000
 20
-6680.200
 30
-2361.000
 70
    32
  0
VERTEX
  8
W77LXLIFT
 62
7
 10
2212.800
 20
-6671.800
 30
-2361.000
 70
    32
  0
VERTEX
  8
W77LXLIFT
 62
7
 10
2205.300
 20
-6668.200
 30
-2361.000
 70
    32
  0
VERTEX
  8
W77LXLIFT
 62
7
 10
2202.856
 20
-6659.298
 30
-2361.000
 70
    32
  0
VERTEX
  8
W77LXLIFT
 62
7
 10
2189.400
 20
-6648.800
 30
-2361.000
 70
    32
  0
VERTEX
  8
W77LXLIFT
 62
7
 10
2190.100
 20
-6641.100
 30
-2361.000
 70
    32
  0
VERTEX
  8
W77LXLIFT
 62
7
 10
2185.800
 20
-6632.300
 30
-2361.000
 70
    32
  0
VERTEX
  8
W77LXLIFT
 62
7
 10
2193.000
 20
-6625.300
 30
-2361.000
 70
    32
  0
VERTEX
  8
W77LXLIFT
 62
7
 10
2182.800
 20
-6605.500
 30
-2361.000
 70
    32
  0
VERTEX
  8
W77LXLIFT
 62
7
 10
2176.100
 20
-6594.800
 30
-2361.000
 70
    32
  0
VERTEX
  8
W77LXLIFT
 62
7
 10
2174.019
 20
-6591.814
 30
-2361.000
 70
    32
  0
VERTEX
  8
W77LXLIFT
 62
7
 10
2156.500
 20
-6577.000
 30
-2361.000
 70
    32
  0
VERTEX
  8
W77LXLIFT
 62
7
 10
2152.000
 20
-6559.600
 30
-2361.000
 70
    32
  0
VERTEX
  8
W77LXLIFT
 62
7
 10
2154.000
 20
-6551.300
 30
-2361.000
 70
    32
  0
VERTEX
  8
W77LXLIFT
 62
7
 10
2150.100
 20
-6538.200
 30
-2361.000
 70
    32
  0
VERTEX
  8
W77LXLIFT
 62
7
 10
2167.200
 20
-6528.900
 30
-2361.000
 70
    32
  0
VERTEX
  8
W77LXLIFT
 62
7
 10
2174.200
 20
-6541.100
 30
-2361.000
 70
    32
  0
VERTEX
  8
W77LXLIFT
 62
7
 10
2191.100
 20
-6564.600
 30
-2361.000
 70
    32
  0
VERTEX
  8
W77LXLIFT
 62
7
 10
2193.800
 20
-6570.200
 30
-2361.000
 70
    32
  0
VERTEX
  8
W77LXLIFT
 62
7
 10
2205.500
 20
-6583.100
 30
-2361.000
 70
    32
  0
VERTEX
  8
W77LXLIFT
 62
7
 10
2212.100
 20
-6597.700
 30
-2361.000
 70
    32
  0
VERTEX
  8
W77LXLIFT
 62
7
 10
2213.300
 20
-6613.000
 30
-2361.000
 70
    32
  0
VERTEX
  8
W77LXLIFT
 62
7
 10
2213.400
 20
-6626.700
 30
-2361.000
 70
    32
  0
VERTEX
  8
W77LXLIFT
 62
7
 10
2221.701
 20
-6635.450
 30
-2361.000
 70
    32
  0
VERTEX
  8
W77LXLIFT
 62
7
 10
2231.400
 20
-6644.900
 30
-2361.000
 70
    32
  0
VERTEX
  8
W77LXLIFT
 62
7
 10
2246.400
 20
-6649.200
 30
-2361.000
 70
    32
  0
VERTEX
  8
W77LXLIFT
 62
7
 10
2250.600
 20
-6671.500
 30
-2361.000
 70
    32
  0
VERTEX
  8
W77LXLIFT
 62
7
 10
2254.200
 20
-6680.600
 30
-2361.000
 70
    32
  0
VERTEX
  8
W77LXLIFT
 62
7
 10
2245.070
 20
-6698.180
 30
-2361.000
 70
    32
  0
SEQEND
  8
W77LXLIFT
  0
POLYLINE
  8
W77LXLIFT
 62
1
 66
     1
 70
     9
  0
VERTEX
  8
W77LXLIFT
 62
1
 10
2065.741
 20
-7098.125
 30
-2324.000
 70
    32
  0
VERTEX
  8
W77LXLIFT
 62
1
 10
2076.898
 20
-7106.678
 30
-2324.000
 70
    32
  0
VERTEX
  8
W77LXLIFT
 62
1
 10
2078.157
 20
-7109.026
 30
-2324.000
 70
    32
  0
VERTEX
  8
W77LXLIFT
 62
1
 10
2085.749
 20
-7125.574
 30
-2324.000
 70
    32
  0
VERTEX
  8
W77LXLIFT
 62
1
 10
2086.770
 20
-7127.442
 30
-2324.000
 70
    32
  0
VERTEX
  8
W77LXLIFT
 62
1
 10
2086.180
 20
-7135.352
 30
-2324.000
 70
    32
  0
VERTEX
  8
W77LXLIFT
 62
1
 10
2090.072
 20
-7140.899
 30
-2324.000
 70
    32
  0
VERTEX
  8
W77LXLIFT
 62
1
 10
2107.890
 20
-7170.578
 30
-2324.000
 70
    32
  0
VERTEX
  8
W77LXLIFT
 62
1
 10
2110.828
 20
-7173.450
 30
-2324.000
 70
    32
  0
VERTEX
  8
W77LXLIFT
 62
1
 10
2113.652
 20
-7175.862
 30
-2324.000
 70
    32
  0
VERTEX
  8
W77LXLIFT
 62
1
 10
2118.655
 20
-7178.438
 30
-2324.000
 70
    32
  0
VERTEX
  8
W77LXLIFT
 62
1
 10
2122.530
 20
-7180.201
 30
-2324.000
 70
    32
  0
VERTEX
  8
W77LXLIFT
 62
1
 10
2125.696
 20
-7181.282
 30
-2324.000
 70
    32
  0
VERTEX
  8
W77LXLIFT
 62
1
 10
2127.419
 20
-7182.318
 30
-2324.000
 70
    32
  0
VERTEX
  8
W77LXLIFT
 62
1
 10
2134.961
 20
-7196.841
 30
-2324.000
 70
    32
  0
VERTEX
  8
W77LXLIFT
 62
1
 10
2135.645
 20
-7198.843
 30
-2324.000
 70
    32
  0
VERTEX
  8
W77LXLIFT
 62
1
 10
2134.476
 20
-7202.940
 30
-2324.000
 70
    32
  0
VERTEX
  8
W77LXLIFT
 62
1
 10
2132.401
 20
-7205.629
 30
-2324.000
 70
    32
  0
VERTEX
  8
W77LXLIFT
 62
1
 10
2138.737
 20
-7227.206
 30
-2324.000
 70
    32
  0
VERTEX
  8
W77LXLIFT
 62
1
 10
2138.486
 20
-7228.363
 30
-2324.000
 70
    32
  0
VERTEX
  8
W77LXLIFT
 62
1
 10
2129.854
 20
-7233.393
 30
-2324.000
 70
    32
  0
VERTEX
  8
W77LXLIFT
 62
1
 10
2128.393
 20
-7231.517
 30
-2324.000
 70
    32
  0
VERTEX
  8
W77LXLIFT
 62
1
 10
2124.759
 20
-7226.327
 30
-2324.000
 70
    32
  0
VERTEX
  8
W77LXLIFT
 62
1
 10
2120.944
 20
-7219.531
 30
-2324.000
 70
    32
  0
VERTEX
  8
W77LXLIFT
 62
1
 10
2117.438
 20
-7213.163
 30
-2324.000
 70
    32
  0
VERTEX
  8
W77LXLIFT
 62
1
 10
2114.274
 20
-7210.128
 30
-2324.000
 70
    32
  0
VERTEX
  8
W77LXLIFT
 62
1
 10
2109.916
 20
-7207.846
 30
-2324.000
 70
    32
  0
VERTEX
  8
W77LXLIFT
 62
1
 10
2095.467
 20
-7192.770
 30
-2324.000
 70
    32
  0
VERTEX
  8
W77LXLIFT
 62
1
 10
2088.828
 20
-7188.227
 30
-2324.000
 70
    32
  0
VERTEX
  8
W77LXLIFT
 62
1
 10
2078.510
 20
-7186.554
 30
-2324.000
 70
    32
  0
VERTEX
  8
W77LXLIFT
 62
1
 10
2072.012
 20
-7183.862
 30
-2324.000
 70
    32
  0
VERTEX
  8
W77LXLIFT
 62
1
 10
2067.030
 20
-7179.209
 30
-2324.000
 70
    32
  0
VERTEX
  8
W77LXLIFT
 62
1
 10
2064.470
 20
-7174.003
 30
-2324.000
 70
    32
  0
VERTEX
  8
W77LXLIFT
 62
1
 10
2063.725
 20
-7169.659
 30
-2324.000
 70
    32
  0
VERTEX
  8
W77LXLIFT
 62
1
 10
2062.659
 20
-7164.569
 30
-2324.000
 70
    32
  0
VERTEX
  8
W77LXLIFT
 62
1
 10
2061.246
 20
-7162.008
 30
-2324.000
 70
    32
  0
VERTEX
  8
W77LXLIFT
 62
1
 10
2059.671
 20
-7159.672
 30
-2324.000
 70
    32
  0
VERTEX
  8
W77LXLIFT
 62
1
 10
2059.101
 20
-7158.130
 30
-2324.000
 70
    32
  0
VERTEX
  8
W77LXLIFT
 62
1
 10
2054.854
 20
-7132.227
 30
-2324.000
 70
    32
  0
VERTEX
  8
W77LXLIFT
 62
1
 10
2054.170
 20
-7130.225
 30
-2324.000
 70
    32
  0
VERTEX
  8
W77LXLIFT
 62
1
 10
2053.111
 20
-7126.649
 30
-2324.000
 70
    32
  0
VERTEX
  8
W77LXLIFT
 62
1
 10
2052.968
 20
-7122.088
 30
-2324.000
 70
    32
  0
VERTEX
  8
W77LXLIFT
 62
1
 10
2052.486
 20
-7119.614
 30
-2324.000
 70
    32
  0
VERTEX
  8
W77LXLIFT
 62
1
 10
2057.015
 20
-7111.902
 30
-2324.000
 70
    32
  0
VERTEX
  8
W77LXLIFT
 62
1
 10
2057.436
 20
-7110.079
 30
-2324.000
 70
    32
  0
VERTEX
  8
W77LXLIFT
 62
1
 10
2057.061
 20
-7108.505
 30
-2324.000
 70
    32
  0
VERTEX
  8
W77LXLIFT
 62
1
 10
2055.515
 20
-7103.653
 30
-2324.000
 70
    32
  0
SEQEND
  8
W77LXLIFT
  0
POLYLINE
  8
W77LXLIFT
 62
11
 66
     1
 70
     9
  0
VERTEX
  8
W77LXLIFT
 62
11
 10
2054.527
 20
-7104.970
 30
-2336.000
 70
    32
  0
VERTEX
  8
W77LXLIFT
 62
11
 10
2056.124
 20
-7109.894
 30
-2336.000
 70
    32
  0
VERTEX
  8
W77LXLIFT
 62
11
 10
2056.302
 20
-7110.742
 30
-2336.000
 70
    32
  0
VERTEX
  8
W77LXLIFT
 62
11
 10
2051.800
 20
-7119.846
 30
-2336.000
 70
    32
  0
VERTEX
  8
W77LXLIFT
 62
11
 10
2051.455
 20
-7120.420
 30
-2336.000
 70
    32
  0
VERTEX
  8
W77LXLIFT
 62
11
 10
2051.762
 20
-7122.802
 30
-2336.000
 70
    32
  0
VERTEX
  8
W77LXLIFT
 62
11
 10
2051.764
 20
-7125.513
 30
-2336.000
 70
    32
  0
VERTEX
  8
W77LXLIFT
 62
11
 10
2052.031
 20
-7128.141
 30
-2336.000
 70
    32
  0
VERTEX
  8
W77LXLIFT
 62
11
 10
2053.854
 20
-7133.227
 30
-2336.000
 70
    32
  0
VERTEX
  8
W77LXLIFT
 62
11
 10
2054.581
 20
-7140.405
 30
-2336.000
 70
    32
  0
VERTEX
  8
W77LXLIFT
 62
11
 10
2058.287
 20
-7159.538
 30
-2336.000
 70
    32
  0
VERTEX
  8
W77LXLIFT
 62
11
 10
2058.496
 20
-7160.581
 30
-2336.000
 70
    32
  0
VERTEX
  8
W77LXLIFT
 62
11
 10
2061.742
 20
-7165.835
 30
-2336.000
 70
    32
  0
VERTEX
  8
W77LXLIFT
 62
11
 10
2063.118
 20
-7174.063
 30
-2336.000
 70
    32
  0
VERTEX
  8
W77LXLIFT
 62
11
 10
2064.692
 20
-7178.353
 30
-2336.000
 70
    32
  0
VERTEX
  8
W77LXLIFT
 62
11
 10
2067.645
 20
-7182.299
 30
-2336.000
 70
    32
  0
VERTEX
  8
W77LXLIFT
 62
11
 10
2076.281
 20
-7187.355
 30
-2336.000
 70
    32
  0
VERTEX
  8
W77LXLIFT
 62
11
 10
2082.772
 20
-7188.533
 30
-2336.000
 70
    32
  0
VERTEX
  8
W77LXLIFT
 62
11
 10
2087.531
 20
-7189.116
 30
-2336.000
 70
    32
  0
VERTEX
  8
W77LXLIFT
 62
11
 10
2094.210
 20
-7193.413
 30
-2336.000
 70
    32
  0
VERTEX
  8
W77LXLIFT
 62
11
 10
2108.825
 20
-7209.020
 30
-2336.000
 70
    32
  0
VERTEX
  8
W77LXLIFT
 62
11
 10
2115.337
 20
-7212.787
 30
-2336.000
 70
    32
  0
VERTEX
  8
W77LXLIFT
 62
11
 10
2119.244
 20
-7219.408
 30
-2336.000
 70
    32
  0
VERTEX
  8
W77LXLIFT
 62
11
 10
2121.432
 20
-7223.797
 30
-2336.000
 70
    32
  0
VERTEX
  8
W77LXLIFT
 62
11
 10
2128.331
 20
-7234.119
 30
-2336.000
 70
    32
  0
VERTEX
  8
W77LXLIFT
 62
11
 10
2137.026
 20
-7229.478
 30
-2336.000
 70
    32
  0
VERTEX
  8
W77LXLIFT
 62
11
 10
2137.483
 20
-7228.606
 30
-2336.000
 70
    32
  0
VERTEX
  8
W77LXLIFT
 62
11
 10
2137.219
 20
-7226.735
 30
-2336.000
 70
    32
  0
VERTEX
  8
W77LXLIFT
 62
11
 10
2131.473
 20
-7206.578
 30
-2336.000
 70
    32
  0
VERTEX
  8
W77LXLIFT
 62
11
 10
2134.155
 20
-7202.474
 30
-2336.000
 70
    32
  0
VERTEX
  8
W77LXLIFT
 62
11
 10
2134.585
 20
-7200.211
 30
-2336.000
 70
    32
  0
VERTEX
  8
W77LXLIFT
 62
11
 10
2133.981
 20
-7197.718
 30
-2336.000
 70
    32
  0
VERTEX
  8
W77LXLIFT
 62
11
 10
2128.125
 20
-7185.233
 30
-2336.000
 70
    32
  0
VERTEX
  8
W77LXLIFT
 62
11
 10
2126.347
 20
-7183.369
 30
-2336.000
 70
    32
  0
VERTEX
  8
W77LXLIFT
 62
11
 10
2124.030
 20
-7182.111
 30
-2336.000
 70
    32
  0
VERTEX
  8
W77LXLIFT
 62
11
 10
2114.878
 20
-7178.295
 30
-2336.000
 70
    32
  0
VERTEX
  8
W77LXLIFT
 62
11
 10
2111.935
 20
-7176.620
 30
-2336.000
 70
    32
  0
VERTEX
  8
W77LXLIFT
 62
11
 10
2109.571
 20
-7174.093
 30
-2336.000
 70
    32
  0
VERTEX
  8
W77LXLIFT
 62
11
 10
2106.541
 20
-7171.396
 30
-2336.000
 70
    32
  0
VERTEX
  8
W77LXLIFT
 62
11
 10
2089.052
 20
-7142.022
 30
-2336.000
 70
    32
  0
VERTEX
  8
W77LXLIFT
 62
11
 10
2085.078
 20
-7136.209
 30
-2336.000
 70
    32
  0
VERTEX
  8
W77LXLIFT
 62
11
 10
2085.504
 20
-7128.525
 30
-2336.000
 70
    32
  0
VERTEX
  8
W77LXLIFT
 62
11
 10
2077.299
 20
-7109.923
 30
-2336.000
 70
    32
  0
VERTEX
  8
W77LXLIFT
 62
11
 10
2075.641
 20
-7107.322
 30
-2336.000
 70
    32
  0
VERTEX
  8
W77LXLIFT
 62
11
 10
2070.960
 20
-7103.537
 30
-2336.000
 70
    32
  0
VERTEX
  8
W77LXLIFT
 62
11
 10
2064.792
 20
-7099.196
 30
-2336.000
 70
    32
  0
SEQEND
  8
W77LXLIFT
  0
POLYLINE
  8
W77LXLIFT
 62
8
 66
     1
 70
     9
  0
VERTEX
  8
W77LXLIFT
 62
8
 10
2543.385
 20
-8076.183
 30
-2349.419
 70
    32
  0
VERTEX
  8
W77LXLIFT
 62
8
 10
2551.581
 20
-8076.559
 30
-2347.726
 70
    32
  0
VERTEX
  8
W77LXLIFT
 62
8
 10
2557.227
 20
-8083.815
 30
-2348.029
 70
    32
  0
VERTEX
  8
W77LXLIFT
 62
8
 10
2562.114
 20
-8089.911
 30
-2348.688
 70
    32
  0
VERTEX
  8
W77LXLIFT
 62
8
 10
2571.028
 20
-8101.404
 30
-2348.569
 70
    32
  0
VERTEX
  8
W77LXLIFT
 62
8
 10
2579.360
 20
-8108.854
 30
-2349.157
 70
    32
  0
VERTEX
  8
W77LXLIFT
 62
8
 10
2585.442
 20
-8119.599
 30
-2348.092
 70
    32
  0
VERTEX
  8
W77LXLIFT
 62
8
 10
2589.019
 20
-8124.075
 30
-2348.272
 70
    32
  0
VERTEX
  8
W77LXLIFT
 62
8
 10
2596.815
 20
-8133.081
 30
-2346.778
 70
    32
  0
VERTEX
  8
W77LXLIFT
 62
8
 10
2601.370
 20
-8144.178
 30
-2347.675
 70
    32
  0
VERTEX
  8
W77LXLIFT
 62
8
 10
2599.737
 20
-8146.523
 30
-2347.854
 70
    32
  0
VERTEX
  8
W77LXLIFT
 62
8
 10
2601.749
 20
-8150.401
 30
-2347.976
 70
    32
  0
VERTEX
  8
W77LXLIFT
 62
8
 10
2605.847
 20
-8159.835
 30
-2346.300
 70
    32
  0
VERTEX
  8
W77LXLIFT
 62
8
 10
2605.816
 20
-8163.004
 30
-2347.786
 70
    32
  0
VERTEX
  8
W77LXLIFT
 62
8
 10
2607.876
 20
-8166.752
 30
-2348.075
 70
    32
  0
VERTEX
  8
W77LXLIFT
 62
8
 10
2612.629
 20
-8173.356
 30
-2347.327
 70
    32
  0
VERTEX
  8
W77LXLIFT
 62
8
 10
2607.469
 20
-8176.102
 30
-2348.737
 70
    32
  0
VERTEX
  8
W77LXLIFT
 62
8
 10
2603.986
 20
-8176.769
 30
-2349.071
 70
    32
  0
VERTEX
  8
W77LXLIFT
 62
8
 10
2601.887
 20
-8177.656
 30
-2348.856
 70
    32
  0
VERTEX
  8
W77LXLIFT
 62
8
 10
2598.942
 20
-8177.125
 30
-2348.559
 70
    32
  0
VERTEX
  8
W77LXLIFT
 62
8
 10
2596.454
 20
-8178.811
 30
-2348.128
 70
    32
  0
VERTEX
  8
W77LXLIFT
 62
8
 10
2592.815
 20
-8175.864
 30
-2347.632
 70
    32
  0
VERTEX
  8
W77LXLIFT
 62
8
 10
2589.559
 20
-8165.687
 30
-2348.448
 70
    32
  0
VERTEX
  8
W77LXLIFT
 62
8
 10
2589.194
 20
-8147.784
 30
-2348.805
 70
    32
  0
VERTEX
  8
W77LXLIFT
 62
8
 10
2589.128
 20
-8145.526
 30
-2348.683
 70
    32
  0
VERTEX
  8
W77LXLIFT
 62
8
 10
2586.338
 20
-8136.311
 30
-2347.972
 70
    32
  0
VERTEX
  8
W77LXLIFT
 62
8
 10
2583.080
 20
-8133.008
 30
-2347.765
 70
    32
  0
VERTEX
  8
W77LXLIFT
 62
8
 10
2581.366
 20
-8131.597
 30
-2346.587
 70
    32
  0
VERTEX
  8
W77LXLIFT
 62
8
 10
2571.653
 20
-8134.113
 30
-2346.379
 70
    32
  0
VERTEX
  8
W77LXLIFT
 62
8
 10
2567.926
 20
-8136.762
 30
-2345.582
 70
    32
  0
VERTEX
  8
W77LXLIFT
 62
8
 10
2567.984
 20
-8149.475
 30
-2346.492
 70
    32
  0
VERTEX
  8
W77LXLIFT
 62
8
 10
2568.140
 20
-8154.740
 30
-2346.114
 70
    32
  0
VERTEX
  8
W77LXLIFT
 62
8
 10
2570.390
 20
-8171.181
 30
-2346.149
 70
    32
  0
VERTEX
  8
W77LXLIFT
 62
8
 10
2571.789
 20
-8182.560
 30
-2346.137
 70
    32
  0
VERTEX
  8
W77LXLIFT
 62
8
 10
2573.777
 20
-8190.961
 30
-2346.477
 70
    32
  0
VERTEX
  8
W77LXLIFT
 62
8
 10
2575.325
 20
-8197.118
 30
-2346.818
 70
    32
  0
VERTEX
  8
W77LXLIFT
 62
8
 10
2575.391
 20
-8202.420
 30
-2345.396
 70
    32
  0
VERTEX
  8
W77LXLIFT
 62
8
 10
2574.843
 20
-8214.538
 30
-2345.951
 70
    32
  0
VERTEX
  8
W77LXLIFT
 62
8
 10
2572.229
 20
-8223.375
 30
-2345.852
 70
    32
  0
VERTEX
  8
W77LXLIFT
 62
8
 10
2566.068
 20
-8223.717
 30
-2346.166
 70
    32
  0
VERTEX
  8
W77LXLIFT
 62
8
 10
2560.746
 20
-8223.032
 30
-2346.166
 70
    32
  0
VERTEX
  8
W77LXLIFT
 62
8
 10
2561.442
 20
-8202.172
 30
-2347.427
 70
    32
  0
VERTEX
  8
W77LXLIFT
 62
8
 10
2557.785
 20
-8184.652
 30
-2346.019
 70
    32
  0
VERTEX
  8
W77LXLIFT
 62
8
 10
2555.800
 20
-8183.149
 30
-2345.596
 70
    32
  0
VERTEX
  8
W77LXLIFT
 62
8
 10
2554.812
 20
-8175.297
 30
-2346.065
 70
    32
  0
VERTEX
  8
W77LXLIFT
 62
8
 10
2544.406
 20
-8168.515
 30
-2346.691
 70
    32
  0
VERTEX
  8
W77LXLIFT
 62
8
 10
2547.832
 20
-8160.484
 30
-2347.748
 70
    32
  0
VERTEX
  8
W77LXLIFT
 62
8
 10
2543.989
 20
-8150.166
 30
-2349.074
 70
    32
  0
VERTEX
  8
W77LXLIFT
 62
8
 10
2541.192
 20
-8141.614
 30
-2348.624
 70
    32
  0
VERTEX
  8
W77LXLIFT
 62
8
 10
2550.990
 20
-8136.886
 30
-2349.949
 70
    32
  0
VERTEX
  8
W77LXLIFT
 62
8
 10
2550.214
 20
-8131.030
 30
-2348.158
 70
    32
  0
VERTEX
  8
W77LXLIFT
 62
8
 10
2547.358
 20
-8121.321
 30
-2350.578
 70
    32
  0
VERTEX
  8
W77LXLIFT
 62
8
 10
2552.220
 20
-8112.507
 30
-2350.085
 70
    32
  0
VERTEX
  8
W77LXLIFT
 62
8
 10
2550.226
 20
-8107.367
 30
-2349.487
 70
    32
  0
VERTEX
  8
W77LXLIFT
 62
8
 10
2547.278
 20
-8099.180
 30
-2349.265
 70
    32
  0
VERTEX
  8
W77LXLIFT
 62
8
 10
2543.278
 20
-8092.565
 30
-2350.380
 70
    32
  0
SEQEND
  8
W77LXLIFT
  0
TEXT
  8
W77LXLIFT
 62
8
 10
2350.506
 20
-7774.466
 30
-2333.845
 40
1.969
  1
bot. cut
 41
 1.0 
  0
POLYLINE
  8
W77LXLIFT
 62
8
 66
     1
 70
     9
  0
VERTEX
  8
W77LXLIFT
 62
8
 10
2388.212
 20
-7795.999
 30
-2327.941
 70
    32
  0
VERTEX
  8
W77LXLIFT
 62
8
 10
2380.320
 20
-7786.591
 30
-2331.242
 70
    32
  0
VERTEX
  8
W77LXLIFT
 62
8
 10
2369.261
 20
-7772.624
 30
-2333.630
 70
    32
  0
VERTEX
  8
W77LXLIFT
 62
8
 10
2366.197
 20
-7769.483
 30
-2334.201
 70
    32
  0
VERTEX
  8
W77LXLIFT
 62
8
 10
2360.586
 20
-7757.050
 30
-2336.227
 70
    32
  0
VERTEX
  8
W77LXLIFT
 62
8
 10
2352.796
 20
-7739.397
 30
-2338.102
 70
    32
  0
VERTEX
  8
W77LXLIFT
 62
8
 10
2340.937
 20
-7725.933
 30
-2338.169
 70
    32
  0
VERTEX
  8
W77LXLIFT
 62
8
 10
2334.426
 20
-7719.989
 30
-2337.872
 70
    32
  0
VERTEX
  8
W77LXLIFT
 62
8
 10
2327.892
 20
-7716.121
 30
-2337.813
 70
    32
  0
VERTEX
  8
W77LXLIFT
 62
8
 10
2315.985
 20
-7705.465
 30
-2337.882
 70
    32
  0
VERTEX
  8
W77LXLIFT
 62
8
 10
2305.781
 20
-7697.404
 30
-2338.000
 70
    32
  0
VERTEX
  8
W77LXLIFT
 62
8
 10
2302.950
 20
-7698.838
 30
-2338.000
 70
    32
  0
VERTEX
  8
W77LXLIFT
 62
8
 10
2297.618
 20
-7696.119
 30
-2338.000
 70
    32
  0
VERTEX
  8
W77LXLIFT
 62
8
 10
2293.898
 20
-7705.242
 30
-2338.000
 70
    32
  0
VERTEX
  8
W77LXLIFT
 62
8
 10
2301.089
 20
-7710.110
 30
-2338.000
 70
    32
  0
VERTEX
  8
W77LXLIFT
 62
8
 10
2309.126
 20
-7716.122
 30
-2337.586
 70
    32
  0
VERTEX
  8
W77LXLIFT
 62
8
 10
2319.047
 20
-7722.426
 30
-2337.748
 70
    32
  0
VERTEX
  8
W77LXLIFT
 62
8
 10
2327.050
 20
-7729.470
 30
-2337.674
 70
    32
  0
VERTEX
  8
W77LXLIFT
 62
8
 10
2333.416
 20
-7733.955
 30
-2338.246
 70
    32
  0
VERTEX
  8
W77LXLIFT
 62
8
 10
2337.495
 20
-7738.937
 30
-2337.901
 70
    32
  0
VERTEX
  8
W77LXLIFT
 62
8
 10
2342.904
 20
-7748.034
 30
-2337.712
 70
    32
  0
VERTEX
  8
W77LXLIFT
 62
8
 10
2348.539
 20
-7760.221
 30
-2336.674
 70
    32
  0
VERTEX
  8
W77LXLIFT
 62
8
 10
2349.055
 20
-7765.219
 30
-2336.094
 70
    32
  0
VERTEX
  8
W77LXLIFT
 62
8
 10
2347.122
 20
-7770.184
 30
-2334.200
 70
    32
  0
VERTEX
  8
W77LXLIFT
 62
8
 10
2347.025
 20
-7776.706
 30
-2333.600
 70
    32
  0
VERTEX
  8
W77LXLIFT
 62
8
 10
2347.896
 20
-7782.741
 30
-2333.000
 70
    32
  0
VERTEX
  8
W77LXLIFT
 62
8
 10
2351.859
 20
-7795.590
 30
-2331.200
 70
    32
  0
VERTEX
  8
W77LXLIFT
 62
8
 10
2363.362
 20
-7804.935
 30
-2327.076
 70
    32
  0
VERTEX
  8
W77LXLIFT
 62
8
 10
2371.870
 20
-7806.687
 30
-2328.000
 70
    32
  0
VERTEX
  8
W77LXLIFT
 62
8
 10
2380.376
 20
-7805.227
 30
-2328.050
 70
    32
  0
SEQEND
  8
W77LXLIFT
  0
ENDSEC
  0
EOF
