999
********************************
999
*   DXF File - Entities Only   *
999
*        3D Data Format        *
999
*     Output from ENVISAGE     *
999
*     02-Jan-2008 11:48:50     *
999
********************************
  0
SECTION 
  2
HEADER
  9
$ACADVER
  1
AC1009
  9
$EXTMIN
 10
-290000.000
 20
-250000.000
 30
-4000.000
  9
$EXTMAX
 10
320000.000
 20
160000.000
 30
6000.000
  0
ENDSEC
  0
SECTION
  2
ENTITIES
  0
LINE
  8
W78LALIFT
 62
2
 10
2037.629
 20
-6908.873
 30
-2541.456
 11
2035.646
 21
-6922.978
 31
-2540.847
  0
POLYLINE
  8
W78LALIFT
 62
2
 66
     1
 70
     9
  0
VERTEX
  8
W78LALIFT
 62
2
 10
1996.971
 20
-6664.547
 30
-2539.212
 70
    32
  0
VERTEX
  8
W78LALIFT
 62
2
 10
1993.994
 20
-6656.148
 30
-2534.673
 70
    32
  0
VERTEX
  8
W78LALIFT
 62
2
 10
1993.202
 20
-6653.915
 30
-2534.674
 70
    32
  0
VERTEX
  8
W78LALIFT
 62
2
 10
1995.622
 20
-6647.407
 30
-2534.676
 70
    32
  0
VERTEX
  8
W78LALIFT
 62
2
 10
1995.523
 20
-6646.695
 30
-2534.676
 70
    32
  0
VERTEX
  8
W78LALIFT
 62
2
 10
1993.093
 20
-6629.304
 30
-2534.688
 70
    32
  0
VERTEX
  8
W78LALIFT
 62
2
 10
1992.731
 20
-6626.712
 30
-2534.687
 70
    32
  0
VERTEX
  8
W78LALIFT
 62
2
 10
2007.576
 20
-6616.077
 30
-2534.687
 70
    32
  0
VERTEX
  8
W78LALIFT
 62
2
 10
2009.587
 20
-6623.124
 30
-2534.692
 70
    32
  0
VERTEX
  8
W78LALIFT
 62
2
 10
2014.119
 20
-6621.815
 30
-2534.693
 70
    32
  0
VERTEX
  8
W78LALIFT
 62
2
 10
2017.534
 20
-6626.927
 30
-2534.697
 70
    32
  0
VERTEX
  8
W78LALIFT
 62
2
 10
2019.505
 20
-6629.877
 30
-2534.696
 70
    32
  0
VERTEX
  8
W78LALIFT
 62
2
 10
2021.446
 20
-6632.784
 30
-2534.798
 70
    32
  0
VERTEX
  8
W78LALIFT
 62
2
 10
2024.238
 20
-6636.963
 30
-2534.942
 70
    32
  0
VERTEX
  8
W78LALIFT
 62
2
 10
2036.640
 20
-6635.067
 30
-2535.244
 70
    32
  0
VERTEX
  8
W78LALIFT
 62
2
 10
2041.833
 20
-6641.812
 30
-2535.493
 70
    32
  0
VERTEX
  8
W78LALIFT
 62
2
 10
2049.912
 20
-6652.304
 30
-2535.041
 70
    32
  0
VERTEX
  8
W78LALIFT
 62
2
 10
2052.460
 20
-6666.063
 30
-2534.583
 70
    32
  0
VERTEX
  8
W78LALIFT
 62
2
 10
2059.135
 20
-6672.300
 30
-2534.283
 70
    32
  0
VERTEX
  8
W78LALIFT
 62
2
 10
2057.706
 20
-6675.561
 30
-2534.208
 70
    32
  0
VERTEX
  8
W78LALIFT
 62
2
 10
2055.748
 20
-6680.030
 30
-2534.074
 70
    32
  0
VERTEX
  8
W78LALIFT
 62
2
 10
2055.769
 20
-6680.065
 30
-2534.072
 70
    32
  0
VERTEX
  8
W78LALIFT
 62
2
 10
2059.434
 20
-6686.024
 30
-2534.072
 70
    32
  0
VERTEX
  8
W78LALIFT
 62
2
 10
2056.908
 20
-6690.929
 30
-2534.081
 70
    32
  0
VERTEX
  8
W78LALIFT
 62
2
 10
2060.219
 20
-6706.837
 30
-2534.091
 70
    32
  0
VERTEX
  8
W78LALIFT
 62
2
 10
2062.373
 20
-6717.182
 30
-2534.084
 70
    32
  0
VERTEX
  8
W78LALIFT
 62
2
 10
2051.956
 20
-6717.866
 30
-2534.085
 70
    32
  0
VERTEX
  8
W78LALIFT
 62
2
 10
2051.187
 20
-6700.045
 30
-2534.096
 70
    32
  0
VERTEX
  8
W78LALIFT
 62
2
 10
2049.484
 20
-6696.050
 30
-2534.098
 70
    32
  0
VERTEX
  8
W78LALIFT
 62
2
 10
2044.319
 20
-6683.936
 30
-2534.095
 70
    32
  0
VERTEX
  8
W78LALIFT
 62
2
 10
2043.799
 20
-6682.717
 30
-2534.147
 70
    32
  0
VERTEX
  8
W78LALIFT
 62
2
 10
2039.350
 20
-6675.680
 30
-2534.466
 70
    32
  0
VERTEX
  8
W78LALIFT
 62
2
 10
2032.746
 20
-6673.976
 30
-2534.622
 70
    32
  0
VERTEX
  8
W78LALIFT
 62
2
 10
2030.544
 20
-6674.062
 30
-2534.651
 70
    32
  0
VERTEX
  8
W78LALIFT
 62
2
 10
2020.707
 20
-6674.445
 30
-2536.175
 70
    32
  0
VERTEX
  8
W78LALIFT
 62
2
 10
1996.971
 20
-6664.547
 30
-2539.212
 70
    32
  0
SEQEND
  8
W78LALIFT
  0
LINE
  8
W78LALIFT
 62
2
 10
1996.971
 20
-6664.547
 30
-2539.212
 11
2020.707
 21
-6674.445
 31
-2536.175
  0
POLYLINE
  8
W78LALIFT
 62
2
 66
     1
 70
     9
  0
VERTEX
  8
W78LALIFT
 62
2
 10
1950.795
 20
-6905.903
 30
-2515.029
 70
    32
  0
VERTEX
  8
W78LALIFT
 62
2
 10
1955.097
 20
-6905.062
 30
-2513.449
 70
    32
  0
VERTEX
  8
W78LALIFT
 62
2
 10
1956.360
 20
-6899.349
 30
-2511.063
 70
    32
  0
VERTEX
  8
W78LALIFT
 62
2
 10
1956.569
 20
-6890.238
 30
-2510.072
 70
    32
  0
VERTEX
  8
W78LALIFT
 62
2
 10
1958.098
 20
-6889.255
 30
-2509.943
 70
    32
  0
VERTEX
  8
W78LALIFT
 62
2
 10
1959.099
 20
-6883.825
 30
-2509.442
 70
    32
  0
VERTEX
  8
W78LALIFT
 62
2
 10
1959.420
 20
-6882.080
 30
-2509.283
 70
    32
  0
VERTEX
  8
W78LALIFT
 62
2
 10
1963.535
 20
-6873.352
 30
-2508.418
 70
    32
  0
VERTEX
  8
W78LALIFT
 62
2
 10
1970.195
 20
-6858.025
 30
-2507.707
 70
    32
  0
VERTEX
  8
W78LALIFT
 62
2
 10
1972.340
 20
-6859.635
 30
-2507.705
 70
    32
  0
VERTEX
  8
W78LALIFT
 62
2
 10
1972.462
 20
-6859.397
 30
-2507.700
 70
    32
  0
VERTEX
  8
W78LALIFT
 62
2
 10
1976.366
 20
-6851.780
 30
-2507.497
 70
    32
  0
VERTEX
  8
W78LALIFT
 62
2
 10
1979.274
 20
-6850.895
 30
-2507.439
 70
    32
  0
VERTEX
  8
W78LALIFT
 62
2
 10
1985.955
 20
-6843.387
 30
-2507.237
 70
    32
  0
VERTEX
  8
W78LALIFT
 62
2
 10
1990.744
 20
-6844.233
 30
-2506.500
 70
    32
  0
VERTEX
  8
W78LALIFT
 62
2
 10
1993.656
 20
-6840.060
 30
-2506.500
 70
    32
  0
VERTEX
  8
W78LALIFT
 62
2
 10
1995.098
 20
-6833.910
 30
-2506.500
 70
    32
  0
VERTEX
  8
W78LALIFT
 62
2
 10
2005.118
 20
-6828.531
 30
-2506.500
 70
    32
  0
VERTEX
  8
W78LALIFT
 62
2
 10
2011.235
 20
-6824.565
 30
-2506.500
 70
    32
  0
VERTEX
  8
W78LALIFT
 62
2
 10
2012.579
 20
-6825.236
 30
-2506.500
 70
    32
  0
VERTEX
  8
W78LALIFT
 62
2
 10
2022.720
 20
-6820.660
 30
-2506.500
 70
    32
  0
VERTEX
  8
W78LALIFT
 62
2
 10
2034.005
 20
-6824.122
 30
-2506.307
 70
    32
  0
VERTEX
  8
W78LALIFT
 62
2
 10
2038.911
 20
-6821.640
 30
-2506.215
 70
    32
  0
VERTEX
  8
W78LALIFT
 62
2
 10
2045.082
 20
-6817.028
 30
-2506.084
 70
    32
  0
VERTEX
  8
W78LALIFT
 62
2
 10
2047.508
 20
-6816.647
 30
-2506.045
 70
    32
  0
VERTEX
  8
W78LALIFT
 62
2
 10
2051.615
 20
-6808.410
 30
-2505.952
 70
    32
  0
VERTEX
  8
W78LALIFT
 62
2
 10
2071.937
 20
-6804.954
 30
-2505.629
 70
    32
  0
VERTEX
  8
W78LALIFT
 62
2
 10
2080.842
 20
-6809.665
 30
-2505.510
 70
    32
  0
VERTEX
  8
W78LALIFT
 62
2
 10
2086.830
 20
-6809.193
 30
-2505.415
 70
    32
  0
VERTEX
  8
W78LALIFT
 62
2
 10
2089.180
 20
-6810.546
 30
-2505.381
 70
    32
  0
VERTEX
  8
W78LALIFT
 62
2
 10
2089.631
 20
-6810.806
 30
-2505.363
 70
    32
  0
VERTEX
  8
W78LALIFT
 62
2
 10
2113.894
 20
-6803.324
 30
-2504.356
 70
    32
  0
VERTEX
  8
W78LALIFT
 62
2
 10
2114.999
 20
-6803.798
 30
-2504.313
 70
    32
  0
VERTEX
  8
W78LALIFT
 62
2
 10
2128.138
 20
-6798.621
 30
-2503.687
 70
    32
  0
VERTEX
  8
W78LALIFT
 62
2
 10
2141.112
 20
-6793.509
 30
-2503.094
 70
    32
  0
VERTEX
  8
W78LALIFT
 62
2
 10
2147.634
 20
-6803.837
 30
-2502.673
 70
    32
  0
VERTEX
  8
W78LALIFT
 62
2
 10
2149.234
 20
-6807.714
 30
-2502.545
 70
    32
  0
VERTEX
  8
W78LALIFT
 62
2
 10
2150.786
 20
-6808.877
 30
-2502.455
 70
    32
  0
VERTEX
  8
W78LALIFT
 62
2
 10
2156.548
 20
-6815.958
 30
-2501.932
 70
    32
  0
VERTEX
  8
W78LALIFT
 62
2
 10
2167.320
 20
-6811.743
 30
-2501.343
 70
    32
  0
VERTEX
  8
W78LALIFT
 62
2
 10
2176.705
 20
-6812.957
 30
-2500.713
 70
    32
  0
VERTEX
  8
W78LALIFT
 62
2
 10
2178.716
 20
-6819.797
 30
-2500.429
 70
    32
  0
VERTEX
  8
W78LALIFT
 62
2
 10
2177.800
 20
-6829.721
 30
-2500.263
 70
    32
  0
VERTEX
  8
W78LALIFT
 62
2
 10
2169.732
 20
-6840.622
 30
-2500.534
 70
    32
  0
VERTEX
  8
W78LALIFT
 62
2
 10
2163.760
 20
-6839.829
 30
-2500.921
 70
    32
  0
VERTEX
  8
W78LALIFT
 62
2
 10
2156.347
 20
-6844.358
 30
-2501.200
 70
    32
  0
VERTEX
  8
W78LALIFT
 62
2
 10
2147.794
 20
-6844.331
 30
-2501.660
 70
    32
  0
VERTEX
  8
W78LALIFT
 62
2
 10
2143.953
 20
-6837.507
 30
-2502.051
 70
    32
  0
VERTEX
  8
W78LALIFT
 62
2
 10
2141.608
 20
-6831.168
 30
-2502.351
 70
    32
  0
VERTEX
  8
W78LALIFT
 62
2
 10
2138.055
 20
-6822.999
 30
-2502.890
 70
    32
  0
VERTEX
  8
W78LALIFT
 62
2
 10
2128.489
 20
-6818.579
 30
-2503.412
 70
    32
  0
VERTEX
  8
W78LALIFT
 62
2
 10
2121.006
 20
-6814.938
 30
-2504.062
 70
    32
  0
VERTEX
  8
W78LALIFT
 62
2
 10
2120.567
 20
-6815.065
 30
-2504.101
 70
    32
  0
VERTEX
  8
W78LALIFT
 62
2
 10
2108.869
 20
-6818.449
 30
-2505.054
 70
    32
  0
VERTEX
  8
W78LALIFT
 62
2
 10
2108.792
 20
-6819.947
 30
-2505.030
 70
    32
  0
VERTEX
  8
W78LALIFT
 62
2
 10
2104.311
 20
-6823.730
 30
-2505.050
 70
    32
  0
VERTEX
  8
W78LALIFT
 62
2
 10
2109.028
 20
-6829.873
 30
-2504.864
 70
    32
  0
VERTEX
  8
W78LALIFT
 62
2
 10
2120.377
 20
-6839.223
 30
-2504.504
 70
    32
  0
VERTEX
  8
W78LALIFT
 62
2
 10
2124.921
 20
-6845.580
 30
-2504.317
 70
    32
  0
VERTEX
  8
W78LALIFT
 62
2
 10
2133.887
 20
-6851.239
 30
-2504.062
 70
    32
  0
VERTEX
  8
W78LALIFT
 62
2
 10
2145.650
 20
-6859.903
 30
-2503.700
 70
    32
  0
VERTEX
  8
W78LALIFT
 62
2
 10
2166.972
 20
-6876.555
 30
-2503.108
 70
    32
  0
VERTEX
  8
W78LALIFT
 62
2
 10
2170.900
 20
-6881.137
 30
-2502.986
 70
    32
  0
VERTEX
  8
W78LALIFT
 62
2
 10
2176.652
 20
-6885.398
 30
-2502.820
 70
    32
  0
VERTEX
  8
W78LALIFT
 62
2
 10
2179.944
 20
-6887.837
 30
-2502.735
 70
    32
  0
VERTEX
  8
W78LALIFT
 62
2
 10
2178.111
 20
-6894.998
 30
-2502.617
 70
    32
  0
VERTEX
  8
W78LALIFT
 62
2
 10
2182.120
 20
-6902.831
 30
-2502.420
 70
    32
  0
VERTEX
  8
W78LALIFT
 62
2
 10
2186.498
 20
-6910.237
 30
-2502.529
 70
    32
  0
VERTEX
  8
W78LALIFT
 62
2
 10
2180.301
 20
-6917.298
 30
-2502.690
 70
    32
  0
VERTEX
  8
W78LALIFT
 62
2
 10
2182.691
 20
-6925.581
 30
-2502.888
 70
    32
  0
VERTEX
  8
W78LALIFT
 62
2
 10
2188.597
 20
-6939.527
 30
-2503.264
 70
    32
  0
VERTEX
  8
W78LALIFT
 62
2
 10
2188.384
 20
-6939.849
 30
-2503.271
 70
    32
  0
VERTEX
  8
W78LALIFT
 62
2
 10
2186.104
 20
-6943.292
 30
-2503.354
 70
    32
  0
VERTEX
  8
W78LALIFT
 62
2
 10
2188.054
 20
-6951.832
 30
-2503.576
 70
    32
  0
VERTEX
  8
W78LALIFT
 62
2
 10
2189.155
 20
-6956.653
 30
-2503.676
 70
    32
  0
VERTEX
  8
W78LALIFT
 62
2
 10
2189.642
 20
-6958.784
 30
-2503.733
 70
    32
  0
VERTEX
  8
W78LALIFT
 62
2
 10
2197.450
 20
-6968.183
 30
-2503.770
 70
    32
  0
VERTEX
  8
W78LALIFT
 62
2
 10
2207.940
 20
-6977.616
 30
-2503.454
 70
    32
  0
VERTEX
  8
W78LALIFT
 62
2
 10
2213.708
 20
-6980.700
 30
-2503.315
 70
    32
  0
VERTEX
  8
W78LALIFT
 62
2
 10
2222.883
 20
-6983.024
 30
-2503.134
 70
    32
  0
VERTEX
  8
W78LALIFT
 62
2
 10
2227.485
 20
-6990.656
 30
-2502.939
 70
    32
  0
VERTEX
  8
W78LALIFT
 62
2
 10
2227.730
 20
-6992.232
 30
-2502.910
 70
    32
  0
VERTEX
  8
W78LALIFT
 62
2
 10
2228.777
 20
-6998.951
 30
-2502.792
 70
    32
  0
VERTEX
  8
W78LALIFT
 62
2
 10
2232.203
 20
-7002.654
 30
-2502.682
 70
    32
  0
VERTEX
  8
W78LALIFT
 62
2
 10
2244.638
 20
-7016.097
 30
-2502.275
 70
    32
  0
VERTEX
  8
W78LALIFT
 62
2
 10
2236.873
 20
-7023.237
 30
-2502.293
 70
    32
  0
VERTEX
  8
W78LALIFT
 62
2
 10
2228.215
 20
-7026.795
 30
-2502.376
 70
    32
  0
VERTEX
  8
W78LALIFT
 62
2
 10
2214.507
 20
-7009.306
 30
-2502.857
 70
    32
  0
VERTEX
  8
W78LALIFT
 62
2
 10
2201.196
 20
-6994.116
 30
-2503.294
 70
    32
  0
VERTEX
  8
W78LALIFT
 62
2
 10
2196.109
 20
-6988.047
 30
-2503.471
 70
    32
  0
VERTEX
  8
W78LALIFT
 62
2
 10
2193.162
 20
-6986.965
 30
-2503.535
 70
    32
  0
VERTEX
  8
W78LALIFT
 62
2
 10
2184.823
 20
-6975.262
 30
-2503.848
 70
    32
  0
VERTEX
  8
W78LALIFT
 62
2
 10
2179.772
 20
-6970.260
 30
-2503.870
 70
    32
  0
VERTEX
  8
W78LALIFT
 62
2
 10
2174.966
 20
-6965.501
 30
-2503.745
 70
    32
  0
VERTEX
  8
W78LALIFT
 62
2
 10
2168.778
 20
-6954.067
 30
-2503.484
 70
    32
  0
VERTEX
  8
W78LALIFT
 62
2
 10
2165.378
 20
-6942.391
 30
-2503.217
 70
    32
  0
VERTEX
  8
W78LALIFT
 62
2
 10
2160.203
 20
-6923.441
 30
-2502.792
 70
    32
  0
VERTEX
  8
W78LALIFT
 62
2
 10
2160.182
 20
-6923.143
 30
-2502.785
 70
    32
  0
VERTEX
  8
W78LALIFT
 62
2
 10
2159.496
 20
-6913.484
 30
-2502.553
 70
    32
  0
VERTEX
  8
W78LALIFT
 62
2
 10
2156.523
 20
-6909.511
 30
-2502.568
 70
    32
  0
VERTEX
  8
W78LALIFT
 62
2
 10
2154.718
 20
-6901.226
 30
-2502.764
 70
    32
  0
VERTEX
  8
W78LALIFT
 62
2
 10
2153.356
 20
-6899.181
 30
-2502.819
 70
    32
  0
VERTEX
  8
W78LALIFT
 62
2
 10
2150.083
 20
-6894.268
 30
-2502.999
 70
    32
  0
VERTEX
  8
W78LALIFT
 62
2
 10
2149.625
 20
-6882.716
 30
-2503.251
 70
    32
  0
VERTEX
  8
W78LALIFT
 62
2
 10
2145.473
 20
-6876.949
 30
-2503.412
 70
    32
  0
VERTEX
  8
W78LALIFT
 62
2
 10
2129.054
 20
-6860.427
 30
-2504.010
 70
    32
  0
VERTEX
  8
W78LALIFT
 62
2
 10
2123.129
 20
-6861.421
 30
-2504.103
 70
    32
  0
VERTEX
  8
W78LALIFT
 62
2
 10
2115.251
 20
-6866.580
 30
-2504.174
 70
    32
  0
VERTEX
  8
W78LALIFT
 62
2
 10
2105.945
 20
-6863.601
 30
-2504.396
 70
    32
  0
VERTEX
  8
W78LALIFT
 62
2
 10
2105.944
 20
-6843.127
 30
-2504.703
 70
    32
  0
VERTEX
  8
W78LALIFT
 62
2
 10
2084.175
 20
-6825.468
 30
-2505.499
 70
    32
  0
VERTEX
  8
W78LALIFT
 62
2
 10
2072.042
 20
-6827.157
 30
-2505.696
 70
    32
  0
VERTEX
  8
W78LALIFT
 62
2
 10
2066.002
 20
-6828.108
 30
-2505.789
 70
    32
  0
VERTEX
  8
W78LALIFT
 62
2
 10
2059.840
 20
-6829.828
 30
-2505.892
 70
    32
  0
VERTEX
  8
W78LALIFT
 62
2
 10
2059.468
 20
-6829.842
 30
-2505.898
 70
    32
  0
VERTEX
  8
W78LALIFT
 62
2
 10
2051.173
 20
-6830.152
 30
-2506.049
 70
    32
  0
VERTEX
  8
W78LALIFT
 62
2
 10
2050.053
 20
-6832.894
 30
-2506.500
 70
    32
  0
VERTEX
  8
W78LALIFT
 62
2
 10
2049.872
 20
-6837.739
 30
-2506.500
 70
    32
  0
VERTEX
  8
W78LALIFT
 62
2
 10
2043.251
 20
-6848.836
 30
-2506.500
 70
    32
  0
VERTEX
  8
W78LALIFT
 62
2
 10
2040.932
 20
-6858.042
 30
-2506.500
 70
    32
  0
VERTEX
  8
W78LALIFT
 62
2
 10
2040.407
 20
-6865.799
 30
-2506.500
 70
    32
  0
VERTEX
  8
W78LALIFT
 62
2
 10
2034.186
 20
-6872.059
 30
-2506.500
 70
    32
  0
VERTEX
  8
W78LALIFT
 62
2
 10
2026.198
 20
-6876.808
 30
-2506.500
 70
    32
  0
VERTEX
  8
W78LALIFT
 62
2
 10
2017.686
 20
-6871.635
 30
-2506.500
 70
    32
  0
VERTEX
  8
W78LALIFT
 62
2
 10
2011.580
 20
-6868.934
 30
-2506.500
 70
    32
  0
VERTEX
  8
W78LALIFT
 62
2
 10
2000.423
 20
-6858.388
 30
-2506.500
 70
    32
  0
VERTEX
  8
W78LALIFT
 62
2
 10
1994.047
 20
-6859.393
 30
-2506.500
 70
    32
  0
VERTEX
  8
W78LALIFT
 62
2
 10
1986.516
 20
-6860.893
 30
-2507.471
 70
    32
  0
VERTEX
  8
W78LALIFT
 62
2
 10
1983.398
 20
-6862.859
 30
-2507.564
 70
    32
  0
VERTEX
  8
W78LALIFT
 62
2
 10
1978.030
 20
-6870.231
 30
-2507.780
 70
    32
  0
VERTEX
  8
W78LALIFT
 62
2
 10
1970.728
 20
-6881.429
 30
-2508.913
 70
    32
  0
VERTEX
  8
W78LALIFT
 62
2
 10
1968.080
 20
-6887.634
 30
-2509.521
 70
    32
  0
VERTEX
  8
W78LALIFT
 62
2
 10
1966.895
 20
-6894.962
 30
-2510.295
 70
    32
  0
VERTEX
  8
W78LALIFT
 62
2
 10
1968.768
 20
-6903.043
 30
-2511.307
 70
    32
  0
VERTEX
  8
W78LALIFT
 62
2
 10
1967.937
 20
-6911.930
 30
-2511.551
 70
    32
  0
VERTEX
  8
W78LALIFT
 62
2
 10
1970.703
 20
-6918.989
 30
-2511.756
 70
    32
  0
VERTEX
  8
W78LALIFT
 62
2
 10
1950.795
 20
-6905.903
 30
-2515.029
 70
    32
  0
SEQEND
  8
W78LALIFT
  0
POLYLINE
  8
W78LALIFT
 62
2
 66
     1
 70
     9
  0
VERTEX
  8
W78LALIFT
 62
2
 10
2035.646
 20
-6922.978
 30
-2540.509
 70
    32
  0
VERTEX
  8
W78LALIFT
 62
2
 10
2045.939
 20
-6934.845
 30
-2540.366
 70
    32
  0
VERTEX
  8
W78LALIFT
 62
2
 10
2056.321
 20
-6940.864
 30
-2540.267
 70
    32
  0
VERTEX
  8
W78LALIFT
 62
2
 10
2057.927
 20
-6943.755
 30
-2540.236
 70
    32
  0
VERTEX
  8
W78LALIFT
 62
2
 10
2061.834
 20
-6950.791
 30
-2540.162
 70
    32
  0
VERTEX
  8
W78LALIFT
 62
2
 10
2062.618
 20
-6958.759
 30
-2540.097
 70
    32
  0
VERTEX
  8
W78LALIFT
 62
2
 10
2065.669
 20
-6967.442
 30
-2540.015
 70
    32
  0
VERTEX
  8
W78LALIFT
 62
2
 10
2066.603
 20
-6970.100
 30
-2539.989
 70
    32
  0
VERTEX
  8
W78LALIFT
 62
2
 10
2069.952
 20
-6978.081
 30
-2539.911
 70
    32
  0
VERTEX
  8
W78LALIFT
 62
2
 10
2074.891
 20
-6989.849
 30
-2540.000
 70
    32
  0
VERTEX
  8
W78LALIFT
 62
2
 10
2083.005
 20
-6988.170
 30
-2540.000
 70
    32
  0
VERTEX
  8
W78LALIFT
 62
2
 10
2098.615
 20
-7001.664
 30
-2540.000
 70
    32
  0
VERTEX
  8
W78LALIFT
 62
2
 10
2103.403
 20
-7000.384
 30
-2540.000
 70
    32
  0
VERTEX
  8
W78LALIFT
 62
2
 10
2109.606
 20
-7006.999
 30
-2540.000
 70
    32
  0
VERTEX
  8
W78LALIFT
 62
2
 10
2119.405
 20
-6997.327
 30
-2540.000
 70
    32
  0
VERTEX
  8
W78LALIFT
 62
2
 10
2097.067
 20
-6970.382
 30
-2540.000
 70
    32
  0
VERTEX
  8
W78LALIFT
 62
2
 10
2093.900
 20
-6962.411
 30
-2539.911
 70
    32
  0
VERTEX
  8
W78LALIFT
 62
2
 10
2088.261
 20
-6948.218
 30
-2540.049
 70
    32
  0
VERTEX
  8
W78LALIFT
 62
2
 10
2084.765
 20
-6943.474
 30
-2540.103
 70
    32
  0
VERTEX
  8
W78LALIFT
 62
2
 10
2082.357
 20
-6931.825
 30
-2540.205
 70
    32
  0
VERTEX
  8
W78LALIFT
 62
2
 10
2080.249
 20
-6928.599
 30
-2540.241
 70
    32
  0
VERTEX
  8
W78LALIFT
 62
2
 10
2070.018
 20
-6912.940
 30
-2540.413
 70
    32
  0
VERTEX
  8
W78LALIFT
 62
2
 10
2070.590
 20
-6907.756
 30
-2540.450
 70
    32
  0
VERTEX
  8
W78LALIFT
 62
2
 10
2075.296
 20
-6903.594
 30
-2540.458
 70
    32
  0
VERTEX
  8
W78LALIFT
 62
2
 10
2087.044
 20
-6893.203
 30
-2541.162
 70
    32
  0
VERTEX
  8
W78LALIFT
 62
2
 10
2087.594
 20
-6892.783
 30
-2541.168
 70
    32
  0
VERTEX
  8
W78LALIFT
 62
2
 10
2094.100
 20
-6887.807
 30
-2541.236
 70
    32
  0
VERTEX
  8
W78LALIFT
 62
2
 10
2108.210
 20
-6887.960
 30
-2541.334
 70
    32
  0
VERTEX
  8
W78LALIFT
 62
2
 10
2117.543
 20
-6891.238
 30
-2541.000
 70
    32
  0
VERTEX
  8
W78LALIFT
 62
2
 10
2124.991
 20
-6888.473
 30
-2541.000
 70
    32
  0
VERTEX
  8
W78LALIFT
 62
2
 10
2136.151
 20
-6898.553
 30
-2541.000
 70
    32
  0
VERTEX
  8
W78LALIFT
 62
2
 10
2143.228
 20
-6913.195
 30
-2541.000
 70
    32
  0
VERTEX
  8
W78LALIFT
 62
2
 10
2156.708
 20
-6908.995
 30
-2541.000
 70
    32
  0
VERTEX
  8
W78LALIFT
 62
2
 10
2153.178
 20
-6898.194
 30
-2541.000
 70
    32
  0
VERTEX
  8
W78LALIFT
 62
2
 10
2147.974
 20
-6891.299
 30
-2541.000
 70
    32
  0
VERTEX
  8
W78LALIFT
 62
2
 10
2147.850
 20
-6873.635
 30
-2541.000
 70
    32
  0
VERTEX
  8
W78LALIFT
 62
2
 10
2135.781
 20
-6870.999
 30
-2541.000
 70
    32
  0
VERTEX
  8
W78LALIFT
 62
2
 10
2128.076
 20
-6868.017
 30
-2541.000
 70
    32
  0
VERTEX
  8
W78LALIFT
 62
2
 10
2111.344
 20
-6855.665
 30
-2541.000
 70
    32
  0
VERTEX
  8
W78LALIFT
 62
2
 10
2101.985
 20
-6863.578
 30
-2541.000
 70
    32
  0
VERTEX
  8
W78LALIFT
 62
2
 10
2098.992
 20
-6863.356
 30
-2541.386
 70
    32
  0
VERTEX
  8
W78LALIFT
 62
2
 10
2086.167
 20
-6878.818
 30
-2541.224
 70
    32
  0
VERTEX
  8
W78LALIFT
 62
2
 10
2068.183
 20
-6892.723
 30
-2540.578
 70
    32
  0
VERTEX
  8
W78LALIFT
 62
2
 10
2067.033
 20
-6893.612
 30
-2540.577
 70
    32
  0
VERTEX
  8
W78LALIFT
 62
2
 10
2065.423
 20
-6894.623
 30
-2540.578
 70
    32
  0
VERTEX
  8
W78LALIFT
 62
2
 10
2063.968
 20
-6895.536
 30
-2540.578
 70
    32
  0
VERTEX
  8
W78LALIFT
 62
2
 10
2061.825
 20
-6896.881
 30
-2540.578
 70
    32
  0
VERTEX
  8
W78LALIFT
 62
2
 10
2056.629
 20
-6895.353
 30
-2540.616
 70
    32
  0
VERTEX
  8
W78LALIFT
 62
2
 10
2053.015
 20
-6894.290
 30
-2540.643
 70
    32
  0
VERTEX
  8
W78LALIFT
 62
2
 10
2052.615
 20
-6893.214
 30
-2540.653
 70
    32
  0
VERTEX
  8
W78LALIFT
 62
2
 10
2050.254
 20
-6886.855
 30
-2540.936
 70
    32
  0
VERTEX
  8
W78LALIFT
 62
2
 10
2045.091
 20
-6882.729
 30
-2540.919
 70
    32
  0
VERTEX
  8
W78LALIFT
 62
2
 10
2043.087
 20
-6881.309
 30
-2540.912
 70
    32
  0
VERTEX
  8
W78LALIFT
 62
2
 10
2042.362
 20
-6880.795
 30
-2540.000
 70
    32
  0
VERTEX
  8
W78LALIFT
 62
2
 10
2039.715
 20
-6874.544
 30
-2540.000
 70
    32
  0
VERTEX
  8
W78LALIFT
 62
2
 10
2036.249
 20
-6871.995
 30
-2540.000
 70
    32
  0
VERTEX
  8
W78LALIFT
 62
2
 10
2034.233
 20
-6866.345
 30
-2540.000
 70
    32
  0
VERTEX
  8
W78LALIFT
 62
2
 10
2025.989
 20
-6870.195
 30
-2540.000
 70
    32
  0
VERTEX
  8
W78LALIFT
 62
2
 10
2023.490
 20
-6878.020
 30
-2540.000
 70
    32
  0
VERTEX
  8
W78LALIFT
 62
2
 10
2027.889
 20
-6882.592
 30
-2540.000
 70
    32
  0
VERTEX
  8
W78LALIFT
 62
2
 10
2030.427
 20
-6886.033
 30
-2540.000
 70
    32
  0
VERTEX
  8
W78LALIFT
 62
2
 10
2032.136
 20
-6888.744
 30
-2540.800
 70
    32
  0
VERTEX
  8
W78LALIFT
 62
2
 10
2037.312
 20
-6896.956
 30
-2540.798
 70
    32
  0
VERTEX
  8
W78LALIFT
 62
2
 10
2040.111
 20
-6901.395
 30
-2540.653
 70
    32
  0
VERTEX
  8
W78LALIFT
 62
2
 10
2042.512
 20
-6905.204
 30
-2540.612
 70
    32
  0
VERTEX
  8
W78LALIFT
 62
2
 10
2037.629
 20
-6908.873
 30
-2540.608
 70
    32
  0
VERTEX
  8
W78LALIFT
 62
2
 10
2035.646
 20
-6922.978
 30
-2540.509
 70
    32
  0
SEQEND
  8
W78LALIFT
  0
POLYLINE
  8
W78LALIFT
 62
2
 66
     1
 70
     9
  0
VERTEX
  8
W78LALIFT
 62
2
 10
2009.079
 20
-6853.415
 30
-2554.599
 70
    32
  0
VERTEX
  8
W78LALIFT
 62
2
 10
2015.062
 20
-6855.520
 30
-2553.914
 70
    32
  0
VERTEX
  8
W78LALIFT
 62
2
 10
2019.889
 20
-6853.195
 30
-2553.338
 70
    32
  0
VERTEX
  8
W78LALIFT
 62
2
 10
2028.108
 20
-6852.630
 30
-2553.352
 70
    32
  0
VERTEX
  8
W78LALIFT
 62
2
 10
2046.142
 20
-6849.667
 30
-2553.234
 70
    32
  0
VERTEX
  8
W78LALIFT
 62
2
 10
2067.858
 20
-6848.200
 30
-2553.132
 70
    32
  0
VERTEX
  8
W78LALIFT
 62
2
 10
2073.519
 20
-6846.704
 30
-2553.105
 70
    32
  0
VERTEX
  8
W78LALIFT
 62
2
 10
2090.671
 20
-6849.154
 30
-2553.024
 70
    32
  0
VERTEX
  8
W78LALIFT
 62
2
 10
2092.788
 20
-6847.635
 30
-2553.014
 70
    32
  0
VERTEX
  8
W78LALIFT
 62
2
 10
2093.378
 20
-6841.756
 30
-2553.011
 70
    32
  0
VERTEX
  8
W78LALIFT
 62
2
 10
2092.302
 20
-6835.789
 30
-2553.016
 70
    32
  0
VERTEX
  8
W78LALIFT
 62
2
 10
2090.147
 20
-6834.127
 30
-2553.027
 70
    32
  0
VERTEX
  8
W78LALIFT
 62
2
 10
2086.038
 20
-6834.370
 30
-2553.046
 70
    32
  0
VERTEX
  8
W78LALIFT
 62
2
 10
2072.610
 20
-6835.162
 30
-2553.109
 70
    32
  0
VERTEX
  8
W78LALIFT
 62
2
 10
2066.797
 20
-6836.446
 30
-2553.137
 70
    32
  0
VERTEX
  8
W78LALIFT
 62
2
 10
2044.712
 20
-6835.611
 30
-2553.241
 70
    32
  0
VERTEX
  8
W78LALIFT
 62
2
 10
2025.957
 20
-6836.299
 30
-2553.329
 70
    32
  0
VERTEX
  8
W78LALIFT
 62
2
 10
2022.188
 20
-6837.471
 30
-2553.482
 70
    32
  0
VERTEX
  8
W78LALIFT
 62
2
 10
2016.952
 20
-6839.697
 30
-2553.597
 70
    32
  0
VERTEX
  8
W78LALIFT
 62
2
 10
2008.600
 20
-6840.035
 30
-2554.572
 70
    32
  0
VERTEX
  8
W78LALIFT
 62
2
 10
2009.079
 20
-6853.415
 30
-2554.599
 70
    32
  0
SEQEND
  8
W78LALIFT
  0
POLYLINE
  8
W78LALIFT
 62
2
 66
     1
 70
     9
  0
VERTEX
  8
W78LALIFT
 62
2
 10
2165.308
 20
-6863.404
 30
-2445.000
 70
    32
  0
VERTEX
  8
W78LALIFT
 62
2
 10
2162.796
 20
-6865.462
 30
-2445.000
 70
    32
  0
VERTEX
  8
W78LALIFT
 62
2
 10
2153.652
 20
-6862.836
 30
-2445.000
 70
    32
  0
VERTEX
  8
W78LALIFT
 62
2
 10
2145.617
 20
-6853.710
 30
-2445.000
 70
    32
  0
VERTEX
  8
W78LALIFT
 62
2
 10
2142.450
 20
-6849.715
 30
-2445.000
 70
    32
  0
VERTEX
  8
W78LALIFT
 62
2
 10
2134.601
 20
-6835.213
 30
-2445.000
 70
    32
  0
VERTEX
  8
W78LALIFT
 62
2
 10
2120.189
 20
-6844.592
 30
-2445.000
 70
    32
  0
VERTEX
  8
W78LALIFT
 62
2
 10
2127.336
 20
-6854.456
 30
-2445.000
 70
    32
  0
VERTEX
  8
W78LALIFT
 62
2
 10
2129.267
 20
-6859.913
 30
-2445.000
 70
    32
  0
VERTEX
  8
W78LALIFT
 62
2
 10
2135.276
 20
-6868.410
 30
-2445.000
 70
    32
  0
VERTEX
  8
W78LALIFT
 62
2
 10
2139.622
 20
-6875.168
 30
-2445.000
 70
    32
  0
VERTEX
  8
W78LALIFT
 62
2
 10
2138.733
 20
-6879.068
 30
-2445.000
 70
    32
  0
VERTEX
  8
W78LALIFT
 62
2
 10
2140.519
 20
-6885.209
 30
-2445.000
 70
    32
  0
VERTEX
  8
W78LALIFT
 62
2
 10
2142.496
 20
-6891.926
 30
-2445.000
 70
    32
  0
VERTEX
  8
W78LALIFT
 62
2
 10
2139.057
 20
-6896.068
 30
-2445.000
 70
    32
  0
VERTEX
  8
W78LALIFT
 62
2
 10
2135.835
 20
-6899.252
 30
-2445.000
 70
    32
  0
VERTEX
  8
W78LALIFT
 62
2
 10
2127.279
 20
-6905.881
 30
-2445.000
 70
    32
  0
VERTEX
  8
W78LALIFT
 62
2
 10
2118.888
 20
-6908.957
 30
-2445.000
 70
    32
  0
VERTEX
  8
W78LALIFT
 62
2
 10
2117.691
 20
-6908.254
 30
-2445.000
 70
    32
  0
VERTEX
  8
W78LALIFT
 62
2
 10
2111.533
 20
-6900.637
 30
-2445.000
 70
    32
  0
VERTEX
  8
W78LALIFT
 62
2
 10
2107.575
 20
-6894.797
 30
-2445.000
 70
    32
  0
VERTEX
  8
W78LALIFT
 62
2
 10
2099.409
 20
-6900.998
 30
-2445.000
 70
    32
  0
VERTEX
  8
W78LALIFT
 62
2
 10
2089.625
 20
-6909.832
 30
-2445.000
 70
    32
  0
VERTEX
  8
W78LALIFT
 62
2
 10
2080.509
 20
-6904.634
 30
-2445.000
 70
    32
  0
VERTEX
  8
W78LALIFT
 62
2
 10
2073.336
 20
-6897.392
 30
-2445.000
 70
    32
  0
VERTEX
  8
W78LALIFT
 62
2
 10
2065.511
 20
-6903.499
 30
-2445.000
 70
    32
  0
VERTEX
  8
W78LALIFT
 62
2
 10
2063.790
 20
-6909.936
 30
-2445.000
 70
    32
  0
VERTEX
  8
W78LALIFT
 62
2
 10
2065.982
 20
-6916.140
 30
-2445.000
 70
    32
  0
VERTEX
  8
W78LALIFT
 62
2
 10
2074.856
 20
-6918.971
 30
-2445.000
 70
    32
  0
VERTEX
  8
W78LALIFT
 62
2
 10
2079.839
 20
-6935.813
 30
-2445.000
 70
    32
  0
VERTEX
  8
W78LALIFT
 62
2
 10
2082.056
 20
-6937.264
 30
-2445.000
 70
    32
  0
VERTEX
  8
W78LALIFT
 62
2
 10
2090.285
 20
-6936.046
 30
-2445.000
 70
    32
  0
VERTEX
  8
W78LALIFT
 62
2
 10
2091.923
 20
-6937.193
 30
-2445.000
 70
    32
  0
VERTEX
  8
W78LALIFT
 62
2
 10
2096.634
 20
-6933.837
 30
-2445.000
 70
    32
  0
VERTEX
  8
W78LALIFT
 62
2
 10
2100.265
 20
-6932.733
 30
-2445.000
 70
    32
  0
VERTEX
  8
W78LALIFT
 62
2
 10
2103.969
 20
-6933.790
 30
-2445.000
 70
    32
  0
VERTEX
  8
W78LALIFT
 62
2
 10
2112.668
 20
-6929.585
 30
-2445.000
 70
    32
  0
VERTEX
  8
W78LALIFT
 62
2
 10
2126.574
 20
-6940.654
 30
-2445.000
 70
    32
  0
VERTEX
  8
W78LALIFT
 62
2
 10
2135.260
 20
-6948.481
 30
-2445.000
 70
    32
  0
VERTEX
  8
W78LALIFT
 62
2
 10
2139.495
 20
-6949.133
 30
-2445.000
 70
    32
  0
VERTEX
  8
W78LALIFT
 62
2
 10
2150.496
 20
-6956.444
 30
-2445.000
 70
    32
  0
VERTEX
  8
W78LALIFT
 62
2
 10
2159.385
 20
-6945.480
 30
-2445.000
 70
    32
  0
VERTEX
  8
W78LALIFT
 62
2
 10
2152.410
 20
-6939.494
 30
-2445.000
 70
    32
  0
VERTEX
  8
W78LALIFT
 62
2
 10
2152.410
 20
-6939.494
 30
-2445.000
 70
    32
  0
VERTEX
  8
W78LALIFT
 62
2
 10
2146.439
 20
-6935.505
 30
-2445.000
 70
    32
  0
VERTEX
  8
W78LALIFT
 62
2
 10
2146.513
 20
-6932.109
 30
-2445.000
 70
    32
  0
VERTEX
  8
W78LALIFT
 62
2
 10
2132.915
 20
-6923.345
 30
-2445.000
 70
    32
  0
VERTEX
  8
W78LALIFT
 62
2
 10
2131.294
 20
-6918.461
 30
-2445.000
 70
    32
  0
VERTEX
  8
W78LALIFT
 62
2
 10
2138.173
 20
-6912.092
 30
-2445.000
 70
    32
  0
VERTEX
  8
W78LALIFT
 62
2
 10
2140.577
 20
-6913.413
 30
-2445.000
 70
    32
  0
VERTEX
  8
W78LALIFT
 62
2
 10
2147.154
 20
-6905.455
 30
-2445.000
 70
    32
  0
VERTEX
  8
W78LALIFT
 62
2
 10
2152.772
 20
-6904.017
 30
-2445.000
 70
    32
  0
VERTEX
  8
W78LALIFT
 62
2
 10
2158.735
 20
-6904.682
 30
-2445.000
 70
    32
  0
VERTEX
  8
W78LALIFT
 62
2
 10
2161.529
 20
-6907.593
 30
-2445.000
 70
    32
  0
VERTEX
  8
W78LALIFT
 62
2
 10
2167.342
 20
-6912.101
 30
-2445.000
 70
    32
  0
VERTEX
  8
W78LALIFT
 62
2
 10
2170.904
 20
-6919.421
 30
-2445.000
 70
    32
  0
VERTEX
  8
W78LALIFT
 62
2
 10
2173.101
 20
-6923.086
 30
-2445.000
 70
    32
  0
VERTEX
  8
W78LALIFT
 62
2
 10
2175.430
 20
-6926.966
 30
-2445.000
 70
    32
  0
VERTEX
  8
W78LALIFT
 62
2
 10
2192.466
 20
-6917.634
 30
-2445.000
 70
    32
  0
VERTEX
  8
W78LALIFT
 62
2
 10
2183.771
 20
-6906.007
 30
-2445.000
 70
    32
  0
VERTEX
  8
W78LALIFT
 62
2
 10
2176.600
 20
-6899.054
 30
-2445.000
 70
    32
  0
VERTEX
  8
W78LALIFT
 62
2
 10
2175.138
 20
-6879.068
 30
-2445.000
 70
    32
  0
VERTEX
  8
W78LALIFT
 62
2
 10
2172.455
 20
-6872.952
 30
-2445.000
 70
    32
  0
VERTEX
  8
W78LALIFT
 62
2
 10
2165.308
 20
-6863.404
 30
-2445.000
 70
    32
  0
SEQEND
  8
W78LALIFT
  0
POLYLINE
  8
W78LALIFT
 62
2
 66
     1
 70
     8
  0
VERTEX
  8
W78LALIFT
 62
2
 10
2237.049
 20
-7398.255
 30
-2481.400
 70
    32
  0
VERTEX
  8
W78LALIFT
 62
2
 10
2240.346
 20
-7393.509
 30
-2481.400
 70
    32
  0
VERTEX
  8
W78LALIFT
 62
2
 10
2246.600
 20
-7397.108
 30
-2481.400
 70
    32
  0
VERTEX
  8
W78LALIFT
 62
2
 10
2255.014
 20
-7401.800
 30
-2481.400
 70
    32
  0
VERTEX
  8
W78LALIFT
 62
2
 10
2262.462
 20
-7394.075
 30
-2481.400
 70
    32
  0
VERTEX
  8
W78LALIFT
 62
2
 10
2260.764
 20
-7382.807
 30
-2481.400
 70
    32
  0
VERTEX
  8
W78LALIFT
 62
2
 10
2249.887
 20
-7379.475
 30
-2481.400
 70
    32
  0
VERTEX
  8
W78LALIFT
 62
2
 10
2240.297
 20
-7377.120
 30
-2481.400
 70
    32
  0
VERTEX
  8
W78LALIFT
 62
2
 10
2235.720
 20
-7372.831
 30
-2481.400
 70
    32
  0
VERTEX
  8
W78LALIFT
 62
2
 10
2227.603
 20
-7362.831
 30
-2481.400
 70
    32
  0
VERTEX
  8
W78LALIFT
 62
2
 10
2230.765
 20
-7373.630
 30
-2480.356
 70
    32
  0
VERTEX
  8
W78LALIFT
 62
2
 10
2237.184
 20
-7398.308
 30
-2483.598
 70
    32
  0
SEQEND
  8
W78LALIFT
  0
POLYLINE
  8
W78LALIFT
 62
2
 66
     1
 70
     9
  0
VERTEX
  8
W78LALIFT
 62
2
 10
2213.528
 20
-7367.186
 30
-2474.590
 70
    32
  0
VERTEX
  8
W78LALIFT
 62
2
 10
2218.401
 20
-7371.638
 30
-2480.106
 70
    32
  0
VERTEX
  8
W78LALIFT
 62
2
 10
2223.650
 20
-7395.102
 30
-2483.277
 70
    32
  0
VERTEX
  8
W78LALIFT
 62
2
 10
2221.672
 20
-7401.699
 30
-2485.488
 70
    32
  0
VERTEX
  8
W78LALIFT
 62
2
 10
2220.413
 20
-7405.900
 30
-2485.840
 70
    32
  0
VERTEX
  8
W78LALIFT
 62
2
 10
2216.796
 20
-7413.418
 30
-2486.529
 70
    32
  0
VERTEX
  8
W78LALIFT
 62
2
 10
2217.214
 20
-7411.596
 30
-2483.928
 70
    32
  0
VERTEX
  8
W78LALIFT
 62
2
 10
2208.392
 20
-7399.902
 30
-2481.491
 70
    32
  0
VERTEX
  8
W78LALIFT
 62
2
 10
2208.323
 20
-7399.721
 30
-2481.460
 70
    32
  0
VERTEX
  8
W78LALIFT
 62
2
 10
2206.784
 20
-7395.665
 30
-2480.922
 70
    32
  0
VERTEX
  8
W78LALIFT
 62
2
 10
2205.459
 20
-7392.172
 30
-2479.522
 70
    32
  0
VERTEX
  8
W78LALIFT
 62
2
 10
2204.071
 20
-7388.515
 30
-2478.009
 70
    32
  0
VERTEX
  8
W78LALIFT
 62
2
 10
2199.418
 20
-7381.661
 30
-2474.555
 70
    32
  0
VERTEX
  8
W78LALIFT
 62
2
 10
2197.150
 20
-7378.320
 30
-2473.795
 70
    32
  0
VERTEX
  8
W78LALIFT
 62
2
 10
2189.825
 20
-7368.322
 30
-2471.445
 70
    32
  0
VERTEX
  8
W78LALIFT
 62
2
 10
2187.719
 20
-7365.447
 30
-2470.655
 70
    32
  0
VERTEX
  8
W78LALIFT
 62
2
 10
2184.363
 20
-7361.866
 30
-2469.566
 70
    32
  0
VERTEX
  8
W78LALIFT
 62
2
 10
2175.630
 20
-7352.547
 30
-2469.572
 70
    32
  0
VERTEX
  8
W78LALIFT
 62
2
 10
2175.072
 20
-7351.952
 30
-2469.572
 70
    32
  0
VERTEX
  8
W78LALIFT
 62
2
 10
2164.944
 20
-7342.083
 30
-2469.558
 70
    32
  0
VERTEX
  8
W78LALIFT
 62
2
 10
2157.866
 20
-7334.825
 30
-2469.558
 70
    32
  0
VERTEX
  8
W78LALIFT
 62
2
 10
2167.866
 20
-7326.491
 30
-2469.558
 70
    32
  0
VERTEX
  8
W78LALIFT
 62
2
 10
2173.693
 20
-7334.299
 30
-2469.558
 70
    32
  0
VERTEX
  8
W78LALIFT
 62
2
 10
2176.333
 20
-7337.292
 30
-2469.562
 70
    32
  0
VERTEX
  8
W78LALIFT
 62
2
 10
2188.116
 20
-7350.648
 30
-2469.554
 70
    32
  0
VERTEX
  8
W78LALIFT
 62
2
 10
2192.495
 20
-7354.917
 30
-2469.550
 70
    32
  0
VERTEX
  8
W78LALIFT
 62
2
 10
2197.618
 20
-7359.911
 30
-2471.132
 70
    32
  0
VERTEX
  8
W78LALIFT
 62
2
 10
2203.466
 20
-7366.778
 30
-2473.136
 70
    32
  0
VERTEX
  8
W78LALIFT
 62
2
 10
2206.840
 20
-7370.741
 30
-2474.133
 70
    32
  0
SEQEND
  8
W78LALIFT
  0
POLYLINE
  8
W78LALIFT
 62
2
 66
     1
 70
     8
  0
VERTEX
  8
W78LALIFT
 62
2
 10
1957.974
 20
-6889.996
 30
-2509.522
 70
    32
  0
VERTEX
  8
W78LALIFT
 62
2
 10
1960.807
 20
-6878.696
 30
-2506.418
 70
    32
  0
VERTEX
  8
W78LALIFT
 62
2
 10
1965.403
 20
-6867.826
 30
-2502.913
 70
    32
  0
VERTEX
  8
W78LALIFT
 62
2
 10
1972.049
 20
-6859.796
 30
-2499.770
 70
    32
  0
VERTEX
  8
W78LALIFT
 62
2
 10
1979.202
 20
-6850.949
 30
-2496.336
 70
    32
  0
VERTEX
  8
W78LALIFT
 62
2
 10
1993.167
 20
-6838.904
 30
-2493.940
 70
    32
  0
VERTEX
  8
W78LALIFT
 62
2
 10
1998.711
 20
-6832.647
 30
-2492.941
 70
    32
  0
VERTEX
  8
W78LALIFT
 62
2
 10
2009.452
 20
-6823.870
 30
-2492.490
 70
    32
  0
VERTEX
  8
W78LALIFT
 62
2
 10
2021.343
 20
-6818.558
 30
-2493.124
 70
    32
  0
VERTEX
  8
W78LALIFT
 62
2
 10
2028.528
 20
-6821.284
 30
-2493.426
 70
    32
  0
VERTEX
  8
W78LALIFT
 62
2
 10
2028.534
 20
-6821.185
 30
-2493.428
 70
    32
  0
VERTEX
  8
W78LALIFT
 62
2
 10
2031.875
 20
-6824.102
 30
-2493.545
 70
    32
  0
VERTEX
  8
W78LALIFT
 62
2
 10
2031.875
 20
-6824.102
 30
-2494.005
 70
    32
  0
VERTEX
  8
W78LALIFT
 62
2
 10
2043.688
 20
-6823.385
 30
-2493.945
 70
    32
  0
VERTEX
  8
W78LALIFT
 62
2
 10
2057.526
 20
-6814.515
 30
-2494.151
 70
    32
  0
VERTEX
  8
W78LALIFT
 62
2
 10
2070.875
 20
-6809.033
 30
-2494.338
 70
    32
  0
VERTEX
  8
W78LALIFT
 62
2
 10
2086.124
 20
-6808.379
 30
-2494.532
 70
    32
  0
VERTEX
  8
W78LALIFT
 62
2
 10
2100.350
 20
-6818.222
 30
-2493.656
 70
    32
  0
VERTEX
  8
W78LALIFT
 62
2
 10
2108.552
 20
-6825.902
 30
-2492.802
 70
    32
  0
VERTEX
  8
W78LALIFT
 62
2
 10
2109.398
 20
-6826.925
 30
-2492.013
 70
    32
  0
VERTEX
  8
W78LALIFT
 62
2
 10
2119.021
 20
-6839.257
 30
-2491.910
 70
    32
  0
VERTEX
  8
W78LALIFT
 62
2
 10
2120.156
 20
-6849.139
 30
-2491.843
 70
    32
  0
VERTEX
  8
W78LALIFT
 62
2
 10
2125.531
 20
-6858.184
 30
-2491.772
 70
    32
  0
VERTEX
  8
W78LALIFT
 62
2
 10
2124.861
 20
-6868.155
 30
-2491.709
 70
    32
  0
VERTEX
  8
W78LALIFT
 62
2
 10
2128.554
 20
-6877.108
 30
-2491.708
 70
    32
  0
VERTEX
  8
W78LALIFT
 62
2
 10
2131.534
 20
-6880.362
 30
-2491.403
 70
    32
  0
VERTEX
  8
W78LALIFT
 62
2
 10
2137.839
 20
-6884.501
 30
-2490.837
 70
    32
  0
VERTEX
  8
W78LALIFT
 62
2
 10
2151.256
 20
-6889.696
 30
-2489.735
 70
    32
  0
VERTEX
  8
W78LALIFT
 62
2
 10
2160.540
 20
-6889.097
 30
-2489.403
 70
    32
  0
VERTEX
  8
W78LALIFT
 62
2
 10
2167.519
 20
-6896.257
 30
-2489.555
 70
    32
  0
VERTEX
  8
W78LALIFT
 62
2
 10
2171.497
 20
-6899.727
 30
-2489.372
 70
    32
  0
VERTEX
  8
W78LALIFT
 62
2
 10
2168.139
 20
-6914.132
 30
-2489.674
 70
    32
  0
VERTEX
  8
W78LALIFT
 62
2
 10
2172.932
 20
-6917.527
 30
-2489.875
 70
    32
  0
VERTEX
  8
W78LALIFT
 62
2
 10
2176.254
 20
-6926.529
 30
-2489.695
 70
    32
  0
VERTEX
  8
W78LALIFT
 62
2
 10
2177.136
 20
-6944.946
 30
-2491.379
 70
    32
  0
VERTEX
  8
W78LALIFT
 62
2
 10
2179.369
 20
-6951.519
 30
-2491.396
 70
    32
  0
VERTEX
  8
W78LALIFT
 62
2
 10
2187.377
 20
-6963.899
 30
-2491.433
 70
    32
  0
VERTEX
  8
W78LALIFT
 62
2
 10
2193.982
 20
-6970.224
 30
-2491.526
 70
    32
  0
VERTEX
  8
W78LALIFT
 62
2
 10
2200.834
 20
-6971.947
 30
-2491.613
 70
    32
  0
VERTEX
  8
W78LALIFT
 62
2
 10
2205.874
 20
-6977.522
 30
-2491.733
 70
    32
  0
VERTEX
  8
W78LALIFT
 62
2
 10
2220.656
 20
-6982.863
 30
-2491.941
 70
    32
  0
VERTEX
  8
W78LALIFT
 62
2
 10
2225.803
 20
-6993.848
 30
-2492.135
 70
    32
  0
VERTEX
  8
W78LALIFT
 62
2
 10
2205.801
 20
-7007.582
 30
-2492.132
 70
    32
  0
VERTEX
  8
W78LALIFT
 62
2
 10
2194.810
 20
-6993.151
 30
-2491.839
 70
    32
  0
VERTEX
  8
W78LALIFT
 62
2
 10
2190.947
 20
-6991.880
 30
-2491.786
 70
    32
  0
VERTEX
  8
W78LALIFT
 62
2
 10
2185.589
 20
-6984.622
 30
-2491.640
 70
    32
  0
VERTEX
  8
W78LALIFT
 62
2
 10
2179.649
 20
-6984.032
 30
-2491.577
 70
    32
  0
VERTEX
  8
W78LALIFT
 62
2
 10
2171.214
 20
-6962.155
 30
-2491.412
 70
    32
  0
VERTEX
  8
W78LALIFT
 62
2
 10
2165.746
 20
-6955.053
 30
-2491.390
 70
    32
  0
VERTEX
  8
W78LALIFT
 62
2
 10
2161.121
 20
-6953.505
 30
-2491.381
 70
    32
  0
VERTEX
  8
W78LALIFT
 62
2
 10
2157.199
 20
-6944.712
 30
-2490.228
 70
    32
  0
VERTEX
  8
W78LALIFT
 62
2
 10
2156.390
 20
-6934.097
 30
-2489.535
 70
    32
  0
VERTEX
  8
W78LALIFT
 62
2
 10
2152.696
 20
-6922.242
 30
-2488.711
 70
    32
  0
VERTEX
  8
W78LALIFT
 62
2
 10
2146.116
 20
-6905.941
 30
-2489.641
 70
    32
  0
VERTEX
  8
W78LALIFT
 62
2
 10
2138.952
 20
-6897.866
 30
-2490.380
 70
    32
  0
VERTEX
  8
W78LALIFT
 62
2
 10
2127.656
 20
-6891.417
 30
-2491.367
 70
    32
  0
VERTEX
  8
W78LALIFT
 62
2
 10
2121.241
 20
-6890.464
 30
-2491.573
 70
    32
  0
VERTEX
  8
W78LALIFT
 62
2
 10
2118.482
 20
-6882.128
 30
-2491.634
 70
    32
  0
VERTEX
  8
W78LALIFT
 62
2
 10
2114.170
 20
-6872.023
 30
-2491.710
 70
    32
  0
VERTEX
  8
W78LALIFT
 62
2
 10
2111.392
 20
-6858.178
 30
-2491.806
 70
    32
  0
VERTEX
  8
W78LALIFT
 62
2
 10
2104.854
 20
-6842.600
 30
-2491.923
 70
    32
  0
VERTEX
  8
W78LALIFT
 62
2
 10
2102.493
 20
-6839.523
 30
-2491.948
 70
    32
  0
VERTEX
  8
W78LALIFT
 62
2
 10
2102.223
 20
-6838.504
 30
-2492.307
 70
    32
  0
VERTEX
  8
W78LALIFT
 62
2
 10
2088.242
 20
-6826.568
 30
-2494.493
 70
    32
  0
VERTEX
  8
W78LALIFT
 62
2
 10
2073.456
 20
-6823.482
 30
-2494.318
 70
    32
  0
VERTEX
  8
W78LALIFT
 62
2
 10
2060.804
 20
-6826.947
 30
-2494.147
 70
    32
  0
VERTEX
  8
W78LALIFT
 62
2
 10
2052.757
 20
-6837.196
 30
-2494.009
 70
    32
  0
VERTEX
  8
W78LALIFT
 62
2
 10
2041.268
 20
-6844.513
 30
-2493.838
 70
    32
  0
VERTEX
  8
W78LALIFT
 62
2
 10
2040.558
 20
-6847.382
 30
-2493.635
 70
    32
  0
VERTEX
  8
W78LALIFT
 62
2
 10
2037.768
 20
-6856.085
 30
-2493.383
 70
    32
  0
VERTEX
  8
W78LALIFT
 62
2
 10
2037.655
 20
-6857.119
 30
-2494.718
 70
    32
  0
VERTEX
  8
W78LALIFT
 62
2
 10
2043.140
 20
-6866.070
 30
-2493.778
 70
    32
  0
VERTEX
  8
W78LALIFT
 62
2
 10
2047.458
 20
-6876.411
 30
-2492.769
 70
    32
  0
VERTEX
  8
W78LALIFT
 62
2
 10
2053.868
 20
-6886.134
 30
-2491.730
 70
    32
  0
VERTEX
  8
W78LALIFT
 62
2
 10
2052.356
 20
-6891.630
 30
-2491.480
 70
    32
  0
VERTEX
  8
W78LALIFT
 62
2
 10
2061.392
 20
-6903.941
 30
-2492.336
 70
    32
  0
VERTEX
  8
W78LALIFT
 62
2
 10
2069.607
 20
-6907.649
 30
-2491.675
 70
    32
  0
VERTEX
  8
W78LALIFT
 62
2
 10
2075.570
 20
-6906.745
 30
-2491.599
 70
    32
  0
VERTEX
  8
W78LALIFT
 62
2
 10
2074.622
 20
-6900.839
 30
-2491.439
 70
    32
  0
VERTEX
  8
W78LALIFT
 62
2
 10
2079.163
 20
-6899.284
 30
-2491.561
 70
    32
  0
VERTEX
  8
W78LALIFT
 62
2
 10
2077.376
 20
-6889.631
 30
-2491.735
 70
    32
  0
VERTEX
  8
W78LALIFT
 62
2
 10
2088.560
 20
-6887.828
 30
-2491.694
 70
    32
  0
VERTEX
  8
W78LALIFT
 62
2
 10
2090.641
 20
-6898.088
 30
-2491.516
 70
    32
  0
VERTEX
  8
W78LALIFT
 62
2
 10
2093.056
 20
-6898.933
 30
-2491.437
 70
    32
  0
VERTEX
  8
W78LALIFT
 62
2
 10
2101.901
 20
-6906.926
 30
-2491.868
 70
    32
  0
VERTEX
  8
W78LALIFT
 62
2
 10
2105.023
 20
-6917.092
 30
-2490.476
 70
    32
  0
VERTEX
  8
W78LALIFT
 62
2
 10
2106.759
 20
-6919.196
 30
-2490.107
 70
    32
  0
VERTEX
  8
W78LALIFT
 62
2
 10
2106.557
 20
-6928.398
 30
-2489.071
 70
    32
  0
VERTEX
  8
W78LALIFT
 62
2
 10
2108.011
 20
-6933.254
 30
-2488.409
 70
    32
  0
VERTEX
  8
W78LALIFT
 62
2
 10
2111.624
 20
-6936.213
 30
-2489.303
 70
    32
  0
VERTEX
  8
W78LALIFT
 62
2
 10
2104.276
 20
-6944.727
 30
-2489.376
 70
    32
  0
VERTEX
  8
W78LALIFT
 62
2
 10
2099.803
 20
-6941.722
 30
-2488.051
 70
    32
  0
VERTEX
  8
W78LALIFT
 62
2
 10
2094.441
 20
-6941.328
 30
-2488.494
 70
    32
  0
VERTEX
  8
W78LALIFT
 62
2
 10
2084.538
 20
-6942.041
 30
-2489.147
 70
    32
  0
VERTEX
  8
W78LALIFT
 62
2
 10
2082.139
 20
-6933.649
 30
-2490.284
 70
    32
  0
VERTEX
  8
W78LALIFT
 62
2
 10
2074.560
 20
-6921.748
 30
-2491.414
 70
    32
  0
VERTEX
  8
W78LALIFT
 62
2
 10
2070.936
 20
-6920.099
 30
-2491.584
 70
    32
  0
VERTEX
  8
W78LALIFT
 62
2
 10
2068.785
 20
-6919.137
 30
-2492.116
 70
    32
  0
VERTEX
  8
W78LALIFT
 62
2
 10
2067.860
 20
-6927.011
 30
-2492.078
 70
    32
  0
VERTEX
  8
W78LALIFT
 62
2
 10
2058.378
 20
-6930.003
 30
-2492.211
 70
    32
  0
VERTEX
  8
W78LALIFT
 62
2
 10
2049.802
 20
-6913.512
 30
-2492.459
 70
    32
  0
VERTEX
  8
W78LALIFT
 62
2
 10
2041.159
 20
-6894.518
 30
-2491.527
 70
    32
  0
VERTEX
  8
W78LALIFT
 62
2
 10
2030.579
 20
-6873.299
 30
-2493.345
 70
    32
  0
VERTEX
  8
W78LALIFT
 62
2
 10
2028.185
 20
-6870.877
 30
-2493.475
 70
    32
  0
VERTEX
  8
W78LALIFT
 62
2
 10
2021.495
 20
-6873.653
 30
-2492.854
 70
    32
  0
VERTEX
  8
W78LALIFT
 62
2
 10
2014.809
 20
-6873.398
 30
-2494.668
 70
    32
  0
VERTEX
  8
W78LALIFT
 62
2
 10
2012.465
 20
-6867.529
 30
-2494.337
 70
    32
  0
VERTEX
  8
W78LALIFT
 62
2
 10
2008.472
 20
-6860.706
 30
-2494.115
 70
    32
  0
VERTEX
  8
W78LALIFT
 62
2
 10
1998.757
 20
-6855.321
 30
-2494.773
 70
    32
  0
VERTEX
  8
W78LALIFT
 62
2
 10
1991.307
 20
-6858.338
 30
-2496.043
 70
    32
  0
VERTEX
  8
W78LALIFT
 62
2
 10
1983.426
 20
-6863.085
 30
-2498.659
 70
    32
  0
VERTEX
  8
W78LALIFT
 62
2
 10
1977.781
 20
-6869.657
 30
-2501.266
 70
    32
  0
VERTEX
  8
W78LALIFT
 62
2
 10
1972.211
 20
-6876.957
 30
-2504.043
 70
    32
  0
VERTEX
  8
W78LALIFT
 62
2
 10
1968.961
 20
-6884.848
 30
-2506.573
 70
    32
  0
VERTEX
  8
W78LALIFT
 62
2
 10
1966.756
 20
-6891.084
 30
-2508.511
 70
    32
  0
VERTEX
  8
W78LALIFT
 62
2
 10
1966.187
 20
-6894.631
 30
-2509.496
 70
    32
  0
SEQEND
  8
W78LALIFT
  0
POLYLINE
  8
W78LALIFT
 62
2
 66
     1
 70
     9
  0
VERTEX
  8
W78LALIFT
 62
2
 10
1970.453
 20
-6688.357
 30
-2467.825
 70
    32
  0
VERTEX
  8
W78LALIFT
 62
2
 10
1972.104
 20
-6684.744
 30
-2465.863
 70
    32
  0
VERTEX
  8
W78LALIFT
 62
2
 10
1974.716
 20
-6679.031
 30
-2463.502
 70
    32
  0
VERTEX
  8
W78LALIFT
 62
2
 10
1975.174
 20
-6677.628
 30
-2462.958
 70
    32
  0
VERTEX
  8
W78LALIFT
 62
2
 10
1977.308
 20
-6671.083
 30
-2460.419
 70
    32
  0
VERTEX
  8
W78LALIFT
 62
2
 10
1978.595
 20
-6667.137
 30
-2460.810
 70
    32
  0
VERTEX
  8
W78LALIFT
 62
2
 10
1978.750
 20
-6667.032
 30
-2460.826
 70
    32
  0
VERTEX
  8
W78LALIFT
 62
2
 10
1980.779
 20
-6665.653
 30
-2460.800
 70
    32
  0
VERTEX
  8
W78LALIFT
 62
2
 10
1984.166
 20
-6663.351
 30
-2460.757
 70
    32
  0
VERTEX
  8
W78LALIFT
 62
2
 10
1985.534
 20
-6662.422
 30
-2460.679
 70
    32
  0
VERTEX
  8
W78LALIFT
 62
2
 10
1991.826
 20
-6660.519
 30
-2460.430
 70
    32
  0
VERTEX
  8
W78LALIFT
 62
2
 10
1993.265
 20
-6660.326
 30
-2460.384
 70
    32
  0
VERTEX
  8
W78LALIFT
 62
2
 10
1995.960
 20
-6659.810
 30
-2463.142
 70
    32
  0
VERTEX
  8
W78LALIFT
 62
2
 10
1999.466
 20
-6662.112
 30
-2462.960
 70
    32
  0
VERTEX
  8
W78LALIFT
 62
2
 10
2002.011
 20
-6669.041
 30
-2462.816
 70
    32
  0
VERTEX
  8
W78LALIFT
 62
2
 10
2025.288
 20
-6667.917
 30
-2461.650
 70
    32
  0
VERTEX
  8
W78LALIFT
 62
2
 10
2038.382
 20
-6662.348
 30
-2461.006
 70
    32
  0
VERTEX
  8
W78LALIFT
 62
2
 10
2046.732
 20
-6663.718
 30
-2460.495
 70
    32
  0
VERTEX
  8
W78LALIFT
 62
2
 10
2055.892
 20
-6669.967
 30
-2460.434
 70
    32
  0
VERTEX
  8
W78LALIFT
 62
2
 10
2056.924
 20
-6670.204
 30
-2460.400
 70
    32
  0
VERTEX
  8
W78LALIFT
 62
2
 10
2063.749
 20
-6678.104
 30
-2460.000
 70
    32
  0
VERTEX
  8
W78LALIFT
 62
2
 10
2070.120
 20
-6668.317
 30
-2460.000
 70
    32
  0
VERTEX
  8
W78LALIFT
 62
2
 10
2062.414
 20
-6661.344
 30
-2460.002
 70
    32
  0
VERTEX
  8
W78LALIFT
 62
2
 10
2065.729
 20
-6654.454
 30
-2460.320
 70
    32
  0
VERTEX
  8
W78LALIFT
 62
2
 10
2064.411
 20
-6647.462
 30
-2460.316
 70
    32
  0
VERTEX
  8
W78LALIFT
 62
2
 10
2062.895
 20
-6640.228
 30
-2459.700
 70
    32
  0
VERTEX
  8
W78LALIFT
 62
2
 10
2063.967
 20
-6634.819
 30
-2459.700
 70
    32
  0
VERTEX
  8
W78LALIFT
 62
2
 10
2055.269
 20
-6634.979
 30
-2459.700
 70
    32
  0
VERTEX
  8
W78LALIFT
 62
2
 10
2054.638
 20
-6634.016
 30
-2460.365
 70
    32
  0
VERTEX
  8
W78LALIFT
 62
2
 10
2051.520
 20
-6626.756
 30
-2460.374
 70
    32
  0
VERTEX
  8
W78LALIFT
 62
2
 10
2051.217
 20
-6626.051
 30
-2460.375
 70
    32
  0
VERTEX
  8
W78LALIFT
 62
2
 10
2053.072
 20
-6616.575
 30
-2461.588
 70
    32
  0
VERTEX
  8
W78LALIFT
 62
2
 10
2056.808
 20
-6608.827
 30
-2461.588
 70
    32
  0
VERTEX
  8
W78LALIFT
 62
2
 10
2058.120
 20
-6594.616
 30
-2460.018
 70
    32
  0
VERTEX
  8
W78LALIFT
 62
2
 10
2058.140
 20
-6594.403
 30
-2460.017
 70
    32
  0
VERTEX
  8
W78LALIFT
 62
2
 10
2062.820
 20
-6583.966
 30
-2459.958
 70
    32
  0
VERTEX
  8
W78LALIFT
 62
2
 10
2067.991
 20
-6576.135
 30
-2459.913
 70
    32
  0
VERTEX
  8
W78LALIFT
 62
2
 10
2072.309
 20
-6568.775
 30
-2459.872
 70
    32
  0
VERTEX
  8
W78LALIFT
 62
2
 10
2065.945
 20
-6562.453
 30
-2459.839
 70
    32
  0
VERTEX
  8
W78LALIFT
 62
2
 10
2067.895
 20
-6554.324
 30
-2459.794
 70
    32
  0
VERTEX
  8
W78LALIFT
 62
2
 10
2057.053
 20
-6551.706
 30
-2459.784
 70
    32
  0
VERTEX
  8
W78LALIFT
 62
2
 10
2049.453
 20
-6552.561
 30
-2459.791
 70
    32
  0
VERTEX
  8
W78LALIFT
 62
2
 10
2045.250
 20
-6551.510
 30
-2458.660
 70
    32
  0
VERTEX
  8
W78LALIFT
 62
2
 10
2038.340
 20
-6543.940
 30
-2459.360
 70
    32
  0
VERTEX
  8
W78LALIFT
 62
2
 10
2031.720
 20
-6546.340
 30
-2458.660
 70
    32
  0
VERTEX
  8
W78LALIFT
 62
2
 10
2029.480
 20
-6548.730
 30
-2458.840
 70
    32
  0
VERTEX
  8
W78LALIFT
 62
2
 10
2026.510
 20
-6552.500
 30
-2457.410
 70
    32
  0
VERTEX
  8
W78LALIFT
 62
2
 10
2024.410
 20
-6565.660
 30
-2458.350
 70
    32
  0
VERTEX
  8
W78LALIFT
 62
2
 10
2015.191
 20
-6567.750
 30
-2457.886
 70
    32
  0
VERTEX
  8
W78LALIFT
 62
2
 10
2011.672
 20
-6565.067
 30
-2457.812
 70
    32
  0
VERTEX
  8
W78LALIFT
 62
2
 10
2013.797
 20
-6560.306
 30
-2457.759
 70
    32
  0
VERTEX
  8
W78LALIFT
 62
2
 10
2000.372
 20
-6549.504
 30
-2457.470
 70
    32
  0
VERTEX
  8
W78LALIFT
 62
2
 10
1987.727
 20
-6542.914
 30
-2457.252
 70
    32
  0
VERTEX
  8
W78LALIFT
 62
2
 10
1975.583
 20
-6546.486
 30
-2457.195
 70
    32
  0
VERTEX
  8
W78LALIFT
 62
2
 10
1969.799
 20
-6561.291
 30
-2457.369
 70
    32
  0
VERTEX
  8
W78LALIFT
 62
2
 10
1968.395
 20
-6576.719
 30
-2457.592
 70
    32
  0
VERTEX
  8
W78LALIFT
 62
2
 10
1975.097
 20
-6582.065
 30
-2457.736
 70
    32
  0
VERTEX
  8
W78LALIFT
 62
2
 10
1982.473
 20
-6594.317
 30
-2457.992
 70
    32
  0
VERTEX
  8
W78LALIFT
 62
2
 10
1994.420
 20
-6602.918
 30
-2458.234
 70
    32
  0
VERTEX
  8
W78LALIFT
 62
2
 10
1997.462
 20
-6607.044
 30
-2459.397
 70
    32
  0
VERTEX
  8
W78LALIFT
 62
2
 10
1998.270
 20
-6614.195
 30
-2460.956
 70
    32
  0
VERTEX
  8
W78LALIFT
 62
2
 10
1998.143
 20
-6620.521
 30
-2461.122
 70
    32
  0
VERTEX
  8
W78LALIFT
 62
2
 10
1996.206
 20
-6628.965
 30
-2460.820
 70
    32
  0
VERTEX
  8
W78LALIFT
 62
2
 10
1991.321
 20
-6635.144
 30
-2460.617
 70
    32
  0
VERTEX
  8
W78LALIFT
 62
2
 10
1983.524
 20
-6637.344
 30
-2459.597
 70
    32
  0
VERTEX
  8
W78LALIFT
 62
2
 10
1980.566
 20
-6643.390
 30
-2459.947
 70
    32
  0
VERTEX
  8
W78LALIFT
 62
2
 10
1979.894
 20
-6645.578
 30
-2460.064
 70
    32
  0
VERTEX
  8
W78LALIFT
 62
2
 10
1972.197
 20
-6652.429
 30
-2460.573
 70
    32
  0
VERTEX
  8
W78LALIFT
 62
2
 10
1971.973
 20
-6652.628
 30
-2460.587
 70
    32
  0
VERTEX
  8
W78LALIFT
 62
2
 10
1970.284
 20
-6654.132
 30
-2460.615
 70
    32
  0
VERTEX
  8
W78LALIFT
 62
2
 10
1970.084
 20
-6654.444
 30
-2460.621
 70
    32
  0
VERTEX
  8
W78LALIFT
 62
2
 10
1965.411
 20
-6661.709
 30
-2460.750
 70
    32
  0
VERTEX
  8
W78LALIFT
 62
2
 10
1964.176
 20
-6663.631
 30
-2460.535
 70
    32
  0
VERTEX
  8
W78LALIFT
 62
2
 10
1961.117
 20
-6668.387
 30
-2462.671
 70
    32
  0
VERTEX
  8
W78LALIFT
 62
2
 10
1959.929
 20
-6678.040
 30
-2466.037
 70
    32
  0
VERTEX
  8
W78LALIFT
 62
2
 10
1958.715
 20
-6684.275
 30
-2468.298
 70
    32
  0
VERTEX
  8
W78LALIFT
 62
2
 10
1964.579
 20
-6686.314
 30
-2467.827
 70
    32
  0
SEQEND
  8
W78LALIFT
  0
POLYLINE
  8
W78LALIFT
 62
2
 66
     1
 70
     9
  0
VERTEX
  8
W78LALIFT
 62
2
 10
2030.530
 20
-6577.860
 30
-2458.400
 70
    32
  0
VERTEX
  8
W78LALIFT
 62
2
 10
2040.020
 20
-6580.600
 30
-2459.310
 70
    32
  0
VERTEX
  8
W78LALIFT
 62
2
 10
2042.173
 20
-6585.554
 30
-2459.974
 70
    32
  0
VERTEX
  8
W78LALIFT
 62
2
 10
2046.165
 20
-6595.619
 30
-2460.027
 70
    32
  0
VERTEX
  8
W78LALIFT
 62
2
 10
2046.141
 20
-6596.043
 30
-2460.030
 70
    32
  0
VERTEX
  8
W78LALIFT
 62
2
 10
2046.012
 20
-6598.384
 30
-2460.588
 70
    32
  0
VERTEX
  8
W78LALIFT
 62
2
 10
2044.396
 20
-6610.996
 30
-2460.588
 70
    32
  0
VERTEX
  8
W78LALIFT
 62
2
 10
2040.136
 20
-6619.179
 30
-2460.061
 70
    32
  0
VERTEX
  8
W78LALIFT
 62
2
 10
2037.662
 20
-6621.115
 30
-2460.563
 70
    32
  0
VERTEX
  8
W78LALIFT
 62
2
 10
2018.110
 20
-6624.431
 30
-2462.585
 70
    32
  0
VERTEX
  8
W78LALIFT
 62
2
 10
2016.935
 20
-6618.130
 30
-2462.478
 70
    32
  0
VERTEX
  8
W78LALIFT
 62
2
 10
2022.846
 20
-6611.696
 30
-2461.977
 70
    32
  0
VERTEX
  8
W78LALIFT
 62
2
 10
2022.668
 20
-6593.271
 30
-2459.921
 70
    32
  0
VERTEX
  8
W78LALIFT
 62
2
 10
2021.574
 20
-6581.926
 30
-2458.619
 70
    32
  0
SEQEND
  8
W78LALIFT
  0
POLYLINE
  8
W78LALIFT
 62
2
 66
     1
 70
     9
  0
VERTEX
  8
W78LALIFT
 62
2
 10
2020.712
 20
-6899.461
 30
-2536.876
 70
    32
  0
VERTEX
  8
W78LALIFT
 62
2
 10
2035.939
 20
-6907.671
 30
-2531.364
 70
    32
  0
VERTEX
  8
W78LALIFT
 62
2
 10
2045.357
 20
-6908.577
 30
-2530.287
 70
    32
  0
VERTEX
  8
W78LALIFT
 62
2
 10
2044.259
 20
-6908.471
 30
-2530.248
 70
    32
  0
VERTEX
  8
W78LALIFT
 62
2
 10
2057.103
 20
-6908.840
 30
-2529.140
 70
    32
  0
VERTEX
  8
W78LALIFT
 62
2
 10
2071.138
 20
-6932.045
 30
-2527.469
 70
    32
  0
VERTEX
  8
W78LALIFT
 62
2
 10
2086.847
 20
-6952.921
 30
-2526.257
 70
    32
  0
VERTEX
  8
W78LALIFT
 62
2
 10
2094.277
 20
-6961.150
 30
-2524.963
 70
    32
  0
VERTEX
  8
W78LALIFT
 62
2
 10
2098.876
 20
-6968.772
 30
-2525.087
 70
    32
  0
VERTEX
  8
W78LALIFT
 62
2
 10
2102.781
 20
-6976.272
 30
-2525.401
 70
    32
  0
VERTEX
  8
W78LALIFT
 62
2
 10
2109.665
 20
-6989.596
 30
-2524.655
 70
    32
  0
VERTEX
  8
W78LALIFT
 62
2
 10
2113.543
 20
-6999.331
 30
-2524.605
 70
    32
  0
VERTEX
  8
W78LALIFT
 62
2
 10
2104.337
 20
-7004.949
 30
-2524.606
 70
    32
  0
VERTEX
  8
W78LALIFT
 62
2
 10
2098.869
 20
-6996.452
 30
-2524.656
 70
    32
  0
VERTEX
  8
W78LALIFT
 62
2
 10
2092.125
 20
-6985.533
 30
-2525.378
 70
    32
  0
VERTEX
  8
W78LALIFT
 62
2
 10
2085.918
 20
-6975.267
 30
-2524.926
 70
    32
  0
VERTEX
  8
W78LALIFT
 62
2
 10
2077.105
 20
-6970.464
 30
-2525.511
 70
    32
  0
VERTEX
  8
W78LALIFT
 62
2
 10
2060.740
 20
-6949.672
 30
-2527.280
 70
    32
  0
VERTEX
  8
W78LALIFT
 62
2
 10
2043.818
 20
-6930.614
 30
-2528.284
 70
    32
  0
VERTEX
  8
W78LALIFT
 62
2
 10
2031.096
 20
-6919.327
 30
-2530.728
 70
    32
  0
VERTEX
  8
W78LALIFT
 62
2
 10
2024.580
 20
-6915.450
 30
-2532.260
 70
    32
  0
VERTEX
  8
W78LALIFT
 62
2
 10
2014.226
 20
-6909.495
 30
-2536.862
 70
    32
  0
SEQEND
  8
W78LALIFT
  0
POLYLINE
  8
W78LALIFT
 62
2
 66
     1
 70
     9
  0
VERTEX
  8
W78LALIFT
 62
2
 10
2205.827
 20
-7094.320
 30
-2542.522
 70
    32
  0
VERTEX
  8
W78LALIFT
 62
2
 10
2211.417
 20
-7086.584
 30
-2540.651
 70
    32
  0
VERTEX
  8
W78LALIFT
 62
2
 10
2213.720
 20
-7079.113
 30
-2539.124
 70
    32
  0
VERTEX
  8
W78LALIFT
 62
2
 10
2222.642
 20
-7069.669
 30
-2536.806
 70
    32
  0
VERTEX
  8
W78LALIFT
 62
2
 10
2230.306
 20
-7066.336
 30
-2535.654
 70
    32
  0
VERTEX
  8
W78LALIFT
 62
2
 10
2241.709
 20
-7082.850
 30
-2535.524
 70
    32
  0
VERTEX
  8
W78LALIFT
 62
2
 10
2240.993
 20
-7093.923
 30
-2536.425
 70
    32
  0
VERTEX
  8
W78LALIFT
 62
2
 10
2231.176
 20
-7093.257
 30
-2537.721
 70
    32
  0
VERTEX
  8
W78LALIFT
 62
2
 10
2214.429
 20
-7103.213
 30
-2542.448
 70
    32
  0
SEQEND
  8
W78LALIFT
  0
POLYLINE
  8
W78LALIFT
 62
2
 66
     1
 70
     9
  0
VERTEX
  8
W78LALIFT
 62
2
 10
2434.238
 20
-7842.807
 30
-2523.742
 70
    32
  0
VERTEX
  8
W78LALIFT
 62
2
 10
2433.308
 20
-7851.198
 30
-2523.646
 70
    32
  0
VERTEX
  8
W78LALIFT
 62
2
 10
2433.277
 20
-7851.792
 30
-2523.558
 70
    32
  0
VERTEX
  8
W78LALIFT
 62
2
 10
2425.774
 20
-7855.776
 30
-2523.562
 70
    32
  0
VERTEX
  8
W78LALIFT
 62
2
 10
2425.576
 20
-7855.794
 30
-2524.219
 70
    32
  0
VERTEX
  8
W78LALIFT
 62
2
 10
2422.940
 20
-7853.562
 30
-2524.599
 70
    32
  0
VERTEX
  8
W78LALIFT
 62
2
 10
2422.206
 20
-7841.979
 30
-2524.177
 70
    32
  0
VERTEX
  8
W78LALIFT
 62
2
 10
2430.643
 20
-7828.491
 30
-2523.756
 70
    32
  0
VERTEX
  8
W78LALIFT
 62
2
 10
2432.287
 20
-7830.357
 30
-2523.758
 70
    32
  0
SEQEND
  8
W78LALIFT
  0
POLYLINE
  8
W78LALIFT
 62
2
 66
     1
 70
     9
  0
VERTEX
  8
W78LALIFT
 62
2
 10
2435.322
 20
-7814.731
 30
-2523.757
 70
    32
  0
VERTEX
  8
W78LALIFT
 62
2
 10
2436.696
 20
-7812.880
 30
-2525.062
 70
    32
  0
VERTEX
  8
W78LALIFT
 62
2
 10
2437.949
 20
-7803.840
 30
-2523.857
 70
    32
  0
VERTEX
  8
W78LALIFT
 62
2
 10
2431.388
 20
-7801.345
 30
-2523.982
 70
    32
  0
VERTEX
  8
W78LALIFT
 62
2
 10
2427.580
 20
-7791.214
 30
-2524.231
 70
    32
  0
VERTEX
  8
W78LALIFT
 62
2
 10
2412.910
 20
-7790.273
 30
-2524.206
 70
    32
  0
VERTEX
  8
W78LALIFT
 62
2
 10
2377.460
 20
-7785.640
 30
-2521.735
 70
    32
  0
VERTEX
  8
W78LALIFT
 62
2
 10
2376.989
 20
-7798.312
 30
-2522.116
 70
    32
  0
VERTEX
  8
W78LALIFT
 62
2
 10
2387.683
 20
-7803.177
 30
-2524.200
 70
    32
  0
VERTEX
  8
W78LALIFT
 62
2
 10
2398.025
 20
-7805.316
 30
-2524.236
 70
    32
  0
VERTEX
  8
W78LALIFT
 62
2
 10
2403.528
 20
-7808.646
 30
-2525.151
 70
    32
  0
VERTEX
  8
W78LALIFT
 62
2
 10
2404.337
 20
-7809.136
 30
-2525.143
 70
    32
  0
VERTEX
  8
W78LALIFT
 62
2
 10
2404.683
 20
-7819.443
 30
-2524.375
 70
    32
  0
VERTEX
  8
W78LALIFT
 62
2
 10
2398.846
 20
-7827.474
 30
-2524.700
 70
    32
  0
VERTEX
  8
W78LALIFT
 62
2
 10
2397.731
 20
-7838.051
 30
-2524.913
 70
    32
  0
VERTEX
  8
W78LALIFT
 62
2
 10
2395.289
 20
-7847.911
 30
-2525.157
 70
    32
  0
VERTEX
  8
W78LALIFT
 62
2
 10
2401.807
 20
-7852.430
 30
-2525.019
 70
    32
  0
VERTEX
  8
W78LALIFT
 62
2
 10
2403.291
 20
-7855.876
 30
-2525.028
 70
    32
  0
VERTEX
  8
W78LALIFT
 62
2
 10
2403.245
 20
-7856.945
 30
-2524.626
 70
    32
  0
VERTEX
  8
W78LALIFT
 62
2
 10
2400.971
 20
-7864.772
 30
-2524.548
 70
    32
  0
VERTEX
  8
W78LALIFT
 62
2
 10
2411.957
 20
-7871.647
 30
-2524.438
 70
    32
  0
VERTEX
  8
W78LALIFT
 62
2
 10
2416.459
 20
-7870.547
 30
-2524.323
 70
    32
  0
VERTEX
  8
W78LALIFT
 62
2
 10
2416.697
 20
-7879.126
 30
-2524.241
 70
    32
  0
VERTEX
  8
W78LALIFT
 62
2
 10
2424.029
 20
-7890.620
 30
-2524.079
 70
    32
  0
VERTEX
  8
W78LALIFT
 62
2
 10
2434.323
 20
-7894.766
 30
-2523.963
 70
    32
  0
VERTEX
  8
W78LALIFT
 62
2
 10
2442.340
 20
-7892.657
 30
-2523.924
 70
    32
  0
VERTEX
  8
W78LALIFT
 62
2
 10
2452.010
 20
-7882.125
 30
-2523.951
 70
    32
  0
VERTEX
  8
W78LALIFT
 62
2
 10
2452.720
 20
-7877.339
 30
-2523.990
 70
    32
  0
VERTEX
  8
W78LALIFT
 62
2
 10
2449.304
 20
-7875.056
 30
-2523.865
 70
    32
  0
VERTEX
  8
W78LALIFT
 62
2
 10
2449.987
 20
-7866.864
 30
-2523.713
 70
    32
  0
VERTEX
  8
W78LALIFT
 62
2
 10
2460.067
 20
-7862.292
 30
-2523.355
 70
    32
  0
VERTEX
  8
W78LALIFT
 62
2
 10
2464.459
 20
-7856.726
 30
-2523.361
 70
    32
  0
VERTEX
  8
W78LALIFT
 62
2
 10
2478.287
 20
-7854.103
 30
-2521.842
 70
    32
  0
VERTEX
  8
W78LALIFT
 62
2
 10
2486.603
 20
-7860.615
 30
-2521.389
 70
    32
  0
VERTEX
  8
W78LALIFT
 62
2
 10
2493.535
 20
-7858.775
 30
-2521.221
 70
    32
  0
VERTEX
  8
W78LALIFT
 62
2
 10
2499.500
 20
-7864.448
 30
-2520.867
 70
    32
  0
VERTEX
  8
W78LALIFT
 62
2
 10
2506.433
 20
-7855.401
 30
-2520.907
 70
    32
  0
VERTEX
  8
W78LALIFT
 62
2
 10
2497.689
 20
-7848.084
 30
-2521.397
 70
    32
  0
VERTEX
  8
W78LALIFT
 62
2
 10
2490.307
 20
-7830.577
 30
-2522.137
 70
    32
  0
VERTEX
  8
W78LALIFT
 62
2
 10
2485.956
 20
-7825.150
 30
-2522.433
 70
    32
  0
VERTEX
  8
W78LALIFT
 62
2
 10
2479.666
 20
-7821.702
 30
-2522.733
 70
    32
  0
VERTEX
  8
W78LALIFT
 62
2
 10
2476.475
 20
-7817.822
 30
-2522.947
 70
    32
  0
VERTEX
  8
W78LALIFT
 62
2
 10
2473.362
 20
-7810.770
 30
-2523.249
 70
    32
  0
VERTEX
  8
W78LALIFT
 62
2
 10
2468.087
 20
-7812.671
 30
-2523.049
 70
    32
  0
VERTEX
  8
W78LALIFT
 62
2
 10
2459.143
 20
-7812.808
 30
-2523.244
 70
    32
  0
VERTEX
  8
W78LALIFT
 62
2
 10
2454.234
 20
-7815.940
 30
-2523.367
 70
    32
  0
VERTEX
  8
W78LALIFT
 62
2
 10
2448.655
 20
-7821.480
 30
-2523.518
 70
    32
  0
VERTEX
  8
W78LALIFT
 62
2
 10
2441.851
 20
-7822.143
 30
-2523.763
 70
    32
  0
VERTEX
  8
W78LALIFT
 62
2
 10
2435.920
 20
-7822.202
 30
-2523.759
 70
    32
  0
VERTEX
  8
W78LALIFT
 62
2
 10
2433.860
 20
-7819.137
 30
-2523.757
 70
    32
  0
SEQEND
  8
W78LALIFT
  0
POLYLINE
  8
W78LALIFT
 62
2
 66
     1
 70
     9
  0
VERTEX
  8
W78LALIFT
 62
2
 10
2383.552
 20
-7767.713
 30
-2472.540
 70
    32
  0
VERTEX
  8
W78LALIFT
 62
2
 10
2395.634
 20
-7768.141
 30
-2475.021
 70
    32
  0
VERTEX
  8
W78LALIFT
 62
2
 10
2399.544
 20
-7772.794
 30
-2471.479
 70
    32
  0
VERTEX
  8
W78LALIFT
 62
2
 10
2407.679
 20
-7777.307
 30
-2465.706
 70
    32
  0
VERTEX
  8
W78LALIFT
 62
2
 10
2414.933
 20
-7780.022
 30
-2464.105
 70
    32
  0
VERTEX
  8
W78LALIFT
 62
2
 10
2419.646
 20
-7786.770
 30
-2462.467
 70
    32
  0
VERTEX
  8
W78LALIFT
 62
2
 10
2423.461
 20
-7788.377
 30
-2462.163
 70
    32
  0
VERTEX
  8
W78LALIFT
 62
2
 10
2439.940
 20
-7803.161
 30
-2459.244
 70
    32
  0
VERTEX
  8
W78LALIFT
 62
2
 10
2444.142
 20
-7809.724
 30
-2459.755
 70
    32
  0
VERTEX
  8
W78LALIFT
 62
2
 10
2449.585
 20
-7813.977
 30
-2458.433
 70
    32
  0
VERTEX
  8
W78LALIFT
 62
2
 10
2453.512
 20
-7825.914
 30
-2455.068
 70
    32
  0
VERTEX
  8
W78LALIFT
 62
2
 10
2455.280
 20
-7832.504
 30
-2454.865
 70
    32
  0
VERTEX
  8
W78LALIFT
 62
2
 10
2446.722
 20
-7840.999
 30
-2455.969
 70
    32
  0
VERTEX
  8
W78LALIFT
 62
2
 10
2429.091
 20
-7845.257
 30
-2458.204
 70
    32
  0
VERTEX
  8
W78LALIFT
 62
2
 10
2422.372
 20
-7856.038
 30
-2459.083
 70
    32
  0
VERTEX
  8
W78LALIFT
 62
2
 10
2413.299
 20
-7853.822
 30
-2460.219
 70
    32
  0
VERTEX
  8
W78LALIFT
 62
2
 10
2402.953
 20
-7846.551
 30
-2457.299
 70
    32
  0
VERTEX
  8
W78LALIFT
 62
2
 10
2397.264
 20
-7837.064
 30
-2458.894
 70
    32
  0
VERTEX
  8
W78LALIFT
 62
2
 10
2401.315
 20
-7833.202
 30
-2458.958
 70
    32
  0
VERTEX
  8
W78LALIFT
 62
2
 10
2403.185
 20
-7817.466
 30
-2460.565
 70
    32
  0
VERTEX
  8
W78LALIFT
 62
2
 10
2407.170
 20
-7815.570
 30
-2460.413
 70
    32
  0
VERTEX
  8
W78LALIFT
 62
2
 10
2410.943
 20
-7808.541
 30
-2460.861
 70
    32
  0
VERTEX
  8
W78LALIFT
 62
2
 10
2412.864
 20
-7803.970
 30
-2455.554
 70
    32
  0
VERTEX
  8
W78LALIFT
 62
2
 10
2410.772
 20
-7795.950
 30
-2462.925
 70
    32
  0
VERTEX
  8
W78LALIFT
 62
2
 10
2405.087
 20
-7789.346
 30
-2464.717
 70
    32
  0
VERTEX
  8
W78LALIFT
 62
2
 10
2396.064
 20
-7782.581
 30
-2471.534
 70
    32
  0
VERTEX
  8
W78LALIFT
 62
2
 10
2385.295
 20
-7779.769
 30
-2473.721
 70
    32
  0
SEQEND
  8
W78LALIFT
  0
POLYLINE
  8
W78LALIFT
 62
2
 66
     1
 70
     8
  0
VERTEX
  8
W78LALIFT
 62
2
 10
2383.552
 20
-7767.713
 30
-2472.540
 70
    32
  0
VERTEX
  8
W78LALIFT
 62
2
 10
2395.634
 20
-7768.141
 30
-2475.021
 70
    32
  0
VERTEX
  8
W78LALIFT
 62
2
 10
2399.544
 20
-7772.794
 30
-2471.479
 70
    32
  0
VERTEX
  8
W78LALIFT
 62
2
 10
2407.679
 20
-7777.307
 30
-2465.706
 70
    32
  0
VERTEX
  8
W78LALIFT
 62
2
 10
2414.933
 20
-7780.022
 30
-2464.105
 70
    32
  0
VERTEX
  8
W78LALIFT
 62
2
 10
2419.646
 20
-7786.770
 30
-2462.467
 70
    32
  0
VERTEX
  8
W78LALIFT
 62
2
 10
2423.461
 20
-7788.377
 30
-2462.163
 70
    32
  0
VERTEX
  8
W78LALIFT
 62
2
 10
2439.940
 20
-7803.161
 30
-2459.244
 70
    32
  0
VERTEX
  8
W78LALIFT
 62
2
 10
2442.180
 20
-7808.923
 30
-2458.367
 70
    32
  0
VERTEX
  8
W78LALIFT
 62
2
 10
2435.570
 20
-7819.439
 30
-2457.434
 70
    32
  0
VERTEX
  8
W78LALIFT
 62
2
 10
2414.130
 20
-7821.893
 30
-2458.457
 70
    32
  0
VERTEX
  8
W78LALIFT
 62
2
 10
2413.904
 20
-7810.842
 30
-2459.885
 70
    32
  0
VERTEX
  8
W78LALIFT
 62
2
 10
2413.547
 20
-7804.406
 30
-2460.730
 70
    32
  0
VERTEX
  8
W78LALIFT
 62
2
 10
2410.772
 20
-7795.950
 30
-2462.925
 70
    32
  0
VERTEX
  8
W78LALIFT
 62
2
 10
2405.087
 20
-7789.346
 30
-2464.717
 70
    32
  0
VERTEX
  8
W78LALIFT
 62
2
 10
2396.064
 20
-7782.581
 30
-2471.534
 70
    32
  0
VERTEX
  8
W78LALIFT
 62
2
 10
2385.295
 20
-7779.769
 30
-2473.721
 70
    32
  0
SEQEND
  8
W78LALIFT
  0
POINT
  8
W78LALIFT
 62
2
 10
2418.609
 20
-7789.585
 30
-2462.311
  0
POLYLINE
  8
W78LALIFT
 62
2
 66
     1
 70
     9
  0
VERTEX
  8
W78LALIFT
 62
2
 10
2418.609
 20
-7787.375
 30
-2462.311
 70
    32
  0
VERTEX
  8
W78LALIFT
 62
2
 10
2420.358
 20
-7790.555
 30
-2462.311
 70
    32
  0
VERTEX
  8
W78LALIFT
 62
2
 10
2416.859
 20
-7790.553
 30
-2462.311
 70
    32
  0
SEQEND
  8
W78LALIFT
  0
POLYLINE
  8
W78LALIFT
 62
2
 66
     1
 70
     9
  0
VERTEX
  8
W78LALIFT
 62
2
 10
1978.088
 20
-6343.203
 30
-2518.308
 70
    32
  0
VERTEX
  8
W78LALIFT
 62
2
 10
1987.641
 20
-6341.998
 30
-2517.090
 70
    32
  0
VERTEX
  8
W78LALIFT
 62
2
 10
1996.491
 20
-6345.977
 30
-2516.165
 70
    32
  0
VERTEX
  8
W78LALIFT
 62
2
 10
2005.882
 20
-6349.694
 30
-2516.768
 70
    32
  0
VERTEX
  8
W78LALIFT
 62
2
 10
2013.740
 20
-6348.971
 30
-2514.623
 70
    32
  0
VERTEX
  8
W78LALIFT
 62
2
 10
2021.912
 20
-6347.543
 30
-2514.325
 70
    32
  0
VERTEX
  8
W78LALIFT
 62
2
 10
2025.001
 20
-6339.578
 30
-2514.113
 70
    32
  0
VERTEX
  8
W78LALIFT
 62
2
 10
2027.077
 20
-6331.568
 30
-2514.401
 70
    32
  0
VERTEX
  8
W78LALIFT
 62
2
 10
2019.418
 20
-6326.321
 30
-2514.892
 70
    32
  0
VERTEX
  8
W78LALIFT
 62
2
 10
2015.383
 20
-6318.683
 30
-2513.808
 70
    32
  0
VERTEX
  8
W78LALIFT
 62
2
 10
2006.940
 20
-6311.444
 30
-2514.883
 70
    32
  0
VERTEX
  8
W78LALIFT
 62
2
 10
2001.521
 20
-6303.627
 30
-2513.487
 70
    32
  0
VERTEX
  8
W78LALIFT
 62
2
 10
1992.841
 20
-6311.109
 30
-2514.893
 70
    32
  0
VERTEX
  8
W78LALIFT
 62
2
 10
1994.613
 20
-6318.070
 30
-2516.131
 70
    32
  0
VERTEX
  8
W78LALIFT
 62
2
 10
1989.971
 20
-6320.170
 30
-2516.617
 70
    32
  0
VERTEX
  8
W78LALIFT
 62
2
 10
1977.612
 20
-6316.906
 30
-2517.918
 70
    32
  0
VERTEX
  8
W78LALIFT
 62
2
 10
1973.251
 20
-6318.451
 30
-2518.011
 70
    32
  0
VERTEX
  8
W78LALIFT
 62
2
 10
1968.047
 20
-6328.321
 30
-2519.604
 70
    32
  0
VERTEX
  8
W78LALIFT
 62
2
 10
1968.150
 20
-6332.544
 30
-2518.834
 70
    32
  0
VERTEX
  8
W78LALIFT
 62
2
 10
1959.464
 20
-6337.438
 30
-2519.944
 70
    32
  0
SEQEND
  8
W78LALIFT
  0
POLYLINE
  8
W78LALIFT
 62
2
 66
     1
 70
     9
  0
VERTEX
  8
W78LALIFT
 62
2
 10
2016.765
 20
-6730.602
 30
-2463.400
 70
    32
  0
VERTEX
  8
W78LALIFT
 62
2
 10
2016.199
 20
-6734.280
 30
-2463.400
 70
    32
  0
VERTEX
  8
W78LALIFT
 62
2
 10
2009.118
 20
-6731.734
 30
-2463.400
 70
    32
  0
VERTEX
  8
W78LALIFT
 62
2
 10
1999.206
 20
-6725.793
 30
-2463.400
 70
    32
  0
VERTEX
  8
W78LALIFT
 62
2
 10
1982.779
 20
-6725.228
 30
-2463.400
 70
    32
  0
VERTEX
  8
W78LALIFT
 62
2
 10
1978.814
 20
-6726.925
 30
-2463.400
 70
    32
  0
VERTEX
  8
W78LALIFT
 62
2
 10
1974.566
 20
-6733.997
 30
-2463.400
 70
    32
  0
VERTEX
  8
W78LALIFT
 62
2
 10
1973.716
 20
-6742.767
 30
-2463.400
 70
    32
  0
VERTEX
  8
W78LALIFT
 62
2
 10
1976.549
 20
-6752.951
 30
-2463.400
 70
    32
  0
VERTEX
  8
W78LALIFT
 62
2
 10
1979.664
 20
-6756.911
 30
-2463.400
 70
    32
  0
VERTEX
  8
W78LALIFT
 62
2
 10
1975.416
 20
-6764.266
 30
-2463.400
 70
    32
  0
VERTEX
  8
W78LALIFT
 62
2
 10
1972.867
 20
-6775.299
 30
-2463.400
 70
    32
  0
VERTEX
  8
W78LALIFT
 62
2
 10
1979.381
 20
-6790.858
 30
-2463.400
 70
    32
  0
VERTEX
  8
W78LALIFT
 62
2
 10
1986.744
 20
-6798.496
 30
-2463.400
 70
    32
  0
VERTEX
  8
W78LALIFT
 62
2
 10
1998.923
 20
-6803.871
 30
-2463.400
 70
    32
  0
VERTEX
  8
W78LALIFT
 62
2
 10
2006.003
 20
-6803.871
 30
-2463.400
 70
    32
  0
VERTEX
  8
W78LALIFT
 62
2
 10
2018.464
 20
-6788.595
 30
-2463.400
 70
    32
  0
VERTEX
  8
W78LALIFT
 62
2
 10
2031.492
 20
-6790.575
 30
-2463.400
 70
    32
  0
VERTEX
  8
W78LALIFT
 62
2
 10
2038.856
 20
-6791.706
 30
-2463.400
 70
    32
  0
VERTEX
  8
W78LALIFT
 62
2
 10
2044.520
 20
-6791.989
 30
-2463.400
 70
    32
  0
VERTEX
  8
W78LALIFT
 62
2
 10
2048.768
 20
-6791.141
 30
-2463.400
 70
    32
  0
VERTEX
  8
W78LALIFT
 62
2
 10
2052.450
 20
-6784.634
 30
-2463.400
 70
    32
  0
VERTEX
  8
W78LALIFT
 62
2
 10
2055.849
 20
-6780.108
 30
-2463.400
 70
    32
  0
VERTEX
  8
W78LALIFT
 62
2
 10
2061.796
 20
-6778.694
 30
-2463.400
 70
    32
  0
VERTEX
  8
W78LALIFT
 62
2
 10
2065.195
 20
-6764.549
 30
-2463.400
 70
    32
  0
VERTEX
  8
W78LALIFT
 62
2
 10
2066.044
 20
-6755.497
 30
-2463.400
 70
    32
  0
VERTEX
  8
W78LALIFT
 62
2
 10
2062.363
 20
-6739.938
 30
-2463.400
 70
    32
  0
VERTEX
  8
W78LALIFT
 62
2
 10
2058.681
 20
-6732.300
 30
-2463.400
 70
    32
  0
VERTEX
  8
W78LALIFT
 62
2
 10
2053.017
 20
-6725.510
 30
-2463.400
 70
    32
  0
VERTEX
  8
W78LALIFT
 62
2
 10
2048.768
 20
-6720.701
 30
-2463.400
 70
    32
  0
SEQEND
  8
W78LALIFT
  0
POLYLINE
  8
W78LALIFT
 62
2
 66
     1
 70
     9
  0
VERTEX
  8
W78LALIFT
 62
2
 10
2017.332
 20
-6732.017
 30
-2461.300
 70
    32
  0
VERTEX
  8
W78LALIFT
 62
2
 10
2017.048
 20
-6736.260
 30
-2461.300
 70
    32
  0
VERTEX
  8
W78LALIFT
 62
2
 10
2006.853
 20
-6733.997
 30
-2461.300
 70
    32
  0
VERTEX
  8
W78LALIFT
 62
2
 10
2003.171
 20
-6733.431
 30
-2461.300
 70
    32
  0
VERTEX
  8
W78LALIFT
 62
2
 10
1989.010
 20
-6732.583
 30
-2461.300
 70
    32
  0
VERTEX
  8
W78LALIFT
 62
2
 10
1980.230
 20
-6732.583
 30
-2461.300
 70
    32
  0
VERTEX
  8
W78LALIFT
 62
2
 10
1977.965
 20
-6736.826
 30
-2461.300
 70
    32
  0
VERTEX
  8
W78LALIFT
 62
2
 10
1977.681
 20
-6742.767
 30
-2461.300
 70
    32
  0
VERTEX
  8
W78LALIFT
 62
2
 10
1980.797
 20
-6752.385
 30
-2461.300
 70
    32
  0
VERTEX
  8
W78LALIFT
 62
2
 10
1982.779
 20
-6757.194
 30
-2461.300
 70
    32
  0
VERTEX
  8
W78LALIFT
 62
2
 10
1979.947
 20
-6762.569
 30
-2461.300
 70
    32
  0
VERTEX
  8
W78LALIFT
 62
2
 10
1977.681
 20
-6775.299
 30
-2461.300
 70
    32
  0
VERTEX
  8
W78LALIFT
 62
2
 10
1981.646
 20
-6788.595
 30
-2461.300
 70
    32
  0
VERTEX
  8
W78LALIFT
 62
2
 10
1989.010
 20
-6796.516
 30
-2461.300
 70
    32
  0
VERTEX
  8
W78LALIFT
 62
2
 10
1998.356
 20
-6802.173
 30
-2461.300
 70
    32
  0
VERTEX
  8
W78LALIFT
 62
2
 10
2006.286
 20
-6803.305
 30
-2461.300
 70
    32
  0
VERTEX
  8
W78LALIFT
 62
2
 10
2009.401
 20
-6799.344
 30
-2461.300
 70
    32
  0
VERTEX
  8
W78LALIFT
 62
2
 10
2018.181
 20
-6788.029
 30
-2461.300
 70
    32
  0
VERTEX
  8
W78LALIFT
 62
2
 10
2026.111
 20
-6788.595
 30
-2461.300
 70
    32
  0
VERTEX
  8
W78LALIFT
 62
2
 10
2034.041
 20
-6791.424
 30
-2461.300
 70
    32
  0
VERTEX
  8
W78LALIFT
 62
2
 10
2043.104
 20
-6790.009
 30
-2461.300
 70
    32
  0
VERTEX
  8
W78LALIFT
 62
2
 10
2046.219
 20
-6784.634
 30
-2461.300
 70
    32
  0
VERTEX
  8
W78LALIFT
 62
2
 10
2047.636
 20
-6780.957
 30
-2461.300
 70
    32
  0
VERTEX
  8
W78LALIFT
 62
2
 10
2047.919
 20
-6773.319
 30
-2461.300
 70
    32
  0
VERTEX
  8
W78LALIFT
 62
2
 10
2055.282
 20
-6773.884
 30
-2461.300
 70
    32
  0
VERTEX
  8
W78LALIFT
 62
2
 10
2059.247
 20
-6771.056
 30
-2461.300
 70
    32
  0
VERTEX
  8
W78LALIFT
 62
2
 10
2063.779
 20
-6763.983
 30
-2461.300
 70
    32
  0
VERTEX
  8
W78LALIFT
 62
2
 10
2064.628
 20
-6757.760
 30
-2461.300
 70
    32
  0
VERTEX
  8
W78LALIFT
 62
2
 10
2064.345
 20
-6753.799
 30
-2461.300
 70
    32
  0
VERTEX
  8
W78LALIFT
 62
2
 10
2061.796
 20
-6739.655
 30
-2461.300
 70
    32
  0
VERTEX
  8
W78LALIFT
 62
2
 10
2058.398
 20
-6733.431
 30
-2461.300
 70
    32
  0
VERTEX
  8
W78LALIFT
 62
2
 10
2053.017
 20
-6726.359
 30
-2461.300
 70
    32
  0
VERTEX
  8
W78LALIFT
 62
2
 10
2047.919
 20
-6724.379
 30
-2461.300
 70
    32
  0
SEQEND
  8
W78LALIFT
  0
POLYLINE
  8
W78LALIFT
 62
2
 66
     1
 70
     9
  0
VERTEX
  8
W78LALIFT
 62
2
 10
2018.641
 20
-6732.361
 30
-2459.200
 70
    32
  0
VERTEX
  8
W78LALIFT
 62
2
 10
2019.339
 20
-6737.941
 30
-2459.200
 70
    32
  0
VERTEX
  8
W78LALIFT
 62
2
 10
2017.477
 20
-6738.639
 30
-2459.200
 70
    32
  0
VERTEX
  8
W78LALIFT
 62
2
 10
2004.674
 20
-6736.081
 30
-2459.200
 70
    32
  0
VERTEX
  8
W78LALIFT
 62
2
 10
2003.742
 20
-6737.476
 30
-2459.200
 70
    32
  0
VERTEX
  8
W78LALIFT
 62
2
 10
1999.552
 20
-6737.941
 30
-2459.200
 70
    32
  0
VERTEX
  8
W78LALIFT
 62
2
 10
1980.929
 20
-6737.243
 30
-2459.200
 70
    32
  0
VERTEX
  8
W78LALIFT
 62
2
 10
1980.463
 20
-6739.569
 30
-2459.200
 70
    32
  0
VERTEX
  8
W78LALIFT
 62
2
 10
1983.723
 20
-6750.497
 30
-2459.200
 70
    32
  0
VERTEX
  8
W78LALIFT
 62
2
 10
1986.982
 20
-6756.775
 30
-2459.200
 70
    32
  0
VERTEX
  8
W78LALIFT
 62
2
 10
1985.818
 20
-6761.193
 30
-2459.200
 70
    32
  0
VERTEX
  8
W78LALIFT
 62
2
 10
1983.257
 20
-6765.378
 30
-2459.200
 70
    32
  0
VERTEX
  8
W78LALIFT
 62
2
 10
1981.627
 20
-6775.842
 30
-2459.200
 70
    32
  0
VERTEX
  8
W78LALIFT
 62
2
 10
1984.421
 20
-6786.073
 30
-2459.200
 70
    32
  0
VERTEX
  8
W78LALIFT
 62
2
 10
1990.473
 20
-6792.816
 30
-2459.200
 70
    32
  0
VERTEX
  8
W78LALIFT
 62
2
 10
1997.923
 20
-6798.629
 30
-2459.200
 70
    32
  0
VERTEX
  8
W78LALIFT
 62
2
 10
2005.256
 20
-6800.954
 30
-2459.200
 70
    32
  0
VERTEX
  8
W78LALIFT
 62
2
 10
2009.446
 20
-6799.559
 30
-2459.200
 70
    32
  0
VERTEX
  8
W78LALIFT
 62
2
 10
2016.895
 20
-6788.863
 30
-2459.200
 70
    32
  0
VERTEX
  8
W78LALIFT
 62
2
 10
2018.292
 20
-6787.003
 30
-2459.200
 70
    32
  0
VERTEX
  8
W78LALIFT
 62
2
 10
2027.138
 20
-6787.933
 30
-2459.200
 70
    32
  0
VERTEX
  8
W78LALIFT
 62
2
 10
2027.138
 20
-6790.258
 30
-2459.200
 70
    32
  0
VERTEX
  8
W78LALIFT
 62
2
 10
2034.587
 20
-6790.258
 30
-2459.200
 70
    32
  0
VERTEX
  8
W78LALIFT
 62
2
 10
2043.433
 20
-6787.003
 30
-2459.200
 70
    32
  0
VERTEX
  8
W78LALIFT
 62
2
 10
2045.761
 20
-6783.748
 30
-2459.200
 70
    32
  0
VERTEX
  8
W78LALIFT
 62
2
 10
2046.692
 20
-6773.982
 30
-2459.200
 70
    32
  0
VERTEX
  8
W78LALIFT
 62
2
 10
2048.089
 20
-6772.122
 30
-2459.200
 70
    32
  0
VERTEX
  8
W78LALIFT
 62
2
 10
2052.279
 20
-6771.657
 30
-2459.200
 70
    32
  0
VERTEX
  8
W78LALIFT
 62
2
 10
2055.072
 20
-6768.401
 30
-2459.200
 70
    32
  0
VERTEX
  8
W78LALIFT
 62
2
 10
2059.728
 20
-6763.286
 30
-2459.200
 70
    32
  0
VERTEX
  8
W78LALIFT
 62
2
 10
2062.056
 20
-6759.565
 30
-2459.200
 70
    32
  0
VERTEX
  8
W78LALIFT
 62
2
 10
2062.056
 20
-6755.380
 30
-2459.200
 70
    32
  0
VERTEX
  8
W78LALIFT
 62
2
 10
2059.728
 20
-6747.939
 30
-2459.200
 70
    32
  0
VERTEX
  8
W78LALIFT
 62
2
 10
2060.194
 20
-6741.429
 30
-2459.200
 70
    32
  0
VERTEX
  8
W78LALIFT
 62
2
 10
2057.866
 20
-6735.848
 30
-2459.200
 70
    32
  0
VERTEX
  8
W78LALIFT
 62
2
 10
2056.935
 20
-6732.593
 30
-2459.200
 70
    32
  0
VERTEX
  8
W78LALIFT
 62
2
 10
2053.210
 20
-6728.408
 30
-2459.200
 70
    32
  0
VERTEX
  8
W78LALIFT
 62
2
 10
2049.485
 20
-6726.082
 30
-2459.200
 70
    32
  0
VERTEX
  8
W78LALIFT
 62
2
 10
2048.554
 20
-6721.432
 30
-2459.200
 70
    32
  0
SEQEND
  8
W78LALIFT
  0
POLYLINE
  8
W78LALIFT
 62
2
 66
     1
 70
     9
  0
VERTEX
  8
W78LALIFT
 62
2
 10
2020.038
 20
-6733.291
 30
-2457.100
 70
    32
  0
VERTEX
  8
W78LALIFT
 62
2
 10
2021.900
 20
-6741.661
 30
-2457.100
 70
    32
  0
VERTEX
  8
W78LALIFT
 62
2
 10
2011.424
 20
-6740.731
 30
-2457.100
 70
    32
  0
VERTEX
  8
W78LALIFT
 62
2
 10
2010.726
 20
-6739.801
 30
-2457.100
 70
    32
  0
VERTEX
  8
W78LALIFT
 62
2
 10
2007.467
 20
-6739.801
 30
-2457.100
 70
    32
  0
VERTEX
  8
W78LALIFT
 62
2
 10
2005.605
 20
-6740.499
 30
-2457.100
 70
    32
  0
VERTEX
  8
W78LALIFT
 62
2
 10
2004.674
 20
-6741.894
 30
-2457.100
 70
    32
  0
VERTEX
  8
W78LALIFT
 62
2
 10
1990.706
 20
-6740.964
 30
-2457.100
 70
    32
  0
VERTEX
  8
W78LALIFT
 62
2
 10
1984.886
 20
-6739.569
 30
-2457.100
 70
    32
  0
VERTEX
  8
W78LALIFT
 62
2
 10
1984.188
 20
-6742.126
 30
-2457.100
 70
    32
  0
VERTEX
  8
W78LALIFT
 62
2
 10
1986.982
 20
-6750.730
 30
-2457.100
 70
    32
  0
VERTEX
  8
W78LALIFT
 62
2
 10
1990.241
 20
-6756.078
 30
-2457.100
 70
    32
  0
VERTEX
  8
W78LALIFT
 62
2
 10
1991.172
 20
-6759.565
 30
-2457.100
 70
    32
  0
VERTEX
  8
W78LALIFT
 62
2
 10
1986.516
 20
-6765.611
 30
-2457.100
 70
    32
  0
VERTEX
  8
W78LALIFT
 62
2
 10
1985.352
 20
-6770.959
 30
-2457.100
 70
    32
  0
VERTEX
  8
W78LALIFT
 62
2
 10
1985.585
 20
-6776.772
 30
-2457.100
 70
    32
  0
VERTEX
  8
W78LALIFT
 62
2
 10
1988.844
 20
-6785.375
 30
-2457.100
 70
    32
  0
VERTEX
  8
W78LALIFT
 62
2
 10
1993.965
 20
-6791.421
 30
-2457.100
 70
    32
  0
VERTEX
  8
W78LALIFT
 62
2
 10
2005.372
 20
-6798.396
 30
-2457.100
 70
    32
  0
VERTEX
  8
W78LALIFT
 62
2
 10
2009.562
 20
-6798.396
 30
-2457.100
 70
    32
  0
VERTEX
  8
W78LALIFT
 62
2
 10
2019.106
 20
-6787.468
 30
-2457.100
 70
    32
  0
VERTEX
  8
W78LALIFT
 62
2
 10
2024.461
 20
-6788.631
 30
-2457.100
 70
    32
  0
VERTEX
  8
W78LALIFT
 62
2
 10
2035.634
 20
-6787.235
 30
-2457.100
 70
    32
  0
VERTEX
  8
W78LALIFT
 62
2
 10
2044.946
 20
-6783.050
 30
-2457.100
 70
    32
  0
VERTEX
  8
W78LALIFT
 62
2
 10
2046.576
 20
-6770.959
 30
-2457.100
 70
    32
  0
VERTEX
  8
W78LALIFT
 62
2
 10
2051.697
 20
-6766.076
 30
-2457.100
 70
    32
  0
VERTEX
  8
W78LALIFT
 62
2
 10
2056.120
 20
-6759.565
 30
-2457.100
 70
    32
  0
VERTEX
  8
W78LALIFT
 62
2
 10
2055.654
 20
-6758.170
 30
-2457.100
 70
    32
  0
VERTEX
  8
W78LALIFT
 62
2
 10
2054.025
 20
-6749.567
 30
-2457.100
 70
    32
  0
VERTEX
  8
W78LALIFT
 62
2
 10
2053.792
 20
-6745.847
 30
-2457.100
 70
    32
  0
VERTEX
  8
W78LALIFT
 62
2
 10
2054.723
 20
-6743.754
 30
-2457.100
 70
    32
  0
VERTEX
  8
W78LALIFT
 62
2
 10
2056.818
 20
-6743.522
 30
-2457.100
 70
    32
  0
VERTEX
  8
W78LALIFT
 62
2
 10
2056.818
 20
-6740.499
 30
-2457.100
 70
    32
  0
VERTEX
  8
W78LALIFT
 62
2
 10
2054.025
 20
-6733.988
 30
-2457.100
 70
    32
  0
VERTEX
  8
W78LALIFT
 62
2
 10
2051.697
 20
-6732.593
 30
-2457.100
 70
    32
  0
VERTEX
  8
W78LALIFT
 62
2
 10
2047.972
 20
-6730.965
 30
-2457.100
 70
    32
  0
VERTEX
  8
W78LALIFT
 62
2
 10
2048.671
 20
-6721.897
 30
-2457.100
 70
    32
  0
SEQEND
  8
W78LALIFT
  0
POLYLINE
  8
W78LALIFT
 62
2
 66
     1
 70
     9
  0
VERTEX
  8
W78LALIFT
 62
2
 10
2021.900
 20
-6733.988
 30
-2454.900
 70
    32
  0
VERTEX
  8
W78LALIFT
 62
2
 10
2023.064
 20
-6744.917
 30
-2454.900
 70
    32
  0
VERTEX
  8
W78LALIFT
 62
2
 10
2021.667
 20
-6746.777
 30
-2454.900
 70
    32
  0
VERTEX
  8
W78LALIFT
 62
2
 10
2010.260
 20
-6744.219
 30
-2454.900
 70
    32
  0
VERTEX
  8
W78LALIFT
 62
2
 10
2009.795
 20
-6746.312
 30
-2454.900
 70
    32
  0
VERTEX
  8
W78LALIFT
 62
2
 10
2003.044
 20
-6746.312
 30
-2454.900
 70
    32
  0
VERTEX
  8
W78LALIFT
 62
2
 10
2000.018
 20
-6747.707
 30
-2454.900
 70
    32
  0
VERTEX
  8
W78LALIFT
 62
2
 10
1989.775
 20
-6746.777
 30
-2454.900
 70
    32
  0
VERTEX
  8
W78LALIFT
 62
2
 10
1988.844
 20
-6748.172
 30
-2454.900
 70
    32
  0
VERTEX
  8
W78LALIFT
 62
2
 10
1989.309
 20
-6751.195
 30
-2454.900
 70
    32
  0
VERTEX
  8
W78LALIFT
 62
2
 10
1991.870
 20
-6755.613
 30
-2454.900
 70
    32
  0
VERTEX
  8
W78LALIFT
 62
2
 10
1995.595
 20
-6760.030
 30
-2454.900
 70
    32
  0
VERTEX
  8
W78LALIFT
 62
2
 10
1994.896
 20
-6761.658
 30
-2454.900
 70
    32
  0
VERTEX
  8
W78LALIFT
 62
2
 10
1990.473
 20
-6765.611
 30
-2454.900
 70
    32
  0
VERTEX
  8
W78LALIFT
 62
2
 10
1990.008
 20
-6777.702
 30
-2454.900
 70
    32
  0
VERTEX
  8
W78LALIFT
 62
2
 10
1990.706
 20
-6779.795
 30
-2454.900
 70
    32
  0
VERTEX
  8
W78LALIFT
 62
2
 10
1993.267
 20
-6785.840
 30
-2454.900
 70
    32
  0
VERTEX
  8
W78LALIFT
 62
2
 10
1998.388
 20
-6787.468
 30
-2454.900
 70
    32
  0
VERTEX
  8
W78LALIFT
 62
2
 10
2002.811
 20
-6784.213
 30
-2454.900
 70
    32
  0
VERTEX
  8
W78LALIFT
 62
2
 10
2010.726
 20
-6777.935
 30
-2454.900
 70
    32
  0
VERTEX
  8
W78LALIFT
 62
2
 10
2013.520
 20
-6778.167
 30
-2454.900
 70
    32
  0
VERTEX
  8
W78LALIFT
 62
2
 10
2017.710
 20
-6782.352
 30
-2454.900
 70
    32
  0
VERTEX
  8
W78LALIFT
 62
2
 10
2022.831
 20
-6785.608
 30
-2454.900
 70
    32
  0
VERTEX
  8
W78LALIFT
 62
2
 10
2029.349
 20
-6786.073
 30
-2454.900
 70
    32
  0
VERTEX
  8
W78LALIFT
 62
2
 10
2035.634
 20
-6784.910
 30
-2454.900
 70
    32
  0
VERTEX
  8
W78LALIFT
 62
2
 10
2041.221
 20
-6780.957
 30
-2454.900
 70
    32
  0
VERTEX
  8
W78LALIFT
 62
2
 10
2045.412
 20
-6776.539
 30
-2454.900
 70
    32
  0
VERTEX
  8
W78LALIFT
 62
2
 10
2046.808
 20
-6768.866
 30
-2454.900
 70
    32
  0
VERTEX
  8
W78LALIFT
 62
2
 10
2047.972
 20
-6763.286
 30
-2454.900
 70
    32
  0
VERTEX
  8
W78LALIFT
 62
2
 10
2050.766
 20
-6757.473
 30
-2454.900
 70
    32
  0
VERTEX
  8
W78LALIFT
 62
2
 10
2050.300
 20
-6750.730
 30
-2454.900
 70
    32
  0
VERTEX
  8
W78LALIFT
 62
2
 10
2047.507
 20
-6748.637
 30
-2454.900
 70
    32
  0
VERTEX
  8
W78LALIFT
 62
2
 10
2047.507
 20
-6746.777
 30
-2454.900
 70
    32
  0
VERTEX
  8
W78LALIFT
 62
2
 10
2048.671
 20
-6743.987
 30
-2454.900
 70
    32
  0
VERTEX
  8
W78LALIFT
 62
2
 10
2047.972
 20
-6737.941
 30
-2454.900
 70
    32
  0
VERTEX
  8
W78LALIFT
 62
2
 10
2045.644
 20
-6736.081
 30
-2454.900
 70
    32
  0
VERTEX
  8
W78LALIFT
 62
2
 10
2046.576
 20
-6732.826
 30
-2454.900
 70
    32
  0
VERTEX
  8
W78LALIFT
 62
2
 10
2046.808
 20
-6729.570
 30
-2454.900
 70
    32
  0
VERTEX
  8
W78LALIFT
 62
2
 10
2047.739
 20
-6725.617
 30
-2454.900
 70
    32
  0
VERTEX
  8
W78LALIFT
 62
2
 10
2047.507
 20
-6724.222
 30
-2454.900
 70
    32
  0
SEQEND
  8
W78LALIFT
  0
POLYLINE
  8
W78LALIFT
 62
2
 66
     1
 70
     9
  0
VERTEX
  8
W78LALIFT
 62
2
 10
2023.529
 20
-6734.686
 30
-2452.800
 70
    32
  0
VERTEX
  8
W78LALIFT
 62
2
 10
2024.926
 20
-6743.987
 30
-2452.800
 70
    32
  0
VERTEX
  8
W78LALIFT
 62
2
 10
2021.434
 20
-6743.987
 30
-2452.800
 70
    32
  0
VERTEX
  8
W78LALIFT
 62
2
 10
2021.434
 20
-6744.684
 30
-2452.800
 70
    32
  0
VERTEX
  8
W78LALIFT
 62
2
 10
2022.365
 20
-6747.009
 30
-2452.800
 70
    32
  0
VERTEX
  8
W78LALIFT
 62
2
 10
2020.736
 20
-6752.357
 30
-2452.800
 70
    32
  0
VERTEX
  8
W78LALIFT
 62
2
 10
2014.218
 20
-6750.032
 30
-2452.800
 70
    32
  0
VERTEX
  8
W78LALIFT
 62
2
 10
2012.123
 20
-6751.427
 30
-2452.800
 70
    32
  0
VERTEX
  8
W78LALIFT
 62
2
 10
2005.139
 20
-6752.357
 30
-2452.800
 70
    32
  0
VERTEX
  8
W78LALIFT
 62
2
 10
2001.182
 20
-6752.822
 30
-2452.800
 70
    32
  0
VERTEX
  8
W78LALIFT
 62
2
 10
1997.224
 20
-6758.170
 30
-2452.800
 70
    32
  0
VERTEX
  8
W78LALIFT
 62
2
 10
2003.975
 20
-6765.844
 30
-2452.800
 70
    32
  0
VERTEX
  8
W78LALIFT
 62
2
 10
1994.664
 20
-6772.587
 30
-2452.800
 70
    32
  0
VERTEX
  8
W78LALIFT
 62
2
 10
1992.801
 20
-6775.609
 30
-2452.800
 70
    32
  0
VERTEX
  8
W78LALIFT
 62
2
 10
1997.457
 20
-6785.608
 30
-2452.800
 70
    32
  0
VERTEX
  8
W78LALIFT
 62
2
 10
2001.880
 20
-6783.283
 30
-2452.800
 70
    32
  0
VERTEX
  8
W78LALIFT
 62
2
 10
2004.906
 20
-6779.795
 30
-2452.800
 70
    32
  0
VERTEX
  8
W78LALIFT
 62
2
 10
2005.605
 20
-6777.935
 30
-2452.800
 70
    32
  0
VERTEX
  8
W78LALIFT
 62
2
 10
2001.647
 20
-6773.982
 30
-2452.800
 70
    32
  0
VERTEX
  8
W78LALIFT
 62
2
 10
2007.234
 20
-6769.099
 30
-2452.800
 70
    32
  0
VERTEX
  8
W78LALIFT
 62
2
 10
2010.028
 20
-6770.029
 30
-2452.800
 70
    32
  0
VERTEX
  8
W78LALIFT
 62
2
 10
2013.985
 20
-6769.331
 30
-2452.800
 70
    32
  0
VERTEX
  8
W78LALIFT
 62
2
 10
2016.313
 20
-6770.726
 30
-2452.800
 70
    32
  0
VERTEX
  8
W78LALIFT
 62
2
 10
2019.339
 20
-6777.935
 30
-2452.800
 70
    32
  0
VERTEX
  8
W78LALIFT
 62
2
 10
2024.228
 20
-6782.585
 30
-2452.800
 70
    32
  0
VERTEX
  8
W78LALIFT
 62
2
 10
2027.021
 20
-6784.678
 30
-2452.800
 70
    32
  0
VERTEX
  8
W78LALIFT
 62
2
 10
2029.116
 20
-6784.678
 30
-2452.800
 70
    32
  0
VERTEX
  8
W78LALIFT
 62
2
 10
2034.005
 20
-6782.352
 30
-2452.800
 70
    32
  0
VERTEX
  8
W78LALIFT
 62
2
 10
2039.592
 20
-6778.632
 30
-2452.800
 70
    32
  0
VERTEX
  8
W78LALIFT
 62
2
 10
2043.782
 20
-6771.889
 30
-2452.800
 70
    32
  0
VERTEX
  8
W78LALIFT
 62
2
 10
2045.644
 20
-6766.076
 30
-2452.800
 70
    32
  0
VERTEX
  8
W78LALIFT
 62
2
 10
2046.343
 20
-6760.961
 30
-2452.800
 70
    32
  0
VERTEX
  8
W78LALIFT
 62
2
 10
2046.576
 20
-6753.985
 30
-2452.800
 70
    32
  0
VERTEX
  8
W78LALIFT
 62
2
 10
2045.179
 20
-6747.242
 30
-2452.800
 70
    32
  0
VERTEX
  8
W78LALIFT
 62
2
 10
2045.644
 20
-6743.522
 30
-2452.800
 70
    32
  0
VERTEX
  8
W78LALIFT
 62
2
 10
2040.989
 20
-6741.196
 30
-2452.800
 70
    32
  0
VERTEX
  8
W78LALIFT
 62
2
 10
2041.920
 20
-6736.778
 30
-2452.800
 70
    32
  0
SEQEND
  8
W78LALIFT
  0
POLYLINE
  8
W78LALIFT
 62
2
 66
     1
 70
     9
  0
VERTEX
  8
W78LALIFT
 62
2
 10
2023.995
 20
-6734.221
 30
-2450.700
 70
    32
  0
VERTEX
  8
W78LALIFT
 62
2
 10
2025.625
 20
-6738.639
 30
-2450.700
 70
    32
  0
VERTEX
  8
W78LALIFT
 62
2
 10
2025.159
 20
-6740.964
 30
-2450.700
 70
    32
  0
VERTEX
  8
W78LALIFT
 62
2
 10
2026.090
 20
-6747.707
 30
-2450.700
 70
    32
  0
VERTEX
  8
W78LALIFT
 62
2
 10
2026.556
 20
-6751.427
 30
-2450.700
 70
    32
  0
VERTEX
  8
W78LALIFT
 62
2
 10
2023.297
 20
-6750.962
 30
-2450.700
 70
    32
  0
VERTEX
  8
W78LALIFT
 62
2
 10
2020.736
 20
-6755.380
 30
-2450.700
 70
    32
  0
VERTEX
  8
W78LALIFT
 62
2
 10
2019.339
 20
-6757.938
 30
-2450.700
 70
    32
  0
VERTEX
  8
W78LALIFT
 62
2
 10
2020.736
 20
-6763.286
 30
-2450.700
 70
    32
  0
VERTEX
  8
W78LALIFT
 62
2
 10
2011.424
 20
-6760.728
 30
-2450.700
 70
    32
  0
VERTEX
  8
W78LALIFT
 62
2
 10
2011.890
 20
-6763.751
 30
-2450.700
 70
    32
  0
VERTEX
  8
W78LALIFT
 62
2
 10
2017.011
 20
-6766.541
 30
-2450.700
 70
    32
  0
VERTEX
  8
W78LALIFT
 62
2
 10
2017.710
 20
-6770.959
 30
-2450.700
 70
    32
  0
VERTEX
  8
W78LALIFT
 62
2
 10
2019.572
 20
-6773.517
 30
-2450.700
 70
    32
  0
VERTEX
  8
W78LALIFT
 62
2
 10
2025.857
 20
-6780.957
 30
-2450.700
 70
    32
  0
VERTEX
  8
W78LALIFT
 62
2
 10
2029.582
 20
-6783.050
 30
-2450.700
 70
    32
  0
VERTEX
  8
W78LALIFT
 62
2
 10
2034.238
 20
-6779.795
 30
-2450.700
 70
    32
  0
VERTEX
  8
W78LALIFT
 62
2
 10
2037.497
 20
-6777.005
 30
-2450.700
 70
    32
  0
VERTEX
  8
W78LALIFT
 62
2
 10
2038.661
 20
-6773.982
 30
-2450.700
 70
    32
  0
VERTEX
  8
W78LALIFT
 62
2
 10
2038.661
 20
-6768.634
 30
-2450.700
 70
    32
  0
VERTEX
  8
W78LALIFT
 62
2
 10
2041.454
 20
-6768.401
 30
-2450.700
 70
    32
  0
VERTEX
  8
W78LALIFT
 62
2
 10
2041.221
 20
-6765.146
 30
-2450.700
 70
    32
  0
VERTEX
  8
W78LALIFT
 62
2
 10
2038.893
 20
-6763.751
 30
-2450.700
 70
    32
  0
VERTEX
  8
W78LALIFT
 62
2
 10
2034.936
 20
-6762.821
 30
-2450.700
 70
    32
  0
VERTEX
  8
W78LALIFT
 62
2
 10
2034.471
 20
-6760.961
 30
-2450.700
 70
    32
  0
VERTEX
  8
W78LALIFT
 62
2
 10
2036.798
 20
-6760.728
 30
-2450.700
 70
    32
  0
VERTEX
  8
W78LALIFT
 62
2
 10
2038.428
 20
-6759.565
 30
-2450.700
 70
    32
  0
VERTEX
  8
W78LALIFT
 62
2
 10
2037.264
 20
-6758.170
 30
-2450.700
 70
    32
  0
VERTEX
  8
W78LALIFT
 62
2
 10
2037.497
 20
-6757.240
 30
-2450.700
 70
    32
  0
VERTEX
  8
W78LALIFT
 62
2
 10
2040.290
 20
-6755.613
 30
-2450.700
 70
    32
  0
VERTEX
  8
W78LALIFT
 62
2
 10
2041.920
 20
-6754.683
 30
-2450.700
 70
    32
  0
VERTEX
  8
W78LALIFT
 62
2
 10
2042.153
 20
-6752.125
 30
-2450.700
 70
    32
  0
VERTEX
  8
W78LALIFT
 62
2
 10
2039.126
 20
-6749.102
 30
-2450.700
 70
    32
  0
VERTEX
  8
W78LALIFT
 62
2
 10
2038.661
 20
-6745.149
 30
-2450.700
 70
    32
  0
VERTEX
  8
W78LALIFT
 62
2
 10
2037.264
 20
-6744.684
 30
-2450.700
 70
    32
  0
VERTEX
  8
W78LALIFT
 62
2
 10
2037.962
 20
-6742.591
 30
-2450.700
 70
    32
  0
VERTEX
  8
W78LALIFT
 62
2
 10
2037.497
 20
-6740.731
 30
-2450.700
 70
    32
  0
VERTEX
  8
W78LALIFT
 62
2
 10
2038.195
 20
-6740.731
 30
-2450.700
 70
    32
  0
VERTEX
  8
W78LALIFT
 62
2
 10
2038.893
 20
-6738.406
 30
-2450.700
 70
    32
  0
VERTEX
  8
W78LALIFT
 62
2
 10
2037.730
 20
-6736.081
 30
-2450.700
 70
    32
  0
SEQEND
  8
W78LALIFT
  0
POLYLINE
  8
W78LALIFT
 62
2
 66
     1
 70
     9
  0
VERTEX
  8
W78LALIFT
 62
2
 10
2028.551
 20
-6778.296
 30
-2448.500
 70
    32
  0
VERTEX
  8
W78LALIFT
 62
2
 10
2024.416
 20
-6776.557
 30
-2448.500
 70
    32
  0
VERTEX
  8
W78LALIFT
 62
2
 10
2022.892
 20
-6775.252
 30
-2448.500
 70
    32
  0
VERTEX
  8
W78LALIFT
 62
2
 10
2022.457
 20
-6769.382
 30
-2448.500
 70
    32
  0
VERTEX
  8
W78LALIFT
 62
2
 10
2020.498
 20
-6763.512
 30
-2448.500
 70
    32
  0
VERTEX
  8
W78LALIFT
 62
2
 10
2021.586
 20
-6756.555
 30
-2448.500
 70
    32
  0
VERTEX
  8
W78LALIFT
 62
2
 10
2023.980
 20
-6753.076
 30
-2448.500
 70
    32
  0
VERTEX
  8
W78LALIFT
 62
2
 10
2027.028
 20
-6751.772
 30
-2448.500
 70
    32
  0
VERTEX
  8
W78LALIFT
 62
2
 10
2024.633
 20
-6741.988
 30
-2448.500
 70
    32
  0
VERTEX
  8
W78LALIFT
 62
2
 10
2021.586
 20
-6736.553
 30
-2448.500
 70
    32
  0
VERTEX
  8
W78LALIFT
 62
2
 10
2022.674
 20
-6732.205
 30
-2448.500
 70
    32
  0
VERTEX
  8
W78LALIFT
 62
2
 10
2025.286
 20
-6731.335
 30
-2448.500
 70
    32
  0
VERTEX
  8
W78LALIFT
 62
2
 10
2028.987
 20
-6732.205
 30
-2448.500
 70
    32
  0
VERTEX
  8
W78LALIFT
 62
2
 10
2031.599
 20
-6736.770
 30
-2448.500
 70
    32
  0
VERTEX
  8
W78LALIFT
 62
2
 10
2033.775
 20
-6738.727
 30
-2448.500
 70
    32
  0
VERTEX
  8
W78LALIFT
 62
2
 10
2032.905
 20
-6741.553
 30
-2448.500
 70
    32
  0
VERTEX
  8
W78LALIFT
 62
2
 10
2032.034
 20
-6749.598
 30
-2448.500
 70
    32
  0
VERTEX
  8
W78LALIFT
 62
2
 10
2030.293
 20
-6753.076
 30
-2448.500
 70
    32
  0
VERTEX
  8
W78LALIFT
 62
2
 10
2027.028
 20
-6756.337
 30
-2448.500
 70
    32
  0
VERTEX
  8
W78LALIFT
 62
2
 10
2025.504
 20
-6761.338
 30
-2448.500
 70
    32
  0
VERTEX
  8
W78LALIFT
 62
2
 10
2030.510
 20
-6767.860
 30
-2448.500
 70
    32
  0
VERTEX
  8
W78LALIFT
 62
2
 10
2033.558
 20
-6774.165
 30
-2448.500
 70
    32
  0
VERTEX
  8
W78LALIFT
 62
2
 10
2033.122
 20
-6775.470
 30
-2448.500
 70
    32
  0
SEQEND
  8
W78LALIFT
  0
POLYLINE
  8
W78LALIFT
 62
2
 66
     1
 70
     8
  0
VERTEX
  8
W78LALIFT
 62
2
 10
1991.273
 20
-6698.322
 30
-2451.121
 70
    32
  0
VERTEX
  8
W78LALIFT
 62
2
 10
2008.926
 20
-6709.191
 30
-2450.428
 70
    32
  0
VERTEX
  8
W78LALIFT
 62
2
 10
2023.328
 20
-6722.010
 30
-2450.691
 70
    32
  0
VERTEX
  8
W78LALIFT
 62
2
 10
2028.436
 20
-6741.100
 30
-2447.744
 70
    32
  0
VERTEX
  8
W78LALIFT
 62
2
 10
2044.361
 20
-6726.947
 30
-2451.314
 70
    32
  0
VERTEX
  8
W78LALIFT
 62
2
 10
2046.011
 20
-6723.039
 30
-2452.168
 70
    32
  0
VERTEX
  8
W78LALIFT
 62
2
 10
2046.411
 20
-6717.790
 30
-2452.608
 70
    32
  0
VERTEX
  8
W78LALIFT
 62
2
 10
2045.780
 20
-6709.078
 30
-2452.354
 70
    32
  0
VERTEX
  8
W78LALIFT
 62
2
 10
2046.986
 20
-6699.426
 30
-2451.823
 70
    32
  0
VERTEX
  8
W78LALIFT
 62
2
 10
2038.279
 20
-6698.372
 30
-2451.301
 70
    32
  0
VERTEX
  8
W78LALIFT
 62
2
 10
2028.572
 20
-6696.333
 30
-2450.922
 70
    32
  0
VERTEX
  8
W78LALIFT
 62
2
 10
2023.909
 20
-6704.529
 30
-2451.178
 70
    32
  0
VERTEX
  8
W78LALIFT
 62
2
 10
2002.743
 20
-6693.116
 30
-2451.729
 70
    32
  0
SEQEND
  8
W78LALIFT
  0
POLYLINE
  8
W78LALIFT
 62
2
 66
     1
 70
     9
  0
VERTEX
  8
W78LALIFT
 62
2
 10
1947.459
 20
-6380.651
 30
-2533.775
 70
    32
  0
VERTEX
  8
W78LALIFT
 62
2
 10
1951.787
 20
-6382.450
 30
-2534.148
 70
    32
  0
VERTEX
  8
W78LALIFT
 62
2
 10
1960.318
 20
-6381.737
 30
-2534.460
 70
    32
  0
VERTEX
  8
W78LALIFT
 62
2
 10
1969.293
 20
-6379.916
 30
-2533.974
 70
    32
  0
VERTEX
  8
W78LALIFT
 62
2
 10
1969.543
 20
-6384.826
 30
-2534.497
 70
    32
  0
VERTEX
  8
W78LALIFT
 62
2
 10
1968.732
 20
-6393.401
 30
-2535.568
 70
    32
  0
VERTEX
  8
W78LALIFT
 62
2
 10
1969.497
 20
-6395.266
 30
-2535.395
 70
    32
  0
VERTEX
  8
W78LALIFT
 62
2
 10
1973.711
 20
-6397.644
 30
-2535.324
 70
    32
  0
VERTEX
  8
W78LALIFT
 62
2
 10
1978.922
 20
-6400.755
 30
-2535.726
 70
    32
  0
VERTEX
  8
W78LALIFT
 62
2
 10
1982.891
 20
-6402.541
 30
-2535.615
 70
    32
  0
VERTEX
  8
W78LALIFT
 62
2
 10
1991.800
 20
-6400.811
 30
-2534.776
 70
    32
  0
VERTEX
  8
W78LALIFT
 62
2
 10
1998.574
 20
-6395.309
 30
-2534.020
 70
    32
  0
VERTEX
  8
W78LALIFT
 62
2
 10
2001.119
 20
-6396.760
 30
-2534.290
 70
    32
  0
VERTEX
  8
W78LALIFT
 62
2
 10
2008.486
 20
-6391.100
 30
-2533.327
 70
    32
  0
VERTEX
  8
W78LALIFT
 62
2
 10
2008.768
 20
-6391.095
 30
-2532.997
 70
    32
  0
VERTEX
  8
W78LALIFT
 62
2
 10
2010.728
 20
-6391.796
 30
-2534.015
 70
    32
  0
VERTEX
  8
W78LALIFT
 62
2
 10
2020.344
 20
-6388.146
 30
-2533.223
 70
    32
  0
VERTEX
  8
W78LALIFT
 62
2
 10
2027.304
 20
-6385.297
 30
-2532.130
 70
    32
  0
VERTEX
  8
W78LALIFT
 62
2
 10
2029.032
 20
-6384.021
 30
-2531.435
 70
    32
  0
VERTEX
  8
W78LALIFT
 62
2
 10
2035.696
 20
-6376.576
 30
-2531.380
 70
    32
  0
VERTEX
  8
W78LALIFT
 62
2
 10
2037.045
 20
-6367.953
 30
-2530.503
 70
    32
  0
VERTEX
  8
W78LALIFT
 62
2
 10
2040.415
 20
-6365.450
 30
-2531.165
 70
    32
  0
VERTEX
  8
W78LALIFT
 62
2
 10
2040.548
 20
-6353.421
 30
-2532.011
 70
    32
  0
VERTEX
  8
W78LALIFT
 62
2
 10
2039.513
 20
-6347.489
 30
-2531.160
 70
    32
  0
VERTEX
  8
W78LALIFT
 62
2
 10
2032.207
 20
-6333.412
 30
-2532.370
 70
    32
  0
VERTEX
  8
W78LALIFT
 62
2
 10
2048.248
 20
-6330.538
 30
-2532.351
 70
    32
  0
VERTEX
  8
W78LALIFT
 62
2
 10
2049.515
 20
-6339.701
 30
-2532.423
 70
    32
  0
VERTEX
  8
W78LALIFT
 62
2
 10
2058.360
 20
-6343.334
 30
-2531.380
 70
    32
  0
VERTEX
  8
W78LALIFT
 62
2
 10
2050.915
 20
-6362.925
 30
-2531.728
 70
    32
  0
VERTEX
  8
W78LALIFT
 62
2
 10
2055.094
 20
-6365.371
 30
-2531.562
 70
    32
  0
VERTEX
  8
W78LALIFT
 62
2
 10
2053.939
 20
-6370.229
 30
-2532.209
 70
    32
  0
VERTEX
  8
W78LALIFT
 62
2
 10
2047.596
 20
-6379.752
 30
-2532.482
 70
    32
  0
VERTEX
  8
W78LALIFT
 62
2
 10
2043.449
 20
-6386.926
 30
-2531.333
 70
    32
  0
VERTEX
  8
W78LALIFT
 62
2
 10
2034.125
 20
-6394.549
 30
-2531.374
 70
    32
  0
VERTEX
  8
W78LALIFT
 62
2
 10
2012.573
 20
-6401.495
 30
-2532.548
 70
    32
  0
VERTEX
  8
W78LALIFT
 62
2
 10
2005.875
 20
-6403.973
 30
-2535.155
 70
    32
  0
VERTEX
  8
W78LALIFT
 62
2
 10
2003.702
 20
-6406.066
 30
-2534.670
 70
    32
  0
VERTEX
  8
W78LALIFT
 62
2
 10
2004.768
 20
-6412.228
 30
-2532.977
 70
    32
  0
VERTEX
  8
W78LALIFT
 62
2
 10
2011.453
 20
-6415.661
 30
-2532.153
 70
    32
  0
VERTEX
  8
W78LALIFT
 62
2
 10
2023.294
 20
-6418.809
 30
-2532.099
 70
    32
  0
VERTEX
  8
W78LALIFT
 62
2
 10
2019.574
 20
-6429.863
 30
-2532.578
 70
    32
  0
VERTEX
  8
W78LALIFT
 62
2
 10
2019.543
 20
-6429.874
 30
-2533.186
 70
    32
  0
VERTEX
  8
W78LALIFT
 62
2
 10
2011.101
 20
-6426.044
 30
-2532.312
 70
    32
  0
VERTEX
  8
W78LALIFT
 62
2
 10
1996.773
 20
-6421.956
 30
-2533.861
 70
    32
  0
VERTEX
  8
W78LALIFT
 62
2
 10
1989.457
 20
-6419.174
 30
-2533.900
 70
    32
  0
VERTEX
  8
W78LALIFT
 62
2
 10
1981.406
 20
-6416.746
 30
-2534.291
 70
    32
  0
VERTEX
  8
W78LALIFT
 62
2
 10
1978.188
 20
-6416.949
 30
-2534.322
 70
    32
  0
VERTEX
  8
W78LALIFT
 62
2
 10
1969.678
 20
-6410.351
 30
-2535.542
 70
    32
  0
VERTEX
  8
W78LALIFT
 62
2
 10
1963.613
 20
-6406.433
 30
-2535.196
 70
    32
  0
VERTEX
  8
W78LALIFT
 62
2
 10
1957.909
 20
-6404.465
 30
-2534.354
 70
    32
  0
VERTEX
  8
W78LALIFT
 62
2
 10
1954.959
 20
-6405.600
 30
-2535.063
 70
    32
  0
VERTEX
  8
W78LALIFT
 62
2
 10
1950.478
 20
-6397.128
 30
-2534.182
 70
    32
  0
VERTEX
  8
W78LALIFT
 62
2
 10
1947.810
 20
-6394.602
 30
-2533.843
 70
    32
  0
VERTEX
  8
W78LALIFT
 62
2
 10
1942.600
 20
-6392.454
 30
-2533.649
 70
    32
  0
SEQEND
  8
W78LALIFT
  0
LINE
  8
W78LALIFT
 62
5
 10
2019.256
 20
-6348.007
 30
-2514.422
 11
2029.419
 21
-6356.068
 31
-2519.739
  0
POLYLINE
  8
W78LALIFT
 62
5
 66
     1
 70
     8
  0
VERTEX
  8
W78LALIFT
 62
5
 10
2026.900
 20
-6332.251
 30
-2514.376
 70
    32
  0
VERTEX
  8
W78LALIFT
 62
5
 10
2036.767
 20
-6342.199
 30
-2531.615
 70
    32
  0
VERTEX
  8
W78LALIFT
 62
5
 10
2034.663
 20
-6350.242
 30
-2519.212
 70
    32
  0
SEQEND
  8
W78LALIFT
  0
POLYLINE
  8
W78LALIFT
 62
2
 66
     1
 70
     8
  0
VERTEX
  8
W78LALIFT
 62
2
 10
2018.043
 20
-6399.449
 30
-2534.510
 70
    32
  0
VERTEX
  8
W78LALIFT
 62
2
 10
2025.115
 20
-6396.994
 30
-2534.269
 70
    32
  0
VERTEX
  8
W78LALIFT
 62
2
 10
2033.898
 20
-6393.964
 30
-2532.704
 70
    32
  0
VERTEX
  8
W78LALIFT
 62
2
 10
2043.273
 20
-6385.280
 30
-2530.740
 70
    32
  0
VERTEX
  8
W78LALIFT
 62
2
 10
2046.201
 20
-6379.977
 30
-2525.695
 70
    32
  0
VERTEX
  8
W78LALIFT
 62
2
 10
2051.775
 20
-6368.442
 30
-2524.288
 70
    32
  0
VERTEX
  8
W78LALIFT
 62
2
 10
2048.785
 20
-6365.831
 30
-2522.785
 70
    32
  0
VERTEX
  8
W78LALIFT
 62
2
 10
2049.841
 20
-6355.938
 30
-2518.576
 70
    32
  0
VERTEX
  8
W78LALIFT
 62
2
 10
2040.190
 20
-6354.164
 30
-2518.456
 70
    32
  0
VERTEX
  8
W78LALIFT
 62
2
 10
2034.136
 20
-6349.868
 30
-2519.284
 70
    32
  0
VERTEX
  8
W78LALIFT
 62
2
 10
2029.148
 20
-6355.805
 30
-2519.650
 70
    32
  0
VERTEX
  8
W78LALIFT
 62
2
 10
2034.918
 20
-6361.387
 30
-2521.538
 70
    32
  0
VERTEX
  8
W78LALIFT
 62
2
 10
2038.712
 20
-6367.484
 30
-2523.436
 70
    32
  0
VERTEX
  8
W78LALIFT
 62
2
 10
2038.253
 20
-6374.089
 30
-2526.006
 70
    32
  0
VERTEX
  8
W78LALIFT
 62
2
 10
2033.187
 20
-6380.969
 30
-2529.222
 70
    32
  0
VERTEX
  8
W78LALIFT
 62
2
 10
2027.739
 20
-6385.561
 30
-2531.924
 70
    32
  0
VERTEX
  8
W78LALIFT
 62
2
 10
2020.854
 20
-6388.239
 30
-2533.494
 70
    32
  0
SEQEND
  8
W78LALIFT
  0
POLYLINE
  8
W78LALIFT
 62
2
 66
     1
 70
     8
  0
VERTEX
  8
W78LALIFT
 62
2
 10
2029.048
 20
-6356.022
 30
-2517.049
 70
    32
  0
VERTEX
  8
W78LALIFT
 62
2
 10
2019.210
 20
-6350.275
 30
-2515.973
 70
    32
  0
VERTEX
  8
W78LALIFT
 62
2
 10
2013.098
 20
-6349.066
 30
-2514.897
 70
    32
  0
SEQEND
  8
W78LALIFT
  0
POLYLINE
  8
W78LALIFT
 62
2
 66
     1
 70
     9
  0
VERTEX
  8
W78LALIFT
 62
2
 10
1919.873
 20
-6590.868
 30
-2466.803
 70
    32
  0
VERTEX
  8
W78LALIFT
 62
2
 10
1923.816
 20
-6582.966
 30
-2465.300
 70
    32
  0
VERTEX
  8
W78LALIFT
 62
2
 10
1926.605
 20
-6572.813
 30
-2463.501
 70
    32
  0
VERTEX
  8
W78LALIFT
 62
2
 10
1927.025
 20
-6571.197
 30
-2463.216
 70
    32
  0
VERTEX
  8
W78LALIFT
 62
2
 10
1932.083
 20
-6540.044
 30
-2454.931
 70
    32
  0
VERTEX
  8
W78LALIFT
 62
2
 10
1936.490
 20
-6528.255
 30
-2452.660
 70
    32
  0
VERTEX
  8
W78LALIFT
 62
2
 10
1938.437
 20
-6513.274
 30
-2450.899
 70
    32
  0
VERTEX
  8
W78LALIFT
 62
2
 10
1943.638
 20
-6504.011
 30
-2449.541
 70
    32
  0
VERTEX
  8
W78LALIFT
 62
2
 10
1945.733
 20
-6495.511
 30
-2448.422
 70
    32
  0
VERTEX
  8
W78LALIFT
 62
2
 10
1944.448
 20
-6485.943
 30
-2447.798
 70
    32
  0
VERTEX
  8
W78LALIFT
 62
2
 10
1941.372
 20
-6471.791
 30
-2447.115
 70
    32
  0
VERTEX
  8
W78LALIFT
 62
2
 10
1944.676
 20
-6462.194
 30
-2442.624
 70
    32
  0
VERTEX
  8
W78LALIFT
 62
2
 10
1955.545
 20
-6439.200
 30
-2440.569
 70
    32
  0
VERTEX
  8
W78LALIFT
 62
2
 10
1968.639
 20
-6449.074
 30
-2442.638
 70
    32
  0
VERTEX
  8
W78LALIFT
 62
2
 10
1968.184
 20
-6466.840
 30
-2446.325
 70
    32
  0
VERTEX
  8
W78LALIFT
 62
2
 10
1964.612
 20
-6488.588
 30
-2447.539
 70
    32
  0
VERTEX
  8
W78LALIFT
 62
2
 10
1966.868
 20
-6495.832
 30
-2451.514
 70
    32
  0
VERTEX
  8
W78LALIFT
 62
2
 10
1985.545
 20
-6490.119
 30
-2452.226
 70
    32
  0
VERTEX
  8
W78LALIFT
 62
2
 10
1989.819
 20
-6486.556
 30
-2451.184
 70
    32
  0
VERTEX
  8
W78LALIFT
 62
2
 10
1987.429
 20
-6476.876
 30
-2453.854
 70
    32
  0
VERTEX
  8
W78LALIFT
 62
2
 10
1994.721
 20
-6469.630
 30
-2454.004
 70
    32
  0
VERTEX
  8
W78LALIFT
 62
2
 10
1998.948
 20
-6460.975
 30
-2454.144
 70
    32
  0
VERTEX
  8
W78LALIFT
 62
2
 10
2003.058
 20
-6453.045
 30
-2454.975
 70
    32
  0
VERTEX
  8
W78LALIFT
 62
2
 10
2008.893
 20
-6445.779
 30
-2456.577
 70
    32
  0
VERTEX
  8
W78LALIFT
 62
2
 10
2012.975
 20
-6443.383
 30
-2456.866
 70
    32
  0
VERTEX
  8
W78LALIFT
 62
2
 10
2013.365
 20
-6436.128
 30
-2456.566
 70
    32
  0
VERTEX
  8
W78LALIFT
 62
2
 10
2013.547
 20
-6432.750
 30
-2456.427
 70
    32
  0
VERTEX
  8
W78LALIFT
 62
2
 10
2013.728
 20
-6429.372
 30
-2456.287
 70
    32
  0
VERTEX
  8
W78LALIFT
 62
2
 10
2013.890
 20
-6421.158
 30
-2455.971
 70
    32
  0
VERTEX
  8
W78LALIFT
 62
2
 10
2017.354
 20
-6414.931
 30
-2456.088
 70
    32
  0
VERTEX
  8
W78LALIFT
 62
2
 10
2019.616
 20
-6408.755
 30
-2455.315
 70
    32
  0
VERTEX
  8
W78LALIFT
 62
2
 10
2020.480
 20
-6403.695
 30
-2455.669
 70
    32
  0
VERTEX
  8
W78LALIFT
 62
2
 10
2025.087
 20
-6395.243
 30
-2455.229
 70
    32
  0
VERTEX
  8
W78LALIFT
 62
2
 10
2026.758
 20
-6386.565
 30
-2454.862
 70
    32
  0
VERTEX
  8
W78LALIFT
 62
2
 10
2026.404
 20
-6380.299
 30
-2455.024
 70
    32
  0
VERTEX
  8
W78LALIFT
 62
2
 10
2029.794
 20
-6373.213
 30
-2454.801
 70
    32
  0
VERTEX
  8
W78LALIFT
 62
2
 10
2028.671
 20
-6363.583
 30
-2456.273
 70
    32
  0
VERTEX
  8
W78LALIFT
 62
2
 10
2020.470
 20
-6354.587
 30
-2454.791
 70
    32
  0
VERTEX
  8
W78LALIFT
 62
2
 10
2009.516
 20
-6348.077
 30
-2453.954
 70
    32
  0
VERTEX
  8
W78LALIFT
 62
2
 10
2002.564
 20
-6345.797
 30
-2453.865
 70
    32
  0
VERTEX
  8
W78LALIFT
 62
2
 10
1997.654
 20
-6347.677
 30
-2454.077
 70
    32
  0
VERTEX
  8
W78LALIFT
 62
2
 10
1991.000
 20
-6352.117
 30
-2454.126
 70
    32
  0
VERTEX
  8
W78LALIFT
 62
2
 10
1981.846
 20
-6355.007
 30
-2453.349
 70
    32
  0
VERTEX
  8
W78LALIFT
 62
2
 10
1972.490
 20
-6350.158
 30
-2452.316
 70
    32
  0
VERTEX
  8
W78LALIFT
 62
2
 10
1970.130
 20
-6341.079
 30
-2452.346
 70
    32
  0
VERTEX
  8
W78LALIFT
 62
2
 10
1972.949
 20
-6334.771
 30
-2454.394
 70
    32
  0
VERTEX
  8
W78LALIFT
 62
2
 10
1987.430
 20
-6328.476
 30
-2452.762
 70
    32
  0
VERTEX
  8
W78LALIFT
 62
2
 10
1999.829
 20
-6335.344
 30
-2454.100
 70
    32
  0
VERTEX
  8
W78LALIFT
 62
2
 10
2006.782
 20
-6336.042
 30
-2454.248
 70
    32
  0
VERTEX
  8
W78LALIFT
 62
2
 10
2013.524
 20
-6338.633
 30
-2454.084
 70
    32
  0
VERTEX
  8
W78LALIFT
 62
2
 10
2026.390
 20
-6344.091
 30
-2453.208
 70
    32
  0
VERTEX
  8
W78LALIFT
 62
2
 10
2028.390
 20
-6345.254
 30
-2454.637
 70
    32
  0
VERTEX
  8
W78LALIFT
 62
2
 10
2033.151
 20
-6346.068
 30
-2455.786
 70
    32
  0
VERTEX
  8
W78LALIFT
 62
2
 10
2037.348
 20
-6342.757
 30
-2455.574
 70
    32
  0
VERTEX
  8
W78LALIFT
 62
2
 10
2038.026
 20
-6338.368
 30
-2455.434
 70
    32
  0
VERTEX
  8
W78LALIFT
 62
2
 10
2037.064
 20
-6335.627
 30
-2454.898
 70
    32
  0
VERTEX
  8
W78LALIFT
 62
2
 10
2034.075
 20
-6321.888
 30
-2454.136
 70
    32
  0
VERTEX
  8
W78LALIFT
 62
2
 10
2031.386
 20
-6313.019
 30
-2454.154
 70
    32
  0
VERTEX
  8
W78LALIFT
 62
2
 10
2032.844
 20
-6308.111
 30
-2454.407
 70
    32
  0
VERTEX
  8
W78LALIFT
 62
2
 10
2027.480
 20
-6292.833
 30
-2455.231
 70
    32
  0
VERTEX
  8
W78LALIFT
 62
2
 10
2027.041
 20
-6291.483
 30
-2455.202
 70
    32
  0
VERTEX
  8
W78LALIFT
 62
2
 10
2027.723
 20
-6287.986
 30
-2456.878
 70
    32
  0
VERTEX
  8
W78LALIFT
 62
2
 10
2024.956
 20
-6276.073
 30
-2459.376
 70
    32
  0
VERTEX
  8
W78LALIFT
 62
2
 10
2020.816
 20
-6259.563
 30
-2462.446
 70
    32
  0
VERTEX
  8
W78LALIFT
 62
2
 10
2021.442
 20
-6255.482
 30
-2464.516
 70
    32
  0
VERTEX
  8
W78LALIFT
 62
2
 10
2017.707
 20
-6240.070
 30
-2467.190
 70
    32
  0
VERTEX
  8
W78LALIFT
 62
2
 10
2014.563
 20
-6231.313
 30
-2468.999
 70
    32
  0
VERTEX
  8
W78LALIFT
 62
2
 10
2011.348
 20
-6226.392
 30
-2471.416
 70
    32
  0
VERTEX
  8
W78LALIFT
 62
2
 10
2004.349
 20
-6204.462
 30
-2475.144
 70
    32
  0
VERTEX
  8
W78LALIFT
 62
2
 10
1996.315
 20
-6181.319
 30
-2475.242
 70
    32
  0
VERTEX
  8
W78LALIFT
 62
2
 10
1996.380
 20
-6181.443
 30
-2474.839
 70
    32
  0
VERTEX
  8
W78LALIFT
 62
2
 10
1991.519
 20
-6174.770
 30
-2473.949
 70
    32
  0
VERTEX
  8
W78LALIFT
 62
2
 10
1987.830
 20
-6171.858
 30
-2474.388
 70
    32
  0
VERTEX
  8
W78LALIFT
 62
2
 10
1983.781
 20
-6169.725
 30
-2474.113
 70
    32
  0
VERTEX
  8
W78LALIFT
 62
2
 10
1974.206
 20
-6168.798
 30
-2472.528
 70
    32
  0
VERTEX
  8
W78LALIFT
 62
2
 10
1971.451
 20
-6165.926
 30
-2473.768
 70
    32
  0
VERTEX
  8
W78LALIFT
 62
2
 10
1967.205
 20
-6165.674
 30
-2474.705
 70
    32
  0
VERTEX
  8
W78LALIFT
 62
2
 10
1961.886
 20
-6167.030
 30
-2474.448
 70
    32
  0
VERTEX
  8
W78LALIFT
 62
2
 10
1958.693
 20
-6164.847
 30
-2474.726
 70
    32
  0
VERTEX
  8
W78LALIFT
 62
2
 10
1950.671
 20
-6164.674
 30
-2476.582
 70
    32
  0
VERTEX
  8
W78LALIFT
 62
2
 10
1948.230
 20
-6159.575
 30
-2476.559
 70
    32
  0
VERTEX
  8
W78LALIFT
 62
2
 10
1950.297
 20
-6154.104
 30
-2476.051
 70
    32
  0
VERTEX
  8
W78LALIFT
 62
2
 10
1969.132
 20
-6152.728
 30
-2473.501
 70
    32
  0
VERTEX
  8
W78LALIFT
 62
2
 10
1973.996
 20
-6144.339
 30
-2472.801
 70
    32
  0
VERTEX
  8
W78LALIFT
 62
2
 10
1982.986
 20
-6146.299
 30
-2471.999
 70
    32
  0
VERTEX
  8
W78LALIFT
 62
2
 10
1993.721
 20
-6140.809
 30
-2472.782
 70
    32
  0
VERTEX
  8
W78LALIFT
 62
2
 10
1997.461
 20
-6147.056
 30
-2473.432
 70
    32
  0
VERTEX
  8
W78LALIFT
 62
2
 10
2000.050
 20
-6149.293
 30
-2472.976
 70
    32
  0
VERTEX
  8
W78LALIFT
 62
2
 10
2006.327
 20
-6152.116
 30
-2472.762
 70
    32
  0
VERTEX
  8
W78LALIFT
 62
2
 10
2006.746
 20
-6155.088
 30
-2472.734
 70
    32
  0
VERTEX
  8
W78LALIFT
 62
2
 10
2011.188
 20
-6166.206
 30
-2473.658
 70
    32
  0
VERTEX
  8
W78LALIFT
 62
2
 10
2008.249
 20
-6174.281
 30
-2475.056
 70
    32
  0
VERTEX
  8
W78LALIFT
 62
2
 10
2008.617
 20
-6177.219
 30
-2474.354
 70
    32
  0
VERTEX
  8
W78LALIFT
 62
2
 10
2010.831
 20
-6187.972
 30
-2474.792
 70
    32
  0
VERTEX
  8
W78LALIFT
 62
2
 10
2015.845
 20
-6199.815
 30
-2474.506
 70
    32
  0
VERTEX
  8
W78LALIFT
 62
2
 10
2019.185
 20
-6213.010
 30
-2474.321
 70
    32
  0
VERTEX
  8
W78LALIFT
 62
2
 10
2023.661
 20
-6222.244
 30
-2470.944
 70
    32
  0
VERTEX
  8
W78LALIFT
 62
2
 10
2028.945
 20
-6228.557
 30
-2469.472
 70
    32
  0
VERTEX
  8
W78LALIFT
 62
2
 10
2032.190
 20
-6255.704
 30
-2462.793
 70
    32
  0
VERTEX
  8
W78LALIFT
 62
2
 10
2034.946
 20
-6275.950
 30
-2459.270
 70
    32
  0
VERTEX
  8
W78LALIFT
 62
2
 10
2036.866
 20
-6283.423
 30
-2457.310
 70
    32
  0
VERTEX
  8
W78LALIFT
 62
2
 10
2037.858
 20
-6284.010
 30
-2456.901
 70
    32
  0
VERTEX
  8
W78LALIFT
 62
2
 10
2040.416
 20
-6287.365
 30
-2455.266
 70
    32
  0
VERTEX
  8
W78LALIFT
 62
2
 10
2042.014
 20
-6295.903
 30
-2454.772
 70
    32
  0
VERTEX
  8
W78LALIFT
 62
2
 10
2047.838
 20
-6307.850
 30
-2455.192
 70
    32
  0
VERTEX
  8
W78LALIFT
 62
2
 10
2049.129
 20
-6315.241
 30
-2456.380
 70
    32
  0
VERTEX
  8
W78LALIFT
 62
2
 10
2048.652
 20
-6325.319
 30
-2455.684
 70
    32
  0
VERTEX
  8
W78LALIFT
 62
2
 10
2047.446
 20
-6336.606
 30
-2455.541
 70
    32
  0
VERTEX
  8
W78LALIFT
 62
2
 10
2045.577
 20
-6350.015
 30
-2456.067
 70
    32
  0
VERTEX
  8
W78LALIFT
 62
2
 10
2042.453
 20
-6360.656
 30
-2456.216
 70
    32
  0
VERTEX
  8
W78LALIFT
 62
2
 10
2044.600
 20
-6364.097
 30
-2452.610
 70
    32
  0
VERTEX
  8
W78LALIFT
 62
2
 10
2044.992
 20
-6368.467
 30
-2452.463
 70
    32
  0
VERTEX
  8
W78LALIFT
 62
2
 10
2046.041
 20
-6371.198
 30
-2452.754
 70
    32
  0
VERTEX
  8
W78LALIFT
 62
2
 10
2045.797
 20
-6381.165
 30
-2453.657
 70
    32
  0
VERTEX
  8
W78LALIFT
 62
2
 10
2045.914
 20
-6382.451
 30
-2455.728
 70
    32
  0
VERTEX
  8
W78LALIFT
 62
2
 10
2056.543
 20
-6399.685
 30
-2455.240
 70
    32
  0
VERTEX
  8
W78LALIFT
 62
2
 10
2048.443
 20
-6410.196
 30
-2456.773
 70
    32
  0
VERTEX
  8
W78LALIFT
 62
2
 10
2043.894
 20
-6403.599
 30
-2455.656
 70
    32
  0
VERTEX
  8
W78LALIFT
 62
2
 10
2039.054
 20
-6404.288
 30
-2455.479
 70
    32
  0
VERTEX
  8
W78LALIFT
 62
2
 10
2031.446
 20
-6416.126
 30
-2455.225
 70
    32
  0
VERTEX
  8
W78LALIFT
 62
2
 10
2029.194
 20
-6421.341
 30
-2456.680
 70
    32
  0
VERTEX
  8
W78LALIFT
 62
2
 10
2025.848
 20
-6431.613
 30
-2456.301
 70
    32
  0
VERTEX
  8
W78LALIFT
 62
2
 10
2025.960
 20
-6440.789
 30
-2456.362
 70
    32
  0
VERTEX
  8
W78LALIFT
 62
2
 10
2027.151
 20
-6442.512
 30
-2456.463
 70
    32
  0
VERTEX
  8
W78LALIFT
 62
2
 10
2027.152
 20
-6446.988
 30
-2456.767
 70
    32
  0
VERTEX
  8
W78LALIFT
 62
2
 10
2025.097
 20
-6451.374
 30
-2457.094
 70
    32
  0
VERTEX
  8
W78LALIFT
 62
2
 10
2023.689
 20
-6454.820
 30
-2456.813
 70
    32
  0
VERTEX
  8
W78LALIFT
 62
2
 10
2025.523
 20
-6461.469
 30
-2456.926
 70
    32
  0
VERTEX
  8
W78LALIFT
 62
2
 10
2025.078
 20
-6468.953
 30
-2456.489
 70
    32
  0
VERTEX
  8
W78LALIFT
 62
2
 10
2025.411
 20
-6471.712
 30
-2455.376
 70
    32
  0
VERTEX
  8
W78LALIFT
 62
2
 10
2021.496
 20
-6476.744
 30
-2454.804
 70
    32
  0
VERTEX
  8
W78LALIFT
 62
2
 10
2018.569
 20
-6482.981
 30
-2454.629
 70
    32
  0
VERTEX
  8
W78LALIFT
 62
2
 10
2012.016
 20
-6489.522
 30
-2453.854
 70
    32
  0
VERTEX
  8
W78LALIFT
 62
2
 10
2008.684
 20
-6492.958
 30
-2453.850
 70
    32
  0
VERTEX
  8
W78LALIFT
 62
2
 10
2003.974
 20
-6495.658
 30
-2453.049
 70
    32
  0
VERTEX
  8
W78LALIFT
 62
2
 10
1998.063
 20
-6500.726
 30
-2452.380
 70
    32
  0
VERTEX
  8
W78LALIFT
 62
2
 10
1993.454
 20
-6504.069
 30
-2452.378
 70
    32
  0
VERTEX
  8
W78LALIFT
 62
2
 10
1987.976
 20
-6502.104
 30
-2453.136
 70
    32
  0
VERTEX
  8
W78LALIFT
 62
2
 10
1987.239
 20
-6502.169
 30
-2451.922
 70
    32
  0
VERTEX
  8
W78LALIFT
 62
2
 10
1977.520
 20
-6511.531
 30
-2451.258
 70
    32
  0
VERTEX
  8
W78LALIFT
 62
2
 10
1969.001
 20
-6520.368
 30
-2450.656
 70
    32
  0
VERTEX
  8
W78LALIFT
 62
2
 10
1967.104
 20
-6524.291
 30
-2451.747
 70
    32
  0
VERTEX
  8
W78LALIFT
 62
2
 10
1963.791
 20
-6529.062
 30
-2451.850
 70
    32
  0
VERTEX
  8
W78LALIFT
 62
2
 10
1959.592
 20
-6533.249
 30
-2452.278
 70
    32
  0
VERTEX
  8
W78LALIFT
 62
2
 10
1959.148
 20
-6536.790
 30
-2452.542
 70
    32
  0
VERTEX
  8
W78LALIFT
 62
2
 10
1951.397
 20
-6541.129
 30
-2453.570
 70
    32
  0
VERTEX
  8
W78LALIFT
 62
2
 10
1946.698
 20
-6546.324
 30
-2455.406
 70
    32
  0
VERTEX
  8
W78LALIFT
 62
2
 10
1935.792
 20
-6577.727
 30
-2463.763
 70
    32
  0
VERTEX
  8
W78LALIFT
 62
2
 10
1934.373
 20
-6583.013
 30
-2464.697
 70
    32
  0
VERTEX
  8
W78LALIFT
 62
2
 10
1932.781
 20
-6589.500
 30
-2465.836
 70
    32
  0
VERTEX
  8
W78LALIFT
 62
2
 10
1935.264
 20
-6593.763
 30
-2466.380
 70
    32
  0
SEQEND
  8
W78LALIFT
  0
POLYLINE
  8
W78LALIFT
 62
6
 66
     1
 70
     9
  0
VERTEX
  8
W78LALIFT
 62
6
 10
2157.791
 20
-7334.684
 30
-2480.000
 70
    32
  0
VERTEX
  8
W78LALIFT
 62
6
 10
2175.150
 20
-7352.268
 30
-2480.000
 70
    32
  0
VERTEX
  8
W78LALIFT
 62
6
 10
2210.357
 20
-7392.558
 30
-2480.000
 70
    32
  0
VERTEX
  8
W78LALIFT
 62
6
 10
2218.391
 20
-7384.300
 30
-2480.000
 70
    32
  0
VERTEX
  8
W78LALIFT
 62
6
 10
2177.867
 20
-7339.535
 30
-2480.000
 70
    32
  0
VERTEX
  8
W78LALIFT
 62
6
 10
2173.037
 20
-7333.775
 30
-2480.000
 70
    32
  0
VERTEX
  8
W78LALIFT
 62
6
 10
2167.754
 20
-7326.651
 30
-2480.000
 70
    32
  0
SEQEND
  8
W78LALIFT
  0
POLYLINE
  8
W78LALIFT
 62
6
 66
     1
 70
     9
  0
VERTEX
  8
W78LALIFT
 62
6
 10
2123.301
 20
-6924.797
 30
-2528.819
 70
    32
  0
VERTEX
  8
W78LALIFT
 62
6
 10
2116.997
 20
-6951.928
 30
-2528.185
 70
    32
  0
VERTEX
  8
W78LALIFT
 62
6
 10
2124.087
 20
-6964.536
 30
-2527.521
 70
    32
  0
VERTEX
  8
W78LALIFT
 62
6
 10
2129.482
 20
-6980.878
 30
-2527.248
 70
    32
  0
VERTEX
  8
W78LALIFT
 62
6
 10
2134.813
 20
-6982.711
 30
-2527.169
 70
    32
  0
VERTEX
  8
W78LALIFT
 62
6
 10
2137.740
 20
-6983.717
 30
-2527.140
 70
    32
  0
VERTEX
  8
W78LALIFT
 62
6
 10
2145.924
 20
-6990.329
 30
-2527.027
 70
    32
  0
VERTEX
  8
W78LALIFT
 62
6
 10
2147.934
 20
-6993.507
 30
-2527.554
 70
    32
  0
VERTEX
  8
W78LALIFT
 62
6
 10
2160.221
 20
-6997.012
 30
-2527.554
 70
    32
  0
VERTEX
  8
W78LALIFT
 62
6
 10
2166.127
 20
-7001.057
 30
-2527.090
 70
    32
  0
VERTEX
  8
W78LALIFT
 62
6
 10
2177.504
 20
-7012.318
 30
-2526.445
 70
    32
  0
VERTEX
  8
W78LALIFT
 62
6
 10
2179.648
 20
-7014.731
 30
-2526.436
 70
    32
  0
VERTEX
  8
W78LALIFT
 62
6
 10
2186.586
 20
-7023.523
 30
-2526.405
 70
    32
  0
VERTEX
  8
W78LALIFT
 62
6
 10
2195.195
 20
-7032.655
 30
-2526.371
 70
    32
  0
VERTEX
  8
W78LALIFT
 62
6
 10
2204.227
 20
-7043.269
 30
-2526.332
 70
    32
  0
VERTEX
  8
W78LALIFT
 62
6
 10
2213.860
 20
-7034.797
 30
-2526.328
 70
    32
  0
VERTEX
  8
W78LALIFT
 62
6
 10
2205.835
 20
-7022.021
 30
-2526.368
 70
    32
  0
VERTEX
  8
W78LALIFT
 62
6
 10
2201.895
 20
-7011.171
 30
-2526.396
 70
    32
  0
VERTEX
  8
W78LALIFT
 62
6
 10
2187.617
 20
-7002.757
 30
-2526.442
 70
    32
  0
VERTEX
  8
W78LALIFT
 62
6
 10
2171.796
 20
-6989.057
 30
-2527.000
 70
    32
  0
VERTEX
  8
W78LALIFT
 62
6
 10
2170.738
 20
-6987.030
 30
-2527.554
 70
    32
  0
VERTEX
  8
W78LALIFT
 62
6
 10
2159.902
 20
-6982.149
 30
-2527.554
 70
    32
  0
VERTEX
  8
W78LALIFT
 62
6
 10
2155.556
 20
-6980.199
 30
-2527.053
 70
    32
  0
VERTEX
  8
W78LALIFT
 62
6
 10
2150.079
 20
-6976.687
 30
-2527.108
 70
    32
  0
VERTEX
  8
W78LALIFT
 62
6
 10
2145.602
 20
-6973.817
 30
-2527.164
 70
    32
  0
VERTEX
  8
W78LALIFT
 62
6
 10
2144.435
 20
-6973.069
 30
-2527.193
 70
    32
  0
VERTEX
  8
W78LALIFT
 62
6
 10
2138.053
 20
-6962.127
 30
-2527.465
 70
    32
  0
VERTEX
  8
W78LALIFT
 62
6
 10
2140.993
 20
-6959.049
 30
-2527.475
 70
    32
  0
VERTEX
  8
W78LALIFT
 62
6
 10
2143.267
 20
-6958.828
 30
-2527.446
 70
    32
  0
VERTEX
  8
W78LALIFT
 62
6
 10
2148.094
 20
-6959.227
 30
-2527.891
 70
    32
  0
VERTEX
  8
W78LALIFT
 62
6
 10
2152.795
 20
-6959.616
 30
-2527.111
 70
    32
  0
VERTEX
  8
W78LALIFT
 62
6
 10
2163.192
 20
-6970.399
 30
-2527.038
 70
    32
  0
VERTEX
  8
W78LALIFT
 62
6
 10
2164.851
 20
-6969.677
 30
-2527.046
 70
    32
  0
VERTEX
  8
W78LALIFT
 62
6
 10
2172.010
 20
-6966.560
 30
-2527.019
 70
    32
  0
VERTEX
  8
W78LALIFT
 62
6
 10
2172.984
 20
-6953.127
 30
-2527.054
 70
    32
  0
VERTEX
  8
W78LALIFT
 62
6
 10
2166.510
 20
-6951.330
 30
-2527.093
 70
    32
  0
VERTEX
  8
W78LALIFT
 62
6
 10
2161.714
 20
-6942.541
 30
-2527.144
 70
    32
  0
VERTEX
  8
W78LALIFT
 62
6
 10
2155.826
 20
-6942.515
 30
-2527.174
 70
    32
  0
VERTEX
  8
W78LALIFT
 62
6
 10
2134.553
 20
-6936.939
 30
-2528.650
 70
    32
  0
VERTEX
  8
W78LALIFT
 62
6
 10
2132.323
 20
-6935.960
 30
-2528.620
 70
    32
  0
VERTEX
  8
W78LALIFT
 62
6
 10
2130.135
 20
-6934.634
 30
-2528.726
 70
    32
  0
VERTEX
  8
W78LALIFT
 62
6
 10
2126.232
 20
-6929.016
 30
-2529.080
 70
    32
  0
SEQEND
  8
W78LALIFT
  0
POLYLINE
  8
W78LALIFT
 62
6
 66
     1
 70
     9
  0
VERTEX
  8
W78LALIFT
 62
6
 10
2082.698
 20
-6933.472
 30
-2536.066
 70
    32
  0
VERTEX
  8
W78LALIFT
 62
6
 10
2084.829
 20
-6943.560
 30
-2535.634
 70
    32
  0
VERTEX
  8
W78LALIFT
 62
6
 10
2087.950
 20
-6947.986
 30
-2535.039
 70
    32
  0
VERTEX
  8
W78LALIFT
 62
6
 10
2088.451
 20
-6948.697
 30
-2535.018
 70
    32
  0
VERTEX
  8
W78LALIFT
 62
6
 10
2090.662
 20
-6954.260
 30
-2535.204
 70
    32
  0
VERTEX
  8
W78LALIFT
 62
6
 10
2093.910
 20
-6948.927
 30
-2533.930
 70
    32
  0
VERTEX
  8
W78LALIFT
 62
6
 10
2094.746
 20
-6947.553
 30
-2533.779
 70
    32
  0
VERTEX
  8
W78LALIFT
 62
6
 10
2094.746
 20
-6947.553
 30
-2533.779
 70
    32
  0
VERTEX
  8
W78LALIFT
 62
6
 10
2105.786
 20
-6944.760
 30
-2531.741
 70
    32
  0
VERTEX
  8
W78LALIFT
 62
6
 10
2105.786
 20
-6944.760
 30
-2531.741
 70
    32
  0
VERTEX
  8
W78LALIFT
 62
6
 10
2113.583
 20
-6949.745
 30
-2528.358
 70
    32
  0
VERTEX
  8
W78LALIFT
 62
6
 10
2116.997
 20
-6951.928
 30
-2528.185
 70
    32
  0
VERTEX
  8
W78LALIFT
 62
6
 10
2123.301
 20
-6924.797
 30
-2528.819
 70
    32
  0
VERTEX
  8
W78LALIFT
 62
6
 10
2120.634
 20
-6925.817
 30
-2529.056
 70
    32
  0
VERTEX
  8
W78LALIFT
 62
6
 10
2120.634
 20
-6925.817
 30
-2529.056
 70
    32
  0
VERTEX
  8
W78LALIFT
 62
6
 10
2092.353
 20
-6936.639
 30
-2534.263
 70
    32
  0
VERTEX
  8
W78LALIFT
 62
6
 10
2086.317
 20
-6934.859
 30
-2535.390
 70
    32
  0
SEQEND
  8
W78LALIFT
  0
POLYLINE
  8
W78LALIFT
 62
6
 66
     1
 70
     9
  0
VERTEX
  8
W78LALIFT
 62
6
 10
2413.237
 20
-7849.256
 30
-2472.292
 70
    32
  0
VERTEX
  8
W78LALIFT
 62
6
 10
2402.253
 20
-7829.157
 30
-2473.433
 70
    32
  0
VERTEX
  8
W78LALIFT
 62
6
 10
2398.250
 20
-7819.067
 30
-2474.006
 70
    32
  0
VERTEX
  8
W78LALIFT
 62
6
 10
2405.084
 20
-7815.670
 30
-2473.561
 70
    32
  0
VERTEX
  8
W78LALIFT
 62
6
 10
2409.233
 20
-7823.709
 30
-2473.138
 70
    32
  0
VERTEX
  8
W78LALIFT
 62
6
 10
2416.850
 20
-7836.433
 30
-2472.715
 70
    32
  0
SEQEND
  8
W78LALIFT
  0
POLYLINE
  8
W78LALIFT
 62
6
 66
     1
 70
     9
  0
VERTEX
  8
W78LALIFT
 62
6
 10
2418.134
 20
-7802.411
 30
-2473.544
 70
    32
  0
VERTEX
  8
W78LALIFT
 62
6
 10
2417.407
 20
-7803.245
 30
-2473.535
 70
    32
  0
VERTEX
  8
W78LALIFT
 62
6
 10
2417.570
 20
-7808.682
 30
-2473.493
 70
    32
  0
VERTEX
  8
W78LALIFT
 62
6
 10
2412.198
 20
-7812.296
 30
-2473.484
 70
    32
  0
VERTEX
  8
W78LALIFT
 62
6
 10
2405.115
 20
-7815.615
 30
-2473.483
 70
    32
  0
VERTEX
  8
W78LALIFT
 62
6
 10
2409.289
 20
-7823.778
 30
-2473.406
 70
    32
  0
VERTEX
  8
W78LALIFT
 62
6
 10
2416.862
 20
-7836.346
 30
-2472.397
 70
    32
  0
VERTEX
  8
W78LALIFT
 62
6
 10
2413.187
 20
-7849.354
 30
-2472.043
 70
    32
  0
VERTEX
  8
W78LALIFT
 62
6
 10
2410.371
 20
-7854.638
 30
-2471.689
 70
    32
  0
VERTEX
  8
W78LALIFT
 62
6
 10
2421.550
 20
-7861.858
 30
-2471.748
 70
    32
  0
VERTEX
  8
W78LALIFT
 62
6
 10
2427.912
 20
-7860.308
 30
-2471.950
 70
    32
  0
VERTEX
  8
W78LALIFT
 62
6
 10
2434.058
 20
-7846.511
 30
-2472.515
 70
    32
  0
VERTEX
  8
W78LALIFT
 62
6
 10
2448.730
 20
-7842.043
 30
-2472.009
 70
    32
  0
VERTEX
  8
W78LALIFT
 62
6
 10
2453.572
 20
-7844.188
 30
-2471.464
 70
    32
  0
VERTEX
  8
W78LALIFT
 62
6
 10
2456.730
 20
-7847.713
 30
-2471.036
 70
    32
  0
VERTEX
  8
W78LALIFT
 62
6
 10
2463.461
 20
-7841.945
 30
-2471.079
 70
    32
  0
VERTEX
  8
W78LALIFT
 62
6
 10
2468.711
 20
-7835.006
 30
-2471.114
 70
    32
  0
VERTEX
  8
W78LALIFT
 62
6
 10
2466.297
 20
-7832.158
 30
-2471.444
 70
    32
  0
VERTEX
  8
W78LALIFT
 62
6
 10
2453.577
 20
-7810.315
 30
-2473.356
 70
    32
  0
VERTEX
  8
W78LALIFT
 62
6
 10
2449.258
 20
-7810.684
 30
-2473.368
 70
    32
  0
VERTEX
  8
W78LALIFT
 62
6
 10
2447.190
 20
-7809.420
 30
-2473.385
 70
    32
  0
VERTEX
  8
W78LALIFT
 62
6
 10
2442.225
 20
-7802.438
 30
-2473.456
 70
    32
  0
VERTEX
  8
W78LALIFT
 62
6
 10
2425.347
 20
-7794.141
 30
-2473.625
 70
    32
  0
VERTEX
  8
W78LALIFT
 62
6
 10
2423.236
 20
-7796.562
 30
-2473.601
 70
    32
  0
SEQEND
  8
W78LALIFT
  0
POLYLINE
  8
W78LALIFT
 62
2
 66
     1
 70
     9
  0
VERTEX
  8
W78LALIFT
 62
2
 10
2263.440
 20
-7396.047
 30
-2482.377
 70
    32
  0
VERTEX
  8
W78LALIFT
 62
2
 10
2267.140
 20
-7400.400
 30
-2481.525
 70
    32
  0
VERTEX
  8
W78LALIFT
 62
2
 10
2271.447
 20
-7407.775
 30
-2481.695
 70
    32
  0
VERTEX
  8
W78LALIFT
 62
2
 10
2274.221
 20
-7411.365
 30
-2481.159
 70
    32
  0
VERTEX
  8
W78LALIFT
 62
2
 10
2276.965
 20
-7418.689
 30
-2481.776
 70
    32
  0
VERTEX
  8
W78LALIFT
 62
2
 10
2277.934
 20
-7421.628
 30
-2481.869
 70
    32
  0
VERTEX
  8
W78LALIFT
 62
2
 10
2280.765
 20
-7426.519
 30
-2480.523
 70
    32
  0
VERTEX
  8
W78LALIFT
 62
2
 10
2285.127
 20
-7433.170
 30
-2480.168
 70
    32
  0
VERTEX
  8
W78LALIFT
 62
2
 10
2288.853
 20
-7443.252
 30
-2480.291
 70
    32
  0
VERTEX
  8
W78LALIFT
 62
2
 10
2291.596
 20
-7451.966
 30
-2478.164
 70
    32
  0
VERTEX
  8
W78LALIFT
 62
2
 10
2290.813
 20
-7456.126
 30
-2479.811
 70
    32
  0
VERTEX
  8
W78LALIFT
 62
2
 10
2290.902
 20
-7463.388
 30
-2479.331
 70
    32
  0
VERTEX
  8
W78LALIFT
 62
2
 10
2292.105
 20
-7473.569
 30
-2478.463
 70
    32
  0
VERTEX
  8
W78LALIFT
 62
2
 10
2291.514
 20
-7488.709
 30
-2479.114
 70
    32
  0
VERTEX
  8
W78LALIFT
 62
2
 10
2291.631
 20
-7494.048
 30
-2479.617
 70
    32
  0
VERTEX
  8
W78LALIFT
 62
2
 10
2293.395
 20
-7501.657
 30
-2479.049
 70
    32
  0
VERTEX
  8
W78LALIFT
 62
2
 10
2298.940
 20
-7524.263
 30
-2476.105
 70
    32
  0
VERTEX
  8
W78LALIFT
 62
2
 10
2304.348
 20
-7533.154
 30
-2478.348
 70
    32
  0
VERTEX
  8
W78LALIFT
 62
2
 10
2305.562
 20
-7539.123
 30
-2478.760
 70
    32
  0
VERTEX
  8
W78LALIFT
 62
2
 10
2296.796
 20
-7542.329
 30
-2478.646
 70
    32
  0
VERTEX
  8
W78LALIFT
 62
2
 10
2284.573
 20
-7542.497
 30
-2478.730
 70
    32
  0
VERTEX
  8
W78LALIFT
 62
2
 10
2284.706
 20
-7532.856
 30
-2475.715
 70
    32
  0
VERTEX
  8
W78LALIFT
 62
2
 10
2284.332
 20
-7514.078
 30
-2478.856
 70
    32
  0
VERTEX
  8
W78LALIFT
 62
2
 10
2282.630
 20
-7498.866
 30
-2479.559
 70
    32
  0
VERTEX
  8
W78LALIFT
 62
2
 10
2277.550
 20
-7495.338
 30
-2477.754
 70
    32
  0
VERTEX
  8
W78LALIFT
 62
2
 10
2275.055
 20
-7473.327
 30
-2479.334
 70
    32
  0
VERTEX
  8
W78LALIFT
 62
2
 10
2272.162
 20
-7452.063
 30
-2480.820
 70
    32
  0
VERTEX
  8
W78LALIFT
 62
2
 10
2271.896
 20
-7445.213
 30
-2481.847
 70
    32
  0
VERTEX
  8
W78LALIFT
 62
2
 10
2267.067
 20
-7443.043
 30
-2483.687
 70
    32
  0
VERTEX
  8
W78LALIFT
 62
2
 10
2267.239
 20
-7435.557
 30
-2482.209
 70
    32
  0
VERTEX
  8
W78LALIFT
 62
2
 10
2267.716
 20
-7426.404
 30
-2481.343
 70
    32
  0
VERTEX
  8
W78LALIFT
 62
2
 10
2265.753
 20
-7419.815
 30
-2482.678
 70
    32
  0
VERTEX
  8
W78LALIFT
 62
2
 10
2263.705
 20
-7416.912
 30
-2482.497
 70
    32
  0
VERTEX
  8
W78LALIFT
 62
2
 10
2261.114
 20
-7410.712
 30
-2482.608
 70
    32
  0
VERTEX
  8
W78LALIFT
 62
2
 10
2255.060
 20
-7402.283
 30
-2482.543
 70
    32
  0
SEQEND
  8
W78LALIFT
  0
POLYLINE
  8
W78LALIFT
 62
2
 66
     1
 70
     9
  0
VERTEX
  8
W78LALIFT
 62
2
 10
2360.885
 20
-7243.595
 30
-2513.312
 70
    32
  0
VERTEX
  8
W78LALIFT
 62
2
 10
2365.175
 20
-7231.704
 30
-2512.266
 70
    32
  0
VERTEX
  8
W78LALIFT
 62
2
 10
2368.947
 20
-7223.154
 30
-2510.610
 70
    32
  0
VERTEX
  8
W78LALIFT
 62
2
 10
2373.216
 20
-7211.389
 30
-2507.430
 70
    32
  0
VERTEX
  8
W78LALIFT
 62
2
 10
2380.044
 20
-7198.605
 30
-2504.804
 70
    32
  0
VERTEX
  8
W78LALIFT
 62
2
 10
2382.101
 20
-7183.546
 30
-2503.871
 70
    32
  0
VERTEX
  8
W78LALIFT
 62
2
 10
2383.549
 20
-7180.041
 30
-2502.004
 70
    32
  0
VERTEX
  8
W78LALIFT
 62
2
 10
2384.011
 20
-7174.756
 30
-2502.474
 70
    32
  0
VERTEX
  8
W78LALIFT
 62
2
 10
2377.797
 20
-7167.086
 30
-2501.360
 70
    32
  0
VERTEX
  8
W78LALIFT
 62
2
 10
2369.427
 20
-7159.695
 30
-2502.678
 70
    32
  0
VERTEX
  8
W78LALIFT
 62
2
 10
2363.519
 20
-7153.106
 30
-2501.795
 70
    32
  0
VERTEX
  8
W78LALIFT
 62
2
 10
2361.350
 20
-7149.001
 30
-2500.344
 70
    32
  0
VERTEX
  8
W78LALIFT
 62
2
 10
2348.065
 20
-7131.932
 30
-2498.957
 70
    32
  0
VERTEX
  8
W78LALIFT
 62
2
 10
2335.303
 20
-7117.146
 30
-2498.532
 70
    32
  0
VERTEX
  8
W78LALIFT
 62
2
 10
2334.755
 20
-7113.095
 30
-2498.140
 70
    32
  0
VERTEX
  8
W78LALIFT
 62
2
 10
2328.386
 20
-7105.524
 30
-2497.925
 70
    32
  0
VERTEX
  8
W78LALIFT
 62
2
 10
2335.107
 20
-7096.440
 30
-2500.258
 70
    32
  0
VERTEX
  8
W78LALIFT
 62
2
 10
2323.673
 20
-7082.986
 30
-2500.473
 70
    32
  0
VERTEX
  8
W78LALIFT
 62
2
 10
2325.978
 20
-7077.605
 30
-2499.339
 70
    32
  0
VERTEX
  8
W78LALIFT
 62
2
 10
2328.335
 20
-7074.559
 30
-2500.229
 70
    32
  0
VERTEX
  8
W78LALIFT
 62
2
 10
2336.708
 20
-7071.525
 30
-2499.911
 70
    32
  0
VERTEX
  8
W78LALIFT
 62
2
 10
2344.592
 20
-7072.682
 30
-2500.484
 70
    32
  0
VERTEX
  8
W78LALIFT
 62
2
 10
2350.258
 20
-7077.416
 30
-2499.625
 70
    32
  0
VERTEX
  8
W78LALIFT
 62
2
 10
2352.923
 20
-7077.978
 30
-2498.234
 70
    32
  0
VERTEX
  8
W78LALIFT
 62
2
 10
2361.956
 20
-7089.809
 30
-2498.554
 70
    32
  0
VERTEX
  8
W78LALIFT
 62
2
 10
2368.627
 20
-7098.434
 30
-2499.417
 70
    32
  0
VERTEX
  8
W78LALIFT
 62
2
 10
2372.174
 20
-7110.611
 30
-2499.216
 70
    32
  0
VERTEX
  8
W78LALIFT
 62
2
 10
2376.442
 20
-7118.568
 30
-2499.139
 70
    32
  0
VERTEX
  8
W78LALIFT
 62
2
 10
2381.002
 20
-7129.393
 30
-2500.088
 70
    32
  0
VERTEX
  8
W78LALIFT
 62
2
 10
2386.423
 20
-7137.197
 30
-2501.469
 70
    32
  0
VERTEX
  8
W78LALIFT
 62
2
 10
2388.526
 20
-7138.117
 30
-2500.687
 70
    32
  0
VERTEX
  8
W78LALIFT
 62
2
 10
2395.152
 20
-7148.150
 30
-2502.509
 70
    32
  0
VERTEX
  8
W78LALIFT
 62
2
 10
2397.122
 20
-7150.343
 30
-2500.695
 70
    32
  0
VERTEX
  8
W78LALIFT
 62
2
 10
2399.397
 20
-7151.997
 30
-2500.832
 70
    32
  0
VERTEX
  8
W78LALIFT
 62
2
 10
2399.270
 20
-7162.057
 30
-2500.675
 70
    32
  0
VERTEX
  8
W78LALIFT
 62
2
 10
2400.079
 20
-7166.710
 30
-2500.680
 70
    32
  0
VERTEX
  8
W78LALIFT
 62
2
 10
2400.700
 20
-7174.369
 30
-2502.534
 70
    32
  0
VERTEX
  8
W78LALIFT
 62
2
 10
2403.674
 20
-7176.285
 30
-2502.270
 70
    32
  0
VERTEX
  8
W78LALIFT
 62
2
 10
2408.187
 20
-7181.590
 30
-2502.734
 70
    32
  0
VERTEX
  8
W78LALIFT
 62
2
 10
2404.998
 20
-7186.207
 30
-2502.601
 70
    32
  0
VERTEX
  8
W78LALIFT
 62
2
 10
2401.654
 20
-7189.479
 30
-2504.570
 70
    32
  0
VERTEX
  8
W78LALIFT
 62
2
 10
2397.550
 20
-7194.089
 30
-2504.615
 70
    32
  0
VERTEX
  8
W78LALIFT
 62
2
 10
2398.877
 20
-7195.342
 30
-2504.616
 70
    32
  0
VERTEX
  8
W78LALIFT
 62
2
 10
2388.376
 20
-7204.479
 30
-2506.471
 70
    32
  0
VERTEX
  8
W78LALIFT
 62
2
 10
2382.436
 20
-7215.765
 30
-2508.456
 70
    32
  0
VERTEX
  8
W78LALIFT
 62
2
 10
2379.813
 20
-7222.105
 30
-2510.271
 70
    32
  0
VERTEX
  8
W78LALIFT
 62
2
 10
2376.259
 20
-7232.028
 30
-2512.295
 70
    32
  0
VERTEX
  8
W78LALIFT
 62
2
 10
2368.905
 20
-7249.514
 30
-2513.274
 70
    32
  0
VERTEX
  8
W78LALIFT
 62
2
 10
2367.246
 20
-7251.395
 30
-2513.577
 70
    32
  0
SEQEND
  8
W78LALIFT
  0
POLYLINE
  8
W78LALIFT
 62
2
 66
     1
 70
     9
  0
VERTEX
  8
W78LALIFT
 62
2
 10
2013.309
 20
-6197.818
 30
-2469.945
 70
    32
  0
VERTEX
  8
W78LALIFT
 62
2
 10
2007.020
 20
-6178.271
 30
-2464.845
 70
    32
  0
VERTEX
  8
W78LALIFT
 62
2
 10
2004.255
 20
-6167.353
 30
-2465.796
 70
    32
  0
VERTEX
  8
W78LALIFT
 62
2
 10
2002.450
 20
-6155.897
 30
-2463.466
 70
    32
  0
VERTEX
  8
W78LALIFT
 62
2
 10
2000.471
 20
-6143.852
 30
-2462.105
 70
    32
  0
VERTEX
  8
W78LALIFT
 62
2
 10
1990.504
 20
-6145.190
 30
-2461.075
 70
    32
  0
VERTEX
  8
W78LALIFT
 62
2
 10
1983.969
 20
-6138.915
 30
-2461.857
 70
    32
  0
VERTEX
  8
W78LALIFT
 62
2
 10
1978.305
 20
-6143.051
 30
-2462.750
 70
    32
  0
VERTEX
  8
W78LALIFT
 62
2
 10
1960.923
 20
-6157.422
 30
-2463.350
 70
    32
  0
VERTEX
  8
W78LALIFT
 62
2
 10
1960.033
 20
-6164.516
 30
-2462.289
 70
    32
  0
VERTEX
  8
W78LALIFT
 62
2
 10
1967.203
 20
-6171.070
 30
-2462.832
 70
    32
  0
VERTEX
  8
W78LALIFT
 62
2
 10
1983.450
 20
-6168.701
 30
-2465.638
 70
    32
  0
VERTEX
  8
W78LALIFT
 62
2
 10
1994.598
 20
-6176.786
 30
-2465.700
 70
    32
  0
VERTEX
  8
W78LALIFT
 62
2
 10
1997.727
 20
-6182.290
 30
-2467.949
 70
    32
  0
VERTEX
  8
W78LALIFT
 62
2
 10
2001.716
 20
-6195.136
 30
-2469.345
 70
    32
  0
VERTEX
  8
W78LALIFT
 62
2
 10
2005.345
 20
-6207.519
 30
-2471.318
 70
    32
  0
SEQEND
  8
W78LALIFT
  0
POLYLINE
  8
W78LALIFT
 62
2
 66
     1
 70
     9
  0
VERTEX
  8
W78LALIFT
 62
2
 10
2016.902
 20
-6417.243
 30
-2460.202
 70
    32
  0
VERTEX
  8
W78LALIFT
 62
2
 10
2015.235
 20
-6411.012
 30
-2460.699
 70
    32
  0
VERTEX
  8
W78LALIFT
 62
2
 10
2004.546
 20
-6405.673
 30
-2459.002
 70
    32
  0
VERTEX
  8
W78LALIFT
 62
2
 10
2003.476
 20
-6400.742
 30
-2461.255
 70
    32
  0
VERTEX
  8
W78LALIFT
 62
2
 10
1995.230
 20
-6395.871
 30
-2458.602
 70
    32
  0
VERTEX
  8
W78LALIFT
 62
2
 10
1992.569
 20
-6394.528
 30
-2458.377
 70
    32
  0
VERTEX
  8
W78LALIFT
 62
2
 10
1981.176
 20
-6391.240
 30
-2459.087
 70
    32
  0
VERTEX
  8
W78LALIFT
 62
2
 10
1972.955
 20
-6383.812
 30
-2459.002
 70
    32
  0
VERTEX
  8
W78LALIFT
 62
2
 10
1966.734
 20
-6384.649
 30
-2458.354
 70
    32
  0
VERTEX
  8
W78LALIFT
 62
2
 10
1959.956
 20
-6387.937
 30
-2453.177
 70
    32
  0
VERTEX
  8
W78LALIFT
 62
2
 10
1954.434
 20
-6391.544
 30
-2456.984
 70
    32
  0
VERTEX
  8
W78LALIFT
 62
2
 10
1946.586
 20
-6386.300
 30
-2457.635
 70
    32
  0
VERTEX
  8
W78LALIFT
 62
2
 10
1941.092
 20
-6381.411
 30
-2457.103
 70
    32
  0
VERTEX
  8
W78LALIFT
 62
2
 10
1935.897
 20
-6377.777
 30
-2457.202
 70
    32
  0
VERTEX
  8
W78LALIFT
 62
2
 10
1935.218
 20
-6371.757
 30
-2457.501
 70
    32
  0
VERTEX
  8
W78LALIFT
 62
2
 10
1934.744
 20
-6369.539
 30
-2458.124
 70
    32
  0
VERTEX
  8
W78LALIFT
 62
2
 10
1925.532
 20
-6367.274
 30
-2457.806
 70
    32
  0
VERTEX
  8
W78LALIFT
 62
2
 10
1925.460
 20
-6364.029
 30
-2457.878
 70
    32
  0
VERTEX
  8
W78LALIFT
 62
2
 10
1928.470
 20
-6355.638
 30
-2457.622
 70
    32
  0
VERTEX
  8
W78LALIFT
 62
2
 10
1936.849
 20
-6358.534
 30
-2458.200
 70
    32
  0
VERTEX
  8
W78LALIFT
 62
2
 10
1940.764
 20
-6354.822
 30
-2459.742
 70
    32
  0
VERTEX
  8
W78LALIFT
 62
2
 10
1944.464
 20
-6353.775
 30
-2459.473
 70
    32
  0
VERTEX
  8
W78LALIFT
 62
2
 10
1949.636
 20
-6351.341
 30
-2459.939
 70
    32
  0
VERTEX
  8
W78LALIFT
 62
2
 10
1961.982
 20
-6348.520
 30
-2459.770
 70
    32
  0
VERTEX
  8
W78LALIFT
 62
2
 10
1966.019
 20
-6345.279
 30
-2457.443
 70
    32
  0
VERTEX
  8
W78LALIFT
 62
2
 10
1965.526
 20
-6339.141
 30
-2456.848
 70
    32
  0
VERTEX
  8
W78LALIFT
 62
2
 10
1966.096
 20
-6332.836
 30
-2460.647
 70
    32
  0
VERTEX
  8
W78LALIFT
 62
2
 10
1971.325
 20
-6332.071
 30
-2457.837
 70
    32
  0
VERTEX
  8
W78LALIFT
 62
2
 10
1976.117
 20
-6328.920
 30
-2455.704
 70
    32
  0
VERTEX
  8
W78LALIFT
 62
2
 10
1981.371
 20
-6326.864
 30
-2458.597
 70
    32
  0
VERTEX
  8
W78LALIFT
 62
2
 10
1988.378
 20
-6322.538
 30
-2457.811
 70
    32
  0
VERTEX
  8
W78LALIFT
 62
2
 10
1993.684
 20
-6325.333
 30
-2456.202
 70
    32
  0
VERTEX
  8
W78LALIFT
 62
2
 10
2003.166
 20
-6328.684
 30
-2457.281
 70
    32
  0
VERTEX
  8
W78LALIFT
 62
2
 10
2012.687
 20
-6326.555
 30
-2455.893
 70
    32
  0
VERTEX
  8
W78LALIFT
 62
2
 10
2014.138
 20
-6333.387
 30
-2457.280
 70
    32
  0
VERTEX
  8
W78LALIFT
 62
2
 10
1997.532
 20
-6340.234
 30
-2457.226
 70
    32
  0
VERTEX
  8
W78LALIFT
 62
2
 10
1997.979
 20
-6343.820
 30
-2457.651
 70
    32
  0
VERTEX
  8
W78LALIFT
 62
2
 10
1986.901
 20
-6346.378
 30
-2456.741
 70
    32
  0
VERTEX
  8
W78LALIFT
 62
2
 10
1981.161
 20
-6356.997
 30
-2458.351
 70
    32
  0
VERTEX
  8
W78LALIFT
 62
2
 10
1975.622
 20
-6366.724
 30
-2459.483
 70
    32
  0
VERTEX
  8
W78LALIFT
 62
2
 10
1979.087
 20
-6370.224
 30
-2459.320
 70
    32
  0
VERTEX
  8
W78LALIFT
 62
2
 10
1983.064
 20
-6371.951
 30
-2459.447
 70
    32
  0
VERTEX
  8
W78LALIFT
 62
2
 10
1992.353
 20
-6378.396
 30
-2458.268
 70
    32
  0
VERTEX
  8
W78LALIFT
 62
2
 10
1999.903
 20
-6385.093
 30
-2459.002
 70
    32
  0
VERTEX
  8
W78LALIFT
 62
2
 10
2008.421
 20
-6392.496
 30
-2459.692
 70
    32
  0
VERTEX
  8
W78LALIFT
 62
2
 10
2009.882
 20
-6391.190
 30
-2458.532
 70
    32
  0
VERTEX
  8
W78LALIFT
 62
2
 10
2017.995
 20
-6398.581
 30
-2460.252
 70
    32
  0
VERTEX
  8
W78LALIFT
 62
2
 10
2021.917
 20
-6399.881
 30
-2458.761
 70
    32
  0
VERTEX
  8
W78LALIFT
 62
2
 10
2026.449
 20
-6398.332
 30
-2459.170
 70
    32
  0
SEQEND
  8
W78LALIFT
  0
POLYLINE
  8
W78LALIFT
 62
2
 66
     1
 70
     9
  0
VERTEX
  8
W78LALIFT
 62
2
 10
2018.043
 20
-6399.449
 30
-2533.510
 70
    32
  0
VERTEX
  8
W78LALIFT
 62
2
 10
2025.115
 20
-6396.994
 30
-2533.269
 70
    32
  0
VERTEX
  8
W78LALIFT
 62
2
 10
2033.898
 20
-6393.964
 30
-2531.704
 70
    32
  0
VERTEX
  8
W78LALIFT
 62
2
 10
2043.273
 20
-6385.280
 30
-2527.240
 70
    32
  0
VERTEX
  8
W78LALIFT
 62
2
 10
2046.201
 20
-6379.977
 30
-2525.695
 70
    32
  0
VERTEX
  8
W78LALIFT
 62
2
 10
2051.775
 20
-6368.442
 30
-2522.288
 70
    32
  0
VERTEX
  8
W78LALIFT
 62
2
 10
2048.785
 20
-6365.831
 30
-2521.785
 70
    32
  0
VERTEX
  8
W78LALIFT
 62
2
 10
2049.841
 20
-6355.938
 30
-2518.576
 70
    32
  0
VERTEX
  8
W78LALIFT
 62
2
 10
2034.741
 20
-6334.321
 30
-2516.043
 70
    32
  0
VERTEX
  8
W78LALIFT
 62
2
 10
2022.151
 20
-6328.007
 30
-2515.510
 70
    32
  0
VERTEX
  8
W78LALIFT
 62
2
 10
2019.294
 20
-6326.693
 30
-2514.784
 70
    32
  0
VERTEX
  8
W78LALIFT
 62
2
 10
2017.607
 20
-6320.152
 30
-2513.813
 70
    32
  0
VERTEX
  8
W78LALIFT
 62
2
 10
2018.984
 20
-6313.653
 30
-2514.153
 70
    32
  0
VERTEX
  8
W78LALIFT
 62
2
 10
2025.926
 20
-6305.599
 30
-2514.791
 70
    32
  0
VERTEX
  8
W78LALIFT
 62
2
 10
2034.682
 20
-6302.129
 30
-2513.802
 70
    32
  0
VERTEX
  8
W78LALIFT
 62
2
 10
2046.382
 20
-6302.642
 30
-2513.424
 70
    32
  0
VERTEX
  8
W78LALIFT
 62
2
 10
2053.947
 20
-6300.741
 30
-2514.508
 70
    32
  0
VERTEX
  8
W78LALIFT
 62
2
 10
2052.920
 20
-6291.373
 30
-2514.187
 70
    32
  0
VERTEX
  8
W78LALIFT
 62
2
 10
2041.990
 20
-6288.396
 30
-2513.133
 70
    32
  0
VERTEX
  8
W78LALIFT
 62
2
 10
2037.534
 20
-6284.383
 30
-2513.067
 70
    32
  0
VERTEX
  8
W78LALIFT
 62
2
 10
2033.350
 20
-6281.401
 30
-2513.901
 70
    32
  0
VERTEX
  8
W78LALIFT
 62
2
 10
2029.448
 20
-6280.180
 30
-2514.836
 70
    32
  0
VERTEX
  8
W78LALIFT
 62
2
 10
2023.617
 20
-6282.870
 30
-2514.447
 70
    32
  0
VERTEX
  8
W78LALIFT
 62
2
 10
2020.063
 20
-6287.439
 30
-2514.641
 70
    32
  0
VERTEX
  8
W78LALIFT
 62
2
 10
2018.601
 20
-6295.365
 30
-2514.575
 70
    32
  0
VERTEX
  8
W78LALIFT
 62
2
 10
2017.496
 20
-6298.266
 30
-2514.175
 70
    32
  0
VERTEX
  8
W78LALIFT
 62
2
 10
2010.773
 20
-6306.636
 30
-2514.916
 70
    32
  0
VERTEX
  8
W78LALIFT
 62
2
 10
2005.778
 20
-6307.890
 30
-2515.130
 70
    32
  0
VERTEX
  8
W78LALIFT
 62
2
 10
2002.554
 20
-6303.261
 30
-2514.523
 70
    32
  0
VERTEX
  8
W78LALIFT
 62
2
 10
1998.343
 20
-6286.291
 30
-2512.620
 70
    32
  0
VERTEX
  8
W78LALIFT
 62
2
 10
1994.316
 20
-6275.611
 30
-2512.471
 70
    32
  0
VERTEX
  8
W78LALIFT
 62
2
 10
1989.414
 20
-6277.922
 30
-2513.133
 70
    32
  0
VERTEX
  8
W78LALIFT
 62
2
 10
1985.567
 20
-6280.033
 30
-2513.511
 70
    32
  0
VERTEX
  8
W78LALIFT
 62
2
 10
1986.291
 20
-6289.438
 30
-2514.634
 70
    32
  0
VERTEX
  8
W78LALIFT
 62
2
 10
1988.961
 20
-6300.446
 30
-2514.446
 70
    32
  0
VERTEX
  8
W78LALIFT
 62
2
 10
1992.174
 20
-6309.512
 30
-2514.408
 70
    32
  0
VERTEX
  8
W78LALIFT
 62
2
 10
1993.914
 20
-6319.159
 30
-2514.626
 70
    32
  0
VERTEX
  8
W78LALIFT
 62
2
 10
2014.440
 20
-6348.763
 30
-2516.301
 70
    32
  0
VERTEX
  8
W78LALIFT
 62
2
 10
2019.508
 20
-6349.973
 30
-2517.975
 70
    32
  0
VERTEX
  8
W78LALIFT
 62
2
 10
2029.148
 20
-6355.805
 30
-2519.650
 70
    32
  0
VERTEX
  8
W78LALIFT
 62
2
 10
2034.918
 20
-6361.387
 30
-2520.538
 70
    32
  0
VERTEX
  8
W78LALIFT
 62
2
 10
2038.712
 20
-6367.484
 30
-2523.436
 70
    32
  0
VERTEX
  8
W78LALIFT
 62
2
 10
2038.253
 20
-6374.089
 30
-2525.006
 70
    32
  0
VERTEX
  8
W78LALIFT
 62
2
 10
2033.187
 20
-6380.969
 30
-2528.222
 70
    32
  0
VERTEX
  8
W78LALIFT
 62
2
 10
2027.739
 20
-6385.561
 30
-2530.924
 70
    32
  0
VERTEX
  8
W78LALIFT
 62
2
 10
2020.854
 20
-6388.239
 30
-2533.494
 70
    32
  0
SEQEND
  8
W78LALIFT
  0
ENDSEC
  0
EOF
