999
********************************
999
*   DXF File - Entities Only   *
999
*        3D Data Format        *
999
*     Output from ENVISAGE     *
999
*     02-Jan-2008 11:49:42     *
999
********************************
  0
SECTION 
  2
HEADER
  9
$ACADVER
  1
AC1009
  9
$EXTMIN
 10
-290000.000
 20
-250000.000
 30
-4000.000
  9
$EXTMAX
 10
320000.000
 20
160000.000
 30
6000.000
  0
ENDSEC
  0
SECTION
  2
ENTITIES
  0
POLYLINE
  8
W78LPLIFT
 62
3
 66
     1
 70
     9
  0
VERTEX
  8
W78LPLIFT
 62
3
 10
1976.150
 20
-6675.239
 30
-2474.495
 70
    32
  0
VERTEX
  8
W78LPLIFT
 62
3
 10
1985.992
 20
-6671.686
 30
-2474.253
 70
    32
  0
VERTEX
  8
W78LPLIFT
 62
3
 10
1997.548
 20
-6667.514
 30
-2473.909
 70
    32
  0
VERTEX
  8
W78LPLIFT
 62
3
 10
2013.427
 20
-6668.790
 30
-2473.330
 70
    32
  0
VERTEX
  8
W78LPLIFT
 62
3
 10
2024.559
 20
-6668.743
 30
-2473.013
 70
    32
  0
VERTEX
  8
W78LPLIFT
 62
3
 10
2036.570
 20
-6669.080
 30
-2472.674
 70
    32
  0
VERTEX
  8
W78LPLIFT
 62
3
 10
2041.160
 20
-6668.169
 30
-2472.535
 70
    32
  0
VERTEX
  8
W78LPLIFT
 62
3
 10
2043.355
 20
-6667.748
 30
-2472.413
 70
    32
  0
VERTEX
  8
W78LPLIFT
 62
3
 10
2052.416
 20
-6670.601
 30
-2472.200
 70
    32
  0
VERTEX
  8
W78LPLIFT
 62
3
 10
2061.274
 20
-6662.205
 30
-2472.000
 70
    32
  0
VERTEX
  8
W78LPLIFT
 62
3
 10
2070.164
 20
-6665.513
 30
-2471.800
 70
    32
  0
VERTEX
  8
W78LPLIFT
 62
3
 10
2082.479
 20
-6656.325
 30
-2471.500
 70
    32
  0
VERTEX
  8
W78LPLIFT
 62
3
 10
2076.893
 20
-6640.717
 30
-2471.357
 70
    32
  0
VERTEX
  8
W78LPLIFT
 62
3
 10
2074.964
 20
-6638.419
 30
-2471.364
 70
    32
  0
VERTEX
  8
W78LPLIFT
 62
3
 10
2084.050
 20
-6629.320
 30
-2471.376
 70
    32
  0
VERTEX
  8
W78LPLIFT
 62
3
 10
2082.940
 20
-6628.674
 30
-2471.379
 70
    32
  0
VERTEX
  8
W78LPLIFT
 62
3
 10
2070.164
 20
-6621.247
 30
-2471.381
 70
    32
  0
VERTEX
  8
W78LPLIFT
 62
3
 10
2065.495
 20
-6621.804
 30
-2471.300
 70
    32
  0
VERTEX
  8
W78LPLIFT
 62
3
 10
2052.051
 20
-6603.667
 30
-2471.300
 70
    32
  0
VERTEX
  8
W78LPLIFT
 62
3
 10
2040.724
 20
-6610.347
 30
-2471.300
 70
    32
  0
VERTEX
  8
W78LPLIFT
 62
3
 10
2052.435
 20
-6623.507
 30
-2471.300
 70
    32
  0
VERTEX
  8
W78LPLIFT
 62
3
 10
2057.132
 20
-6636.732
 30
-2471.411
 70
    32
  0
VERTEX
  8
W78LPLIFT
 62
3
 10
2052.583
 20
-6640.439
 30
-2471.821
 70
    32
  0
VERTEX
  8
W78LPLIFT
 62
3
 10
2052.433
 20
-6645.668
 30
-2471.956
 70
    32
  0
VERTEX
  8
W78LPLIFT
 62
3
 10
2048.100
 20
-6648.441
 30
-2472.148
 70
    32
  0
VERTEX
  8
W78LPLIFT
 62
3
 10
2041.103
 20
-6652.972
 30
-2472.454
 70
    32
  0
VERTEX
  8
W78LPLIFT
 62
3
 10
2031.056
 20
-6639.613
 30
-2470.645
 70
    32
  0
VERTEX
  8
W78LPLIFT
 62
3
 10
2026.301
 20
-6633.289
 30
-2470.870
 70
    32
  0
VERTEX
  8
W78LPLIFT
 62
3
 10
2016.732
 20
-6624.564
 30
-2471.681
 70
    32
  0
VERTEX
  8
W78LPLIFT
 62
3
 10
2016.493
 20
-6624.782
 30
-2471.740
 70
    32
  0
VERTEX
  8
W78LPLIFT
 62
3
 10
2013.787
 20
-6627.250
 30
-2471.919
 70
    32
  0
VERTEX
  8
W78LPLIFT
 62
3
 10
1995.864
 20
-6627.233
 30
-2471.925
 70
    32
  0
VERTEX
  8
W78LPLIFT
 62
3
 10
1991.320
 20
-6627.229
 30
-2471.657
 70
    32
  0
VERTEX
  8
W78LPLIFT
 62
3
 10
1985.649
 20
-6629.604
 30
-2471.382
 70
    32
  0
VERTEX
  8
W78LPLIFT
 62
3
 10
1981.224
 20
-6637.930
 30
-2471.331
 70
    32
  0
VERTEX
  8
W78LPLIFT
 62
3
 10
1980.445
 20
-6638.394
 30
-2471.296
 70
    32
  0
VERTEX
  8
W78LPLIFT
 62
3
 10
1975.750
 20
-6641.193
 30
-2471.423
 70
    32
  0
VERTEX
  8
W78LPLIFT
 62
3
 10
1975.613
 20
-6641.363
 30
-2471.434
 70
    32
  0
VERTEX
  8
W78LPLIFT
 62
3
 10
1967.989
 20
-6650.831
 30
-2474.062
 70
    32
  0
VERTEX
  8
W78LPLIFT
 62
3
 10
1976.150
 20
-6675.239
 30
-2474.495
 70
    32
  0
SEQEND
  8
W78LPLIFT
  0
POLYLINE
  8
W78LPLIFT
 62
3
 66
     1
 70
     9
  0
VERTEX
  8
W78LPLIFT
 62
3
 10
2236.509
 20
-7088.453
 30
-2548.354
 70
    32
  0
VERTEX
  8
W78LPLIFT
 62
3
 10
2241.118
 20
-7090.230
 30
-2548.384
 70
    32
  0
VERTEX
  8
W78LPLIFT
 62
3
 10
2246.321
 20
-7105.748
 30
-2548.531
 70
    32
  0
VERTEX
  8
W78LPLIFT
 62
3
 10
2259.042
 20
-7104.036
 30
-2548.558
 70
    32
  0
VERTEX
  8
W78LPLIFT
 62
3
 10
2260.260
 20
-7100.265
 30
-2548.530
 70
    32
  0
VERTEX
  8
W78LPLIFT
 62
3
 10
2252.605
 20
-7084.858
 30
-2548.377
 70
    32
  0
VERTEX
  8
W78LPLIFT
 62
3
 10
2244.589
 20
-7056.159
 30
-2547.947
 70
    32
  0
VERTEX
  8
W78LPLIFT
 62
3
 10
2239.386
 20
-7052.611
 30
-2547.535
 70
    32
  0
VERTEX
  8
W78LPLIFT
 62
3
 10
2234.190
 20
-7042.546
 30
-2546.798
 70
    32
  0
VERTEX
  8
W78LPLIFT
 62
3
 10
2229.788
 20
-7042.038
 30
-2546.773
 70
    32
  0
VERTEX
  8
W78LPLIFT
 62
3
 10
2225.233
 20
-7038.717
 30
-2546.802
 70
    32
  0
VERTEX
  8
W78LPLIFT
 62
3
 10
2220.134
 20
-7026.935
 30
-2546.858
 70
    32
  0
VERTEX
  8
W78LPLIFT
 62
3
 10
2208.502
 20
-7030.147
 30
-2546.901
 70
    32
  0
VERTEX
  8
W78LPLIFT
 62
3
 10
2194.563
 20
-7043.111
 30
-2546.928
 70
    32
  0
VERTEX
  8
W78LPLIFT
 62
3
 10
2206.041
 20
-7059.859
 30
-2546.830
 70
    32
  0
VERTEX
  8
W78LPLIFT
 62
3
 10
2203.582
 20
-7069.698
 30
-2546.814
 70
    32
  0
VERTEX
  8
W78LPLIFT
 62
3
 10
2210.913
 20
-7072.640
 30
-2546.773
 70
    32
  0
VERTEX
  8
W78LPLIFT
 62
3
 10
2220.982
 20
-7079.988
 30
-2548.068
 70
    32
  0
VERTEX
  8
W78LPLIFT
 62
3
 10
2220.084
 20
-7084.469
 30
-2548.268
 70
    32
  0
SEQEND
  8
W78LPLIFT
  0
POINT
  8
W78LPLIFT
 62
3
 10
1943.845
 20
-6530.579
 30
-2461.613
  0
POLYLINE
  8
W78LPLIFT
 62
3
 66
     1
 70
     9
  0
VERTEX
  8
W78LPLIFT
 62
3
 10
1943.845
 20
-6528.369
 30
-2461.613
 70
    32
  0
VERTEX
  8
W78LPLIFT
 62
3
 10
1945.594
 20
-6531.549
 30
-2461.613
 70
    32
  0
VERTEX
  8
W78LPLIFT
 62
3
 10
1942.095
 20
-6531.547
 30
-2461.613
 70
    32
  0
SEQEND
  8
W78LPLIFT
  0
POINT
  8
W78LPLIFT
 62
3
 10
1939.101
 20
-6538.215
 30
-2464.107
  0
POLYLINE
  8
W78LPLIFT
 62
3
 66
     1
 70
     9
  0
VERTEX
  8
W78LPLIFT
 62
3
 10
1939.101
 20
-6536.005
 30
-2464.107
 70
    32
  0
VERTEX
  8
W78LPLIFT
 62
3
 10
1940.850
 20
-6539.185
 30
-2464.107
 70
    32
  0
VERTEX
  8
W78LPLIFT
 62
3
 10
1937.351
 20
-6539.183
 30
-2464.107
 70
    32
  0
SEQEND
  8
W78LPLIFT
  0
POLYLINE
  8
W78LPLIFT
 62
3
 66
     1
 70
     9
  0
VERTEX
  8
W78LPLIFT
 62
3
 10
1933.891
 20
-6585.974
 30
-2473.285
 70
    32
  0
VERTEX
  8
W78LPLIFT
 62
3
 10
1935.947
 20
-6578.566
 30
-2472.071
 70
    32
  0
VERTEX
  8
W78LPLIFT
 62
3
 10
1938.730
 20
-6564.457
 30
-2469.186
 70
    32
  0
VERTEX
  8
W78LPLIFT
 62
3
 10
1942.051
 20
-6551.520
 30
-2466.496
 70
    32
  0
VERTEX
  8
W78LPLIFT
 62
3
 10
1947.530
 20
-6536.782
 30
-2462.535
 70
    32
  0
VERTEX
  8
W78LPLIFT
 62
3
 10
1951.577
 20
-6533.101
 30
-2461.625
 70
    32
  0
VERTEX
  8
W78LPLIFT
 62
3
 10
1955.506
 20
-6530.981
 30
-2461.300
 70
    32
  0
VERTEX
  8
W78LPLIFT
 62
3
 10
1966.917
 20
-6527.450
 30
-2460.615
 70
    32
  0
VERTEX
  8
W78LPLIFT
 62
3
 10
1966.015
 20
-6516.995
 30
-2459.631
 70
    32
  0
VERTEX
  8
W78LPLIFT
 62
3
 10
1972.873
 20
-6497.912
 30
-2458.867
 70
    32
  0
VERTEX
  8
W78LPLIFT
 62
3
 10
1971.704
 20
-6483.101
 30
-2458.796
 70
    32
  0
VERTEX
  8
W78LPLIFT
 62
3
 10
1976.454
 20
-6456.951
 30
-2458.506
 70
    32
  0
VERTEX
  8
W78LPLIFT
 62
3
 10
1956.519
 20
-6454.669
 30
-2458.515
 70
    32
  0
VERTEX
  8
W78LPLIFT
 62
3
 10
1954.380
 20
-6463.479
 30
-2458.614
 70
    32
  0
VERTEX
  8
W78LPLIFT
 62
3
 10
1946.410
 20
-6472.672
 30
-2458.727
 70
    32
  0
VERTEX
  8
W78LPLIFT
 62
3
 10
1947.289
 20
-6485.399
 30
-2458.855
 70
    32
  0
VERTEX
  8
W78LPLIFT
 62
3
 10
1946.582
 20
-6498.428
 30
-2458.926
 70
    32
  0
VERTEX
  8
W78LPLIFT
 62
3
 10
1940.895
 20
-6504.671
 30
-2459.198
 70
    32
  0
VERTEX
  8
W78LPLIFT
 62
3
 10
1940.599
 20
-6515.422
 30
-2460.246
 70
    32
  0
VERTEX
  8
W78LPLIFT
 62
3
 10
1939.757
 20
-6526.121
 30
-2461.306
 70
    32
  0
VERTEX
  8
W78LPLIFT
 62
3
 10
1935.729
 20
-6532.240
 30
-2463.193
 70
    32
  0
VERTEX
  8
W78LPLIFT
 62
3
 10
1931.418
 20
-6543.820
 30
-2465.644
 70
    32
  0
VERTEX
  8
W78LPLIFT
 62
3
 10
1928.707
 20
-6554.157
 30
-2467.797
 70
    32
  0
VERTEX
  8
W78LPLIFT
 62
3
 10
1926.560
 20
-6566.924
 30
-2470.385
 70
    32
  0
VERTEX
  8
W78LPLIFT
 62
3
 10
1923.742
 20
-6582.079
 30
-2473.473
 70
    32
  0
SEQEND
  8
W78LPLIFT
  0
POLYLINE
  8
W78LPLIFT
 62
3
 66
     1
 70
     9
  0
VERTEX
  8
W78LPLIFT
 62
3
 10
2425.347
 20
-7794.141
 30
-2473.625
 70
    32
  0
VERTEX
  8
W78LPLIFT
 62
3
 10
2442.225
 20
-7802.438
 30
-2473.456
 70
    32
  0
VERTEX
  8
W78LPLIFT
 62
3
 10
2447.190
 20
-7809.420
 30
-2473.385
 70
    32
  0
VERTEX
  8
W78LPLIFT
 62
3
 10
2449.258
 20
-7810.684
 30
-2473.368
 70
    32
  0
VERTEX
  8
W78LPLIFT
 62
3
 10
2453.577
 20
-7810.315
 30
-2473.356
 70
    32
  0
VERTEX
  8
W78LPLIFT
 62
3
 10
2466.297
 20
-7832.158
 30
-2471.444
 70
    32
  0
VERTEX
  8
W78LPLIFT
 62
3
 10
2468.711
 20
-7835.006
 30
-2471.114
 70
    32
  0
VERTEX
  8
W78LPLIFT
 62
3
 10
2463.461
 20
-7841.945
 30
-2471.079
 70
    32
  0
VERTEX
  8
W78LPLIFT
 62
3
 10
2456.730
 20
-7847.713
 30
-2471.036
 70
    32
  0
VERTEX
  8
W78LPLIFT
 62
3
 10
2453.572
 20
-7844.188
 30
-2471.464
 70
    32
  0
VERTEX
  8
W78LPLIFT
 62
3
 10
2448.730
 20
-7842.043
 30
-2472.009
 70
    32
  0
VERTEX
  8
W78LPLIFT
 62
3
 10
2434.058
 20
-7846.511
 30
-2472.515
 70
    32
  0
VERTEX
  8
W78LPLIFT
 62
3
 10
2427.912
 20
-7860.308
 30
-2471.950
 70
    32
  0
VERTEX
  8
W78LPLIFT
 62
3
 10
2421.550
 20
-7861.858
 30
-2471.748
 70
    32
  0
VERTEX
  8
W78LPLIFT
 62
3
 10
2410.371
 20
-7854.638
 30
-2471.689
 70
    32
  0
VERTEX
  8
W78LPLIFT
 62
3
 10
2413.241
 20
-7849.273
 30
-2472.215
 70
    32
  0
VERTEX
  8
W78LPLIFT
 62
3
 10
2413.241
 20
-7849.273
 30
-2472.215
 70
    32
  0
VERTEX
  8
W78LPLIFT
 62
3
 10
2402.253
 20
-7829.157
 30
-2473.433
 70
    32
  0
VERTEX
  8
W78LPLIFT
 62
3
 10
2398.250
 20
-7819.067
 30
-2474.006
 70
    32
  0
VERTEX
  8
W78LPLIFT
 62
3
 10
2405.115
 20
-7815.615
 30
-2473.483
 70
    32
  0
VERTEX
  8
W78LPLIFT
 62
3
 10
2412.198
 20
-7812.296
 30
-2473.484
 70
    32
  0
VERTEX
  8
W78LPLIFT
 62
3
 10
2417.570
 20
-7808.682
 30
-2473.493
 70
    32
  0
VERTEX
  8
W78LPLIFT
 62
3
 10
2417.407
 20
-7803.245
 30
-2473.535
 70
    32
  0
SEQEND
  8
W78LPLIFT
  0
POINT
  8
W78LPLIFT
 62
3
 10
1954.227
 20
-6410.172
 30
-2470.997
  0
POLYLINE
  8
W78LPLIFT
 62
3
 66
     1
 70
     9
  0
VERTEX
  8
W78LPLIFT
 62
3
 10
1954.227
 20
-6407.962
 30
-2470.997
 70
    32
  0
VERTEX
  8
W78LPLIFT
 62
3
 10
1955.976
 20
-6411.142
 30
-2470.997
 70
    32
  0
VERTEX
  8
W78LPLIFT
 62
3
 10
1952.477
 20
-6411.140
 30
-2470.997
 70
    32
  0
SEQEND
  8
W78LPLIFT
  0
POLYLINE
  8
W78LPLIFT
 62
3
 66
     1
 70
     8
  0
VERTEX
  8
W78LPLIFT
 62
3
 10
1961.517
 20
-6393.423
 30
-2468.495
 70
    32
  0
VERTEX
  8
W78LPLIFT
 62
3
 10
1961.515
 20
-6393.379
 30
-2468.495
 70
    32
  0
VERTEX
  8
W78LPLIFT
 62
3
 10
1961.509
 20
-6393.336
 30
-2468.495
 70
    32
  0
VERTEX
  8
W78LPLIFT
 62
3
 10
1961.500
 20
-6393.294
 30
-2468.495
 70
    32
  0
VERTEX
  8
W78LPLIFT
 62
3
 10
1961.487
 20
-6393.252
 30
-2468.495
 70
    32
  0
VERTEX
  8
W78LPLIFT
 62
3
 10
1961.470
 20
-6393.212
 30
-2468.495
 70
    32
  0
VERTEX
  8
W78LPLIFT
 62
3
 10
1961.450
 20
-6393.173
 30
-2468.495
 70
    32
  0
VERTEX
  8
W78LPLIFT
 62
3
 10
1961.427
 20
-6393.136
 30
-2468.495
 70
    32
  0
VERTEX
  8
W78LPLIFT
 62
3
 10
1961.400
 20
-6393.102
 30
-2468.495
 70
    32
  0
VERTEX
  8
W78LPLIFT
 62
3
 10
1961.371
 20
-6393.069
 30
-2468.495
 70
    32
  0
VERTEX
  8
W78LPLIFT
 62
3
 10
1961.338
 20
-6393.040
 30
-2468.495
 70
    32
  0
VERTEX
  8
W78LPLIFT
 62
3
 10
1961.304
 20
-6393.013
 30
-2468.495
 70
    32
  0
VERTEX
  8
W78LPLIFT
 62
3
 10
1961.267
 20
-6392.990
 30
-2468.495
 70
    32
  0
VERTEX
  8
W78LPLIFT
 62
3
 10
1961.228
 20
-6392.970
 30
-2468.495
 70
    32
  0
VERTEX
  8
W78LPLIFT
 62
3
 10
1961.188
 20
-6392.953
 30
-2468.495
 70
    32
  0
VERTEX
  8
W78LPLIFT
 62
3
 10
1961.146
 20
-6392.940
 30
-2468.495
 70
    32
  0
VERTEX
  8
W78LPLIFT
 62
3
 10
1961.104
 20
-6392.931
 30
-2468.495
 70
    32
  0
VERTEX
  8
W78LPLIFT
 62
3
 10
1961.061
 20
-6392.925
 30
-2468.495
 70
    32
  0
VERTEX
  8
W78LPLIFT
 62
3
 10
1961.017
 20
-6392.923
 30
-2468.495
 70
    32
  0
VERTEX
  8
W78LPLIFT
 62
3
 10
1960.973
 20
-6392.925
 30
-2468.495
 70
    32
  0
VERTEX
  8
W78LPLIFT
 62
3
 10
1960.930
 20
-6392.931
 30
-2468.495
 70
    32
  0
VERTEX
  8
W78LPLIFT
 62
3
 10
1960.888
 20
-6392.940
 30
-2468.495
 70
    32
  0
VERTEX
  8
W78LPLIFT
 62
3
 10
1960.846
 20
-6392.953
 30
-2468.495
 70
    32
  0
VERTEX
  8
W78LPLIFT
 62
3
 10
1960.806
 20
-6392.970
 30
-2468.495
 70
    32
  0
VERTEX
  8
W78LPLIFT
 62
3
 10
1960.767
 20
-6392.990
 30
-2468.495
 70
    32
  0
VERTEX
  8
W78LPLIFT
 62
3
 10
1960.730
 20
-6393.013
 30
-2468.495
 70
    32
  0
VERTEX
  8
W78LPLIFT
 62
3
 10
1960.696
 20
-6393.040
 30
-2468.495
 70
    32
  0
VERTEX
  8
W78LPLIFT
 62
3
 10
1960.663
 20
-6393.069
 30
-2468.495
 70
    32
  0
VERTEX
  8
W78LPLIFT
 62
3
 10
1960.634
 20
-6393.102
 30
-2468.495
 70
    32
  0
VERTEX
  8
W78LPLIFT
 62
3
 10
1960.607
 20
-6393.136
 30
-2468.495
 70
    32
  0
VERTEX
  8
W78LPLIFT
 62
3
 10
1960.584
 20
-6393.173
 30
-2468.495
 70
    32
  0
VERTEX
  8
W78LPLIFT
 62
3
 10
1960.564
 20
-6393.212
 30
-2468.495
 70
    32
  0
VERTEX
  8
W78LPLIFT
 62
3
 10
1960.547
 20
-6393.252
 30
-2468.495
 70
    32
  0
VERTEX
  8
W78LPLIFT
 62
3
 10
1960.534
 20
-6393.294
 30
-2468.495
 70
    32
  0
VERTEX
  8
W78LPLIFT
 62
3
 10
1960.525
 20
-6393.336
 30
-2468.495
 70
    32
  0
VERTEX
  8
W78LPLIFT
 62
3
 10
1960.519
 20
-6393.379
 30
-2468.495
 70
    32
  0
VERTEX
  8
W78LPLIFT
 62
3
 10
1960.517
 20
-6393.423
 30
-2468.495
 70
    32
  0
VERTEX
  8
W78LPLIFT
 62
3
 10
1960.519
 20
-6393.467
 30
-2468.495
 70
    32
  0
VERTEX
  8
W78LPLIFT
 62
3
 10
1960.525
 20
-6393.510
 30
-2468.495
 70
    32
  0
VERTEX
  8
W78LPLIFT
 62
3
 10
1960.534
 20
-6393.552
 30
-2468.495
 70
    32
  0
VERTEX
  8
W78LPLIFT
 62
3
 10
1960.547
 20
-6393.594
 30
-2468.495
 70
    32
  0
VERTEX
  8
W78LPLIFT
 62
3
 10
1960.564
 20
-6393.634
 30
-2468.495
 70
    32
  0
VERTEX
  8
W78LPLIFT
 62
3
 10
1960.584
 20
-6393.673
 30
-2468.495
 70
    32
  0
VERTEX
  8
W78LPLIFT
 62
3
 10
1960.607
 20
-6393.710
 30
-2468.495
 70
    32
  0
VERTEX
  8
W78LPLIFT
 62
3
 10
1960.634
 20
-6393.744
 30
-2468.495
 70
    32
  0
VERTEX
  8
W78LPLIFT
 62
3
 10
1960.663
 20
-6393.777
 30
-2468.495
 70
    32
  0
VERTEX
  8
W78LPLIFT
 62
3
 10
1960.696
 20
-6393.806
 30
-2468.495
 70
    32
  0
VERTEX
  8
W78LPLIFT
 62
3
 10
1960.730
 20
-6393.833
 30
-2468.495
 70
    32
  0
VERTEX
  8
W78LPLIFT
 62
3
 10
1960.767
 20
-6393.856
 30
-2468.495
 70
    32
  0
VERTEX
  8
W78LPLIFT
 62
3
 10
1960.806
 20
-6393.876
 30
-2468.495
 70
    32
  0
VERTEX
  8
W78LPLIFT
 62
3
 10
1960.846
 20
-6393.893
 30
-2468.495
 70
    32
  0
VERTEX
  8
W78LPLIFT
 62
3
 10
1960.888
 20
-6393.906
 30
-2468.495
 70
    32
  0
VERTEX
  8
W78LPLIFT
 62
3
 10
1960.930
 20
-6393.915
 30
-2468.495
 70
    32
  0
VERTEX
  8
W78LPLIFT
 62
3
 10
1960.973
 20
-6393.921
 30
-2468.495
 70
    32
  0
VERTEX
  8
W78LPLIFT
 62
3
 10
1961.017
 20
-6393.923
 30
-2468.495
 70
    32
  0
VERTEX
  8
W78LPLIFT
 62
3
 10
1961.061
 20
-6393.921
 30
-2468.495
 70
    32
  0
VERTEX
  8
W78LPLIFT
 62
3
 10
1961.104
 20
-6393.915
 30
-2468.495
 70
    32
  0
VERTEX
  8
W78LPLIFT
 62
3
 10
1961.146
 20
-6393.906
 30
-2468.495
 70
    32
  0
VERTEX
  8
W78LPLIFT
 62
3
 10
1961.188
 20
-6393.893
 30
-2468.495
 70
    32
  0
VERTEX
  8
W78LPLIFT
 62
3
 10
1961.228
 20
-6393.876
 30
-2468.495
 70
    32
  0
VERTEX
  8
W78LPLIFT
 62
3
 10
1961.267
 20
-6393.856
 30
-2468.495
 70
    32
  0
VERTEX
  8
W78LPLIFT
 62
3
 10
1961.304
 20
-6393.833
 30
-2468.495
 70
    32
  0
VERTEX
  8
W78LPLIFT
 62
3
 10
1961.338
 20
-6393.806
 30
-2468.495
 70
    32
  0
VERTEX
  8
W78LPLIFT
 62
3
 10
1961.371
 20
-6393.777
 30
-2468.495
 70
    32
  0
VERTEX
  8
W78LPLIFT
 62
3
 10
1961.400
 20
-6393.744
 30
-2468.495
 70
    32
  0
VERTEX
  8
W78LPLIFT
 62
3
 10
1961.427
 20
-6393.710
 30
-2468.495
 70
    32
  0
VERTEX
  8
W78LPLIFT
 62
3
 10
1961.450
 20
-6393.673
 30
-2468.495
 70
    32
  0
VERTEX
  8
W78LPLIFT
 62
3
 10
1961.470
 20
-6393.634
 30
-2468.495
 70
    32
  0
VERTEX
  8
W78LPLIFT
 62
3
 10
1961.487
 20
-6393.594
 30
-2468.495
 70
    32
  0
VERTEX
  8
W78LPLIFT
 62
3
 10
1961.500
 20
-6393.552
 30
-2468.495
 70
    32
  0
VERTEX
  8
W78LPLIFT
 62
3
 10
1961.509
 20
-6393.510
 30
-2468.495
 70
    32
  0
VERTEX
  8
W78LPLIFT
 62
3
 10
1961.515
 20
-6393.467
 30
-2468.495
 70
    32
  0
VERTEX
  8
W78LPLIFT
 62
3
 10
1961.517
 20
-6393.423
 30
-2468.495
 70
    32
  0
SEQEND
  8
W78LPLIFT
  0
POINT
  8
W78LPLIFT
 62
3
 10
1965.027
 20
-6381.331
 30
-2471.520
  0
POLYLINE
  8
W78LPLIFT
 62
3
 66
     1
 70
     9
  0
VERTEX
  8
W78LPLIFT
 62
3
 10
1965.027
 20
-6379.121
 30
-2471.520
 70
    32
  0
VERTEX
  8
W78LPLIFT
 62
3
 10
1966.776
 20
-6382.301
 30
-2471.520
 70
    32
  0
VERTEX
  8
W78LPLIFT
 62
3
 10
1963.277
 20
-6382.299
 30
-2471.520
 70
    32
  0
SEQEND
  8
W78LPLIFT
  0
POLYLINE
  8
W78LPLIFT
 62
3
 66
     1
 70
     8
  0
VERTEX
  8
W78LPLIFT
 62
3
 10
1973.656
 20
-6380.361
 30
-2479.026
 70
    32
  0
VERTEX
  8
W78LPLIFT
 62
3
 10
1973.654
 20
-6380.317
 30
-2479.026
 70
    32
  0
VERTEX
  8
W78LPLIFT
 62
3
 10
1973.648
 20
-6380.274
 30
-2479.026
 70
    32
  0
VERTEX
  8
W78LPLIFT
 62
3
 10
1973.639
 20
-6380.232
 30
-2479.026
 70
    32
  0
VERTEX
  8
W78LPLIFT
 62
3
 10
1973.626
 20
-6380.190
 30
-2479.026
 70
    32
  0
VERTEX
  8
W78LPLIFT
 62
3
 10
1973.609
 20
-6380.150
 30
-2479.026
 70
    32
  0
VERTEX
  8
W78LPLIFT
 62
3
 10
1973.589
 20
-6380.111
 30
-2479.026
 70
    32
  0
VERTEX
  8
W78LPLIFT
 62
3
 10
1973.566
 20
-6380.074
 30
-2479.026
 70
    32
  0
VERTEX
  8
W78LPLIFT
 62
3
 10
1973.539
 20
-6380.040
 30
-2479.026
 70
    32
  0
VERTEX
  8
W78LPLIFT
 62
3
 10
1973.510
 20
-6380.007
 30
-2479.026
 70
    32
  0
VERTEX
  8
W78LPLIFT
 62
3
 10
1973.477
 20
-6379.978
 30
-2479.026
 70
    32
  0
VERTEX
  8
W78LPLIFT
 62
3
 10
1973.443
 20
-6379.951
 30
-2479.026
 70
    32
  0
VERTEX
  8
W78LPLIFT
 62
3
 10
1973.406
 20
-6379.928
 30
-2479.026
 70
    32
  0
VERTEX
  8
W78LPLIFT
 62
3
 10
1973.367
 20
-6379.908
 30
-2479.026
 70
    32
  0
VERTEX
  8
W78LPLIFT
 62
3
 10
1973.327
 20
-6379.891
 30
-2479.026
 70
    32
  0
VERTEX
  8
W78LPLIFT
 62
3
 10
1973.285
 20
-6379.878
 30
-2479.026
 70
    32
  0
VERTEX
  8
W78LPLIFT
 62
3
 10
1973.243
 20
-6379.869
 30
-2479.026
 70
    32
  0
VERTEX
  8
W78LPLIFT
 62
3
 10
1973.200
 20
-6379.863
 30
-2479.026
 70
    32
  0
VERTEX
  8
W78LPLIFT
 62
3
 10
1973.156
 20
-6379.861
 30
-2479.026
 70
    32
  0
VERTEX
  8
W78LPLIFT
 62
3
 10
1973.112
 20
-6379.863
 30
-2479.026
 70
    32
  0
VERTEX
  8
W78LPLIFT
 62
3
 10
1973.069
 20
-6379.869
 30
-2479.026
 70
    32
  0
VERTEX
  8
W78LPLIFT
 62
3
 10
1973.027
 20
-6379.878
 30
-2479.026
 70
    32
  0
VERTEX
  8
W78LPLIFT
 62
3
 10
1972.985
 20
-6379.891
 30
-2479.026
 70
    32
  0
VERTEX
  8
W78LPLIFT
 62
3
 10
1972.945
 20
-6379.908
 30
-2479.026
 70
    32
  0
VERTEX
  8
W78LPLIFT
 62
3
 10
1972.906
 20
-6379.928
 30
-2479.026
 70
    32
  0
VERTEX
  8
W78LPLIFT
 62
3
 10
1972.869
 20
-6379.951
 30
-2479.026
 70
    32
  0
VERTEX
  8
W78LPLIFT
 62
3
 10
1972.835
 20
-6379.978
 30
-2479.026
 70
    32
  0
VERTEX
  8
W78LPLIFT
 62
3
 10
1972.802
 20
-6380.007
 30
-2479.026
 70
    32
  0
VERTEX
  8
W78LPLIFT
 62
3
 10
1972.773
 20
-6380.040
 30
-2479.026
 70
    32
  0
VERTEX
  8
W78LPLIFT
 62
3
 10
1972.746
 20
-6380.074
 30
-2479.026
 70
    32
  0
VERTEX
  8
W78LPLIFT
 62
3
 10
1972.723
 20
-6380.111
 30
-2479.026
 70
    32
  0
VERTEX
  8
W78LPLIFT
 62
3
 10
1972.703
 20
-6380.150
 30
-2479.026
 70
    32
  0
VERTEX
  8
W78LPLIFT
 62
3
 10
1972.686
 20
-6380.190
 30
-2479.026
 70
    32
  0
VERTEX
  8
W78LPLIFT
 62
3
 10
1972.673
 20
-6380.232
 30
-2479.026
 70
    32
  0
VERTEX
  8
W78LPLIFT
 62
3
 10
1972.664
 20
-6380.274
 30
-2479.026
 70
    32
  0
VERTEX
  8
W78LPLIFT
 62
3
 10
1972.658
 20
-6380.317
 30
-2479.026
 70
    32
  0
VERTEX
  8
W78LPLIFT
 62
3
 10
1972.656
 20
-6380.361
 30
-2479.026
 70
    32
  0
VERTEX
  8
W78LPLIFT
 62
3
 10
1972.658
 20
-6380.405
 30
-2479.026
 70
    32
  0
VERTEX
  8
W78LPLIFT
 62
3
 10
1972.664
 20
-6380.448
 30
-2479.026
 70
    32
  0
VERTEX
  8
W78LPLIFT
 62
3
 10
1972.673
 20
-6380.490
 30
-2479.026
 70
    32
  0
VERTEX
  8
W78LPLIFT
 62
3
 10
1972.686
 20
-6380.532
 30
-2479.026
 70
    32
  0
VERTEX
  8
W78LPLIFT
 62
3
 10
1972.703
 20
-6380.572
 30
-2479.026
 70
    32
  0
VERTEX
  8
W78LPLIFT
 62
3
 10
1972.723
 20
-6380.611
 30
-2479.026
 70
    32
  0
VERTEX
  8
W78LPLIFT
 62
3
 10
1972.746
 20
-6380.648
 30
-2479.026
 70
    32
  0
VERTEX
  8
W78LPLIFT
 62
3
 10
1972.773
 20
-6380.682
 30
-2479.026
 70
    32
  0
VERTEX
  8
W78LPLIFT
 62
3
 10
1972.802
 20
-6380.715
 30
-2479.026
 70
    32
  0
VERTEX
  8
W78LPLIFT
 62
3
 10
1972.835
 20
-6380.744
 30
-2479.026
 70
    32
  0
VERTEX
  8
W78LPLIFT
 62
3
 10
1972.869
 20
-6380.771
 30
-2479.026
 70
    32
  0
VERTEX
  8
W78LPLIFT
 62
3
 10
1972.906
 20
-6380.794
 30
-2479.026
 70
    32
  0
VERTEX
  8
W78LPLIFT
 62
3
 10
1972.945
 20
-6380.814
 30
-2479.026
 70
    32
  0
VERTEX
  8
W78LPLIFT
 62
3
 10
1972.985
 20
-6380.831
 30
-2479.026
 70
    32
  0
VERTEX
  8
W78LPLIFT
 62
3
 10
1973.027
 20
-6380.844
 30
-2479.026
 70
    32
  0
VERTEX
  8
W78LPLIFT
 62
3
 10
1973.069
 20
-6380.853
 30
-2479.026
 70
    32
  0
VERTEX
  8
W78LPLIFT
 62
3
 10
1973.112
 20
-6380.859
 30
-2479.026
 70
    32
  0
VERTEX
  8
W78LPLIFT
 62
3
 10
1973.156
 20
-6380.861
 30
-2479.026
 70
    32
  0
VERTEX
  8
W78LPLIFT
 62
3
 10
1973.200
 20
-6380.859
 30
-2479.026
 70
    32
  0
VERTEX
  8
W78LPLIFT
 62
3
 10
1973.243
 20
-6380.853
 30
-2479.026
 70
    32
  0
VERTEX
  8
W78LPLIFT
 62
3
 10
1973.285
 20
-6380.844
 30
-2479.026
 70
    32
  0
VERTEX
  8
W78LPLIFT
 62
3
 10
1973.327
 20
-6380.831
 30
-2479.026
 70
    32
  0
VERTEX
  8
W78LPLIFT
 62
3
 10
1973.367
 20
-6380.814
 30
-2479.026
 70
    32
  0
VERTEX
  8
W78LPLIFT
 62
3
 10
1973.406
 20
-6380.794
 30
-2479.026
 70
    32
  0
VERTEX
  8
W78LPLIFT
 62
3
 10
1973.443
 20
-6380.771
 30
-2479.026
 70
    32
  0
VERTEX
  8
W78LPLIFT
 62
3
 10
1973.477
 20
-6380.744
 30
-2479.026
 70
    32
  0
VERTEX
  8
W78LPLIFT
 62
3
 10
1973.510
 20
-6380.715
 30
-2479.026
 70
    32
  0
VERTEX
  8
W78LPLIFT
 62
3
 10
1973.539
 20
-6380.682
 30
-2479.026
 70
    32
  0
VERTEX
  8
W78LPLIFT
 62
3
 10
1973.566
 20
-6380.648
 30
-2479.026
 70
    32
  0
VERTEX
  8
W78LPLIFT
 62
3
 10
1973.589
 20
-6380.611
 30
-2479.026
 70
    32
  0
VERTEX
  8
W78LPLIFT
 62
3
 10
1973.609
 20
-6380.572
 30
-2479.026
 70
    32
  0
VERTEX
  8
W78LPLIFT
 62
3
 10
1973.626
 20
-6380.532
 30
-2479.026
 70
    32
  0
VERTEX
  8
W78LPLIFT
 62
3
 10
1973.639
 20
-6380.490
 30
-2479.026
 70
    32
  0
VERTEX
  8
W78LPLIFT
 62
3
 10
1973.648
 20
-6380.448
 30
-2479.026
 70
    32
  0
VERTEX
  8
W78LPLIFT
 62
3
 10
1973.654
 20
-6380.405
 30
-2479.026
 70
    32
  0
VERTEX
  8
W78LPLIFT
 62
3
 10
1973.656
 20
-6380.361
 30
-2479.026
 70
    32
  0
SEQEND
  8
W78LPLIFT
  0
POLYLINE
  8
W78LPLIFT
 62
3
 66
     1
 70
     8
  0
VERTEX
  8
W78LPLIFT
 62
3
 10
1972.069
 20
-6370.205
 30
-2470.705
 70
    32
  0
VERTEX
  8
W78LPLIFT
 62
3
 10
1972.067
 20
-6370.161
 30
-2470.705
 70
    32
  0
VERTEX
  8
W78LPLIFT
 62
3
 10
1972.061
 20
-6370.118
 30
-2470.705
 70
    32
  0
VERTEX
  8
W78LPLIFT
 62
3
 10
1972.052
 20
-6370.076
 30
-2470.705
 70
    32
  0
VERTEX
  8
W78LPLIFT
 62
3
 10
1972.039
 20
-6370.034
 30
-2470.705
 70
    32
  0
VERTEX
  8
W78LPLIFT
 62
3
 10
1972.022
 20
-6369.994
 30
-2470.705
 70
    32
  0
VERTEX
  8
W78LPLIFT
 62
3
 10
1972.002
 20
-6369.955
 30
-2470.705
 70
    32
  0
VERTEX
  8
W78LPLIFT
 62
3
 10
1971.979
 20
-6369.918
 30
-2470.705
 70
    32
  0
VERTEX
  8
W78LPLIFT
 62
3
 10
1971.952
 20
-6369.884
 30
-2470.705
 70
    32
  0
VERTEX
  8
W78LPLIFT
 62
3
 10
1971.923
 20
-6369.851
 30
-2470.705
 70
    32
  0
VERTEX
  8
W78LPLIFT
 62
3
 10
1971.890
 20
-6369.822
 30
-2470.705
 70
    32
  0
VERTEX
  8
W78LPLIFT
 62
3
 10
1971.856
 20
-6369.795
 30
-2470.705
 70
    32
  0
VERTEX
  8
W78LPLIFT
 62
3
 10
1971.819
 20
-6369.772
 30
-2470.705
 70
    32
  0
VERTEX
  8
W78LPLIFT
 62
3
 10
1971.780
 20
-6369.752
 30
-2470.705
 70
    32
  0
VERTEX
  8
W78LPLIFT
 62
3
 10
1971.740
 20
-6369.735
 30
-2470.705
 70
    32
  0
VERTEX
  8
W78LPLIFT
 62
3
 10
1971.698
 20
-6369.722
 30
-2470.705
 70
    32
  0
VERTEX
  8
W78LPLIFT
 62
3
 10
1971.656
 20
-6369.713
 30
-2470.705
 70
    32
  0
VERTEX
  8
W78LPLIFT
 62
3
 10
1971.613
 20
-6369.707
 30
-2470.705
 70
    32
  0
VERTEX
  8
W78LPLIFT
 62
3
 10
1971.569
 20
-6369.705
 30
-2470.705
 70
    32
  0
VERTEX
  8
W78LPLIFT
 62
3
 10
1971.525
 20
-6369.707
 30
-2470.705
 70
    32
  0
VERTEX
  8
W78LPLIFT
 62
3
 10
1971.482
 20
-6369.713
 30
-2470.705
 70
    32
  0
VERTEX
  8
W78LPLIFT
 62
3
 10
1971.440
 20
-6369.722
 30
-2470.705
 70
    32
  0
VERTEX
  8
W78LPLIFT
 62
3
 10
1971.398
 20
-6369.735
 30
-2470.705
 70
    32
  0
VERTEX
  8
W78LPLIFT
 62
3
 10
1971.358
 20
-6369.752
 30
-2470.705
 70
    32
  0
VERTEX
  8
W78LPLIFT
 62
3
 10
1971.319
 20
-6369.772
 30
-2470.705
 70
    32
  0
VERTEX
  8
W78LPLIFT
 62
3
 10
1971.282
 20
-6369.795
 30
-2470.705
 70
    32
  0
VERTEX
  8
W78LPLIFT
 62
3
 10
1971.248
 20
-6369.822
 30
-2470.705
 70
    32
  0
VERTEX
  8
W78LPLIFT
 62
3
 10
1971.215
 20
-6369.851
 30
-2470.705
 70
    32
  0
VERTEX
  8
W78LPLIFT
 62
3
 10
1971.186
 20
-6369.884
 30
-2470.705
 70
    32
  0
VERTEX
  8
W78LPLIFT
 62
3
 10
1971.159
 20
-6369.918
 30
-2470.705
 70
    32
  0
VERTEX
  8
W78LPLIFT
 62
3
 10
1971.136
 20
-6369.955
 30
-2470.705
 70
    32
  0
VERTEX
  8
W78LPLIFT
 62
3
 10
1971.116
 20
-6369.994
 30
-2470.705
 70
    32
  0
VERTEX
  8
W78LPLIFT
 62
3
 10
1971.099
 20
-6370.034
 30
-2470.705
 70
    32
  0
VERTEX
  8
W78LPLIFT
 62
3
 10
1971.086
 20
-6370.076
 30
-2470.705
 70
    32
  0
VERTEX
  8
W78LPLIFT
 62
3
 10
1971.077
 20
-6370.118
 30
-2470.705
 70
    32
  0
VERTEX
  8
W78LPLIFT
 62
3
 10
1971.071
 20
-6370.161
 30
-2470.705
 70
    32
  0
VERTEX
  8
W78LPLIFT
 62
3
 10
1971.069
 20
-6370.205
 30
-2470.705
 70
    32
  0
VERTEX
  8
W78LPLIFT
 62
3
 10
1971.071
 20
-6370.249
 30
-2470.705
 70
    32
  0
VERTEX
  8
W78LPLIFT
 62
3
 10
1971.077
 20
-6370.292
 30
-2470.705
 70
    32
  0
VERTEX
  8
W78LPLIFT
 62
3
 10
1971.086
 20
-6370.334
 30
-2470.705
 70
    32
  0
VERTEX
  8
W78LPLIFT
 62
3
 10
1971.099
 20
-6370.376
 30
-2470.705
 70
    32
  0
VERTEX
  8
W78LPLIFT
 62
3
 10
1971.116
 20
-6370.416
 30
-2470.705
 70
    32
  0
VERTEX
  8
W78LPLIFT
 62
3
 10
1971.136
 20
-6370.455
 30
-2470.705
 70
    32
  0
VERTEX
  8
W78LPLIFT
 62
3
 10
1971.159
 20
-6370.492
 30
-2470.705
 70
    32
  0
VERTEX
  8
W78LPLIFT
 62
3
 10
1971.186
 20
-6370.526
 30
-2470.705
 70
    32
  0
VERTEX
  8
W78LPLIFT
 62
3
 10
1971.215
 20
-6370.559
 30
-2470.705
 70
    32
  0
VERTEX
  8
W78LPLIFT
 62
3
 10
1971.248
 20
-6370.588
 30
-2470.705
 70
    32
  0
VERTEX
  8
W78LPLIFT
 62
3
 10
1971.282
 20
-6370.615
 30
-2470.705
 70
    32
  0
VERTEX
  8
W78LPLIFT
 62
3
 10
1971.319
 20
-6370.638
 30
-2470.705
 70
    32
  0
VERTEX
  8
W78LPLIFT
 62
3
 10
1971.358
 20
-6370.658
 30
-2470.705
 70
    32
  0
VERTEX
  8
W78LPLIFT
 62
3
 10
1971.398
 20
-6370.675
 30
-2470.705
 70
    32
  0
VERTEX
  8
W78LPLIFT
 62
3
 10
1971.440
 20
-6370.688
 30
-2470.705
 70
    32
  0
VERTEX
  8
W78LPLIFT
 62
3
 10
1971.482
 20
-6370.697
 30
-2470.705
 70
    32
  0
VERTEX
  8
W78LPLIFT
 62
3
 10
1971.525
 20
-6370.703
 30
-2470.705
 70
    32
  0
VERTEX
  8
W78LPLIFT
 62
3
 10
1971.569
 20
-6370.705
 30
-2470.705
 70
    32
  0
VERTEX
  8
W78LPLIFT
 62
3
 10
1971.613
 20
-6370.703
 30
-2470.705
 70
    32
  0
VERTEX
  8
W78LPLIFT
 62
3
 10
1971.656
 20
-6370.697
 30
-2470.705
 70
    32
  0
VERTEX
  8
W78LPLIFT
 62
3
 10
1971.698
 20
-6370.688
 30
-2470.705
 70
    32
  0
VERTEX
  8
W78LPLIFT
 62
3
 10
1971.740
 20
-6370.675
 30
-2470.705
 70
    32
  0
VERTEX
  8
W78LPLIFT
 62
3
 10
1971.780
 20
-6370.658
 30
-2470.705
 70
    32
  0
VERTEX
  8
W78LPLIFT
 62
3
 10
1971.819
 20
-6370.638
 30
-2470.705
 70
    32
  0
VERTEX
  8
W78LPLIFT
 62
3
 10
1971.856
 20
-6370.615
 30
-2470.705
 70
    32
  0
VERTEX
  8
W78LPLIFT
 62
3
 10
1971.890
 20
-6370.588
 30
-2470.705
 70
    32
  0
VERTEX
  8
W78LPLIFT
 62
3
 10
1971.923
 20
-6370.559
 30
-2470.705
 70
    32
  0
VERTEX
  8
W78LPLIFT
 62
3
 10
1971.952
 20
-6370.526
 30
-2470.705
 70
    32
  0
VERTEX
  8
W78LPLIFT
 62
3
 10
1971.979
 20
-6370.492
 30
-2470.705
 70
    32
  0
VERTEX
  8
W78LPLIFT
 62
3
 10
1972.002
 20
-6370.455
 30
-2470.705
 70
    32
  0
VERTEX
  8
W78LPLIFT
 62
3
 10
1972.022
 20
-6370.416
 30
-2470.705
 70
    32
  0
VERTEX
  8
W78LPLIFT
 62
3
 10
1972.039
 20
-6370.376
 30
-2470.705
 70
    32
  0
VERTEX
  8
W78LPLIFT
 62
3
 10
1972.052
 20
-6370.334
 30
-2470.705
 70
    32
  0
VERTEX
  8
W78LPLIFT
 62
3
 10
1972.061
 20
-6370.292
 30
-2470.705
 70
    32
  0
VERTEX
  8
W78LPLIFT
 62
3
 10
1972.067
 20
-6370.249
 30
-2470.705
 70
    32
  0
VERTEX
  8
W78LPLIFT
 62
3
 10
1972.069
 20
-6370.205
 30
-2470.705
 70
    32
  0
SEQEND
  8
W78LPLIFT
  0
POINT
  8
W78LPLIFT
 62
3
 10
1983.713
 20
-6338.970
 30
-2469.512
  0
POLYLINE
  8
W78LPLIFT
 62
3
 66
     1
 70
     9
  0
VERTEX
  8
W78LPLIFT
 62
3
 10
1983.713
 20
-6336.760
 30
-2469.512
 70
    32
  0
VERTEX
  8
W78LPLIFT
 62
3
 10
1985.462
 20
-6339.940
 30
-2469.512
 70
    32
  0
VERTEX
  8
W78LPLIFT
 62
3
 10
1981.963
 20
-6339.938
 30
-2469.512
 70
    32
  0
SEQEND
  8
W78LPLIFT
  0
POINT
  8
W78LPLIFT
 62
3
 10
1976.755
 20
-6335.688
 30
-2469.753
  0
POLYLINE
  8
W78LPLIFT
 62
3
 66
     1
 70
     9
  0
VERTEX
  8
W78LPLIFT
 62
3
 10
1976.755
 20
-6333.478
 30
-2469.753
 70
    32
  0
VERTEX
  8
W78LPLIFT
 62
3
 10
1978.504
 20
-6336.658
 30
-2469.753
 70
    32
  0
VERTEX
  8
W78LPLIFT
 62
3
 10
1975.005
 20
-6336.656
 30
-2469.753
 70
    32
  0
SEQEND
  8
W78LPLIFT
  0
POINT
  8
W78LPLIFT
 62
3
 10
2050.069
 20
-6374.669
 30
-2465.364
  0
POLYLINE
  8
W78LPLIFT
 62
3
 66
     1
 70
     9
  0
VERTEX
  8
W78LPLIFT
 62
3
 10
2050.069
 20
-6372.459
 30
-2465.364
 70
    32
  0
VERTEX
  8
W78LPLIFT
 62
3
 10
2051.818
 20
-6375.639
 30
-2465.364
 70
    32
  0
VERTEX
  8
W78LPLIFT
 62
3
 10
2048.319
 20
-6375.637
 30
-2465.364
 70
    32
  0
SEQEND
  8
W78LPLIFT
  0
POLYLINE
  8
W78LPLIFT
 62
3
 66
     1
 70
     9
  0
VERTEX
  8
W78LPLIFT
 62
3
 10
2040.334
 20
-6363.421
 30
-2465.937
 70
    32
  0
VERTEX
  8
W78LPLIFT
 62
3
 10
2042.083
 20
-6366.601
 30
-2465.937
 70
    32
  0
VERTEX
  8
W78LPLIFT
 62
3
 10
2038.584
 20
-6366.599
 30
-2465.937
 70
    32
  0
SEQEND
  8
W78LPLIFT
  0
POINT
  8
W78LPLIFT
 62
3
 10
2040.334
 20
-6365.631
 30
-2465.937
  0
POINT
  8
W78LPLIFT
 62
3
 10
2028.354
 20
-6410.438
 30
-2468.940
  0
POLYLINE
  8
W78LPLIFT
 62
3
 66
     1
 70
     9
  0
VERTEX
  8
W78LPLIFT
 62
3
 10
2028.354
 20
-6408.228
 30
-2468.940
 70
    32
  0
VERTEX
  8
W78LPLIFT
 62
3
 10
2030.103
 20
-6411.408
 30
-2468.940
 70
    32
  0
VERTEX
  8
W78LPLIFT
 62
3
 10
2026.604
 20
-6411.406
 30
-2468.940
 70
    32
  0
SEQEND
  8
W78LPLIFT
  0
POINT
  8
W78LPLIFT
 62
3
 10
2015.274
 20
-6432.818
 30
-2470.829
  0
POLYLINE
  8
W78LPLIFT
 62
3
 66
     1
 70
     9
  0
VERTEX
  8
W78LPLIFT
 62
3
 10
2014.040
 20
-6428.965
 30
-2470.741
 70
    32
  0
VERTEX
  8
W78LPLIFT
 62
3
 10
2015.789
 20
-6432.145
 30
-2470.741
 70
    32
  0
VERTEX
  8
W78LPLIFT
 62
3
 10
2012.290
 20
-6432.143
 30
-2470.741
 70
    32
  0
SEQEND
  8
W78LPLIFT
  0
POLYLINE
  8
W78LPLIFT
 62
3
 66
     1
 70
     9
  0
VERTEX
  8
W78LPLIFT
 62
3
 10
2015.274
 20
-6430.608
 30
-2470.829
 70
    32
  0
VERTEX
  8
W78LPLIFT
 62
3
 10
2017.023
 20
-6433.788
 30
-2470.829
 70
    32
  0
VERTEX
  8
W78LPLIFT
 62
3
 10
2013.524
 20
-6433.786
 30
-2470.829
 70
    32
  0
SEQEND
  8
W78LPLIFT
  0
POINT
  8
W78LPLIFT
 62
3
 10
2014.040
 20
-6431.175
 30
-2470.741
  0
POINT
  8
W78LPLIFT
 62
3
 10
2019.199
 20
-6428.576
 30
-2469.964
  0
POLYLINE
  8
W78LPLIFT
 62
3
 66
     1
 70
     9
  0
VERTEX
  8
W78LPLIFT
 62
3
 10
2019.199
 20
-6426.366
 30
-2469.964
 70
    32
  0
VERTEX
  8
W78LPLIFT
 62
3
 10
2020.948
 20
-6429.546
 30
-2469.964
 70
    32
  0
VERTEX
  8
W78LPLIFT
 62
3
 10
2017.449
 20
-6429.544
 30
-2469.964
 70
    32
  0
SEQEND
  8
W78LPLIFT
  0
POLYLINE
  8
W78LPLIFT
 62
3
 66
     1
 70
     8
  0
VERTEX
  8
W78LPLIFT
 62
3
 10
2028.248
 20
-6420.736
 30
-2468.811
 70
    32
  0
VERTEX
  8
W78LPLIFT
 62
3
 10
2028.246
 20
-6420.692
 30
-2468.811
 70
    32
  0
VERTEX
  8
W78LPLIFT
 62
3
 10
2028.240
 20
-6420.649
 30
-2468.811
 70
    32
  0
VERTEX
  8
W78LPLIFT
 62
3
 10
2028.231
 20
-6420.607
 30
-2468.811
 70
    32
  0
VERTEX
  8
W78LPLIFT
 62
3
 10
2028.218
 20
-6420.565
 30
-2468.811
 70
    32
  0
VERTEX
  8
W78LPLIFT
 62
3
 10
2028.201
 20
-6420.525
 30
-2468.811
 70
    32
  0
VERTEX
  8
W78LPLIFT
 62
3
 10
2028.181
 20
-6420.486
 30
-2468.811
 70
    32
  0
VERTEX
  8
W78LPLIFT
 62
3
 10
2028.158
 20
-6420.449
 30
-2468.811
 70
    32
  0
VERTEX
  8
W78LPLIFT
 62
3
 10
2028.131
 20
-6420.415
 30
-2468.811
 70
    32
  0
VERTEX
  8
W78LPLIFT
 62
3
 10
2028.102
 20
-6420.382
 30
-2468.811
 70
    32
  0
VERTEX
  8
W78LPLIFT
 62
3
 10
2028.069
 20
-6420.353
 30
-2468.811
 70
    32
  0
VERTEX
  8
W78LPLIFT
 62
3
 10
2028.035
 20
-6420.326
 30
-2468.811
 70
    32
  0
VERTEX
  8
W78LPLIFT
 62
3
 10
2027.998
 20
-6420.303
 30
-2468.811
 70
    32
  0
VERTEX
  8
W78LPLIFT
 62
3
 10
2027.959
 20
-6420.283
 30
-2468.811
 70
    32
  0
VERTEX
  8
W78LPLIFT
 62
3
 10
2027.919
 20
-6420.266
 30
-2468.811
 70
    32
  0
VERTEX
  8
W78LPLIFT
 62
3
 10
2027.877
 20
-6420.253
 30
-2468.811
 70
    32
  0
VERTEX
  8
W78LPLIFT
 62
3
 10
2027.835
 20
-6420.244
 30
-2468.811
 70
    32
  0
VERTEX
  8
W78LPLIFT
 62
3
 10
2027.792
 20
-6420.238
 30
-2468.811
 70
    32
  0
VERTEX
  8
W78LPLIFT
 62
3
 10
2027.748
 20
-6420.236
 30
-2468.811
 70
    32
  0
VERTEX
  8
W78LPLIFT
 62
3
 10
2027.704
 20
-6420.238
 30
-2468.811
 70
    32
  0
VERTEX
  8
W78LPLIFT
 62
3
 10
2027.661
 20
-6420.244
 30
-2468.811
 70
    32
  0
VERTEX
  8
W78LPLIFT
 62
3
 10
2027.619
 20
-6420.253
 30
-2468.811
 70
    32
  0
VERTEX
  8
W78LPLIFT
 62
3
 10
2027.577
 20
-6420.266
 30
-2468.811
 70
    32
  0
VERTEX
  8
W78LPLIFT
 62
3
 10
2027.537
 20
-6420.283
 30
-2468.811
 70
    32
  0
VERTEX
  8
W78LPLIFT
 62
3
 10
2027.498
 20
-6420.303
 30
-2468.811
 70
    32
  0
VERTEX
  8
W78LPLIFT
 62
3
 10
2027.461
 20
-6420.326
 30
-2468.811
 70
    32
  0
VERTEX
  8
W78LPLIFT
 62
3
 10
2027.427
 20
-6420.353
 30
-2468.811
 70
    32
  0
VERTEX
  8
W78LPLIFT
 62
3
 10
2027.394
 20
-6420.382
 30
-2468.811
 70
    32
  0
VERTEX
  8
W78LPLIFT
 62
3
 10
2027.365
 20
-6420.415
 30
-2468.811
 70
    32
  0
VERTEX
  8
W78LPLIFT
 62
3
 10
2027.338
 20
-6420.449
 30
-2468.811
 70
    32
  0
VERTEX
  8
W78LPLIFT
 62
3
 10
2027.315
 20
-6420.486
 30
-2468.811
 70
    32
  0
VERTEX
  8
W78LPLIFT
 62
3
 10
2027.295
 20
-6420.525
 30
-2468.811
 70
    32
  0
VERTEX
  8
W78LPLIFT
 62
3
 10
2027.278
 20
-6420.565
 30
-2468.811
 70
    32
  0
VERTEX
  8
W78LPLIFT
 62
3
 10
2027.265
 20
-6420.607
 30
-2468.811
 70
    32
  0
VERTEX
  8
W78LPLIFT
 62
3
 10
2027.256
 20
-6420.649
 30
-2468.811
 70
    32
  0
VERTEX
  8
W78LPLIFT
 62
3
 10
2027.250
 20
-6420.692
 30
-2468.811
 70
    32
  0
VERTEX
  8
W78LPLIFT
 62
3
 10
2027.248
 20
-6420.736
 30
-2468.811
 70
    32
  0
VERTEX
  8
W78LPLIFT
 62
3
 10
2027.250
 20
-6420.780
 30
-2468.811
 70
    32
  0
VERTEX
  8
W78LPLIFT
 62
3
 10
2027.256
 20
-6420.823
 30
-2468.811
 70
    32
  0
VERTEX
  8
W78LPLIFT
 62
3
 10
2027.265
 20
-6420.865
 30
-2468.811
 70
    32
  0
VERTEX
  8
W78LPLIFT
 62
3
 10
2027.278
 20
-6420.907
 30
-2468.811
 70
    32
  0
VERTEX
  8
W78LPLIFT
 62
3
 10
2027.295
 20
-6420.947
 30
-2468.811
 70
    32
  0
VERTEX
  8
W78LPLIFT
 62
3
 10
2027.315
 20
-6420.986
 30
-2468.811
 70
    32
  0
VERTEX
  8
W78LPLIFT
 62
3
 10
2027.338
 20
-6421.023
 30
-2468.811
 70
    32
  0
VERTEX
  8
W78LPLIFT
 62
3
 10
2027.365
 20
-6421.057
 30
-2468.811
 70
    32
  0
VERTEX
  8
W78LPLIFT
 62
3
 10
2027.394
 20
-6421.090
 30
-2468.811
 70
    32
  0
VERTEX
  8
W78LPLIFT
 62
3
 10
2027.427
 20
-6421.119
 30
-2468.811
 70
    32
  0
VERTEX
  8
W78LPLIFT
 62
3
 10
2027.461
 20
-6421.146
 30
-2468.811
 70
    32
  0
VERTEX
  8
W78LPLIFT
 62
3
 10
2027.498
 20
-6421.169
 30
-2468.811
 70
    32
  0
VERTEX
  8
W78LPLIFT
 62
3
 10
2027.537
 20
-6421.189
 30
-2468.811
 70
    32
  0
VERTEX
  8
W78LPLIFT
 62
3
 10
2027.577
 20
-6421.206
 30
-2468.811
 70
    32
  0
VERTEX
  8
W78LPLIFT
 62
3
 10
2027.619
 20
-6421.219
 30
-2468.811
 70
    32
  0
VERTEX
  8
W78LPLIFT
 62
3
 10
2027.661
 20
-6421.228
 30
-2468.811
 70
    32
  0
VERTEX
  8
W78LPLIFT
 62
3
 10
2027.704
 20
-6421.234
 30
-2468.811
 70
    32
  0
VERTEX
  8
W78LPLIFT
 62
3
 10
2027.748
 20
-6421.236
 30
-2468.811
 70
    32
  0
VERTEX
  8
W78LPLIFT
 62
3
 10
2027.792
 20
-6421.234
 30
-2468.811
 70
    32
  0
VERTEX
  8
W78LPLIFT
 62
3
 10
2027.835
 20
-6421.228
 30
-2468.811
 70
    32
  0
VERTEX
  8
W78LPLIFT
 62
3
 10
2027.877
 20
-6421.219
 30
-2468.811
 70
    32
  0
VERTEX
  8
W78LPLIFT
 62
3
 10
2027.919
 20
-6421.206
 30
-2468.811
 70
    32
  0
VERTEX
  8
W78LPLIFT
 62
3
 10
2027.959
 20
-6421.189
 30
-2468.811
 70
    32
  0
VERTEX
  8
W78LPLIFT
 62
3
 10
2027.998
 20
-6421.169
 30
-2468.811
 70
    32
  0
VERTEX
  8
W78LPLIFT
 62
3
 10
2028.035
 20
-6421.146
 30
-2468.811
 70
    32
  0
VERTEX
  8
W78LPLIFT
 62
3
 10
2028.069
 20
-6421.119
 30
-2468.811
 70
    32
  0
VERTEX
  8
W78LPLIFT
 62
3
 10
2028.102
 20
-6421.090
 30
-2468.811
 70
    32
  0
VERTEX
  8
W78LPLIFT
 62
3
 10
2028.131
 20
-6421.057
 30
-2468.811
 70
    32
  0
VERTEX
  8
W78LPLIFT
 62
3
 10
2028.158
 20
-6421.023
 30
-2468.811
 70
    32
  0
VERTEX
  8
W78LPLIFT
 62
3
 10
2028.181
 20
-6420.986
 30
-2468.811
 70
    32
  0
VERTEX
  8
W78LPLIFT
 62
3
 10
2028.201
 20
-6420.947
 30
-2468.811
 70
    32
  0
VERTEX
  8
W78LPLIFT
 62
3
 10
2028.218
 20
-6420.907
 30
-2468.811
 70
    32
  0
VERTEX
  8
W78LPLIFT
 62
3
 10
2028.231
 20
-6420.865
 30
-2468.811
 70
    32
  0
VERTEX
  8
W78LPLIFT
 62
3
 10
2028.240
 20
-6420.823
 30
-2468.811
 70
    32
  0
VERTEX
  8
W78LPLIFT
 62
3
 10
2028.246
 20
-6420.780
 30
-2468.811
 70
    32
  0
VERTEX
  8
W78LPLIFT
 62
3
 10
2028.248
 20
-6420.736
 30
-2468.811
 70
    32
  0
SEQEND
  8
W78LPLIFT
  0
POLYLINE
  8
W78LPLIFT
 62
3
 66
     1
 70
     8
  0
VERTEX
  8
W78LPLIFT
 62
3
 10
1946.495
 20
-6389.064
 30
-2467.935
 70
    32
  0
VERTEX
  8
W78LPLIFT
 62
3
 10
1946.493
 20
-6389.020
 30
-2467.935
 70
    32
  0
VERTEX
  8
W78LPLIFT
 62
3
 10
1946.487
 20
-6388.977
 30
-2467.935
 70
    32
  0
VERTEX
  8
W78LPLIFT
 62
3
 10
1946.478
 20
-6388.935
 30
-2467.935
 70
    32
  0
VERTEX
  8
W78LPLIFT
 62
3
 10
1946.465
 20
-6388.893
 30
-2467.935
 70
    32
  0
VERTEX
  8
W78LPLIFT
 62
3
 10
1946.448
 20
-6388.853
 30
-2467.935
 70
    32
  0
VERTEX
  8
W78LPLIFT
 62
3
 10
1946.428
 20
-6388.814
 30
-2467.935
 70
    32
  0
VERTEX
  8
W78LPLIFT
 62
3
 10
1946.405
 20
-6388.777
 30
-2467.935
 70
    32
  0
VERTEX
  8
W78LPLIFT
 62
3
 10
1946.378
 20
-6388.743
 30
-2467.935
 70
    32
  0
VERTEX
  8
W78LPLIFT
 62
3
 10
1946.349
 20
-6388.710
 30
-2467.935
 70
    32
  0
VERTEX
  8
W78LPLIFT
 62
3
 10
1946.316
 20
-6388.681
 30
-2467.935
 70
    32
  0
VERTEX
  8
W78LPLIFT
 62
3
 10
1946.282
 20
-6388.654
 30
-2467.935
 70
    32
  0
VERTEX
  8
W78LPLIFT
 62
3
 10
1946.245
 20
-6388.631
 30
-2467.935
 70
    32
  0
VERTEX
  8
W78LPLIFT
 62
3
 10
1946.206
 20
-6388.611
 30
-2467.935
 70
    32
  0
VERTEX
  8
W78LPLIFT
 62
3
 10
1946.166
 20
-6388.594
 30
-2467.935
 70
    32
  0
VERTEX
  8
W78LPLIFT
 62
3
 10
1946.124
 20
-6388.581
 30
-2467.935
 70
    32
  0
VERTEX
  8
W78LPLIFT
 62
3
 10
1946.082
 20
-6388.572
 30
-2467.935
 70
    32
  0
VERTEX
  8
W78LPLIFT
 62
3
 10
1946.039
 20
-6388.566
 30
-2467.935
 70
    32
  0
VERTEX
  8
W78LPLIFT
 62
3
 10
1945.995
 20
-6388.564
 30
-2467.935
 70
    32
  0
VERTEX
  8
W78LPLIFT
 62
3
 10
1945.951
 20
-6388.566
 30
-2467.935
 70
    32
  0
VERTEX
  8
W78LPLIFT
 62
3
 10
1945.908
 20
-6388.572
 30
-2467.935
 70
    32
  0
VERTEX
  8
W78LPLIFT
 62
3
 10
1945.866
 20
-6388.581
 30
-2467.935
 70
    32
  0
VERTEX
  8
W78LPLIFT
 62
3
 10
1945.824
 20
-6388.594
 30
-2467.935
 70
    32
  0
VERTEX
  8
W78LPLIFT
 62
3
 10
1945.784
 20
-6388.611
 30
-2467.935
 70
    32
  0
VERTEX
  8
W78LPLIFT
 62
3
 10
1945.745
 20
-6388.631
 30
-2467.935
 70
    32
  0
VERTEX
  8
W78LPLIFT
 62
3
 10
1945.708
 20
-6388.654
 30
-2467.935
 70
    32
  0
VERTEX
  8
W78LPLIFT
 62
3
 10
1945.674
 20
-6388.681
 30
-2467.935
 70
    32
  0
VERTEX
  8
W78LPLIFT
 62
3
 10
1945.641
 20
-6388.710
 30
-2467.935
 70
    32
  0
VERTEX
  8
W78LPLIFT
 62
3
 10
1945.612
 20
-6388.743
 30
-2467.935
 70
    32
  0
VERTEX
  8
W78LPLIFT
 62
3
 10
1945.585
 20
-6388.777
 30
-2467.935
 70
    32
  0
VERTEX
  8
W78LPLIFT
 62
3
 10
1945.562
 20
-6388.814
 30
-2467.935
 70
    32
  0
VERTEX
  8
W78LPLIFT
 62
3
 10
1945.542
 20
-6388.853
 30
-2467.935
 70
    32
  0
VERTEX
  8
W78LPLIFT
 62
3
 10
1945.525
 20
-6388.893
 30
-2467.935
 70
    32
  0
VERTEX
  8
W78LPLIFT
 62
3
 10
1945.512
 20
-6388.935
 30
-2467.935
 70
    32
  0
VERTEX
  8
W78LPLIFT
 62
3
 10
1945.503
 20
-6388.977
 30
-2467.935
 70
    32
  0
VERTEX
  8
W78LPLIFT
 62
3
 10
1945.497
 20
-6389.020
 30
-2467.935
 70
    32
  0
VERTEX
  8
W78LPLIFT
 62
3
 10
1945.495
 20
-6389.064
 30
-2467.935
 70
    32
  0
VERTEX
  8
W78LPLIFT
 62
3
 10
1945.497
 20
-6389.108
 30
-2467.935
 70
    32
  0
VERTEX
  8
W78LPLIFT
 62
3
 10
1945.503
 20
-6389.151
 30
-2467.935
 70
    32
  0
VERTEX
  8
W78LPLIFT
 62
3
 10
1945.512
 20
-6389.193
 30
-2467.935
 70
    32
  0
VERTEX
  8
W78LPLIFT
 62
3
 10
1945.525
 20
-6389.235
 30
-2467.935
 70
    32
  0
VERTEX
  8
W78LPLIFT
 62
3
 10
1945.542
 20
-6389.275
 30
-2467.935
 70
    32
  0
VERTEX
  8
W78LPLIFT
 62
3
 10
1945.562
 20
-6389.314
 30
-2467.935
 70
    32
  0
VERTEX
  8
W78LPLIFT
 62
3
 10
1945.585
 20
-6389.351
 30
-2467.935
 70
    32
  0
VERTEX
  8
W78LPLIFT
 62
3
 10
1945.612
 20
-6389.385
 30
-2467.935
 70
    32
  0
VERTEX
  8
W78LPLIFT
 62
3
 10
1945.641
 20
-6389.418
 30
-2467.935
 70
    32
  0
VERTEX
  8
W78LPLIFT
 62
3
 10
1945.674
 20
-6389.447
 30
-2467.935
 70
    32
  0
VERTEX
  8
W78LPLIFT
 62
3
 10
1945.708
 20
-6389.474
 30
-2467.935
 70
    32
  0
VERTEX
  8
W78LPLIFT
 62
3
 10
1945.745
 20
-6389.497
 30
-2467.935
 70
    32
  0
VERTEX
  8
W78LPLIFT
 62
3
 10
1945.784
 20
-6389.517
 30
-2467.935
 70
    32
  0
VERTEX
  8
W78LPLIFT
 62
3
 10
1945.824
 20
-6389.534
 30
-2467.935
 70
    32
  0
VERTEX
  8
W78LPLIFT
 62
3
 10
1945.866
 20
-6389.547
 30
-2467.935
 70
    32
  0
VERTEX
  8
W78LPLIFT
 62
3
 10
1945.908
 20
-6389.556
 30
-2467.935
 70
    32
  0
VERTEX
  8
W78LPLIFT
 62
3
 10
1945.951
 20
-6389.562
 30
-2467.935
 70
    32
  0
VERTEX
  8
W78LPLIFT
 62
3
 10
1945.995
 20
-6389.564
 30
-2467.935
 70
    32
  0
VERTEX
  8
W78LPLIFT
 62
3
 10
1946.039
 20
-6389.562
 30
-2467.935
 70
    32
  0
VERTEX
  8
W78LPLIFT
 62
3
 10
1946.082
 20
-6389.556
 30
-2467.935
 70
    32
  0
VERTEX
  8
W78LPLIFT
 62
3
 10
1946.124
 20
-6389.547
 30
-2467.935
 70
    32
  0
VERTEX
  8
W78LPLIFT
 62
3
 10
1946.166
 20
-6389.534
 30
-2467.935
 70
    32
  0
VERTEX
  8
W78LPLIFT
 62
3
 10
1946.206
 20
-6389.517
 30
-2467.935
 70
    32
  0
VERTEX
  8
W78LPLIFT
 62
3
 10
1946.245
 20
-6389.497
 30
-2467.935
 70
    32
  0
VERTEX
  8
W78LPLIFT
 62
3
 10
1946.282
 20
-6389.474
 30
-2467.935
 70
    32
  0
VERTEX
  8
W78LPLIFT
 62
3
 10
1946.316
 20
-6389.447
 30
-2467.935
 70
    32
  0
VERTEX
  8
W78LPLIFT
 62
3
 10
1946.349
 20
-6389.418
 30
-2467.935
 70
    32
  0
VERTEX
  8
W78LPLIFT
 62
3
 10
1946.378
 20
-6389.385
 30
-2467.935
 70
    32
  0
VERTEX
  8
W78LPLIFT
 62
3
 10
1946.405
 20
-6389.351
 30
-2467.935
 70
    32
  0
VERTEX
  8
W78LPLIFT
 62
3
 10
1946.428
 20
-6389.314
 30
-2467.935
 70
    32
  0
VERTEX
  8
W78LPLIFT
 62
3
 10
1946.448
 20
-6389.275
 30
-2467.935
 70
    32
  0
VERTEX
  8
W78LPLIFT
 62
3
 10
1946.465
 20
-6389.235
 30
-2467.935
 70
    32
  0
VERTEX
  8
W78LPLIFT
 62
3
 10
1946.478
 20
-6389.193
 30
-2467.935
 70
    32
  0
VERTEX
  8
W78LPLIFT
 62
3
 10
1946.487
 20
-6389.151
 30
-2467.935
 70
    32
  0
VERTEX
  8
W78LPLIFT
 62
3
 10
1946.493
 20
-6389.108
 30
-2467.935
 70
    32
  0
VERTEX
  8
W78LPLIFT
 62
3
 10
1946.495
 20
-6389.064
 30
-2467.935
 70
    32
  0
SEQEND
  8
W78LPLIFT
  0
POLYLINE
  8
W78LPLIFT
 62
3
 66
     1
 70
     9
  0
VERTEX
  8
W78LPLIFT
 62
3
 10
2000.711
 20
-6172.680
 30
-2474.878
 70
    32
  0
VERTEX
  8
W78LPLIFT
 62
3
 10
1998.711
 20
-6176.146
 30
-2474.878
 70
    32
  0
VERTEX
  8
W78LPLIFT
 62
3
 10
2002.711
 20
-6176.146
 30
-2474.878
 70
    32
  0
SEQEND
  8
W78LPLIFT
  0
POINT
  8
W78LPLIFT
 62
3
 10
2000.680
 20
-6174.852
 30
-2474.878
  0
POINT
  8
W78LPLIFT
 62
3
 10
2398.179
 20
-7174.663
 30
-2516.245
  0
POLYLINE
  8
W78LPLIFT
 62
3
 66
     1
 70
     9
  0
VERTEX
  8
W78LPLIFT
 62
3
 10
2398.179
 20
-7172.930
 30
-2516.245
 70
    32
  0
VERTEX
  8
W78LPLIFT
 62
3
 10
2396.179
 20
-7176.396
 30
-2516.245
 70
    32
  0
VERTEX
  8
W78LPLIFT
 62
3
 10
2400.179
 20
-7176.396
 30
-2516.245
 70
    32
  0
SEQEND
  8
W78LPLIFT
  0
POLYLINE
  8
W78LPLIFT
 62
3
 66
     1
 70
     9
  0
VERTEX
  8
W78LPLIFT
 62
3
 10
2399.618
 20
-7177.433
 30
-2516.256
 70
    32
  0
VERTEX
  8
W78LPLIFT
 62
3
 10
2397.618
 20
-7180.899
 30
-2516.256
 70
    32
  0
VERTEX
  8
W78LPLIFT
 62
3
 10
2401.618
 20
-7180.899
 30
-2516.256
 70
    32
  0
SEQEND
  8
W78LPLIFT
  0
POINT
  8
W78LPLIFT
 62
3
 10
2399.618
 20
-7179.166
 30
-2516.256
  0
POLYLINE
  8
W78LPLIFT
 62
3
 66
     1
 70
     9
  0
VERTEX
  8
W78LPLIFT
 62
3
 10
2177.840
 20
-6915.839
 30
-2457.066
 70
    32
  0
VERTEX
  8
W78LPLIFT
 62
3
 10
2193.864
 20
-6899.781
 30
-2497.385
 70
    32
  0
VERTEX
  8
W78LPLIFT
 62
3
 10
2182.946
 20
-6910.721
 30
-2465.788
 70
    32
  0
VERTEX
  8
W78LPLIFT
 62
3
 10
2185.087
 20
-6908.576
 30
-2465.100
 70
    32
  0
VERTEX
  8
W78LPLIFT
 62
3
 10
2181.030
 20
-6912.641
 30
-2457.163
 70
    32
  0
SEQEND
  8
W78LPLIFT
  0
POLYLINE
  8
W78LPLIFT
 62
3
 66
     1
 70
     9
  0
VERTEX
  8
W78LPLIFT
 62
3
 10
2176.542
 20
-6910.060
 30
-2456.220
 70
    32
  0
VERTEX
  8
W78LPLIFT
 62
3
 10
2191.395
 20
-6895.177
 30
-2490.633
 70
    32
  0
VERTEX
  8
W78LPLIFT
 62
3
 10
2192.251
 20
-6894.318
 30
-2485.195
 70
    32
  0
VERTEX
  8
W78LPLIFT
 62
3
 10
2192.448
 20
-6894.121
 30
-2479.461
 70
    32
  0
VERTEX
  8
W78LPLIFT
 62
3
 10
2181.173
 20
-6905.420
 30
-2456.373
 70
    32
  0
SEQEND
  8
W78LPLIFT
  0
POLYLINE
  8
W78LPLIFT
 62
3
 66
     1
 70
     9
  0
VERTEX
  8
W78LPLIFT
 62
3
 10
2172.872
 20
-6906.659
 30
-2456.497
 70
    32
  0
VERTEX
  8
W78LPLIFT
 62
3
 10
2193.334
 20
-6886.155
 30
-2503.642
 70
    32
  0
VERTEX
  8
W78LPLIFT
 62
3
 10
2193.395
 20
-6886.093
 30
-2489.207
 70
    32
  0
VERTEX
  8
W78LPLIFT
 62
3
 10
2177.365
 20
-6902.158
 30
-2456.446
 70
    32
  0
SEQEND
  8
W78LPLIFT
  0
POLYLINE
  8
W78LPLIFT
 62
3
 66
     1
 70
     9
  0
VERTEX
  8
W78LPLIFT
 62
3
 10
2170.703
 20
-6901.755
 30
-2456.530
 70
    32
  0
VERTEX
  8
W78LPLIFT
 62
3
 10
2196.827
 20
-6875.576
 30
-2516.650
 70
    32
  0
VERTEX
  8
W78LPLIFT
 62
3
 10
2196.243
 20
-6876.161
 30
-2499.460
 70
    32
  0
VERTEX
  8
W78LPLIFT
 62
3
 10
2175.237
 20
-6897.211
 30
-2456.480
 70
    32
  0
SEQEND
  8
W78LPLIFT
  0
POLYLINE
  8
W78LPLIFT
 62
3
 66
     1
 70
     9
  0
VERTEX
  8
W78LPLIFT
 62
3
 10
2164.957
 20
-6900.434
 30
-2456.797
 70
    32
  0
VERTEX
  8
W78LPLIFT
 62
3
 10
2179.144
 20
-6886.217
 30
-2491.313
 70
    32
  0
VERTEX
  8
W78LPLIFT
 62
3
 10
2182.153
 20
-6883.202
 30
-2491.266
 70
    32
  0
VERTEX
  8
W78LPLIFT
 62
3
 10
2196.717
 20
-6868.608
 30
-2515.673
 70
    32
  0
VERTEX
  8
W78LPLIFT
 62
3
 10
2200.094
 20
-6865.224
 30
-2514.435
 70
    32
  0
VERTEX
  8
W78LPLIFT
 62
3
 10
2171.737
 20
-6893.640
 30
-2456.781
 70
    32
  0
SEQEND
  8
W78LPLIFT
  0
POLYLINE
  8
W78LPLIFT
 62
3
 66
     1
 70
     9
  0
VERTEX
  8
W78LPLIFT
 62
3
 10
2161.449
 20
-6896.871
 30
-2456.538
 70
    32
  0
VERTEX
  8
W78LPLIFT
 62
3
 10
2173.438
 20
-6884.857
 30
-2486.022
 70
    32
  0
VERTEX
  8
W78LPLIFT
 62
3
 10
2183.901
 20
-6874.372
 30
-2502.611
 70
    32
  0
VERTEX
  8
W78LPLIFT
 62
3
 10
2193.703
 20
-6864.549
 30
-2516.626
 70
    32
  0
VERTEX
  8
W78LPLIFT
 62
3
 10
2197.687
 20
-6860.558
 30
-2516.582
 70
    32
  0
VERTEX
  8
W78LPLIFT
 62
3
 10
2199.897
 20
-6858.343
 30
-2512.517
 70
    32
  0
VERTEX
  8
W78LPLIFT
 62
3
 10
2169.979
 20
-6888.323
 30
-2456.664
 70
    32
  0
SEQEND
  8
W78LPLIFT
  0
POLYLINE
  8
W78LPLIFT
 62
3
 66
     1
 70
     9
  0
VERTEX
  8
W78LPLIFT
 62
3
 10
2157.613
 20
-6893.636
 30
-2456.531
 70
    32
  0
VERTEX
  8
W78LPLIFT
 62
3
 10
2169.687
 20
-6881.537
 30
-2485.976
 70
    32
  0
VERTEX
  8
W78LPLIFT
 62
3
 10
2179.881
 20
-6871.322
 30
-2502.660
 70
    32
  0
VERTEX
  8
W78LPLIFT
 62
3
 10
2189.881
 20
-6861.301
 30
-2516.659
 70
    32
  0
VERTEX
  8
W78LPLIFT
 62
3
 10
2193.792
 20
-6857.382
 30
-2516.754
 70
    32
  0
VERTEX
  8
W78LPLIFT
 62
3
 10
2196.101
 20
-6855.068
 30
-2512.690
 70
    32
  0
VERTEX
  8
W78LPLIFT
 62
3
 10
2166.216
 20
-6885.016
 30
-2456.479
 70
    32
  0
SEQEND
  8
W78LPLIFT
  0
POLYLINE
  8
W78LPLIFT
 62
3
 66
     1
 70
     9
  0
VERTEX
  8
W78LPLIFT
 62
3
 10
2155.906
 20
-6888.269
 30
-2456.915
 70
    32
  0
VERTEX
  8
W78LPLIFT
 62
3
 10
2165.268
 20
-6878.887
 30
-2481.656
 70
    32
  0
VERTEX
  8
W78LPLIFT
 62
3
 10
2176.659
 20
-6867.472
 30
-2502.107
 70
    32
  0
VERTEX
  8
W78LPLIFT
 62
3
 10
2186.480
 20
-6857.631
 30
-2516.922
 70
    32
  0
VERTEX
  8
W78LPLIFT
 62
3
 10
2190.087
 20
-6854.017
 30
-2515.330
 70
    32
  0
VERTEX
  8
W78LPLIFT
 62
3
 10
2193.437
 20
-6850.659
 30
-2512.772
 70
    32
  0
VERTEX
  8
W78LPLIFT
 62
3
 10
2163.902
 20
-6880.256
 30
-2456.749
 70
    32
  0
SEQEND
  8
W78LPLIFT
  0
POLYLINE
  8
W78LPLIFT
 62
3
 66
     1
 70
     9
  0
VERTEX
  8
W78LPLIFT
 62
3
 10
2152.200
 20
-6884.904
 30
-2456.711
 70
    32
  0
VERTEX
  8
W78LPLIFT
 62
3
 10
2159.520
 20
-6877.569
 30
-2476.244
 70
    32
  0
VERTEX
  8
W78LPLIFT
 62
3
 10
2178.971
 20
-6858.077
 30
-2516.986
 70
    32
  0
VERTEX
  8
W78LPLIFT
 62
3
 10
2187.360
 20
-6849.670
 30
-2517.049
 70
    32
  0
VERTEX
  8
W78LPLIFT
 62
3
 10
2189.899
 20
-6847.127
 30
-2512.692
 70
    32
  0
VERTEX
  8
W78LPLIFT
 62
3
 10
2160.816
 20
-6876.270
 30
-2456.620
 70
    32
  0
SEQEND
  8
W78LPLIFT
  0
POLYLINE
  8
W78LPLIFT
 62
3
 66
     1
 70
     9
  0
VERTEX
  8
W78LPLIFT
 62
3
 10
2150.583
 20
-6879.446
 30
-2456.597
 70
    32
  0
VERTEX
  8
W78LPLIFT
 62
3
 10
2175.288
 20
-6854.690
 30
-2517.222
 70
    32
  0
VERTEX
  8
W78LPLIFT
 62
3
 10
2183.493
 20
-6846.467
 30
-2517.301
 70
    32
  0
VERTEX
  8
W78LPLIFT
 62
3
 10
2186.063
 20
-6843.892
 30
-2512.704
 70
    32
  0
VERTEX
  8
W78LPLIFT
 62
3
 10
2156.881
 20
-6873.135
 30
-2456.710
 70
    32
  0
SEQEND
  8
W78LPLIFT
  0
POLYLINE
  8
W78LPLIFT
 62
3
 66
     1
 70
     9
  0
VERTEX
  8
W78LPLIFT
 62
3
 10
2144.936
 20
-6878.026
 30
-2456.806
 70
    32
  0
VERTEX
  8
W78LPLIFT
 62
3
 10
2167.852
 20
-6855.063
 30
-2518.268
 70
    32
  0
VERTEX
  8
W78LPLIFT
 62
3
 10
2171.535
 20
-6851.372
 30
-2517.357
 70
    32
  0
VERTEX
  8
W78LPLIFT
 62
3
 10
2175.352
 20
-6847.547
 30
-2517.070
 70
    32
  0
VERTEX
  8
W78LPLIFT
 62
3
 10
2179.337
 20
-6843.553
 30
-2516.886
 70
    32
  0
VERTEX
  8
W78LPLIFT
 62
3
 10
2183.246
 20
-6839.637
 30
-2514.881
 70
    32
  0
VERTEX
  8
W78LPLIFT
 62
3
 10
2155.542
 20
-6867.398
 30
-2456.963
 70
    32
  0
SEQEND
  8
W78LPLIFT
  0
POLYLINE
  8
W78LPLIFT
 62
3
 66
     1
 70
     9
  0
VERTEX
  8
W78LPLIFT
 62
3
 10
2145.070
 20
-6870.813
 30
-2456.755
 70
    32
  0
VERTEX
  8
W78LPLIFT
 62
3
 10
2164.928
 20
-6850.914
 30
-2521.122
 70
    32
  0
VERTEX
  8
W78LPLIFT
 62
3
 10
2168.508
 20
-6847.326
 30
-2519.369
 70
    32
  0
VERTEX
  8
W78LPLIFT
 62
3
 10
2171.688
 20
-6844.140
 30
-2516.907
 70
    32
  0
VERTEX
  8
W78LPLIFT
 62
3
 10
2175.854
 20
-6839.965
 30
-2516.948
 70
    32
  0
VERTEX
  8
W78LPLIFT
 62
3
 10
2178.490
 20
-6837.324
 30
-2512.712
 70
    32
  0
VERTEX
  8
W78LPLIFT
 62
3
 10
2180.857
 20
-6834.952
 30
-2508.511
 70
    32
  0
VERTEX
  8
W78LPLIFT
 62
3
 10
2153.627
 20
-6862.239
 30
-2456.983
 70
    32
  0
SEQEND
  8
W78LPLIFT
  0
POLYLINE
  8
W78LPLIFT
 62
3
 66
     1
 70
     9
  0
VERTEX
  8
W78LPLIFT
 62
3
 10
2147.221
 20
-6861.579
 30
-2456.893
 70
    32
  0
VERTEX
  8
W78LPLIFT
 62
3
 10
2169.360
 20
-6839.394
 30
-2501.979
 70
    32
  0
VERTEX
  8
W78LPLIFT
 62
3
 10
2174.092
 20
-6834.652
 30
-2501.914
 70
    32
  0
VERTEX
  8
W78LPLIFT
 62
3
 10
2181.680
 20
-6827.049
 30
-2516.875
 70
    32
  0
VERTEX
  8
W78LPLIFT
 62
3
 10
2186.483
 20
-6822.236
 30
-2516.811
 70
    32
  0
VERTEX
  8
W78LPLIFT
 62
3
 10
2186.623
 20
-6822.095
 30
-2509.896
 70
    32
  0
VERTEX
  8
W78LPLIFT
 62
3
 10
2150.584
 20
-6858.209
 30
-2456.775
 70
    32
  0
SEQEND
  8
W78LPLIFT
  0
POLYLINE
  8
W78LPLIFT
 62
3
 66
     1
 70
     9
  0
VERTEX
  8
W78LPLIFT
 62
3
 10
2143.694
 20
-6858.035
 30
-2457.053
 70
    32
  0
VERTEX
  8
W78LPLIFT
 62
3
 10
2165.916
 20
-6835.767
 30
-2502.242
 70
    32
  0
VERTEX
  8
W78LPLIFT
 62
3
 10
2177.728
 20
-6823.931
 30
-2501.948
 70
    32
  0
VERTEX
  8
W78LPLIFT
 62
3
 10
2147.227
 20
-6854.495
 30
-2456.939
 70
    32
  0
SEQEND
  8
W78LPLIFT
  0
POLYLINE
  8
W78LPLIFT
 62
3
 66
     1
 70
     9
  0
VERTEX
  8
W78LPLIFT
 62
3
 10
2138.083
 20
-6856.580
 30
-2456.723
 70
    32
  0
VERTEX
  8
W78LPLIFT
 62
3
 10
2162.169
 20
-6832.444
 30
-2501.977
 70
    32
  0
VERTEX
  8
W78LPLIFT
 62
3
 10
2173.989
 20
-6820.598
 30
-2502.083
 70
    32
  0
VERTEX
  8
W78LPLIFT
 62
3
 10
2143.337
 20
-6851.315
 30
-2456.731
 70
    32
  0
SEQEND
  8
W78LPLIFT
  0
POLYLINE
  8
W78LPLIFT
 62
3
 66
     1
 70
     9
  0
VERTEX
  8
W78LPLIFT
 62
3
 10
2134.079
 20
-6853.513
 30
-2456.552
 70
    32
  0
VERTEX
  8
W78LPLIFT
 62
3
 10
2148.957
 20
-6838.605
 30
-2501.762
 70
    32
  0
VERTEX
  8
W78LPLIFT
 62
3
 10
2167.119
 20
-6820.405
 30
-2501.922
 70
    32
  0
VERTEX
  8
W78LPLIFT
 62
3
 10
2166.303
 20
-6821.222
 30
-2492.245
 70
    32
  0
VERTEX
  8
W78LPLIFT
 62
3
 10
2141.846
 20
-6845.731
 30
-2456.720
 70
    32
  0
SEQEND
  8
W78LPLIFT
  0
POLYLINE
  8
W78LPLIFT
 62
3
 66
     1
 70
     9
  0
VERTEX
  8
W78LPLIFT
 62
3
 10
2133.982
 20
-6846.533
 30
-2456.955
 70
    32
  0
VERTEX
  8
W78LPLIFT
 62
3
 10
2147.447
 20
-6833.040
 30
-2502.171
 70
    32
  0
VERTEX
  8
W78LPLIFT
 62
3
 10
2167.109
 20
-6813.336
 30
-2502.028
 70
    32
  0
VERTEX
  8
W78LPLIFT
 62
3
 10
2138.502
 20
-6842.003
 30
-2456.885
 70
    32
  0
SEQEND
  8
W78LPLIFT
  0
TEXT
  8
W78LPLIFT
 62
3
 10
2208.872
 20
-7040.389
 30
-2546.871
 40
1.969
  1
BK -2546.871
 41
 1.0 
  0
TEXT
  8
W78LPLIFT
 62
3
 10
2238.986
 20
-7065.767
 30
-2548.173
 40
1.969
  1
BK -2548.173
 41
 1.0 
  0
TEXT
  8
W78LPLIFT
 62
3
 10
2250.871
 20
-7096.213
 30
-2548.466
 40
1.969
  1
BK -2548.466
 41
 1.0 
  0
TEXT
  8
W78LPLIFT
 62
3
 10
1958.613
 20
-6517.179
 30
-2458.692
 40
1.969
  1
BK -2458.692
 50
320.920
 41
 1.0 
  0
TEXT
  8
W78LPLIFT
 62
3
 10
1962.329
 20
-6460.208
 30
-2458.548
 40
1.969
  1
BK -2458.548
 50
1.828
 41
 1.0 
  0
TEXT
  8
W78LPLIFT
 62
3
 10
1940.704
 20
-6543.948
 30
-2464.107
 40
1.969
  1
-2464.107
 50
320.920
 41
 1.0 
  0
TEXT
  8
W78LPLIFT
 62
3
 10
1942.558
 20
-6541.035
 30
-2464.107
 40
1.969
  1
ST-130S
 50
320.920
 41
 1.0 
  0
TEXT
  8
W78LPLIFT
 62
3
 10
1945.939
 20
-6534.207
 30
-2461.613
 40
1.969
  1
ST-130T
 50
320.920
 41
 1.0 
  0
TEXT
  8
W78LPLIFT
 62
3
 10
1947.932
 20
-6531.475
 30
-2461.613
 40
1.969
  1
-2461.613
 50
320.920
 41
 1.0 
  0
TEXT
  8
W78LPLIFT
 62
3
 10
1934.368
 20
-6413.430
 30
-2470.997
 40
1.969
  1
-2470.997
 41
 1.0 
  0
TEXT
  8
W78LPLIFT
 62
3
 10
1938.053
 20
-6410.534
 30
-2470.997
 40
1.969
  1
ST-933Q
 41
 1.0 
  0
TEXT
  8
W78LPLIFT
 62
3
 10
1959.708
 20
-6397.316
 30
-2468.495
 40
1.969
  1
BK -2468.495
 41
 1.0 
  0
TEXT
  8
W78LPLIFT
 62
3
 10
1928.351
 20
-6391.844
 30
-2467.935
 40
1.969
  1
BK -2467.935
 41
 1.0 
  0
TEXT
  8
W78LPLIFT
 62
3
 10
1948.555
 20
-6381.472
 30
-2471.520
 40
1.969
  1
ST-933R
 41
 1.0 
  0
TEXT
  8
W78LPLIFT
 62
3
 10
1944.571
 20
-6384.147
 30
-2471.520
 40
1.969
  1
-2471.520
 41
 1.0 
  0
TEXT
  8
W78LPLIFT
 62
3
 10
1979.497
 20
-6380.878
 30
-2479.026
 40
1.969
  1
BK -2479.026
 41
 1.0 
  0
TEXT
  8
W78LPLIFT
 62
3
 10
1971.069
 20
-6368.905
 30
-2470.705
 40
1.969
  1
BK -2470.705
 41
 1.0 
  0
TEXT
  8
W78LPLIFT
 62
3
 10
1987.781
 20
-6338.039
 30
-2469.512
 40
1.969
  1
-2469.512
 50
60.730
 41
 1.0 
  0
TEXT
  8
W78LPLIFT
 62
3
 10
1985.684
 20
-6336.342
 30
-2469.512
 40
1.969
  1
ST-983Q
 50
60.730
 41
 1.0 
  0
TEXT
  8
W78LPLIFT
 62
3
 10
1978.016
 20
-6332.281
 30
-2469.753
 40
1.969
  1
ST-983R
 50
60.730
 41
 1.0 
  0
TEXT
  8
W78LPLIFT
 62
3
 10
1975.574
 20
-6330.977
 30
-2469.753
 40
1.969
  1
-2469.753
 50
60.730
 41
 1.0 
  0
TEXT
  8
W78LPLIFT
 62
3
 10
1949.041
 20
-6318.786
 30
-2468.393
 40
1.969
  1
BK -2468.393
 41
 1.0 
  0
TEXT
  8
W78LPLIFT
 62
3
 10
1975.200
 20
-6301.944
 30
-2468.578
 40
1.969
  1
BK -2468.578
 41
 1.0 
  0
TEXT
  8
W78LPLIFT
 62
3
 10
2032.975
 20
-6357.165
 30
-2464.750
 40
1.969
  1
BK -2464.75
 41
 1.0 
  0
TEXT
  8
W78LPLIFT
 62
3
 10
2042.756
 20
-6362.906
 30
-2465.937
 40
1.969
  1
ST-017S
 50
47.690
 41
 1.0 
  0
TEXT
  8
W78LPLIFT
 62
3
 10
2054.711
 20
-6373.603
 30
-2465.364
 40
1.969
  1
-2465.364
 50
47.690
 41
 1.0 
  0
TEXT
  8
W78LPLIFT
 62
3
 10
2052.837
 20
-6371.511
 30
-2465.364
 40
1.969
  1
ST-017T
 50
47.690
 41
 1.0 
  0
TEXT
  8
W78LPLIFT
 62
3
 10
2041.397
 20
-6383.144
 30
-2466.519
 40
1.969
  1
BK -2466.519
 41
 1.0 
  0
TEXT
  8
W78LPLIFT
 62
3
 10
2047.994
 20
-6382.349
 30
-2491.027
 40
1.969
  1
Fl -2491.027
 41
 1.0 
  0
TEXT
  8
W78LPLIFT
 62
3
 10
2038.659
 20
-6395.674
 30
-2491.984
 40
1.969
  1
Fl -2491.984
 41
 1.0 
  0
TEXT
  8
W78LPLIFT
 62
3
 10
2063.367
 20
-6404.182
 30
-2466.870
 40
1.969
  1
BK -2466.87
 41
 1.0 
  0
TEXT
  8
W78LPLIFT
 62
3
 10
2017.164
 20
-6400.020
 30
-2468.940
 40
1.969
  1
ST-994Q
 50
-39.990
 41
 1.0 
  0
TEXT
  8
W78LPLIFT
 62
3
 10
2012.100
 20
-6400.212
 30
-2468.940
 40
1.969
  1
-2468.940
 50
-39.990
 41
 1.0 
  0
TEXT
  8
W78LPLIFT
 62
3
 10
2002.864
 20
-6408.629
 30
-2468.190
 40
1.969
  1
BK -2468.19
 41
 1.0 
  0
TEXT
  8
W78LPLIFT
 62
3
 10
2027.248
 20
-6423.736
 30
-2480.811
 40
1.969
  1
Fl -2480.811
 41
 1.0 
  0
TEXT
  8
W78LPLIFT
 62
3
 10
2027.248
 20
-6419.436
 30
-2468.811
 40
1.969
  1
BK -2468.811
 41
 1.0 
  0
TEXT
  8
W78LPLIFT
 62
3
 10
2022.705
 20
-6427.104
 30
-2469.964
 40
1.969
  1
ST-976R
 41
 1.0 
  0
TEXT
  8
W78LPLIFT
 62
3
 10
2020.663
 20
-6429.415
 30
-2469.964
 40
1.969
  1
-2469.964
 41
 1.0 
  0
TEXT
  8
W78LPLIFT
 62
3
 10
2012.994
 20
-6438.768
 30
-2470.829
 40
1.969
  1
-2470.829
 41
 1.0 
  0
TEXT
  8
W78LPLIFT
 62
3
 10
2015.115
 20
-6436.334
 30
-2470.829
 40
1.969
  1
ST-976Q
 41
 1.0 
  0
TEXT
  8
W78LPLIFT
 62
3
 10
1997.702
 20
-6430.857
 30
-2470.741
 40
1.969
  1
ST-970R
 41
 1.0 
  0
TEXT
  8
W78LPLIFT
 62
3
 10
1994.349
 20
-6433.003
 30
-2470.741
 40
1.969
  1
-2470.741
 41
 1.0 
  0
TEXT
  8
W78LPLIFT
 62
3
 10
2005.596
 20
-6173.867
 30
-2474.878
 40
1.969
  1
ST-464T
 41
 1.0 
  0
TEXT
  8
W78LPLIFT
 62
3
 10
2006.219
 20
-6177.480
 30
-2474.878
 40
1.969
  1
-2474.8785
 41
 1.0 
  0
TEXT
  8
W78LPLIFT
 62
3
 10
2260.108
 20
-7401.776
 30
-2482.404
 40
1.575
  1
BK -2482.404
 41
 1.0 
  0
TEXT
  8
W78LPLIFT
 62
3
 10
2260.108
 20
-7406.076
 30
-2492.104
 40
1.575
  1
Fl -2492.104
 41
 1.0 
  0
TEXT
  8
W78LPLIFT
 62
3
 10
2269.006
 20
-7417.296
 30
-2496.162
 40
1.575
  1
Fl -2496.162
 41
 1.0 
  0
TEXT
  8
W78LPLIFT
 62
3
 10
2275.616
 20
-7426.922
 30
-2498.628
 40
1.575
  1
Fl -2498.628
 41
 1.0 
  0
TEXT
  8
W78LPLIFT
 62
3
 10
2290.225
 20
-7452.213
 30
-2507.329
 40
1.575
  1
Fl -2507.329
 41
 1.0 
  0
TEXT
  8
W78LPLIFT
 62
3
 10
2297.529
 20
-7484.722
 30
-2515.825
 40
1.575
  1
Fl -2515.825
 41
 1.0 
  0
TEXT
  8
W78LPLIFT
 62
3
 10
2300.563
 20
-7497.978
 30
-2516.833
 40
1.575
  1
Fl -2516.833
 41
 1.0 
  0
TEXT
  8
W78LPLIFT
 62
3
 10
2411.630
 20
-7168.006
 30
-2516.245
 40
1.969
  1
-2516.2446
 41
 1.0 
  0
TEXT
  8
W78LPLIFT
 62
3
 10
2409.225
 20
-7171.839
 30
-2516.245
 40
1.969
  1
ST-775S
 41
 1.0 
  0
TEXT
  8
W78LPLIFT
 62
3
 10
2415.285
 20
-7178.762
 30
-2516.256
 40
1.969
  1
ST-775T
 41
 1.0 
  0
TEXT
  8
W78LPLIFT
 62
3
 10
2414.475
 20
-7182.192
 30
-2516.256
 40
1.969
  1
-2516.2557
 41
 1.0 
  0
TEXT
  8
W78LPLIFT
 62
3
 10
2040.700
 20
-6360.725
 30
-2465.937
 40
1.969
  1
-2465.937
 50
47.690
 41
 1.0 
  0
POLYLINE
  8
W78LPLIFT
 62
3
 66
     1
 70
     9
  0
VERTEX
  8
W78LPLIFT
 62
3
 10
2256.221
 20
-7404.623
 30
-2492.104
 70
    32
  0
VERTEX
  8
W78LPLIFT
 62
3
 10
2262.534
 20
-7412.931
 30
-2495.240
 70
    32
  0
VERTEX
  8
W78LPLIFT
 62
3
 10
2267.279
 20
-7423.158
 30
-2498.628
 70
    32
  0
VERTEX
  8
W78LPLIFT
 62
3
 10
2279.220
 20
-7440.049
 30
-2504.093
 70
    32
  0
VERTEX
  8
W78LPLIFT
 62
3
 10
2286.415
 20
-7456.656
 30
-2508.874
 70
    32
  0
VERTEX
  8
W78LPLIFT
 62
3
 10
2287.143
 20
-7466.313
 30
-2511.432
 70
    32
  0
VERTEX
  8
W78LPLIFT
 62
3
 10
2287.807
 20
-7482.927
 30
-2515.825
 70
    32
  0
VERTEX
  8
W78LPLIFT
 62
3
 10
2294.182
 20
-7504.170
 30
-2516.833
 70
    32
  0
VERTEX
  8
W78LPLIFT
 62
3
 10
2300.253
 20
-7509.667
 30
-2516.833
 70
    32
  0
VERTEX
  8
W78LPLIFT
 62
3
 10
2305.377
 20
-7518.844
 30
-2516.833
 70
    32
  0
VERTEX
  8
W78LPLIFT
 62
3
 10
2317.065
 20
-7514.426
 30
-2516.833
 70
    32
  0
VERTEX
  8
W78LPLIFT
 62
3
 10
2309.442
 20
-7499.350
 30
-2516.833
 70
    32
  0
VERTEX
  8
W78LPLIFT
 62
3
 10
2307.505
 20
-7493.200
 30
-2516.833
 70
    32
  0
VERTEX
  8
W78LPLIFT
 62
3
 10
2305.948
 20
-7478.670
 30
-2515.825
 70
    32
  0
VERTEX
  8
W78LPLIFT
 62
3
 10
2302.432
 20
-7464.129
 30
-2511.952
 70
    32
  0
VERTEX
  8
W78LPLIFT
 62
3
 10
2302.161
 20
-7457.705
 30
-2510.287
 70
    32
  0
VERTEX
  8
W78LPLIFT
 62
3
 10
2298.563
 20
-7450.136
 30
-2508.117
 70
    32
  0
VERTEX
  8
W78LPLIFT
 62
3
 10
2290.606
 20
-7424.954
 30
-2501.279
 70
    32
  0
VERTEX
  8
W78LPLIFT
 62
3
 10
2280.852
 20
-7421.843
 30
-2498.628
 70
    32
  0
VERTEX
  8
W78LPLIFT
 62
3
 10
2276.313
 20
-7416.314
 30
-2497.046
 70
    32
  0
VERTEX
  8
W78LPLIFT
 62
3
 10
2264.581
 20
-7397.305
 30
-2492.104
 70
    32
  0
SEQEND
  8
W78LPLIFT
  0
POLYLINE
  8
W78LPLIFT
 62
3
 66
     1
 70
     9
  0
VERTEX
  8
W78LPLIFT
 62
3
 10
2370.828
 20
-7214.905
 30
-2517.651
 70
    32
  0
VERTEX
  8
W78LPLIFT
 62
3
 10
2373.256
 20
-7206.892
 30
-2518.397
 70
    32
  0
VERTEX
  8
W78LPLIFT
 62
3
 10
2382.325
 20
-7191.676
 30
-2516.952
 70
    32
  0
VERTEX
  8
W78LPLIFT
 62
3
 10
2381.759
 20
-7182.417
 30
-2516.099
 70
    32
  0
VERTEX
  8
W78LPLIFT
 62
3
 10
2381.442
 20
-7177.769
 30
-2514.673
 70
    32
  0
VERTEX
  8
W78LPLIFT
 62
3
 10
2372.495
 20
-7175.716
 30
-2516.130
 70
    32
  0
VERTEX
  8
W78LPLIFT
 62
3
 10
2373.197
 20
-7171.778
 30
-2516.008
 70
    32
  0
VERTEX
  8
W78LPLIFT
 62
3
 10
2374.201
 20
-7169.193
 30
-2514.593
 70
    32
  0
VERTEX
  8
W78LPLIFT
 62
3
 10
2373.349
 20
-7167.064
 30
-2514.267
 70
    32
  0
VERTEX
  8
W78LPLIFT
 62
3
 10
2370.867
 20
-7162.100
 30
-2513.348
 70
    32
  0
VERTEX
  8
W78LPLIFT
 62
3
 10
2365.311
 20
-7158.190
 30
-2515.206
 70
    32
  0
VERTEX
  8
W78LPLIFT
 62
3
 10
2364.431
 20
-7154.745
 30
-2513.624
 70
    32
  0
VERTEX
  8
W78LPLIFT
 62
3
 10
2354.086
 20
-7146.992
 30
-2514.058
 70
    32
  0
VERTEX
  8
W78LPLIFT
 62
3
 10
2349.584
 20
-7139.698
 30
-2515.188
 70
    32
  0
VERTEX
  8
W78LPLIFT
 62
3
 10
2342.698
 20
-7131.748
 30
-2513.977
 70
    32
  0
VERTEX
  8
W78LPLIFT
 62
3
 10
2341.990
 20
-7128.404
 30
-2513.908
 70
    32
  0
VERTEX
  8
W78LPLIFT
 62
3
 10
2340.722
 20
-7126.430
 30
-2512.700
 70
    32
  0
VERTEX
  8
W78LPLIFT
 62
3
 10
2341.423
 20
-7123.678
 30
-2513.489
 70
    32
  0
VERTEX
  8
W78LPLIFT
 62
3
 10
2340.575
 20
-7120.691
 30
-2513.627
 70
    32
  0
VERTEX
  8
W78LPLIFT
 62
3
 10
2340.634
 20
-7117.445
 30
-2514.841
 70
    32
  0
VERTEX
  8
W78LPLIFT
 62
3
 10
2341.308
 20
-7108.790
 30
-2514.045
 70
    32
  0
VERTEX
  8
W78LPLIFT
 62
3
 10
2341.971
 20
-7104.565
 30
-2514.305
 70
    32
  0
VERTEX
  8
W78LPLIFT
 62
3
 10
2338.271
 20
-7096.411
 30
-2515.236
 70
    32
  0
VERTEX
  8
W78LPLIFT
 62
3
 10
2331.146
 20
-7092.152
 30
-2515.401
 70
    32
  0
VERTEX
  8
W78LPLIFT
 62
3
 10
2325.469
 20
-7085.970
 30
-2516.159
 70
    32
  0
VERTEX
  8
W78LPLIFT
 62
3
 10
2320.833
 20
-7082.777
 30
-2515.744
 70
    32
  0
VERTEX
  8
W78LPLIFT
 62
3
 10
2311.095
 20
-7079.146
 30
-2514.324
 70
    32
  0
VERTEX
  8
W78LPLIFT
 62
3
 10
2300.768
 20
-7077.873
 30
-2513.943
 70
    32
  0
VERTEX
  8
W78LPLIFT
 62
3
 10
2301.170
 20
-7071.791
 30
-2513.144
 70
    32
  0
VERTEX
  8
W78LPLIFT
 62
3
 10
2301.811
 20
-7069.003
 30
-2513.604
 70
    32
  0
VERTEX
  8
W78LPLIFT
 62
3
 10
2306.321
 20
-7067.351
 30
-2514.498
 70
    32
  0
VERTEX
  8
W78LPLIFT
 62
3
 10
2308.586
 20
-7063.988
 30
-2514.392
 70
    32
  0
VERTEX
  8
W78LPLIFT
 62
3
 10
2314.306
 20
-7061.368
 30
-2513.798
 70
    32
  0
VERTEX
  8
W78LPLIFT
 62
3
 10
2323.538
 20
-7066.392
 30
-2514.373
 70
    32
  0
VERTEX
  8
W78LPLIFT
 62
3
 10
2333.935
 20
-7071.778
 30
-2515.224
 70
    32
  0
VERTEX
  8
W78LPLIFT
 62
3
 10
2337.215
 20
-7070.239
 30
-2515.012
 70
    32
  0
VERTEX
  8
W78LPLIFT
 62
3
 10
2345.775
 20
-7075.958
 30
-2513.592
 70
    32
  0
VERTEX
  8
W78LPLIFT
 62
3
 10
2355.189
 20
-7071.814
 30
-2515.235
 70
    32
  0
VERTEX
  8
W78LPLIFT
 62
3
 10
2365.425
 20
-7065.056
 30
-2513.695
 70
    32
  0
VERTEX
  8
W78LPLIFT
 62
3
 10
2371.060
 20
-7073.925
 30
-2513.438
 70
    32
  0
VERTEX
  8
W78LPLIFT
 62
3
 10
2372.905
 20
-7075.608
 30
-2515.760
 70
    32
  0
VERTEX
  8
W78LPLIFT
 62
3
 10
2374.224
 20
-7081.970
 30
-2516.164
 70
    32
  0
VERTEX
  8
W78LPLIFT
 62
3
 10
2376.776
 20
-7086.249
 30
-2515.910
 70
    32
  0
VERTEX
  8
W78LPLIFT
 62
3
 10
2377.380
 20
-7093.318
 30
-2516.236
 70
    32
  0
VERTEX
  8
W78LPLIFT
 62
3
 10
2375.581
 20
-7100.777
 30
-2515.315
 70
    32
  0
VERTEX
  8
W78LPLIFT
 62
3
 10
2376.754
 20
-7108.174
 30
-2515.811
 70
    32
  0
VERTEX
  8
W78LPLIFT
 62
3
 10
2377.668
 20
-7114.513
 30
-2516.287
 70
    32
  0
VERTEX
  8
W78LPLIFT
 62
3
 10
2379.604
 20
-7121.646
 30
-2514.451
 70
    32
  0
VERTEX
  8
W78LPLIFT
 62
3
 10
2379.905
 20
-7125.652
 30
-2516.426
 70
    32
  0
VERTEX
  8
W78LPLIFT
 62
3
 10
2380.382
 20
-7126.812
 30
-2515.365
 70
    32
  0
VERTEX
  8
W78LPLIFT
 62
3
 10
2383.017
 20
-7130.866
 30
-2515.617
 70
    32
  0
VERTEX
  8
W78LPLIFT
 62
3
 10
2389.537
 20
-7140.574
 30
-2516.152
 70
    32
  0
VERTEX
  8
W78LPLIFT
 62
3
 10
2393.437
 20
-7141.882
 30
-2515.775
 70
    32
  0
VERTEX
  8
W78LPLIFT
 62
3
 10
2401.638
 20
-7153.711
 30
-2515.130
 70
    32
  0
VERTEX
  8
W78LPLIFT
 62
3
 10
2408.309
 20
-7156.906
 30
-2515.360
 70
    32
  0
VERTEX
  8
W78LPLIFT
 62
3
 10
2405.206
 20
-7162.790
 30
-2514.995
 70
    32
  0
VERTEX
  8
W78LPLIFT
 62
3
 10
2407.929
 20
-7169.569
 30
-2516.652
 70
    32
  0
VERTEX
  8
W78LPLIFT
 62
3
 10
2405.615
 20
-7177.055
 30
-2515.976
 70
    32
  0
VERTEX
  8
W78LPLIFT
 62
3
 10
2407.536
 20
-7182.225
 30
-2517.022
 70
    32
  0
VERTEX
  8
W78LPLIFT
 62
3
 10
2412.766
 20
-7187.267
 30
-2517.834
 70
    32
  0
VERTEX
  8
W78LPLIFT
 62
3
 10
2417.353
 20
-7191.208
 30
-2517.905
 70
    32
  0
VERTEX
  8
W78LPLIFT
 62
3
 10
2415.129
 20
-7194.678
 30
-2518.440
 70
    32
  0
VERTEX
  8
W78LPLIFT
 62
3
 10
2413.180
 20
-7197.129
 30
-2518.297
 70
    32
  0
VERTEX
  8
W78LPLIFT
 62
3
 10
2409.362
 20
-7200.245
 30
-2517.140
 70
    32
  0
VERTEX
  8
W78LPLIFT
 62
3
 10
2402.166
 20
-7195.339
 30
-2518.502
 70
    32
  0
VERTEX
  8
W78LPLIFT
 62
3
 10
2398.751
 20
-7194.573
 30
-2515.716
 70
    32
  0
VERTEX
  8
W78LPLIFT
 62
3
 10
2397.331
 20
-7191.780
 30
-2515.481
 70
    32
  0
VERTEX
  8
W78LPLIFT
 62
3
 10
2393.206
 20
-7192.318
 30
-2517.942
 70
    32
  0
VERTEX
  8
W78LPLIFT
 62
3
 10
2389.300
 20
-7198.129
 30
-2516.006
 70
    32
  0
VERTEX
  8
W78LPLIFT
 62
3
 10
2383.263
 20
-7209.451
 30
-2518.201
 70
    32
  0
VERTEX
  8
W78LPLIFT
 62
3
 10
2381.002
 20
-7217.363
 30
-2518.615
 70
    32
  0
SEQEND
  8
W78LPLIFT
  0
POLYLINE
  8
W78LPLIFT
 62
3
 66
     1
 70
     9
  0
VERTEX
  8
W78LPLIFT
 62
3
 10
2091.187
 20
-6955.582
 30
-2539.000
 70
    32
  0
VERTEX
  8
W78LPLIFT
 62
3
 10
2095.655
 20
-6949.019
 30
-2539.000
 70
    32
  0
VERTEX
  8
W78LPLIFT
 62
3
 10
2108.308
 20
-6944.251
 30
-2539.397
 70
    32
  0
VERTEX
  8
W78LPLIFT
 62
3
 10
2118.548
 20
-6954.385
 30
-2539.413
 70
    32
  0
VERTEX
  8
W78LPLIFT
 62
3
 10
2119.070
 20
-6955.529
 30
-2539.415
 70
    32
  0
VERTEX
  8
W78LPLIFT
 62
3
 10
2124.189
 20
-6966.736
 30
-2539.427
 70
    32
  0
VERTEX
  8
W78LPLIFT
 62
3
 10
2124.609
 20
-6967.656
 30
-2539.467
 70
    32
  0
VERTEX
  8
W78LPLIFT
 62
3
 10
2124.725
 20
-6968.116
 30
-2539.487
 70
    32
  0
VERTEX
  8
W78LPLIFT
 62
3
 10
2124.855
 20
-6968.786
 30
-2539.198
 70
    32
  0
VERTEX
  8
W78LPLIFT
 62
3
 10
2126.081
 20
-6974.900
 30
-2538.998
 70
    32
  0
VERTEX
  8
W78LPLIFT
 62
3
 10
2128.753
 20
-6988.226
 30
-2538.601
 70
    32
  0
VERTEX
  8
W78LPLIFT
 62
3
 10
2132.397
 20
-6998.335
 30
-2538.268
 70
    32
  0
VERTEX
  8
W78LPLIFT
 62
3
 10
2140.494
 20
-6999.600
 30
-2538.078
 70
    32
  0
VERTEX
  8
W78LPLIFT
 62
3
 10
2142.109
 20
-7001.550
 30
-2537.996
 70
    32
  0
VERTEX
  8
W78LPLIFT
 62
3
 10
2158.620
 20
-7021.483
 30
-2538.254
 70
    32
  0
VERTEX
  8
W78LPLIFT
 62
3
 10
2160.631
 20
-7023.910
 30
-2538.285
 70
    32
  0
VERTEX
  8
W78LPLIFT
 62
3
 10
2172.979
 20
-7042.526
 30
-2538.919
 70
    32
  0
VERTEX
  8
W78LPLIFT
 62
3
 10
2182.757
 20
-7035.906
 30
-2538.956
 70
    32
  0
VERTEX
  8
W78LPLIFT
 62
3
 10
2170.638
 20
-7018.976
 30
-2538.320
 70
    32
  0
VERTEX
  8
W78LPLIFT
 62
3
 10
2166.534
 20
-7007.167
 30
-2538.208
 70
    32
  0
VERTEX
  8
W78LPLIFT
 62
3
 10
2161.492
 20
-7003.818
 30
-2538.150
 70
    32
  0
VERTEX
  8
W78LPLIFT
 62
3
 10
2156.183
 20
-7000.291
 30
-2538.087
 70
    32
  0
VERTEX
  8
W78LPLIFT
 62
3
 10
2151.163
 20
-6994.224
 30
-2538.009
 70
    32
  0
VERTEX
  8
W78LPLIFT
 62
3
 10
2138.682
 20
-6979.139
 30
-2538.850
 70
    32
  0
VERTEX
  8
W78LPLIFT
 62
3
 10
2137.577
 20
-6978.487
 30
-2539.000
 70
    32
  0
VERTEX
  8
W78LPLIFT
 62
3
 10
2137.002
 20
-6974.011
 30
-2539.583
 70
    32
  0
VERTEX
  8
W78LPLIFT
 62
3
 10
2136.904
 20
-6973.249
 30
-2539.584
 70
    32
  0
VERTEX
  8
W78LPLIFT
 62
3
 10
2138.508
 20
-6970.929
 30
-2539.584
 70
    32
  0
VERTEX
  8
W78LPLIFT
 62
3
 10
2138.163
 20
-6968.384
 30
-2539.585
 70
    32
  0
VERTEX
  8
W78LPLIFT
 62
3
 10
2138.010
 20
-6967.250
 30
-2539.544
 70
    32
  0
VERTEX
  8
W78LPLIFT
 62
3
 10
2137.617
 20
-6964.355
 30
-2539.424
 70
    32
  0
VERTEX
  8
W78LPLIFT
 62
3
 10
2137.178
 20
-6961.112
 30
-2539.420
 70
    32
  0
VERTEX
  8
W78LPLIFT
 62
3
 10
2143.278
 20
-6958.354
 30
-2539.417
 70
    32
  0
VERTEX
  8
W78LPLIFT
 62
3
 10
2145.643
 20
-6959.828
 30
-2538.969
 70
    32
  0
VERTEX
  8
W78LPLIFT
 62
3
 10
2165.231
 20
-6974.790
 30
-2537.962
 70
    32
  0
VERTEX
  8
W78LPLIFT
 62
3
 10
2174.318
 20
-6982.837
 30
-2537.462
 70
    32
  0
VERTEX
  8
W78LPLIFT
 62
3
 10
2174.982
 20
-6983.425
 30
-2537.462
 70
    32
  0
VERTEX
  8
W78LPLIFT
 62
3
 10
2184.494
 20
-6990.296
 30
-2537.462
 70
    32
  0
VERTEX
  8
W78LPLIFT
 62
3
 10
2193.532
 20
-6997.245
 30
-2537.457
 70
    32
  0
VERTEX
  8
W78LPLIFT
 62
3
 10
2202.086
 20
-6987.565
 30
-2537.457
 70
    32
  0
VERTEX
  8
W78LPLIFT
 62
3
 10
2194.087
 20
-6980.837
 30
-2537.455
 70
    32
  0
VERTEX
  8
W78LPLIFT
 62
3
 10
2188.476
 20
-6974.299
 30
-2537.451
 70
    32
  0
VERTEX
  8
W78LPLIFT
 62
3
 10
2183.121
 20
-6971.026
 30
-2537.449
 70
    32
  0
VERTEX
  8
W78LPLIFT
 62
3
 10
2179.682
 20
-6968.924
 30
-2537.616
 70
    32
  0
VERTEX
  8
W78LPLIFT
 62
3
 10
2153.513
 20
-6950.450
 30
-2538.943
 70
    32
  0
VERTEX
  8
W78LPLIFT
 62
3
 10
2140.467
 20
-6938.895
 30
-2539.657
 70
    32
  0
VERTEX
  8
W78LPLIFT
 62
3
 10
2130.822
 20
-6930.370
 30
-2540.000
 70
    32
  0
VERTEX
  8
W78LPLIFT
 62
3
 10
2125.752
 20
-6919.820
 30
-2540.000
 70
    32
  0
VERTEX
  8
W78LPLIFT
 62
3
 10
2112.258
 20
-6926.519
 30
-2540.000
 70
    32
  0
VERTEX
  8
W78LPLIFT
 62
3
 10
2091.711
 20
-6936.720
 30
-2539.000
 70
    32
  0
VERTEX
  8
W78LPLIFT
 62
3
 10
2086.942
 20
-6936.851
 30
-2539.000
 70
    32
  0
VERTEX
  8
W78LPLIFT
 62
3
 10
2082.357
 20
-6931.825
 30
-2540.205
 70
    32
  0
VERTEX
  8
W78LPLIFT
 62
3
 10
2084.765
 20
-6943.474
 30
-2540.103
 70
    32
  0
VERTEX
  8
W78LPLIFT
 62
3
 10
2088.261
 20
-6948.218
 30
-2540.049
 70
    32
  0
SEQEND
  8
W78LPLIFT
  0
ENDSEC
  0
EOF
