999
********************************
999
*   DXF File - Entities Only   *
999
*        3D Data Format        *
999
*     Output from ENVISAGE     *
999
*     02-Jan-2008 11:49:14     *
999
********************************
  0
SECTION 
  2
HEADER
  9
$ACADVER
  1
AC1009
  9
$EXTMIN
 10
-290000.000
 20
-250000.000
 30
-4000.000
  9
$EXTMAX
 10
320000.000
 20
160000.000
 30
6000.000
  0
ENDSEC
  0
SECTION
  2
ENTITIES
  0
POLYLINE
  8
W78LXLIFT
 62
3
 66
     1
 70
     9
  0
VERTEX
  8
W78LXLIFT
 62
3
 10
2388.641
 20
-6838.893
 30
-2486.000
 70
    32
  0
VERTEX
  8
W78LXLIFT
 62
3
 10
2393.088
 20
-6839.011
 30
-2486.000
 70
    32
  0
VERTEX
  8
W78LXLIFT
 62
3
 10
2394.095
 20
-6838.600
 30
-2486.000
 70
    32
  0
VERTEX
  8
W78LXLIFT
 62
3
 10
2398.329
 20
-6837.240
 30
-2486.000
 70
    32
  0
VERTEX
  8
W78LXLIFT
 62
3
 10
2400.508
 20
-6839.022
 30
-2486.000
 70
    32
  0
VERTEX
  8
W78LXLIFT
 62
3
 10
2402.823
 20
-6841.139
 30
-2486.000
 70
    32
  0
VERTEX
  8
W78LXLIFT
 62
3
 10
2410.096
 20
-6846.598
 30
-2486.000
 70
    32
  0
VERTEX
  8
W78LXLIFT
 62
3
 10
2410.133
 20
-6851.258
 30
-2486.000
 70
    32
  0
VERTEX
  8
W78LXLIFT
 62
3
 10
2410.752
 20
-6854.184
 30
-2486.000
 70
    32
  0
VERTEX
  8
W78LXLIFT
 62
3
 10
2410.397
 20
-6857.714
 30
-2486.000
 70
    32
  0
VERTEX
  8
W78LXLIFT
 62
3
 10
2407.940
 20
-6858.971
 30
-2486.000
 70
    32
  0
VERTEX
  8
W78LXLIFT
 62
3
 10
2404.920
 20
-6858.569
 30
-2486.000
 70
    32
  0
VERTEX
  8
W78LXLIFT
 62
3
 10
2403.218
 20
-6859.816
 30
-2486.000
 70
    32
  0
VERTEX
  8
W78LXLIFT
 62
3
 10
2399.985
 20
-6862.841
 30
-2486.000
 70
    32
  0
VERTEX
  8
W78LXLIFT
 62
3
 10
2397.013
 20
-6862.949
 30
-2486.000
 70
    32
  0
VERTEX
  8
W78LXLIFT
 62
3
 10
2393.742
 20
-6862.948
 30
-2486.000
 70
    32
  0
VERTEX
  8
W78LXLIFT
 62
3
 10
2390.103
 20
-6862.891
 30
-2486.000
 70
    32
  0
VERTEX
  8
W78LXLIFT
 62
3
 10
2386.857
 20
-6862.329
 30
-2486.000
 70
    32
  0
VERTEX
  8
W78LXLIFT
 62
3
 10
2385.600
 20
-6859.871
 30
-2486.000
 70
    32
  0
VERTEX
  8
W78LXLIFT
 62
3
 10
2384.475
 20
-6856.553
 30
-2486.000
 70
    32
  0
VERTEX
  8
W78LXLIFT
 62
3
 10
2383.682
 20
-6853.538
 30
-2486.000
 70
    32
  0
VERTEX
  8
W78LXLIFT
 62
3
 10
2382.883
 20
-6850.962
 30
-2486.000
 70
    32
  0
VERTEX
  8
W78LXLIFT
 62
3
 10
2382.794
 20
-6847.867
 30
-2486.000
 70
    32
  0
VERTEX
  8
W78LXLIFT
 62
3
 10
2385.521
 20
-6842.815
 30
-2486.000
 70
    32
  0
SEQEND
  8
W78LXLIFT
  0
POLYLINE
  8
W78LXLIFT
 62
3
 66
     1
 70
     9
  0
VERTEX
  8
W78LXLIFT
 62
3
 10
2389.679
 20
-6837.647
 30
-2475.000
 70
    32
  0
VERTEX
  8
W78LXLIFT
 62
3
 10
2394.386
 20
-6838.120
 30
-2475.000
 70
    32
  0
VERTEX
  8
W78LXLIFT
 62
3
 10
2398.975
 20
-6836.500
 30
-2475.000
 70
    32
  0
VERTEX
  8
W78LXLIFT
 62
3
 10
2401.820
 20
-6838.447
 30
-2475.000
 70
    32
  0
VERTEX
  8
W78LXLIFT
 62
3
 10
2403.927
 20
-6840.281
 30
-2475.000
 70
    32
  0
VERTEX
  8
W78LXLIFT
 62
3
 10
2411.077
 20
-6845.721
 30
-2475.000
 70
    32
  0
VERTEX
  8
W78LXLIFT
 62
3
 10
2411.313
 20
-6849.909
 30
-2475.000
 70
    32
  0
VERTEX
  8
W78LXLIFT
 62
3
 10
2411.360
 20
-6853.689
 30
-2475.000
 70
    32
  0
VERTEX
  8
W78LXLIFT
 62
3
 10
2411.572
 20
-6856.804
 30
-2475.000
 70
    32
  0
VERTEX
  8
W78LXLIFT
 62
3
 10
2408.869
 20
-6858.023
 30
-2475.000
 70
    32
  0
VERTEX
  8
W78LXLIFT
 62
3
 10
2405.353
 20
-6857.985
 30
-2475.000
 70
    32
  0
VERTEX
  8
W78LXLIFT
 62
3
 10
2403.632
 20
-6859.355
 30
-2475.000
 70
    32
  0
VERTEX
  8
W78LXLIFT
 62
3
 10
2401.340
 20
-6861.581
 30
-2475.000
 70
    32
  0
VERTEX
  8
W78LXLIFT
 62
3
 10
2399.667
 20
-6861.826
 30
-2475.000
 70
    32
  0
VERTEX
  8
W78LXLIFT
 62
3
 10
2396.288
 20
-6862.124
 30
-2475.000
 70
    32
  0
VERTEX
  8
W78LXLIFT
 62
3
 10
2392.720
 20
-6862.014
 30
-2475.000
 70
    32
  0
VERTEX
  8
W78LXLIFT
 62
3
 10
2389.312
 20
-6861.678
 30
-2475.000
 70
    32
  0
VERTEX
  8
W78LXLIFT
 62
3
 10
2386.501
 20
-6858.290
 30
-2475.000
 70
    32
  0
VERTEX
  8
W78LXLIFT
 62
3
 10
2385.173
 20
-6854.249
 30
-2475.000
 70
    32
  0
VERTEX
  8
W78LXLIFT
 62
3
 10
2384.124
 20
-6850.440
 30
-2475.000
 70
    32
  0
VERTEX
  8
W78LXLIFT
 62
3
 10
2383.794
 20
-6846.867
 30
-2475.000
 70
    32
  0
VERTEX
  8
W78LXLIFT
 62
3
 10
2386.025
 20
-6842.179
 30
-2475.000
 70
    32
  0
SEQEND
  8
W78LXLIFT
  0
POLYLINE
  8
W78LXLIFT
 62
3
 66
     1
 70
     9
  0
VERTEX
  8
W78LXLIFT
 62
3
 10
2172.000
 20
-6908.000
 30
-2456.000
 70
    32
  0
VERTEX
  8
W78LXLIFT
 62
3
 10
2169.000
 20
-6910.000
 30
-2456.000
 70
    32
  0
VERTEX
  8
W78LXLIFT
 62
3
 10
2166.000
 20
-6911.000
 30
-2456.000
 70
    32
  0
VERTEX
  8
W78LXLIFT
 62
3
 10
2164.000
 20
-6911.000
 30
-2456.000
 70
    32
  0
VERTEX
  8
W78LXLIFT
 62
3
 10
2163.000
 20
-6910.000
 30
-2456.000
 70
    32
  0
VERTEX
  8
W78LXLIFT
 62
3
 10
2160.000
 20
-6906.000
 30
-2456.000
 70
    32
  0
VERTEX
  8
W78LXLIFT
 62
3
 10
2153.000
 20
-6904.000
 30
-2456.000
 70
    32
  0
VERTEX
  8
W78LXLIFT
 62
3
 10
2153.000
 20
-6903.000
 30
-2456.000
 70
    32
  0
VERTEX
  8
W78LXLIFT
 62
3
 10
2152.000
 20
-6900.000
 30
-2456.000
 70
    32
  0
VERTEX
  8
W78LXLIFT
 62
3
 10
2151.000
 20
-6896.000
 30
-2456.000
 70
    32
  0
VERTEX
  8
W78LXLIFT
 62
3
 10
2150.000
 20
-6895.000
 30
-2456.000
 70
    32
  0
VERTEX
  8
W78LXLIFT
 62
3
 10
2149.000
 20
-6894.000
 30
-2456.000
 70
    32
  0
VERTEX
  8
W78LXLIFT
 62
3
 10
2146.000
 20
-6892.000
 30
-2456.000
 70
    32
  0
VERTEX
  8
W78LXLIFT
 62
3
 10
2141.000
 20
-6889.000
 30
-2456.000
 70
    32
  0
VERTEX
  8
W78LXLIFT
 62
3
 10
2138.000
 20
-6881.000
 30
-2456.000
 70
    32
  0
VERTEX
  8
W78LXLIFT
 62
3
 10
2138.000
 20
-6880.000
 30
-2456.000
 70
    32
  0
VERTEX
  8
W78LXLIFT
 62
3
 10
2139.000
 20
-6877.000
 30
-2456.000
 70
    32
  0
VERTEX
  8
W78LXLIFT
 62
3
 10
2137.000
 20
-6871.000
 30
-2456.000
 70
    32
  0
VERTEX
  8
W78LXLIFT
 62
3
 10
2137.000
 20
-6870.000
 30
-2456.000
 70
    32
  0
VERTEX
  8
W78LXLIFT
 62
3
 10
2137.000
 20
-6869.000
 30
-2456.000
 70
    32
  0
VERTEX
  8
W78LXLIFT
 62
3
 10
2138.000
 20
-6867.000
 30
-2456.000
 70
    32
  0
VERTEX
  8
W78LXLIFT
 62
3
 10
2140.000
 20
-6866.000
 30
-2456.000
 70
    32
  0
VERTEX
  8
W78LXLIFT
 62
3
 10
2143.000
 20
-6864.000
 30
-2456.000
 70
    32
  0
VERTEX
  8
W78LXLIFT
 62
3
 10
2146.000
 20
-6863.000
 30
-2456.000
 70
    32
  0
VERTEX
  8
W78LXLIFT
 62
3
 10
2149.000
 20
-6862.000
 30
-2456.000
 70
    32
  0
VERTEX
  8
W78LXLIFT
 62
3
 10
2151.000
 20
-6863.000
 30
-2456.000
 70
    32
  0
VERTEX
  8
W78LXLIFT
 62
3
 10
2153.000
 20
-6864.000
 30
-2456.000
 70
    32
  0
VERTEX
  8
W78LXLIFT
 62
3
 10
2156.000
 20
-6866.000
 30
-2456.000
 70
    32
  0
VERTEX
  8
W78LXLIFT
 62
3
 10
2158.000
 20
-6866.000
 30
-2456.000
 70
    32
  0
VERTEX
  8
W78LXLIFT
 62
3
 10
2164.000
 20
-6864.000
 30
-2456.000
 70
    32
  0
VERTEX
  8
W78LXLIFT
 62
3
 10
2174.000
 20
-6872.000
 30
-2456.000
 70
    32
  0
VERTEX
  8
W78LXLIFT
 62
3
 10
2173.000
 20
-6874.000
 30
-2456.000
 70
    32
  0
VERTEX
  8
W78LXLIFT
 62
3
 10
2172.000
 20
-6879.000
 30
-2456.000
 70
    32
  0
VERTEX
  8
W78LXLIFT
 62
3
 10
2172.000
 20
-6886.000
 30
-2456.000
 70
    32
  0
VERTEX
  8
W78LXLIFT
 62
3
 10
2172.000
 20
-6892.000
 30
-2456.000
 70
    32
  0
VERTEX
  8
W78LXLIFT
 62
3
 10
2173.000
 20
-6898.000
 30
-2456.000
 70
    32
  0
VERTEX
  8
W78LXLIFT
 62
3
 10
2177.000
 20
-6905.000
 30
-2456.000
 70
    32
  0
SEQEND
  8
W78LXLIFT
  0
POLYLINE
  8
W78LXLIFT
 62
3
 66
     1
 70
     9
  0
VERTEX
  8
W78LXLIFT
 62
3
 10
2062.000
 20
-6814.000
 30
-2435.000
 70
    32
  0
VERTEX
  8
W78LXLIFT
 62
3
 10
2061.000
 20
-6820.000
 30
-2435.000
 70
    32
  0
VERTEX
  8
W78LXLIFT
 62
3
 10
2061.000
 20
-6826.000
 30
-2435.000
 70
    32
  0
VERTEX
  8
W78LXLIFT
 62
3
 10
2059.000
 20
-6836.000
 30
-2435.000
 70
    32
  0
VERTEX
  8
W78LXLIFT
 62
3
 10
2058.000
 20
-6845.000
 30
-2435.000
 70
    32
  0
VERTEX
  8
W78LXLIFT
 62
3
 10
2057.000
 20
-6851.000
 30
-2435.000
 70
    32
  0
VERTEX
  8
W78LXLIFT
 62
3
 10
2069.000
 20
-6852.000
 30
-2435.000
 70
    32
  0
VERTEX
  8
W78LXLIFT
 62
3
 10
2073.000
 20
-6864.000
 30
-2435.000
 70
    32
  0
VERTEX
  8
W78LXLIFT
 62
3
 10
2043.000
 20
-6895.000
 30
-2435.000
 70
    32
  0
VERTEX
  8
W78LXLIFT
 62
3
 10
2036.000
 20
-6893.000
 30
-2435.000
 70
    32
  0
VERTEX
  8
W78LXLIFT
 62
3
 10
2029.000
 20
-6882.000
 30
-2435.000
 70
    32
  0
VERTEX
  8
W78LXLIFT
 62
3
 10
2029.000
 20
-6862.000
 30
-2435.000
 70
    32
  0
VERTEX
  8
W78LXLIFT
 62
3
 10
2031.000
 20
-6860.000
 30
-2435.000
 70
    32
  0
VERTEX
  8
W78LXLIFT
 62
3
 10
2026.000
 20
-6848.000
 30
-2435.000
 70
    32
  0
VERTEX
  8
W78LXLIFT
 62
3
 10
2021.000
 20
-6848.000
 30
-2435.000
 70
    32
  0
VERTEX
  8
W78LXLIFT
 62
3
 10
2017.000
 20
-6850.000
 30
-2435.000
 70
    32
  0
VERTEX
  8
W78LXLIFT
 62
3
 10
2014.000
 20
-6852.000
 30
-2435.000
 70
    32
  0
VERTEX
  8
W78LXLIFT
 62
3
 10
2009.000
 20
-6855.000
 30
-2435.000
 70
    32
  0
VERTEX
  8
W78LXLIFT
 62
3
 10
2000.000
 20
-6847.000
 30
-2435.000
 70
    32
  0
VERTEX
  8
W78LXLIFT
 62
3
 10
1999.000
 20
-6846.000
 30
-2435.000
 70
    32
  0
VERTEX
  8
W78LXLIFT
 62
3
 10
1997.000
 20
-6839.000
 30
-2435.000
 70
    32
  0
VERTEX
  8
W78LXLIFT
 62
3
 10
1995.000
 20
-6831.000
 30
-2435.000
 70
    32
  0
VERTEX
  8
W78LXLIFT
 62
3
 10
1997.000
 20
-6828.000
 30
-2435.000
 70
    32
  0
VERTEX
  8
W78LXLIFT
 62
3
 10
2008.000
 20
-6818.000
 30
-2435.000
 70
    32
  0
VERTEX
  8
W78LXLIFT
 62
3
 10
2013.000
 20
-6821.000
 30
-2435.000
 70
    32
  0
VERTEX
  8
W78LXLIFT
 62
3
 10
2018.000
 20
-6816.000
 30
-2435.000
 70
    32
  0
VERTEX
  8
W78LXLIFT
 62
3
 10
2021.000
 20
-6812.000
 30
-2435.000
 70
    32
  0
VERTEX
  8
W78LXLIFT
 62
3
 10
2023.000
 20
-6811.000
 30
-2435.000
 70
    32
  0
VERTEX
  8
W78LXLIFT
 62
3
 10
2027.000
 20
-6809.000
 30
-2435.000
 70
    32
  0
VERTEX
  8
W78LXLIFT
 62
3
 10
2025.000
 20
-6802.000
 30
-2435.000
 70
    32
  0
VERTEX
  8
W78LXLIFT
 62
3
 10
2032.000
 20
-6795.000
 30
-2435.000
 70
    32
  0
VERTEX
  8
W78LXLIFT
 62
3
 10
2033.000
 20
-6794.000
 30
-2435.000
 70
    32
  0
VERTEX
  8
W78LXLIFT
 62
3
 10
2034.000
 20
-6794.000
 30
-2435.000
 70
    32
  0
VERTEX
  8
W78LXLIFT
 62
3
 10
2041.000
 20
-6794.000
 30
-2435.000
 70
    32
  0
VERTEX
  8
W78LXLIFT
 62
3
 10
2044.000
 20
-6799.000
 30
-2435.000
 70
    32
  0
VERTEX
  8
W78LXLIFT
 62
3
 10
2054.000
 20
-6801.000
 30
-2435.000
 70
    32
  0
VERTEX
  8
W78LXLIFT
 62
3
 10
2056.000
 20
-6807.000
 30
-2435.000
 70
    32
  0
SEQEND
  8
W78LXLIFT
  0
POLYLINE
  8
W78LXLIFT
 62
3
 66
     1
 70
     9
  0
VERTEX
  8
W78LXLIFT
 62
3
 10
2018.095
 20
-6708.676
 30
-2571.000
 70
    32
  0
VERTEX
  8
W78LXLIFT
 62
3
 10
2014.422
 20
-6694.520
 30
-2571.000
 70
    32
  0
VERTEX
  8
W78LXLIFT
 62
3
 10
2030.481
 20
-6686.732
 30
-2571.000
 70
    32
  0
VERTEX
  8
W78LXLIFT
 62
3
 10
2042.008
 20
-6687.183
 30
-2571.000
 70
    32
  0
VERTEX
  8
W78LXLIFT
 62
3
 10
2052.161
 20
-6719.611
 30
-2571.000
 70
    32
  0
VERTEX
  8
W78LXLIFT
 62
3
 10
2056.977
 20
-6725.186
 30
-2571.000
 70
    32
  0
VERTEX
  8
W78LXLIFT
 62
3
 10
2063.604
 20
-6730.376
 30
-2571.000
 70
    32
  0
VERTEX
  8
W78LXLIFT
 62
3
 10
2070.854
 20
-6743.272
 30
-2571.000
 70
    32
  0
VERTEX
  8
W78LXLIFT
 62
3
 10
2086.035
 20
-6757.996
 30
-2571.000
 70
    32
  0
VERTEX
  8
W78LXLIFT
 62
3
 10
2079.117
 20
-6778.550
 30
-2571.000
 70
    32
  0
VERTEX
  8
W78LXLIFT
 62
3
 10
2078.449
 20
-6798.920
 30
-2571.000
 70
    32
  0
VERTEX
  8
W78LXLIFT
 62
3
 10
2060.472
 20
-6812.089
 30
-2571.000
 70
    32
  0
VERTEX
  8
W78LXLIFT
 62
3
 10
2023.932
 20
-6823.057
 30
-2571.000
 70
    32
  0
VERTEX
  8
W78LXLIFT
 62
3
 10
2015.321
 20
-6818.587
 30
-2571.000
 70
    32
  0
VERTEX
  8
W78LXLIFT
 62
3
 10
2013.366
 20
-6809.347
 30
-2571.000
 70
    32
  0
VERTEX
  8
W78LXLIFT
 62
3
 10
2023.392
 20
-6805.036
 30
-2571.000
 70
    32
  0
VERTEX
  8
W78LXLIFT
 62
3
 10
2027.760
 20
-6799.430
 30
-2571.000
 70
    32
  0
VERTEX
  8
W78LXLIFT
 62
3
 10
2026.172
 20
-6790.548
 30
-2571.000
 70
    32
  0
VERTEX
  8
W78LXLIFT
 62
3
 10
2028.728
 20
-6788.467
 30
-2571.000
 70
    32
  0
VERTEX
  8
W78LXLIFT
 62
3
 10
2031.842
 20
-6786.290
 30
-2571.000
 70
    32
  0
VERTEX
  8
W78LXLIFT
 62
3
 10
2035.237
 20
-6784.640
 30
-2571.000
 70
    32
  0
VERTEX
  8
W78LXLIFT
 62
3
 10
2038.397
 20
-6782.953
 30
-2571.000
 70
    32
  0
VERTEX
  8
W78LXLIFT
 62
3
 10
2041.193
 20
-6780.486
 30
-2571.000
 70
    32
  0
VERTEX
  8
W78LXLIFT
 62
3
 10
2021.904
 20
-6733.300
 30
-2571.000
 70
    32
  0
VERTEX
  8
W78LXLIFT
 62
3
 10
2020.394
 20
-6730.953
 30
-2571.000
 70
    32
  0
VERTEX
  8
W78LXLIFT
 62
3
 10
2019.091
 20
-6723.747
 30
-2571.000
 70
    32
  0
VERTEX
  8
W78LXLIFT
 62
3
 10
2017.841
 20
-6717.756
 30
-2571.000
 70
    32
  0
SEQEND
  8
W78LXLIFT
  0
POLYLINE
  8
W78LXLIFT
 62
3
 66
     1
 70
     9
  0
VERTEX
  8
W78LXLIFT
 62
3
 10
2276.000
 20
-6622.000
 30
-2467.000
 70
    32
  0
VERTEX
  8
W78LXLIFT
 62
3
 10
2276.000
 20
-6624.000
 30
-2467.000
 70
    32
  0
VERTEX
  8
W78LXLIFT
 62
3
 10
2277.000
 20
-6635.000
 30
-2467.000
 70
    32
  0
VERTEX
  8
W78LXLIFT
 62
3
 10
2280.000
 20
-6638.000
 30
-2467.000
 70
    32
  0
VERTEX
  8
W78LXLIFT
 62
3
 10
2281.000
 20
-6640.000
 30
-2467.000
 70
    32
  0
VERTEX
  8
W78LXLIFT
 62
3
 10
2283.000
 20
-6644.000
 30
-2467.000
 70
    32
  0
VERTEX
  8
W78LXLIFT
 62
3
 10
2284.000
 20
-6647.000
 30
-2467.000
 70
    32
  0
VERTEX
  8
W78LXLIFT
 62
3
 10
2285.000
 20
-6651.000
 30
-2467.000
 70
    32
  0
VERTEX
  8
W78LXLIFT
 62
3
 10
2285.000
 20
-6656.000
 30
-2467.000
 70
    32
  0
VERTEX
  8
W78LXLIFT
 62
3
 10
2286.000
 20
-6665.000
 30
-2467.000
 70
    32
  0
VERTEX
  8
W78LXLIFT
 62
3
 10
2273.000
 20
-6672.000
 30
-2467.000
 70
    32
  0
VERTEX
  8
W78LXLIFT
 62
3
 10
2272.000
 20
-6668.000
 30
-2467.000
 70
    32
  0
VERTEX
  8
W78LXLIFT
 62
3
 10
2271.000
 20
-6666.000
 30
-2467.000
 70
    32
  0
VERTEX
  8
W78LXLIFT
 62
3
 10
2270.000
 20
-6663.000
 30
-2467.000
 70
    32
  0
VERTEX
  8
W78LXLIFT
 62
3
 10
2267.000
 20
-6659.000
 30
-2467.000
 70
    32
  0
VERTEX
  8
W78LXLIFT
 62
3
 10
2267.000
 20
-6658.000
 30
-2467.000
 70
    32
  0
VERTEX
  8
W78LXLIFT
 62
3
 10
2265.000
 20
-6653.000
 30
-2467.000
 70
    32
  0
VERTEX
  8
W78LXLIFT
 62
3
 10
2263.000
 20
-6646.000
 30
-2467.000
 70
    32
  0
VERTEX
  8
W78LXLIFT
 62
3
 10
2261.000
 20
-6639.000
 30
-2467.000
 70
    32
  0
VERTEX
  8
W78LXLIFT
 62
3
 10
2257.000
 20
-6636.000
 30
-2467.000
 70
    32
  0
VERTEX
  8
W78LXLIFT
 62
3
 10
2248.000
 20
-6627.000
 30
-2467.000
 70
    32
  0
VERTEX
  8
W78LXLIFT
 62
3
 10
2248.000
 20
-6621.000
 30
-2467.000
 70
    32
  0
VERTEX
  8
W78LXLIFT
 62
3
 10
2249.000
 20
-6617.000
 30
-2467.000
 70
    32
  0
VERTEX
  8
W78LXLIFT
 62
3
 10
2249.000
 20
-6611.000
 30
-2467.000
 70
    32
  0
VERTEX
  8
W78LXLIFT
 62
3
 10
2248.000
 20
-6604.000
 30
-2467.000
 70
    32
  0
VERTEX
  8
W78LXLIFT
 62
3
 10
2247.000
 20
-6592.000
 30
-2467.000
 70
    32
  0
VERTEX
  8
W78LXLIFT
 62
3
 10
2244.000
 20
-6581.000
 30
-2467.000
 70
    32
  0
VERTEX
  8
W78LXLIFT
 62
3
 10
2244.000
 20
-6578.000
 30
-2467.000
 70
    32
  0
VERTEX
  8
W78LXLIFT
 62
3
 10
2243.000
 20
-6573.000
 30
-2467.000
 70
    32
  0
VERTEX
  8
W78LXLIFT
 62
3
 10
2241.000
 20
-6568.000
 30
-2467.000
 70
    32
  0
VERTEX
  8
W78LXLIFT
 62
3
 10
2238.000
 20
-6563.000
 30
-2467.000
 70
    32
  0
VERTEX
  8
W78LXLIFT
 62
3
 10
2233.000
 20
-6557.000
 30
-2467.000
 70
    32
  0
VERTEX
  8
W78LXLIFT
 62
3
 10
2228.000
 20
-6549.000
 30
-2467.000
 70
    32
  0
VERTEX
  8
W78LXLIFT
 62
3
 10
2226.000
 20
-6544.000
 30
-2467.000
 70
    32
  0
VERTEX
  8
W78LXLIFT
 62
3
 10
2224.000
 20
-6539.000
 30
-2467.000
 70
    32
  0
VERTEX
  8
W78LXLIFT
 62
3
 10
2227.000
 20
-6536.000
 30
-2467.000
 70
    32
  0
VERTEX
  8
W78LXLIFT
 62
3
 10
2229.000
 20
-6533.000
 30
-2467.000
 70
    32
  0
VERTEX
  8
W78LXLIFT
 62
3
 10
2232.000
 20
-6532.000
 30
-2467.000
 70
    32
  0
VERTEX
  8
W78LXLIFT
 62
3
 10
2237.000
 20
-6530.000
 30
-2467.000
 70
    32
  0
VERTEX
  8
W78LXLIFT
 62
3
 10
2240.000
 20
-6528.000
 30
-2467.000
 70
    32
  0
VERTEX
  8
W78LXLIFT
 62
3
 10
2244.000
 20
-6527.000
 30
-2467.000
 70
    32
  0
VERTEX
  8
W78LXLIFT
 62
3
 10
2247.000
 20
-6527.000
 30
-2467.000
 70
    32
  0
VERTEX
  8
W78LXLIFT
 62
3
 10
2250.000
 20
-6529.000
 30
-2467.000
 70
    32
  0
VERTEX
  8
W78LXLIFT
 62
3
 10
2254.000
 20
-6533.000
 30
-2467.000
 70
    32
  0
VERTEX
  8
W78LXLIFT
 62
3
 10
2258.000
 20
-6540.000
 30
-2467.000
 70
    32
  0
VERTEX
  8
W78LXLIFT
 62
3
 10
2258.000
 20
-6545.000
 30
-2467.000
 70
    32
  0
VERTEX
  8
W78LXLIFT
 62
3
 10
2259.000
 20
-6549.000
 30
-2467.000
 70
    32
  0
VERTEX
  8
W78LXLIFT
 62
3
 10
2262.000
 20
-6552.000
 30
-2467.000
 70
    32
  0
VERTEX
  8
W78LXLIFT
 62
3
 10
2266.000
 20
-6554.000
 30
-2467.000
 70
    32
  0
VERTEX
  8
W78LXLIFT
 62
3
 10
2269.000
 20
-6558.000
 30
-2467.000
 70
    32
  0
VERTEX
  8
W78LXLIFT
 62
3
 10
2273.000
 20
-6563.000
 30
-2467.000
 70
    32
  0
VERTEX
  8
W78LXLIFT
 62
3
 10
2276.000
 20
-6568.000
 30
-2467.000
 70
    32
  0
VERTEX
  8
W78LXLIFT
 62
3
 10
2278.000
 20
-6570.000
 30
-2467.000
 70
    32
  0
VERTEX
  8
W78LXLIFT
 62
3
 10
2279.000
 20
-6572.000
 30
-2467.000
 70
    32
  0
VERTEX
  8
W78LXLIFT
 62
3
 10
2280.000
 20
-6575.000
 30
-2467.000
 70
    32
  0
VERTEX
  8
W78LXLIFT
 62
3
 10
2280.000
 20
-6578.000
 30
-2467.000
 70
    32
  0
VERTEX
  8
W78LXLIFT
 62
3
 10
2278.000
 20
-6586.000
 30
-2467.000
 70
    32
  0
VERTEX
  8
W78LXLIFT
 62
3
 10
2277.000
 20
-6592.000
 30
-2467.000
 70
    32
  0
VERTEX
  8
W78LXLIFT
 62
3
 10
2278.000
 20
-6596.000
 30
-2467.000
 70
    32
  0
VERTEX
  8
W78LXLIFT
 62
3
 10
2276.000
 20
-6601.000
 30
-2467.000
 70
    32
  0
VERTEX
  8
W78LXLIFT
 62
3
 10
2275.000
 20
-6607.000
 30
-2467.000
 70
    32
  0
VERTEX
  8
W78LXLIFT
 62
3
 10
2278.000
 20
-6611.000
 30
-2467.000
 70
    32
  0
VERTEX
  8
W78LXLIFT
 62
3
 10
2280.000
 20
-6617.000
 30
-2467.000
 70
    32
  0
VERTEX
  8
W78LXLIFT
 62
3
 10
2279.000
 20
-6619.000
 30
-2467.000
 70
    32
  0
VERTEX
  8
W78LXLIFT
 62
3
 10
2278.000
 20
-6620.000
 30
-2467.000
 70
    32
  0
SEQEND
  8
W78LXLIFT
  0
POLYLINE
  8
W78LXLIFT
 62
3
 66
     1
 70
     9
  0
VERTEX
  8
W78LXLIFT
 62
3
 10
2277.000
 20
-6621.000
 30
-2457.000
 70
    32
  0
VERTEX
  8
W78LXLIFT
 62
3
 10
2277.000
 20
-6623.000
 30
-2457.000
 70
    32
  0
VERTEX
  8
W78LXLIFT
 62
3
 10
2278.000
 20
-6634.000
 30
-2457.000
 70
    32
  0
VERTEX
  8
W78LXLIFT
 62
3
 10
2281.000
 20
-6637.000
 30
-2457.000
 70
    32
  0
VERTEX
  8
W78LXLIFT
 62
3
 10
2282.000
 20
-6639.000
 30
-2457.000
 70
    32
  0
VERTEX
  8
W78LXLIFT
 62
3
 10
2284.000
 20
-6643.000
 30
-2457.000
 70
    32
  0
VERTEX
  8
W78LXLIFT
 62
3
 10
2285.000
 20
-6646.000
 30
-2457.000
 70
    32
  0
VERTEX
  8
W78LXLIFT
 62
3
 10
2286.000
 20
-6650.000
 30
-2457.000
 70
    32
  0
VERTEX
  8
W78LXLIFT
 62
3
 10
2286.000
 20
-6655.000
 30
-2457.000
 70
    32
  0
VERTEX
  8
W78LXLIFT
 62
3
 10
2287.000
 20
-6664.000
 30
-2457.000
 70
    32
  0
VERTEX
  8
W78LXLIFT
 62
3
 10
2274.000
 20
-6671.000
 30
-2457.000
 70
    32
  0
VERTEX
  8
W78LXLIFT
 62
3
 10
2273.000
 20
-6667.000
 30
-2457.000
 70
    32
  0
VERTEX
  8
W78LXLIFT
 62
3
 10
2272.000
 20
-6665.000
 30
-2457.000
 70
    32
  0
VERTEX
  8
W78LXLIFT
 62
3
 10
2271.000
 20
-6662.000
 30
-2457.000
 70
    32
  0
VERTEX
  8
W78LXLIFT
 62
3
 10
2268.000
 20
-6658.000
 30
-2457.000
 70
    32
  0
VERTEX
  8
W78LXLIFT
 62
3
 10
2268.000
 20
-6657.000
 30
-2457.000
 70
    32
  0
VERTEX
  8
W78LXLIFT
 62
3
 10
2266.000
 20
-6652.000
 30
-2457.000
 70
    32
  0
VERTEX
  8
W78LXLIFT
 62
3
 10
2264.000
 20
-6645.000
 30
-2457.000
 70
    32
  0
VERTEX
  8
W78LXLIFT
 62
3
 10
2262.000
 20
-6638.000
 30
-2457.000
 70
    32
  0
VERTEX
  8
W78LXLIFT
 62
3
 10
2258.000
 20
-6635.000
 30
-2457.000
 70
    32
  0
VERTEX
  8
W78LXLIFT
 62
3
 10
2249.000
 20
-6626.000
 30
-2457.000
 70
    32
  0
VERTEX
  8
W78LXLIFT
 62
3
 10
2249.000
 20
-6620.000
 30
-2457.000
 70
    32
  0
VERTEX
  8
W78LXLIFT
 62
3
 10
2250.000
 20
-6616.000
 30
-2457.000
 70
    32
  0
VERTEX
  8
W78LXLIFT
 62
3
 10
2250.000
 20
-6610.000
 30
-2457.000
 70
    32
  0
VERTEX
  8
W78LXLIFT
 62
3
 10
2249.000
 20
-6603.000
 30
-2457.000
 70
    32
  0
VERTEX
  8
W78LXLIFT
 62
3
 10
2248.000
 20
-6591.000
 30
-2457.000
 70
    32
  0
VERTEX
  8
W78LXLIFT
 62
3
 10
2245.000
 20
-6580.000
 30
-2457.000
 70
    32
  0
VERTEX
  8
W78LXLIFT
 62
3
 10
2245.000
 20
-6577.000
 30
-2457.000
 70
    32
  0
VERTEX
  8
W78LXLIFT
 62
3
 10
2244.000
 20
-6572.000
 30
-2457.000
 70
    32
  0
VERTEX
  8
W78LXLIFT
 62
3
 10
2242.000
 20
-6567.000
 30
-2457.000
 70
    32
  0
VERTEX
  8
W78LXLIFT
 62
3
 10
2239.000
 20
-6562.000
 30
-2457.000
 70
    32
  0
VERTEX
  8
W78LXLIFT
 62
3
 10
2234.000
 20
-6556.000
 30
-2457.000
 70
    32
  0
VERTEX
  8
W78LXLIFT
 62
3
 10
2229.000
 20
-6548.000
 30
-2457.000
 70
    32
  0
VERTEX
  8
W78LXLIFT
 62
3
 10
2227.000
 20
-6543.000
 30
-2457.000
 70
    32
  0
VERTEX
  8
W78LXLIFT
 62
3
 10
2225.000
 20
-6538.000
 30
-2457.000
 70
    32
  0
VERTEX
  8
W78LXLIFT
 62
3
 10
2228.000
 20
-6535.000
 30
-2457.000
 70
    32
  0
VERTEX
  8
W78LXLIFT
 62
3
 10
2230.000
 20
-6532.000
 30
-2457.000
 70
    32
  0
VERTEX
  8
W78LXLIFT
 62
3
 10
2233.000
 20
-6531.000
 30
-2457.000
 70
    32
  0
VERTEX
  8
W78LXLIFT
 62
3
 10
2238.000
 20
-6529.000
 30
-2457.000
 70
    32
  0
VERTEX
  8
W78LXLIFT
 62
3
 10
2241.000
 20
-6527.000
 30
-2457.000
 70
    32
  0
VERTEX
  8
W78LXLIFT
 62
3
 10
2245.000
 20
-6526.000
 30
-2457.000
 70
    32
  0
VERTEX
  8
W78LXLIFT
 62
3
 10
2248.000
 20
-6526.000
 30
-2457.000
 70
    32
  0
VERTEX
  8
W78LXLIFT
 62
3
 10
2251.000
 20
-6528.000
 30
-2457.000
 70
    32
  0
VERTEX
  8
W78LXLIFT
 62
3
 10
2255.000
 20
-6532.000
 30
-2457.000
 70
    32
  0
VERTEX
  8
W78LXLIFT
 62
3
 10
2259.000
 20
-6539.000
 30
-2457.000
 70
    32
  0
VERTEX
  8
W78LXLIFT
 62
3
 10
2259.000
 20
-6544.000
 30
-2457.000
 70
    32
  0
VERTEX
  8
W78LXLIFT
 62
3
 10
2260.000
 20
-6548.000
 30
-2457.000
 70
    32
  0
VERTEX
  8
W78LXLIFT
 62
3
 10
2263.000
 20
-6551.000
 30
-2457.000
 70
    32
  0
VERTEX
  8
W78LXLIFT
 62
3
 10
2267.000
 20
-6553.000
 30
-2457.000
 70
    32
  0
VERTEX
  8
W78LXLIFT
 62
3
 10
2270.000
 20
-6557.000
 30
-2457.000
 70
    32
  0
VERTEX
  8
W78LXLIFT
 62
3
 10
2274.000
 20
-6562.000
 30
-2457.000
 70
    32
  0
VERTEX
  8
W78LXLIFT
 62
3
 10
2277.000
 20
-6567.000
 30
-2457.000
 70
    32
  0
VERTEX
  8
W78LXLIFT
 62
3
 10
2279.000
 20
-6569.000
 30
-2457.000
 70
    32
  0
VERTEX
  8
W78LXLIFT
 62
3
 10
2280.000
 20
-6571.000
 30
-2457.000
 70
    32
  0
VERTEX
  8
W78LXLIFT
 62
3
 10
2281.000
 20
-6574.000
 30
-2457.000
 70
    32
  0
VERTEX
  8
W78LXLIFT
 62
3
 10
2281.000
 20
-6577.000
 30
-2457.000
 70
    32
  0
VERTEX
  8
W78LXLIFT
 62
3
 10
2279.000
 20
-6585.000
 30
-2457.000
 70
    32
  0
VERTEX
  8
W78LXLIFT
 62
3
 10
2278.000
 20
-6591.000
 30
-2457.000
 70
    32
  0
VERTEX
  8
W78LXLIFT
 62
3
 10
2279.000
 20
-6595.000
 30
-2457.000
 70
    32
  0
VERTEX
  8
W78LXLIFT
 62
3
 10
2277.000
 20
-6600.000
 30
-2457.000
 70
    32
  0
VERTEX
  8
W78LXLIFT
 62
3
 10
2276.000
 20
-6606.000
 30
-2457.000
 70
    32
  0
VERTEX
  8
W78LXLIFT
 62
3
 10
2279.000
 20
-6610.000
 30
-2457.000
 70
    32
  0
VERTEX
  8
W78LXLIFT
 62
3
 10
2281.000
 20
-6616.000
 30
-2457.000
 70
    32
  0
VERTEX
  8
W78LXLIFT
 62
3
 10
2280.000
 20
-6618.000
 30
-2457.000
 70
    32
  0
VERTEX
  8
W78LXLIFT
 62
3
 10
2279.000
 20
-6619.000
 30
-2457.000
 70
    32
  0
SEQEND
  8
W78LXLIFT
  0
POLYLINE
  8
W78LXLIFT
 62
3
 66
     1
 70
     9
  0
VERTEX
  8
W78LXLIFT
 62
3
 10
2128.194
 20
-7116.355
 30
-2460.000
 70
    32
  0
VERTEX
  8
W78LXLIFT
 62
3
 10
2126.572
 20
-7122.524
 30
-2460.000
 70
    32
  0
VERTEX
  8
W78LXLIFT
 62
3
 10
2126.146
 20
-7129.552
 30
-2460.000
 70
    32
  0
VERTEX
  8
W78LXLIFT
 62
3
 10
2127.923
 20
-7139.651
 30
-2460.000
 70
    32
  0
VERTEX
  8
W78LXLIFT
 62
3
 10
2129.741
 20
-7144.110
 30
-2460.000
 70
    32
  0
VERTEX
  8
W78LXLIFT
 62
3
 10
2139.310
 20
-7168.353
 30
-2460.000
 70
    32
  0
VERTEX
  8
W78LXLIFT
 62
3
 10
2128.623
 20
-7174.751
 30
-2460.000
 70
    32
  0
VERTEX
  8
W78LXLIFT
 62
3
 10
2130.587
 20
-7182.179
 30
-2460.000
 70
    32
  0
VERTEX
  8
W78LXLIFT
 62
3
 10
2125.371
 20
-7192.045
 30
-2460.000
 70
    32
  0
VERTEX
  8
W78LXLIFT
 62
3
 10
2116.729
 20
-7202.181
 30
-2460.000
 70
    32
  0
VERTEX
  8
W78LXLIFT
 62
3
 10
2092.763
 20
-7209.782
 30
-2460.000
 70
    32
  0
VERTEX
  8
W78LXLIFT
 62
3
 10
2082.235
 20
-7198.137
 30
-2460.000
 70
    32
  0
VERTEX
  8
W78LXLIFT
 62
3
 10
2075.463
 20
-7175.856
 30
-2460.000
 70
    32
  0
VERTEX
  8
W78LXLIFT
 62
3
 10
2071.950
 20
-7167.394
 30
-2460.000
 70
    32
  0
VERTEX
  8
W78LXLIFT
 62
3
 10
2061.789
 20
-7163.830
 30
-2460.000
 70
    32
  0
VERTEX
  8
W78LXLIFT
 62
3
 10
2057.929
 20
-7157.390
 30
-2460.000
 70
    32
  0
VERTEX
  8
W78LXLIFT
 62
3
 10
2084.493
 20
-7112.205
 30
-2460.000
 70
    32
  0
VERTEX
  8
W78LXLIFT
 62
3
 10
2087.899
 20
-7111.179
 30
-2460.000
 70
    32
  0
VERTEX
  8
W78LXLIFT
 62
3
 10
2107.053
 20
-7094.997
 30
-2460.000
 70
    32
  0
VERTEX
  8
W78LXLIFT
 62
3
 10
2113.551
 20
-7103.189
 30
-2460.000
 70
    32
  0
VERTEX
  8
W78LXLIFT
 62
3
 10
2094.536
 20
-7117.948
 30
-2460.000
 70
    32
  0
VERTEX
  8
W78LXLIFT
 62
3
 10
2090.145
 20
-7136.649
 30
-2460.000
 70
    32
  0
VERTEX
  8
W78LXLIFT
 62
3
 10
2104.316
 20
-7160.726
 30
-2460.000
 70
    32
  0
VERTEX
  8
W78LXLIFT
 62
3
 10
2114.163
 20
-7165.187
 30
-2460.000
 70
    32
  0
VERTEX
  8
W78LXLIFT
 62
3
 10
2115.483
 20
-7157.156
 30
-2460.000
 70
    32
  0
VERTEX
  8
W78LXLIFT
 62
3
 10
2114.278
 20
-7151.905
 30
-2460.000
 70
    32
  0
VERTEX
  8
W78LXLIFT
 62
3
 10
2110.709
 20
-7141.617
 30
-2460.000
 70
    32
  0
VERTEX
  8
W78LXLIFT
 62
3
 10
2113.266
 20
-7128.365
 30
-2460.000
 70
    32
  0
VERTEX
  8
W78LXLIFT
 62
3
 10
2115.247
 20
-7116.977
 30
-2460.000
 70
    32
  0
VERTEX
  8
W78LXLIFT
 62
3
 10
2116.844
 20
-7106.977
 30
-2460.000
 70
    32
  0
SEQEND
  8
W78LXLIFT
  0
POLYLINE
  8
W78LXLIFT
 62
3
 66
     1
 70
     9
  0
VERTEX
  8
W78LXLIFT
 62
3
 10
2129.194
 20
-7115.355
 30
-2439.000
 70
    32
  0
VERTEX
  8
W78LXLIFT
 62
3
 10
2127.572
 20
-7121.524
 30
-2439.000
 70
    32
  0
VERTEX
  8
W78LXLIFT
 62
3
 10
2127.146
 20
-7128.552
 30
-2439.000
 70
    32
  0
VERTEX
  8
W78LXLIFT
 62
3
 10
2128.923
 20
-7138.651
 30
-2439.000
 70
    32
  0
VERTEX
  8
W78LXLIFT
 62
3
 10
2130.741
 20
-7143.110
 30
-2439.000
 70
    32
  0
VERTEX
  8
W78LXLIFT
 62
3
 10
2140.310
 20
-7167.353
 30
-2439.000
 70
    32
  0
VERTEX
  8
W78LXLIFT
 62
3
 10
2129.623
 20
-7173.751
 30
-2439.000
 70
    32
  0
VERTEX
  8
W78LXLIFT
 62
3
 10
2131.587
 20
-7181.179
 30
-2439.000
 70
    32
  0
VERTEX
  8
W78LXLIFT
 62
3
 10
2126.371
 20
-7191.045
 30
-2439.000
 70
    32
  0
VERTEX
  8
W78LXLIFT
 62
3
 10
2117.729
 20
-7201.181
 30
-2439.000
 70
    32
  0
VERTEX
  8
W78LXLIFT
 62
3
 10
2093.763
 20
-7208.782
 30
-2439.000
 70
    32
  0
VERTEX
  8
W78LXLIFT
 62
3
 10
2083.235
 20
-7197.137
 30
-2439.000
 70
    32
  0
VERTEX
  8
W78LXLIFT
 62
3
 10
2076.463
 20
-7174.856
 30
-2439.000
 70
    32
  0
VERTEX
  8
W78LXLIFT
 62
3
 10
2072.950
 20
-7166.394
 30
-2439.000
 70
    32
  0
VERTEX
  8
W78LXLIFT
 62
3
 10
2062.789
 20
-7162.830
 30
-2439.000
 70
    32
  0
VERTEX
  8
W78LXLIFT
 62
3
 10
2058.929
 20
-7156.390
 30
-2439.000
 70
    32
  0
VERTEX
  8
W78LXLIFT
 62
3
 10
2085.493
 20
-7111.205
 30
-2439.000
 70
    32
  0
VERTEX
  8
W78LXLIFT
 62
3
 10
2088.899
 20
-7110.179
 30
-2439.000
 70
    32
  0
VERTEX
  8
W78LXLIFT
 62
3
 10
2108.053
 20
-7093.997
 30
-2439.000
 70
    32
  0
VERTEX
  8
W78LXLIFT
 62
3
 10
2114.551
 20
-7102.189
 30
-2439.000
 70
    32
  0
VERTEX
  8
W78LXLIFT
 62
3
 10
2095.536
 20
-7116.948
 30
-2439.000
 70
    32
  0
VERTEX
  8
W78LXLIFT
 62
3
 10
2091.145
 20
-7135.649
 30
-2439.000
 70
    32
  0
VERTEX
  8
W78LXLIFT
 62
3
 10
2105.316
 20
-7159.726
 30
-2439.000
 70
    32
  0
VERTEX
  8
W78LXLIFT
 62
3
 10
2115.163
 20
-7164.187
 30
-2439.000
 70
    32
  0
VERTEX
  8
W78LXLIFT
 62
3
 10
2116.483
 20
-7156.156
 30
-2439.000
 70
    32
  0
VERTEX
  8
W78LXLIFT
 62
3
 10
2115.278
 20
-7150.905
 30
-2439.000
 70
    32
  0
VERTEX
  8
W78LXLIFT
 62
3
 10
2111.709
 20
-7140.617
 30
-2439.000
 70
    32
  0
VERTEX
  8
W78LXLIFT
 62
3
 10
2114.266
 20
-7127.365
 30
-2439.000
 70
    32
  0
VERTEX
  8
W78LXLIFT
 62
3
 10
2116.247
 20
-7115.977
 30
-2439.000
 70
    32
  0
VERTEX
  8
W78LXLIFT
 62
3
 10
2117.844
 20
-7105.977
 30
-2439.000
 70
    32
  0
SEQEND
  8
W78LXLIFT
  0
POLYLINE
  8
W78LXLIFT
 62
3
 66
     1
 70
     9
  0
VERTEX
  8
W78LXLIFT
 62
3
 10
2402.000
 20
-7085.000
 30
-2451.000
 70
    32
  0
VERTEX
  8
W78LXLIFT
 62
3
 10
2402.000
 20
-7087.000
 30
-2451.000
 70
    32
  0
VERTEX
  8
W78LXLIFT
 62
3
 10
2408.000
 20
-7094.000
 30
-2451.000
 70
    32
  0
VERTEX
  8
W78LXLIFT
 62
3
 10
2395.000
 20
-7112.000
 30
-2451.000
 70
    32
  0
VERTEX
  8
W78LXLIFT
 62
3
 10
2390.000
 20
-7109.000
 30
-2451.000
 70
    32
  0
VERTEX
  8
W78LXLIFT
 62
3
 10
2385.000
 20
-7111.000
 30
-2451.000
 70
    32
  0
VERTEX
  8
W78LXLIFT
 62
3
 10
2383.000
 20
-7112.000
 30
-2451.000
 70
    32
  0
VERTEX
  8
W78LXLIFT
 62
3
 10
2381.000
 20
-7114.000
 30
-2451.000
 70
    32
  0
VERTEX
  8
W78LXLIFT
 62
3
 10
2386.000
 20
-7131.000
 30
-2451.000
 70
    32
  0
VERTEX
  8
W78LXLIFT
 62
3
 10
2364.000
 20
-7140.000
 30
-2451.000
 70
    32
  0
VERTEX
  8
W78LXLIFT
 62
3
 10
2362.000
 20
-7135.000
 30
-2451.000
 70
    32
  0
VERTEX
  8
W78LXLIFT
 62
3
 10
2359.000
 20
-7118.000
 30
-2451.000
 70
    32
  0
VERTEX
  8
W78LXLIFT
 62
3
 10
2355.000
 20
-7110.000
 30
-2451.000
 70
    32
  0
VERTEX
  8
W78LXLIFT
 62
3
 10
2350.000
 20
-7098.000
 30
-2451.000
 70
    32
  0
VERTEX
  8
W78LXLIFT
 62
3
 10
2345.000
 20
-7089.000
 30
-2451.000
 70
    32
  0
VERTEX
  8
W78LXLIFT
 62
3
 10
2349.000
 20
-7083.000
 30
-2451.000
 70
    32
  0
VERTEX
  8
W78LXLIFT
 62
3
 10
2334.000
 20
-7067.000
 30
-2451.000
 70
    32
  0
VERTEX
  8
W78LXLIFT
 62
3
 10
2321.000
 20
-7054.000
 30
-2451.000
 70
    32
  0
VERTEX
  8
W78LXLIFT
 62
3
 10
2322.000
 20
-7052.000
 30
-2451.000
 70
    32
  0
VERTEX
  8
W78LXLIFT
 62
3
 10
2309.000
 20
-7037.000
 30
-2451.000
 70
    32
  0
VERTEX
  8
W78LXLIFT
 62
3
 10
2319.000
 20
-7025.000
 30
-2451.000
 70
    32
  0
VERTEX
  8
W78LXLIFT
 62
3
 10
2335.000
 20
-7020.000
 30
-2451.000
 70
    32
  0
VERTEX
  8
W78LXLIFT
 62
3
 10
2367.000
 20
-7065.000
 30
-2451.000
 70
    32
  0
SEQEND
  8
W78LXLIFT
  0
POLYLINE
  8
W78LXLIFT
 62
3
 66
     1
 70
     9
  0
VERTEX
  8
W78LXLIFT
 62
3
 10
2403.000
 20
-7084.000
 30
-2433.000
 70
    32
  0
VERTEX
  8
W78LXLIFT
 62
3
 10
2403.000
 20
-7086.000
 30
-2433.000
 70
    32
  0
VERTEX
  8
W78LXLIFT
 62
3
 10
2409.000
 20
-7093.000
 30
-2433.000
 70
    32
  0
VERTEX
  8
W78LXLIFT
 62
3
 10
2396.000
 20
-7111.000
 30
-2433.000
 70
    32
  0
VERTEX
  8
W78LXLIFT
 62
3
 10
2391.000
 20
-7108.000
 30
-2433.000
 70
    32
  0
VERTEX
  8
W78LXLIFT
 62
3
 10
2386.000
 20
-7110.000
 30
-2433.000
 70
    32
  0
VERTEX
  8
W78LXLIFT
 62
3
 10
2384.000
 20
-7111.000
 30
-2433.000
 70
    32
  0
VERTEX
  8
W78LXLIFT
 62
3
 10
2382.000
 20
-7113.000
 30
-2433.000
 70
    32
  0
VERTEX
  8
W78LXLIFT
 62
3
 10
2387.000
 20
-7130.000
 30
-2433.000
 70
    32
  0
VERTEX
  8
W78LXLIFT
 62
3
 10
2365.000
 20
-7139.000
 30
-2433.000
 70
    32
  0
VERTEX
  8
W78LXLIFT
 62
3
 10
2363.000
 20
-7134.000
 30
-2433.000
 70
    32
  0
VERTEX
  8
W78LXLIFT
 62
3
 10
2360.000
 20
-7117.000
 30
-2433.000
 70
    32
  0
VERTEX
  8
W78LXLIFT
 62
3
 10
2356.000
 20
-7109.000
 30
-2433.000
 70
    32
  0
VERTEX
  8
W78LXLIFT
 62
3
 10
2351.000
 20
-7097.000
 30
-2433.000
 70
    32
  0
VERTEX
  8
W78LXLIFT
 62
3
 10
2346.000
 20
-7088.000
 30
-2433.000
 70
    32
  0
VERTEX
  8
W78LXLIFT
 62
3
 10
2350.000
 20
-7082.000
 30
-2433.000
 70
    32
  0
VERTEX
  8
W78LXLIFT
 62
3
 10
2335.000
 20
-7066.000
 30
-2433.000
 70
    32
  0
VERTEX
  8
W78LXLIFT
 62
3
 10
2322.000
 20
-7053.000
 30
-2433.000
 70
    32
  0
VERTEX
  8
W78LXLIFT
 62
3
 10
2323.000
 20
-7051.000
 30
-2433.000
 70
    32
  0
VERTEX
  8
W78LXLIFT
 62
3
 10
2310.000
 20
-7036.000
 30
-2433.000
 70
    32
  0
VERTEX
  8
W78LXLIFT
 62
3
 10
2320.000
 20
-7024.000
 30
-2433.000
 70
    32
  0
VERTEX
  8
W78LXLIFT
 62
3
 10
2336.000
 20
-7019.000
 30
-2433.000
 70
    32
  0
VERTEX
  8
W78LXLIFT
 62
3
 10
2368.000
 20
-7064.000
 30
-2433.000
 70
    32
  0
SEQEND
  8
W78LXLIFT
  0
POLYLINE
  8
W78LXLIFT
 62
3
 66
     1
 70
     9
  0
VERTEX
  8
W78LXLIFT
 62
3
 10
1969.000
 20
-6788.000
 30
-2471.000
 70
    32
  0
VERTEX
  8
W78LXLIFT
 62
3
 10
1972.000
 20
-6790.000
 30
-2471.000
 70
    32
  0
VERTEX
  8
W78LXLIFT
 62
3
 10
1976.000
 20
-6793.000
 30
-2471.000
 70
    32
  0
VERTEX
  8
W78LXLIFT
 62
3
 10
1980.000
 20
-6797.000
 30
-2471.000
 70
    32
  0
VERTEX
  8
W78LXLIFT
 62
3
 10
1987.000
 20
-6806.000
 30
-2471.000
 70
    32
  0
VERTEX
  8
W78LXLIFT
 62
3
 10
1988.000
 20
-6806.000
 30
-2471.000
 70
    32
  0
VERTEX
  8
W78LXLIFT
 62
3
 10
1992.000
 20
-6804.000
 30
-2471.000
 70
    32
  0
VERTEX
  8
W78LXLIFT
 62
3
 10
1996.000
 20
-6805.000
 30
-2471.000
 70
    32
  0
VERTEX
  8
W78LXLIFT
 62
3
 10
2006.000
 20
-6810.000
 30
-2471.000
 70
    32
  0
VERTEX
  8
W78LXLIFT
 62
3
 10
2008.000
 20
-6807.000
 30
-2471.000
 70
    32
  0
VERTEX
  8
W78LXLIFT
 62
3
 10
2019.000
 20
-6800.000
 30
-2471.000
 70
    32
  0
VERTEX
  8
W78LXLIFT
 62
3
 10
2025.000
 20
-6790.000
 30
-2471.000
 70
    32
  0
VERTEX
  8
W78LXLIFT
 62
3
 10
2014.000
 20
-6772.000
 30
-2471.000
 70
    32
  0
VERTEX
  8
W78LXLIFT
 62
3
 10
2016.000
 20
-6768.000
 30
-2471.000
 70
    32
  0
VERTEX
  8
W78LXLIFT
 62
3
 10
2029.000
 20
-6763.000
 30
-2471.000
 70
    32
  0
VERTEX
  8
W78LXLIFT
 62
3
 10
2033.000
 20
-6763.000
 30
-2471.000
 70
    32
  0
VERTEX
  8
W78LXLIFT
 62
3
 10
2041.000
 20
-6771.000
 30
-2471.000
 70
    32
  0
VERTEX
  8
W78LXLIFT
 62
3
 10
2046.000
 20
-6788.000
 30
-2471.000
 70
    32
  0
VERTEX
  8
W78LXLIFT
 62
3
 10
2053.000
 20
-6790.000
 30
-2471.000
 70
    32
  0
VERTEX
  8
W78LXLIFT
 62
3
 10
2059.000
 20
-6788.000
 30
-2471.000
 70
    32
  0
VERTEX
  8
W78LXLIFT
 62
3
 10
2060.000
 20
-6782.000
 30
-2471.000
 70
    32
  0
VERTEX
  8
W78LXLIFT
 62
3
 10
2060.000
 20
-6781.000
 30
-2471.000
 70
    32
  0
VERTEX
  8
W78LXLIFT
 62
3
 10
2064.000
 20
-6777.000
 30
-2471.000
 70
    32
  0
VERTEX
  8
W78LXLIFT
 62
3
 10
2066.000
 20
-6765.000
 30
-2471.000
 70
    32
  0
VERTEX
  8
W78LXLIFT
 62
3
 10
2067.000
 20
-6758.000
 30
-2471.000
 70
    32
  0
VERTEX
  8
W78LXLIFT
 62
3
 10
2065.000
 20
-6738.000
 30
-2471.000
 70
    32
  0
VERTEX
  8
W78LXLIFT
 62
3
 10
2064.000
 20
-6736.000
 30
-2471.000
 70
    32
  0
VERTEX
  8
W78LXLIFT
 62
3
 10
2061.000
 20
-6729.000
 30
-2471.000
 70
    32
  0
VERTEX
  8
W78LXLIFT
 62
3
 10
2055.000
 20
-6721.000
 30
-2471.000
 70
    32
  0
VERTEX
  8
W78LXLIFT
 62
3
 10
2052.000
 20
-6717.000
 30
-2471.000
 70
    32
  0
VERTEX
  8
W78LXLIFT
 62
3
 10
2051.000
 20
-6715.000
 30
-2471.000
 70
    32
  0
VERTEX
  8
W78LXLIFT
 62
3
 10
2047.000
 20
-6714.000
 30
-2471.000
 70
    32
  0
VERTEX
  8
W78LXLIFT
 62
3
 10
2043.000
 20
-6714.000
 30
-2471.000
 70
    32
  0
VERTEX
  8
W78LXLIFT
 62
3
 10
2042.000
 20
-6714.000
 30
-2471.000
 70
    32
  0
VERTEX
  8
W78LXLIFT
 62
3
 10
2034.000
 20
-6708.000
 30
-2471.000
 70
    32
  0
VERTEX
  8
W78LXLIFT
 62
3
 10
2030.000
 20
-6710.000
 30
-2471.000
 70
    32
  0
VERTEX
  8
W78LXLIFT
 62
3
 10
2025.000
 20
-6713.000
 30
-2471.000
 70
    32
  0
VERTEX
  8
W78LXLIFT
 62
3
 10
2023.000
 20
-6717.000
 30
-2471.000
 70
    32
  0
VERTEX
  8
W78LXLIFT
 62
3
 10
2022.000
 20
-6720.000
 30
-2471.000
 70
    32
  0
VERTEX
  8
W78LXLIFT
 62
3
 10
2022.000
 20
-6722.000
 30
-2471.000
 70
    32
  0
VERTEX
  8
W78LXLIFT
 62
3
 10
2025.000
 20
-6733.000
 30
-2471.000
 70
    32
  0
VERTEX
  8
W78LXLIFT
 62
3
 10
2026.000
 20
-6738.000
 30
-2471.000
 70
    32
  0
VERTEX
  8
W78LXLIFT
 62
3
 10
2014.000
 20
-6744.000
 30
-2471.000
 70
    32
  0
VERTEX
  8
W78LXLIFT
 62
3
 10
2011.000
 20
-6746.000
 30
-2471.000
 70
    32
  0
VERTEX
  8
W78LXLIFT
 62
3
 10
2001.000
 20
-6750.000
 30
-2471.000
 70
    32
  0
VERTEX
  8
W78LXLIFT
 62
3
 10
1992.000
 20
-6723.000
 30
-2471.000
 70
    32
  0
VERTEX
  8
W78LXLIFT
 62
3
 10
1991.000
 20
-6722.000
 30
-2471.000
 70
    32
  0
VERTEX
  8
W78LXLIFT
 62
3
 10
1983.000
 20
-6724.000
 30
-2471.000
 70
    32
  0
VERTEX
  8
W78LXLIFT
 62
3
 10
1972.000
 20
-6727.000
 30
-2471.000
 70
    32
  0
VERTEX
  8
W78LXLIFT
 62
3
 10
1972.000
 20
-6728.000
 30
-2471.000
 70
    32
  0
VERTEX
  8
W78LXLIFT
 62
3
 10
1978.000
 20
-6746.000
 30
-2471.000
 70
    32
  0
VERTEX
  8
W78LXLIFT
 62
3
 10
1979.000
 20
-6755.000
 30
-2471.000
 70
    32
  0
VERTEX
  8
W78LXLIFT
 62
3
 10
1977.000
 20
-6761.000
 30
-2471.000
 70
    32
  0
VERTEX
  8
W78LXLIFT
 62
3
 10
1976.000
 20
-6766.000
 30
-2471.000
 70
    32
  0
VERTEX
  8
W78LXLIFT
 62
3
 10
1956.000
 20
-6774.000
 30
-2471.000
 70
    32
  0
VERTEX
  8
W78LXLIFT
 62
3
 10
1963.000
 20
-6787.000
 30
-2471.000
 70
    32
  0
VERTEX
  8
W78LXLIFT
 62
3
 10
1966.000
 20
-6786.000
 30
-2471.000
 70
    32
  0
SEQEND
  8
W78LXLIFT
  0
POLYLINE
  8
W78LXLIFT
 62
3
 66
     1
 70
     9
  0
VERTEX
  8
W78LXLIFT
 62
3
 10
2061.000
 20
-6815.000
 30
-2449.000
 70
    32
  0
VERTEX
  8
W78LXLIFT
 62
3
 10
2060.000
 20
-6821.000
 30
-2449.000
 70
    32
  0
VERTEX
  8
W78LXLIFT
 62
3
 10
2060.000
 20
-6827.000
 30
-2449.000
 70
    32
  0
VERTEX
  8
W78LXLIFT
 62
3
 10
2058.000
 20
-6837.000
 30
-2449.000
 70
    32
  0
VERTEX
  8
W78LXLIFT
 62
3
 10
2057.000
 20
-6846.000
 30
-2449.000
 70
    32
  0
VERTEX
  8
W78LXLIFT
 62
3
 10
2056.000
 20
-6852.000
 30
-2449.000
 70
    32
  0
VERTEX
  8
W78LXLIFT
 62
3
 10
2068.000
 20
-6853.000
 30
-2449.000
 70
    32
  0
VERTEX
  8
W78LXLIFT
 62
3
 10
2072.000
 20
-6865.000
 30
-2449.000
 70
    32
  0
VERTEX
  8
W78LXLIFT
 62
3
 10
2042.000
 20
-6896.000
 30
-2449.000
 70
    32
  0
VERTEX
  8
W78LXLIFT
 62
3
 10
2035.000
 20
-6894.000
 30
-2449.000
 70
    32
  0
VERTEX
  8
W78LXLIFT
 62
3
 10
2028.000
 20
-6883.000
 30
-2449.000
 70
    32
  0
VERTEX
  8
W78LXLIFT
 62
3
 10
2028.000
 20
-6863.000
 30
-2449.000
 70
    32
  0
VERTEX
  8
W78LXLIFT
 62
3
 10
2030.000
 20
-6861.000
 30
-2449.000
 70
    32
  0
VERTEX
  8
W78LXLIFT
 62
3
 10
2025.000
 20
-6849.000
 30
-2449.000
 70
    32
  0
VERTEX
  8
W78LXLIFT
 62
3
 10
2020.000
 20
-6849.000
 30
-2449.000
 70
    32
  0
VERTEX
  8
W78LXLIFT
 62
3
 10
2016.000
 20
-6851.000
 30
-2449.000
 70
    32
  0
VERTEX
  8
W78LXLIFT
 62
3
 10
2013.000
 20
-6853.000
 30
-2449.000
 70
    32
  0
VERTEX
  8
W78LXLIFT
 62
3
 10
2008.000
 20
-6856.000
 30
-2449.000
 70
    32
  0
VERTEX
  8
W78LXLIFT
 62
3
 10
1999.000
 20
-6848.000
 30
-2449.000
 70
    32
  0
VERTEX
  8
W78LXLIFT
 62
3
 10
1998.000
 20
-6847.000
 30
-2449.000
 70
    32
  0
VERTEX
  8
W78LXLIFT
 62
3
 10
1996.000
 20
-6840.000
 30
-2449.000
 70
    32
  0
VERTEX
  8
W78LXLIFT
 62
3
 10
1994.000
 20
-6832.000
 30
-2449.000
 70
    32
  0
VERTEX
  8
W78LXLIFT
 62
3
 10
1996.000
 20
-6829.000
 30
-2449.000
 70
    32
  0
VERTEX
  8
W78LXLIFT
 62
3
 10
2007.000
 20
-6819.000
 30
-2449.000
 70
    32
  0
VERTEX
  8
W78LXLIFT
 62
3
 10
2012.000
 20
-6822.000
 30
-2449.000
 70
    32
  0
VERTEX
  8
W78LXLIFT
 62
3
 10
2017.000
 20
-6817.000
 30
-2449.000
 70
    32
  0
VERTEX
  8
W78LXLIFT
 62
3
 10
2020.000
 20
-6813.000
 30
-2449.000
 70
    32
  0
VERTEX
  8
W78LXLIFT
 62
3
 10
2022.000
 20
-6812.000
 30
-2449.000
 70
    32
  0
VERTEX
  8
W78LXLIFT
 62
3
 10
2026.000
 20
-6810.000
 30
-2449.000
 70
    32
  0
VERTEX
  8
W78LXLIFT
 62
3
 10
2024.000
 20
-6803.000
 30
-2449.000
 70
    32
  0
VERTEX
  8
W78LXLIFT
 62
3
 10
2031.000
 20
-6796.000
 30
-2449.000
 70
    32
  0
VERTEX
  8
W78LXLIFT
 62
3
 10
2032.000
 20
-6795.000
 30
-2449.000
 70
    32
  0
VERTEX
  8
W78LXLIFT
 62
3
 10
2033.000
 20
-6795.000
 30
-2449.000
 70
    32
  0
VERTEX
  8
W78LXLIFT
 62
3
 10
2040.000
 20
-6795.000
 30
-2449.000
 70
    32
  0
VERTEX
  8
W78LXLIFT
 62
3
 10
2043.000
 20
-6800.000
 30
-2449.000
 70
    32
  0
VERTEX
  8
W78LXLIFT
 62
3
 10
2053.000
 20
-6802.000
 30
-2449.000
 70
    32
  0
VERTEX
  8
W78LXLIFT
 62
3
 10
2055.000
 20
-6808.000
 30
-2449.000
 70
    32
  0
SEQEND
  8
W78LXLIFT
  0
POLYLINE
  8
W78LXLIFT
 62
3
 66
     1
 70
     9
  0
VERTEX
  8
W78LXLIFT
 62
3
 10
2261.906
 20
-7004.659
 30
-2448.913
 70
    32
  0
VERTEX
  8
W78LXLIFT
 62
3
 10
2275.914
 20
-7012.420
 30
-2447.396
 70
    32
  0
VERTEX
  8
W78LXLIFT
 62
3
 10
2284.124
 20
-7018.386
 30
-2446.312
 70
    32
  0
VERTEX
  8
W78LXLIFT
 62
3
 10
2288.193
 20
-7022.933
 30
-2445.556
 70
    32
  0
VERTEX
  8
W78LXLIFT
 62
3
 10
2289.822
 20
-7024.753
 30
-2445.418
 70
    32
  0
VERTEX
  8
W78LXLIFT
 62
3
 10
2298.202
 20
-7027.981
 30
-2445.301
 70
    32
  0
VERTEX
  8
W78LXLIFT
 62
3
 10
2301.437
 20
-7030.902
 30
-2445.094
 70
    32
  0
VERTEX
  8
W78LXLIFT
 62
3
 10
2308.065
 20
-7036.885
 30
-2445.207
 70
    32
  0
VERTEX
  8
W78LXLIFT
 62
3
 10
2319.714
 20
-7025.054
 30
-2446.326
 70
    32
  0
VERTEX
  8
W78LXLIFT
 62
3
 10
2308.451
 20
-7014.805
 30
-2446.811
 70
    32
  0
VERTEX
  8
W78LXLIFT
 62
3
 10
2311.549
 20
-7004.675
 30
-2447.168
 70
    32
  0
VERTEX
  8
W78LXLIFT
 62
3
 10
2305.952
 20
-6998.239
 30
-2447.369
 70
    32
  0
VERTEX
  8
W78LXLIFT
 62
3
 10
2305.712
 20
-6992.487
 30
-2447.471
 70
    32
  0
VERTEX
  8
W78LXLIFT
 62
3
 10
2308.581
 20
-6984.994
 30
-2447.517
 70
    32
  0
VERTEX
  8
W78LXLIFT
 62
3
 10
2299.848
 20
-6970.904
 30
-2448.171
 70
    32
  0
VERTEX
  8
W78LXLIFT
 62
3
 10
2289.652
 20
-6972.602
 30
-2448.544
 70
    32
  0
VERTEX
  8
W78LXLIFT
 62
3
 10
2289.386
 20
-6983.369
 30
-2448.323
 70
    32
  0
VERTEX
  8
W78LXLIFT
 62
3
 10
2263.894
 20
-6990.065
 30
-2449.576
 70
    32
  0
SEQEND
  8
W78LXLIFT
  0
POINT
  8
W78LXLIFT
 62
3
 10
2263.291
 20
-6596.526
 30
-2457.000
  0
POINT
  8
W78LXLIFT
 62
3
 10
2200.538
 20
-6613.382
 30
-2360.000
  0
LINE
  8
W78LXLIFT
 62
3
 10
2200.538
 20
-6613.382
 30
-2360.000
 11
2263.291
 21
-6596.526
 31
-2457.000
  0
POINT
  8
W78LXLIFT
 62
3
 10
2359.450
 20
-7072.118
 30
-2433.000
  0
POINT
  8
W78LXLIFT
 62
3
 10
2355.805
 20
-7057.924
 30
-2334.000
  0
LINE
  8
W78LXLIFT
 62
3
 10
2355.805
 20
-7057.924
 30
-2334.000
 11
2359.450
 21
-7072.118
 31
-2433.000
  0
POINT
  8
W78LXLIFT
 62
3
 10
2078.132
 20
-7156.160
 30
-2439.000
  0
POINT
  8
W78LXLIFT
 62
3
 10
2090.842
 20
-7161.043
 30
-2348.000
  0
LINE
  8
W78LXLIFT
 62
3
 10
2078.132
 20
-7156.160
 30
-2439.000
 11
2090.842
 21
-7161.043
 31
-2348.000
  0
POINT
  8
W78LXLIFT
 62
3
 10
2051.758
 20
-6738.812
 30
-2571.000
  0
POINT
  8
W78LXLIFT
 62
3
 10
2048.018
 20
-6738.952
 30
-2554.000
  0
POINT
  8
W78LXLIFT
 62
3
 10
2019.996
 20
-6755.302
 30
-2471.000
  0
LINE
  8
W78LXLIFT
 62
3
 10
2019.996
 20
-6755.302
 30
-2471.000
 11
2048.018
 21
-6738.952
 31
-2554.000
  0
POINT
  8
W78LXLIFT
 62
3
 10
2067.438
 20
-6769.106
 30
-2585.000
  0
LINE
  8
W78LXLIFT
 62
3
 10
2051.758
 20
-6738.812
 30
-2571.000
 11
2067.438
 21
-6769.106
 31
-2585.000
  0
POLYLINE
  8
W78LXLIFT
 62
3
 66
     1
 70
     9
  0
VERTEX
  8
W78LXLIFT
 62
3
 10
1967.000
 20
-6785.000
 30
-2461.000
 70
    32
  0
VERTEX
  8
W78LXLIFT
 62
3
 10
1964.000
 20
-6786.000
 30
-2461.000
 70
    32
  0
VERTEX
  8
W78LXLIFT
 62
3
 10
1957.000
 20
-6773.000
 30
-2461.000
 70
    32
  0
VERTEX
  8
W78LXLIFT
 62
3
 10
1977.000
 20
-6765.000
 30
-2461.000
 70
    32
  0
VERTEX
  8
W78LXLIFT
 62
3
 10
1978.000
 20
-6760.000
 30
-2461.000
 70
    32
  0
VERTEX
  8
W78LXLIFT
 62
3
 10
1980.000
 20
-6754.000
 30
-2461.000
 70
    32
  0
VERTEX
  8
W78LXLIFT
 62
3
 10
1979.000
 20
-6745.000
 30
-2461.000
 70
    32
  0
VERTEX
  8
W78LXLIFT
 62
3
 10
1973.000
 20
-6727.000
 30
-2461.000
 70
    32
  0
VERTEX
  8
W78LXLIFT
 62
3
 10
1973.000
 20
-6726.000
 30
-2461.000
 70
    32
  0
VERTEX
  8
W78LXLIFT
 62
3
 10
1984.000
 20
-6723.000
 30
-2461.000
 70
    32
  0
VERTEX
  8
W78LXLIFT
 62
3
 10
1992.000
 20
-6721.000
 30
-2461.000
 70
    32
  0
VERTEX
  8
W78LXLIFT
 62
3
 10
1993.000
 20
-6722.000
 30
-2461.000
 70
    32
  0
VERTEX
  8
W78LXLIFT
 62
3
 10
2002.000
 20
-6749.000
 30
-2461.000
 70
    32
  0
VERTEX
  8
W78LXLIFT
 62
3
 10
2012.000
 20
-6745.000
 30
-2461.000
 70
    32
  0
VERTEX
  8
W78LXLIFT
 62
3
 10
2015.000
 20
-6743.000
 30
-2461.000
 70
    32
  0
VERTEX
  8
W78LXLIFT
 62
3
 10
2027.000
 20
-6737.000
 30
-2461.000
 70
    32
  0
VERTEX
  8
W78LXLIFT
 62
3
 10
2026.000
 20
-6732.000
 30
-2461.000
 70
    32
  0
VERTEX
  8
W78LXLIFT
 62
3
 10
2023.000
 20
-6721.000
 30
-2461.000
 70
    32
  0
VERTEX
  8
W78LXLIFT
 62
3
 10
2023.000
 20
-6719.000
 30
-2461.000
 70
    32
  0
VERTEX
  8
W78LXLIFT
 62
3
 10
2024.000
 20
-6716.000
 30
-2461.000
 70
    32
  0
VERTEX
  8
W78LXLIFT
 62
3
 10
2026.000
 20
-6712.000
 30
-2461.000
 70
    32
  0
VERTEX
  8
W78LXLIFT
 62
3
 10
2031.000
 20
-6709.000
 30
-2461.000
 70
    32
  0
VERTEX
  8
W78LXLIFT
 62
3
 10
2035.000
 20
-6707.000
 30
-2461.000
 70
    32
  0
VERTEX
  8
W78LXLIFT
 62
3
 10
2043.000
 20
-6713.000
 30
-2461.000
 70
    32
  0
VERTEX
  8
W78LXLIFT
 62
3
 10
2044.000
 20
-6713.000
 30
-2461.000
 70
    32
  0
VERTEX
  8
W78LXLIFT
 62
3
 10
2048.000
 20
-6713.000
 30
-2461.000
 70
    32
  0
VERTEX
  8
W78LXLIFT
 62
3
 10
2052.000
 20
-6714.000
 30
-2461.000
 70
    32
  0
VERTEX
  8
W78LXLIFT
 62
3
 10
2053.000
 20
-6716.000
 30
-2461.000
 70
    32
  0
VERTEX
  8
W78LXLIFT
 62
3
 10
2056.000
 20
-6720.000
 30
-2461.000
 70
    32
  0
VERTEX
  8
W78LXLIFT
 62
3
 10
2062.000
 20
-6728.000
 30
-2461.000
 70
    32
  0
VERTEX
  8
W78LXLIFT
 62
3
 10
2065.000
 20
-6735.000
 30
-2461.000
 70
    32
  0
VERTEX
  8
W78LXLIFT
 62
3
 10
2066.000
 20
-6737.000
 30
-2461.000
 70
    32
  0
VERTEX
  8
W78LXLIFT
 62
3
 10
2068.000
 20
-6757.000
 30
-2461.000
 70
    32
  0
VERTEX
  8
W78LXLIFT
 62
3
 10
2067.000
 20
-6764.000
 30
-2461.000
 70
    32
  0
VERTEX
  8
W78LXLIFT
 62
3
 10
2065.000
 20
-6776.000
 30
-2461.000
 70
    32
  0
VERTEX
  8
W78LXLIFT
 62
3
 10
2061.000
 20
-6780.000
 30
-2461.000
 70
    32
  0
VERTEX
  8
W78LXLIFT
 62
3
 10
2061.000
 20
-6781.000
 30
-2461.000
 70
    32
  0
VERTEX
  8
W78LXLIFT
 62
3
 10
2060.000
 20
-6787.000
 30
-2461.000
 70
    32
  0
VERTEX
  8
W78LXLIFT
 62
3
 10
2054.000
 20
-6789.000
 30
-2461.000
 70
    32
  0
VERTEX
  8
W78LXLIFT
 62
3
 10
2047.000
 20
-6787.000
 30
-2461.000
 70
    32
  0
VERTEX
  8
W78LXLIFT
 62
3
 10
2042.000
 20
-6770.000
 30
-2461.000
 70
    32
  0
VERTEX
  8
W78LXLIFT
 62
3
 10
2034.000
 20
-6762.000
 30
-2461.000
 70
    32
  0
VERTEX
  8
W78LXLIFT
 62
3
 10
2030.000
 20
-6762.000
 30
-2461.000
 70
    32
  0
VERTEX
  8
W78LXLIFT
 62
3
 10
2017.000
 20
-6767.000
 30
-2461.000
 70
    32
  0
VERTEX
  8
W78LXLIFT
 62
3
 10
2015.000
 20
-6771.000
 30
-2461.000
 70
    32
  0
VERTEX
  8
W78LXLIFT
 62
3
 10
2026.000
 20
-6789.000
 30
-2461.000
 70
    32
  0
VERTEX
  8
W78LXLIFT
 62
3
 10
2020.000
 20
-6799.000
 30
-2461.000
 70
    32
  0
VERTEX
  8
W78LXLIFT
 62
3
 10
2009.000
 20
-6806.000
 30
-2461.000
 70
    32
  0
VERTEX
  8
W78LXLIFT
 62
3
 10
2007.000
 20
-6809.000
 30
-2461.000
 70
    32
  0
VERTEX
  8
W78LXLIFT
 62
3
 10
1997.000
 20
-6804.000
 30
-2461.000
 70
    32
  0
VERTEX
  8
W78LXLIFT
 62
3
 10
1993.000
 20
-6803.000
 30
-2461.000
 70
    32
  0
VERTEX
  8
W78LXLIFT
 62
3
 10
1989.000
 20
-6805.000
 30
-2461.000
 70
    32
  0
VERTEX
  8
W78LXLIFT
 62
3
 10
1988.000
 20
-6805.000
 30
-2461.000
 70
    32
  0
VERTEX
  8
W78LXLIFT
 62
3
 10
1981.000
 20
-6796.000
 30
-2461.000
 70
    32
  0
VERTEX
  8
W78LXLIFT
 62
3
 10
1977.000
 20
-6792.000
 30
-2461.000
 70
    32
  0
VERTEX
  8
W78LXLIFT
 62
3
 10
1973.000
 20
-6789.000
 30
-2461.000
 70
    32
  0
VERTEX
  8
W78LXLIFT
 62
3
 10
1970.000
 20
-6787.000
 30
-2461.000
 70
    32
  0
SEQEND
  8
W78LXLIFT
  0
POLYLINE
  8
W78LXLIFT
 62
3
 66
     1
 70
     9
  0
VERTEX
  8
W78LXLIFT
 62
3
 10
1991.005
 20
-6800.127
 30
-2474.980
 70
    32
  0
VERTEX
  8
W78LXLIFT
 62
3
 10
1995.168
 20
-6799.162
 30
-2536.069
 70
    32
  0
VERTEX
  8
W78LXLIFT
 62
3
 10
2016.235
 20
-6794.277
 30
-2568.700
 70
    32
  0
VERTEX
  8
W78LXLIFT
 62
3
 10
2022.486
 20
-6792.828
 30
-2568.923
 70
    32
  0
VERTEX
  8
W78LXLIFT
 62
3
 10
2022.393
 20
-6792.849
 30
-2550.891
 70
    32
  0
VERTEX
  8
W78LXLIFT
 62
3
 10
2078.020
 20
-6779.951
 30
-2550.956
 70
    32
  0
VERTEX
  8
W78LXLIFT
 62
3
 10
2078.384
 20
-6779.867
 30
-2569.971
 70
    32
  0
VERTEX
  8
W78LXLIFT
 62
3
 10
2081.410
 20
-6779.165
 30
-2553.816
 70
    32
  0
VERTEX
  8
W78LXLIFT
 62
3
 10
2083.001
 20
-6778.797
 30
-2540.163
 70
    32
  0
VERTEX
  8
W78LXLIFT
 62
3
 10
2056.987
 20
-6784.828
 30
-2475.162
 70
    32
  0
VERTEX
  8
W78LXLIFT
 62
3
 10
2046.680
 20
-6787.218
 30
-2483.648
 70
    32
  0
VERTEX
  8
W78LXLIFT
 62
3
 10
2020.411
 20
-6793.309
 30
-2474.867
 70
    32
  0
SEQEND
  8
W78LXLIFT
  0
POLYLINE
  8
W78LXLIFT
 62
3
 66
     1
 70
     9
  0
VERTEX
  8
W78LXLIFT
 62
3
 10
1981.763
 20
-6769.421
 30
-2475.253
 70
    32
  0
VERTEX
  8
W78LXLIFT
 62
3
 10
1981.780
 20
-6769.417
 30
-2503.995
 70
    32
  0
VERTEX
  8
W78LXLIFT
 62
3
 10
2030.084
 20
-6758.217
 30
-2570.342
 70
    32
  0
VERTEX
  8
W78LXLIFT
 62
3
 10
2029.364
 20
-6758.384
 30
-2552.669
 70
    32
  0
VERTEX
  8
W78LXLIFT
 62
3
 10
2074.810
 20
-6747.847
 30
-2553.016
 70
    32
  0
VERTEX
  8
W78LXLIFT
 62
3
 10
2077.541
 20
-6747.214
 30
-2537.662
 70
    32
  0
VERTEX
  8
W78LXLIFT
 62
3
 10
2076.227
 20
-6747.518
 30
-2505.325
 70
    32
  0
VERTEX
  8
W78LXLIFT
 62
3
 10
2062.245
 20
-6750.760
 30
-2475.087
 70
    32
  0
SEQEND
  8
W78LXLIFT
  0
POLYLINE
  8
W78LXLIFT
 62
3
 66
     1
 70
     9
  0
VERTEX
  8
W78LXLIFT
 62
3
 10
1980.114
 20
-6761.591
 30
-2474.953
 70
    32
  0
VERTEX
  8
W78LXLIFT
 62
3
 10
1979.783
 20
-6761.668
 30
-2502.470
 70
    32
  0
VERTEX
  8
W78LXLIFT
 62
3
 10
2026.499
 20
-6750.836
 30
-2570.155
 70
    32
  0
VERTEX
  8
W78LXLIFT
 62
3
 10
2026.266
 20
-6750.890
 30
-2553.065
 70
    32
  0
VERTEX
  8
W78LXLIFT
 62
3
 10
2069.330
 20
-6740.905
 30
-2553.083
 70
    32
  0
VERTEX
  8
W78LXLIFT
 62
3
 10
2069.247
 20
-6740.924
 30
-2526.366
 70
    32
  0
VERTEX
  8
W78LXLIFT
 62
3
 10
2068.510
 20
-6741.095
 30
-2502.475
 70
    32
  0
VERTEX
  8
W78LXLIFT
 62
3
 10
2060.711
 20
-6742.904
 30
-2475.309
 70
    32
  0
SEQEND
  8
W78LXLIFT
  0
POLYLINE
  8
W78LXLIFT
 62
3
 66
     1
 70
     9
  0
VERTEX
  8
W78LXLIFT
 62
3
 10
1982.154
 20
-6752.906
 30
-2475.468
 70
    32
  0
VERTEX
  8
W78LXLIFT
 62
3
 10
1982.777
 20
-6752.761
 30
-2509.728
 70
    32
  0
VERTEX
  8
W78LXLIFT
 62
3
 10
2023.467
 20
-6743.327
 30
-2557.314
 70
    32
  0
VERTEX
  8
W78LXLIFT
 62
3
 10
2023.659
 20
-6743.282
 30
-2552.781
 70
    32
  0
VERTEX
  8
W78LXLIFT
 62
3
 10
2065.277
 20
-6733.633
 30
-2552.834
 70
    32
  0
VERTEX
  8
W78LXLIFT
 62
3
 10
2065.256
 20
-6733.638
 30
-2570.043
 70
    32
  0
VERTEX
  8
W78LXLIFT
 62
3
 10
2072.256
 20
-6732.015
 30
-2562.868
 70
    32
  0
VERTEX
  8
W78LXLIFT
 62
3
 10
2075.098
 20
-6731.356
 30
-2537.867
 70
    32
  0
VERTEX
  8
W78LXLIFT
 62
3
 10
2075.678
 20
-6731.221
 30
-2517.431
 70
    32
  0
VERTEX
  8
W78LXLIFT
 62
3
 10
2061.249
 20
-6734.567
 30
-2475.197
 70
    32
  0
SEQEND
  8
W78LXLIFT
  0
POLYLINE
  8
W78LXLIFT
 62
3
 66
     1
 70
     9
  0
VERTEX
  8
W78LXLIFT
 62
3
 10
1981.852
 20
-6744.764
 30
-2475.293
 70
    32
  0
VERTEX
  8
W78LXLIFT
 62
3
 10
1988.514
 20
-6743.219
 30
-2514.911
 70
    32
  0
VERTEX
  8
W78LXLIFT
 62
3
 10
2020.646
 20
-6735.769
 30
-2556.828
 70
    32
  0
VERTEX
  8
W78LXLIFT
 62
3
 10
2020.758
 20
-6735.743
 30
-2552.577
 70
    32
  0
VERTEX
  8
W78LXLIFT
 62
3
 10
2062.024
 20
-6726.175
 30
-2552.648
 70
    32
  0
VERTEX
  8
W78LXLIFT
 62
3
 10
2062.471
 20
-6726.071
 30
-2570.320
 70
    32
  0
VERTEX
  8
W78LXLIFT
 62
3
 10
2067.480
 20
-6724.910
 30
-2573.769
 70
    32
  0
VERTEX
  8
W78LXLIFT
 62
3
 10
2069.452
 20
-6724.453
 30
-2518.297
 70
    32
  0
VERTEX
  8
W78LXLIFT
 62
3
 10
2053.111
 20
-6728.241
 30
-2475.194
 70
    32
  0
SEQEND
  8
W78LXLIFT
  0
POLYLINE
  8
W78LXLIFT
 62
3
 66
     1
 70
     9
  0
VERTEX
  8
W78LXLIFT
 62
3
 10
1980.143
 20
-6736.948
 30
-2475.414
 70
    32
  0
VERTEX
  8
W78LXLIFT
 62
3
 10
1982.389
 20
-6736.427
 30
-2492.330
 70
    32
  0
VERTEX
  8
W78LXLIFT
 62
3
 10
1996.502
 20
-6733.155
 30
-2501.950
 70
    32
  0
VERTEX
  8
W78LXLIFT
 62
3
 10
2026.022
 20
-6726.310
 30
-2553.184
 70
    32
  0
VERTEX
  8
W78LXLIFT
 62
3
 10
2053.866
 20
-6719.854
 30
-2552.886
 70
    32
  0
VERTEX
  8
W78LXLIFT
 62
3
 10
2053.649
 20
-6719.904
 30
-2570.395
 70
    32
  0
VERTEX
  8
W78LXLIFT
 62
3
 10
2060.594
 20
-6718.294
 30
-2573.589
 70
    32
  0
VERTEX
  8
W78LXLIFT
 62
3
 10
2069.192
 20
-6716.300
 30
-2573.160
 70
    32
  0
VERTEX
  8
W78LXLIFT
 62
3
 10
2078.557
 20
-6714.129
 30
-2571.449
 70
    32
  0
VERTEX
  8
W78LXLIFT
 62
3
 10
2051.324
 20
-6720.443
 30
-2475.154
 70
    32
  0
VERTEX
  8
W78LXLIFT
 62
3
 10
2023.011
 20
-6727.008
 30
-2475.371
 70
    32
  0
VERTEX
  8
W78LXLIFT
 62
3
 10
1995.497
 20
-6733.388
 30
-2487.665
 70
    32
  0
VERTEX
  8
W78LXLIFT
 62
3
 10
1989.951
 20
-6734.674
 30
-2475.470
 70
    32
  0
SEQEND
  8
W78LXLIFT
  0
POLYLINE
  8
W78LXLIFT
 62
3
 66
     1
 70
     9
  0
VERTEX
  8
W78LXLIFT
 62
3
 10
2031.189
 20
-6716.900
 30
-2475.327
 70
    32
  0
VERTEX
  8
W78LXLIFT
 62
3
 10
2031.114
 20
-6716.917
 30
-2491.112
 70
    32
  0
VERTEX
  8
W78LXLIFT
 62
3
 10
2022.203
 20
-6718.983
 30
-2502.673
 70
    32
  0
VERTEX
  8
W78LXLIFT
 62
3
 10
2013.568
 20
-6720.985
 30
-2552.664
 70
    32
  0
VERTEX
  8
W78LXLIFT
 62
3
 10
2049.793
 20
-6712.586
 30
-2552.877
 70
    32
  0
VERTEX
  8
W78LXLIFT
 62
3
 10
2049.869
 20
-6712.569
 30
-2570.187
 70
    32
  0
VERTEX
  8
W78LXLIFT
 62
3
 10
2058.416
 20
-6710.587
 30
-2573.307
 70
    32
  0
VERTEX
  8
W78LXLIFT
 62
3
 10
2068.330
 20
-6708.288
 30
-2571.137
 70
    32
  0
VERTEX
  8
W78LXLIFT
 62
3
 10
2037.988
 20
-6715.323
 30
-2475.453
 70
    32
  0
SEQEND
  8
W78LXLIFT
  0
POLYLINE
  8
W78LXLIFT
 62
3
 66
     1
 70
     9
  0
VERTEX
  8
W78LXLIFT
 62
3
 10
1984.549
 20
-6793.412
 30
-2474.561
 70
    32
  0
VERTEX
  8
W78LXLIFT
 62
3
 10
1976.365
 20
-6795.309
 30
-2501.669
 70
    32
  0
VERTEX
  8
W78LXLIFT
 62
3
 10
2022.904
 20
-6784.519
 30
-2564.198
 70
    32
  0
VERTEX
  8
W78LXLIFT
 62
3
 10
2038.377
 20
-6780.931
 30
-2570.132
 70
    32
  0
VERTEX
  8
W78LXLIFT
 62
3
 10
2038.768
 20
-6780.840
 30
-2553.285
 70
    32
  0
VERTEX
  8
W78LXLIFT
 62
3
 10
2081.797
 20
-6770.864
 30
-2552.340
 70
    32
  0
VERTEX
  8
W78LXLIFT
 62
3
 10
2081.441
 20
-6770.946
 30
-2570.150
 70
    32
  0
VERTEX
  8
W78LXLIFT
 62
3
 10
2083.409
 20
-6770.490
 30
-2549.317
 70
    32
  0
VERTEX
  8
W78LXLIFT
 62
3
 10
2082.193
 20
-6770.772
 30
-2528.253
 70
    32
  0
VERTEX
  8
W78LXLIFT
 62
3
 10
2059.010
 20
-6776.147
 30
-2474.996
 70
    32
  0
VERTEX
  8
W78LXLIFT
 62
3
 10
2041.230
 20
-6780.269
 30
-2474.950
 70
    32
  0
VERTEX
  8
W78LXLIFT
 62
3
 10
2030.999
 20
-6782.642
 30
-2484.139
 70
    32
  0
VERTEX
  8
W78LXLIFT
 62
3
 10
2010.124
 20
-6787.482
 30
-2474.836
 70
    32
  0
SEQEND
  8
W78LXLIFT
  0
POLYLINE
  8
W78LXLIFT
 62
3
 66
     1
 70
     9
  0
VERTEX
  8
W78LXLIFT
 62
3
 10
1985.534
 20
-6784.971
 30
-2475.233
 70
    32
  0
VERTEX
  8
W78LXLIFT
 62
3
 10
1979.692
 20
-6786.326
 30
-2508.627
 70
    32
  0
VERTEX
  8
W78LXLIFT
 62
3
 10
2021.999
 20
-6776.516
 30
-2563.299
 70
    32
  0
VERTEX
  8
W78LXLIFT
 62
3
 10
2035.789
 20
-6773.319
 30
-2570.008
 70
    32
  0
VERTEX
  8
W78LXLIFT
 62
3
 10
2035.673
 20
-6773.346
 30
-2552.859
 70
    32
  0
VERTEX
  8
W78LXLIFT
 62
3
 10
2085.166
 20
-6761.870
 30
-2552.660
 70
    32
  0
VERTEX
  8
W78LXLIFT
 62
3
 10
2086.690
 20
-6761.517
 30
-2552.726
 70
    32
  0
VERTEX
  8
W78LXLIFT
 62
3
 10
2061.853
 20
-6767.276
 30
-2475.213
 70
    32
  0
VERTEX
  8
W78LXLIFT
 62
3
 10
2038.387
 20
-6772.716
 30
-2475.147
 70
    32
  0
VERTEX
  8
W78LXLIFT
 62
3
 10
2029.721
 20
-6774.726
 30
-2483.619
 70
    32
  0
VERTEX
  8
W78LXLIFT
 62
3
 10
2009.157
 20
-6779.494
 30
-2475.100
 70
    32
  0
SEQEND
  8
W78LXLIFT
  0
POLYLINE
  8
W78LXLIFT
 62
3
 66
     1
 70
     9
  0
VERTEX
  8
W78LXLIFT
 62
3
 10
1981.382
 20
-6777.721
 30
-2475.104
 70
    32
  0
VERTEX
  8
W78LXLIFT
 62
3
 10
1977.841
 20
-6778.543
 30
-2510.172
 70
    32
  0
VERTEX
  8
W78LXLIFT
 62
3
 10
2022.260
 20
-6768.243
 30
-2569.604
 70
    32
  0
VERTEX
  8
W78LXLIFT
 62
3
 10
2032.516
 20
-6765.865
 30
-2570.204
 70
    32
  0
VERTEX
  8
W78LXLIFT
 62
3
 10
2032.478
 20
-6765.874
 30
-2553.055
 70
    32
  0
VERTEX
  8
W78LXLIFT
 62
3
 10
2081.540
 20
-6754.499
 30
-2553.155
 70
    32
  0
VERTEX
  8
W78LXLIFT
 62
3
 10
2077.153
 20
-6755.516
 30
-2505.884
 70
    32
  0
VERTEX
  8
W78LXLIFT
 62
3
 10
2063.152
 20
-6758.762
 30
-2475.385
 70
    32
  0
VERTEX
  8
W78LXLIFT
 62
3
 10
2030.112
 20
-6766.423
 30
-2475.284
 70
    32
  0
VERTEX
  8
W78LXLIFT
 62
3
 10
2004.493
 20
-6772.363
 30
-2487.404
 70
    32
  0
VERTEX
  8
W78LXLIFT
 62
3
 10
1999.044
 20
-6773.626
 30
-2475.450
 70
    32
  0
SEQEND
  8
W78LXLIFT
  0
POLYLINE
  8
W78LXLIFT
 62
3
 66
     1
 70
     9
  0
VERTEX
  8
W78LXLIFT
 62
3
 10
1990.994
 20
-6580.251
 30
-2500.364
 70
    32
  0
VERTEX
  8
W78LXLIFT
 62
3
 10
2001.481
 20
-6578.556
 30
-2499.871
 70
    32
  0
VERTEX
  8
W78LXLIFT
 62
3
 10
2009.229
 20
-6577.304
 30
-2499.871
 70
    32
  0
VERTEX
  8
W78LXLIFT
 62
3
 10
2008.769
 20
-6577.378
 30
-2504.271
 70
    32
  0
VERTEX
  8
W78LXLIFT
 62
3
 10
2008.126
 20
-6577.482
 30
-2506.318
 70
    32
  0
VERTEX
  8
W78LXLIFT
 62
3
 10
2008.698
 20
-6577.390
 30
-2510.262
 70
    32
  0
VERTEX
  8
W78LXLIFT
 62
3
 10
2008.013
 20
-6577.500
 30
-2511.406
 70
    32
  0
VERTEX
  8
W78LXLIFT
 62
3
 10
2004.655
 20
-6578.043
 30
-2510.732
 70
    32
  0
VERTEX
  8
W78LXLIFT
 62
3
 10
2011.760
 20
-6576.895
 30
-2532.612
 70
    32
  0
VERTEX
  8
W78LXLIFT
 62
3
 10
2000.728
 20
-6578.678
 30
-2532.309
 70
    32
  0
VERTEX
  8
W78LXLIFT
 62
3
 10
1990.850
 20
-6580.274
 30
-2533.559
 70
    32
  0
SEQEND
  8
W78LXLIFT
  0
POLYLINE
  8
W78LXLIFT
 62
3
 66
     1
 70
     9
  0
VERTEX
  8
W78LXLIFT
 62
3
 10
1985.871
 20
-6586.144
 30
-2500.272
 70
    32
  0
VERTEX
  8
W78LXLIFT
 62
3
 10
2015.323
 20
-6581.384
 30
-2500.321
 70
    32
  0
VERTEX
  8
W78LXLIFT
 62
3
 10
2017.036
 20
-6581.107
 30
-2506.100
 70
    32
  0
VERTEX
  8
W78LXLIFT
 62
3
 10
2016.535
 20
-6581.188
 30
-2509.201
 70
    32
  0
VERTEX
  8
W78LXLIFT
 62
3
 10
2012.356
 20
-6581.863
 30
-2511.407
 70
    32
  0
VERTEX
  8
W78LXLIFT
 62
3
 10
2002.358
 20
-6583.479
 30
-2511.344
 70
    32
  0
VERTEX
  8
W78LXLIFT
 62
3
 10
2010.487
 20
-6582.165
 30
-2532.571
 70
    32
  0
VERTEX
  8
W78LXLIFT
 62
3
 10
2005.452
 20
-6582.979
 30
-2532.340
 70
    32
  0
VERTEX
  8
W78LXLIFT
 62
3
 10
1997.164
 20
-6584.319
 30
-2532.878
 70
    32
  0
SEQEND
  8
W78LXLIFT
  0
POLYLINE
  8
W78LXLIFT
 62
3
 66
     1
 70
     9
  0
VERTEX
  8
W78LXLIFT
 62
3
 10
1986.623
 20
-6591.087
 30
-2500.272
 70
    32
  0
VERTEX
  8
W78LXLIFT
 62
3
 10
2020.417
 20
-6585.625
 30
-2500.107
 70
    32
  0
VERTEX
  8
W78LXLIFT
 62
3
 10
2022.503
 20
-6585.288
 30
-2502.525
 70
    32
  0
VERTEX
  8
W78LXLIFT
 62
3
 10
2022.591
 20
-6585.274
 30
-2505.686
 70
    32
  0
VERTEX
  8
W78LXLIFT
 62
3
 10
2014.969
 20
-6586.506
 30
-2510.732
 70
    32
  0
VERTEX
  8
W78LXLIFT
 62
3
 10
2022.847
 20
-6585.232
 30
-2523.412
 70
    32
  0
VERTEX
  8
W78LXLIFT
 62
3
 10
2019.446
 20
-6585.782
 30
-2531.954
 70
    32
  0
VERTEX
  8
W78LXLIFT
 62
3
 10
1998.862
 20
-6589.109
 30
-2531.918
 70
    32
  0
VERTEX
  8
W78LXLIFT
 62
3
 10
1990.843
 20
-6590.405
 30
-2511.659
 70
    32
  0
SEQEND
  8
W78LXLIFT
  0
POLYLINE
  8
W78LXLIFT
 62
3
 66
     1
 70
     9
  0
VERTEX
  8
W78LXLIFT
 62
3
 10
1979.765
 20
-6597.260
 30
-2500.126
 70
    32
  0
VERTEX
  8
W78LXLIFT
 62
3
 10
2020.905
 20
-6590.611
 30
-2500.110
 70
    32
  0
VERTEX
  8
W78LXLIFT
 62
3
 10
2035.370
 20
-6588.273
 30
-2522.171
 70
    32
  0
VERTEX
  8
W78LXLIFT
 62
3
 10
2032.051
 20
-6588.810
 30
-2531.641
 70
    32
  0
VERTEX
  8
W78LXLIFT
 62
3
 10
2002.837
 20
-6593.531
 30
-2531.303
 70
    32
  0
VERTEX
  8
W78LXLIFT
 62
3
 10
1998.777
 20
-6594.188
 30
-2528.242
 70
    32
  0
VERTEX
  8
W78LXLIFT
 62
3
 10
1998.496
 20
-6594.233
 30
-2522.561
 70
    32
  0
VERTEX
  8
W78LXLIFT
 62
3
 10
1989.806
 20
-6595.638
 30
-2512.041
 70
    32
  0
VERTEX
  8
W78LXLIFT
 62
3
 10
1985.393
 20
-6596.351
 30
-2505.009
 70
    32
  0
SEQEND
  8
W78LXLIFT
  0
POLYLINE
  8
W78LXLIFT
 62
3
 66
     1
 70
     9
  0
VERTEX
  8
W78LXLIFT
 62
3
 10
1983.820
 20
-6601.670
 30
-2489.153
 70
    32
  0
VERTEX
  8
W78LXLIFT
 62
3
 10
1989.306
 20
-6600.783
 30
-2494.348
 70
    32
  0
VERTEX
  8
W78LXLIFT
 62
3
 10
1995.261
 20
-6599.821
 30
-2493.373
 70
    32
  0
VERTEX
  8
W78LXLIFT
 62
3
 10
1995.465
 20
-6599.788
 30
-2499.579
 70
    32
  0
VERTEX
  8
W78LXLIFT
 62
3
 10
2030.244
 20
-6594.167
 30
-2500.487
 70
    32
  0
VERTEX
  8
W78LXLIFT
 62
3
 10
2031.200
 20
-6594.012
 30
-2506.954
 70
    32
  0
VERTEX
  8
W78LXLIFT
 62
3
 10
2036.695
 20
-6593.124
 30
-2523.694
 70
    32
  0
VERTEX
  8
W78LXLIFT
 62
3
 10
2035.490
 20
-6593.319
 30
-2532.612
 70
    32
  0
VERTEX
  8
W78LXLIFT
 62
3
 10
2004.314
 20
-6598.358
 30
-2532.476
 70
    32
  0
VERTEX
  8
W78LXLIFT
 62
3
 10
2000.979
 20
-6598.897
 30
-2528.230
 70
    32
  0
VERTEX
  8
W78LXLIFT
 62
3
 10
1998.796
 20
-6599.249
 30
-2518.696
 70
    32
  0
VERTEX
  8
W78LXLIFT
 62
3
 10
1997.052
 20
-6599.531
 30
-2515.921
 70
    32
  0
VERTEX
  8
W78LXLIFT
 62
3
 10
1990.809
 20
-6600.540
 30
-2512.119
 70
    32
  0
VERTEX
  8
W78LXLIFT
 62
3
 10
1985.075
 20
-6601.467
 30
-2505.977
 70
    32
  0
VERTEX
  8
W78LXLIFT
 62
3
 10
1981.271
 20
-6602.082
 30
-2499.865
 70
    32
  0
VERTEX
  8
W78LXLIFT
 62
3
 10
1983.599
 20
-6601.706
 30
-2499.956
 70
    32
  0
SEQEND
  8
W78LXLIFT
  0
POLYLINE
  8
W78LXLIFT
 62
3
 66
     1
 70
     9
  0
VERTEX
  8
W78LXLIFT
 62
3
 10
1977.671
 20
-6607.729
 30
-2499.939
 70
    32
  0
VERTEX
  8
W78LXLIFT
 62
3
 10
1984.698
 20
-6606.593
 30
-2499.759
 70
    32
  0
VERTEX
  8
W78LXLIFT
 62
3
 10
1984.285
 20
-6606.660
 30
-2489.677
 70
    32
  0
VERTEX
  8
W78LXLIFT
 62
3
 10
1988.856
 20
-6605.921
 30
-2494.576
 70
    32
  0
VERTEX
  8
W78LXLIFT
 62
3
 10
1993.507
 20
-6605.169
 30
-2493.612
 70
    32
  0
VERTEX
  8
W78LXLIFT
 62
3
 10
1996.503
 20
-6604.685
 30
-2491.076
 70
    32
  0
VERTEX
  8
W78LXLIFT
 62
3
 10
1996.793
 20
-6604.638
 30
-2499.871
 70
    32
  0
VERTEX
  8
W78LXLIFT
 62
3
 10
2031.667
 20
-6599.002
 30
-2500.347
 70
    32
  0
VERTEX
  8
W78LXLIFT
 62
3
 10
2037.349
 20
-6598.083
 30
-2511.224
 70
    32
  0
VERTEX
  8
W78LXLIFT
 62
3
 10
2038.334
 20
-6597.924
 30
-2513.086
 70
    32
  0
VERTEX
  8
W78LXLIFT
 62
3
 10
2034.423
 20
-6598.556
 30
-2531.181
 70
    32
  0
VERTEX
  8
W78LXLIFT
 62
3
 10
2006.105
 20
-6603.133
 30
-2531.374
 70
    32
  0
VERTEX
  8
W78LXLIFT
 62
3
 10
2002.029
 20
-6603.792
 30
-2528.606
 70
    32
  0
VERTEX
  8
W78LXLIFT
 62
3
 10
2001.152
 20
-6603.934
 30
-2523.702
 70
    32
  0
VERTEX
  8
W78LXLIFT
 62
3
 10
1998.359
 20
-6604.385
 30
-2520.058
 70
    32
  0
VERTEX
  8
W78LXLIFT
 62
3
 10
1990.469
 20
-6605.660
 30
-2515.185
 70
    32
  0
VERTEX
  8
W78LXLIFT
 62
3
 10
1985.100
 20
-6606.528
 30
-2509.478
 70
    32
  0
VERTEX
  8
W78LXLIFT
 62
3
 10
1983.051
 20
-6606.859
 30
-2505.385
 70
    32
  0
SEQEND
  8
W78LXLIFT
  0
POLYLINE
  8
W78LXLIFT
 62
3
 66
     1
 70
     9
  0
VERTEX
  8
W78LXLIFT
 62
3
 10
1978.767
 20
-6612.616
 30
-2500.176
 70
    32
  0
VERTEX
  8
W78LXLIFT
 62
3
 10
1984.409
 20
-6611.704
 30
-2499.979
 70
    32
  0
VERTEX
  8
W78LXLIFT
 62
3
 10
1984.146
 20
-6611.747
 30
-2489.486
 70
    32
  0
VERTEX
  8
W78LXLIFT
 62
3
 10
1990.203
 20
-6610.768
 30
-2494.781
 70
    32
  0
VERTEX
  8
W78LXLIFT
 62
3
 10
1994.188
 20
-6610.124
 30
-2492.455
 70
    32
  0
VERTEX
  8
W78LXLIFT
 62
3
 10
1994.212
 20
-6610.120
 30
-2499.826
 70
    32
  0
VERTEX
  8
W78LXLIFT
 62
3
 10
2033.214
 20
-6603.817
 30
-2500.678
 70
    32
  0
VERTEX
  8
W78LXLIFT
 62
3
 10
2039.469
 20
-6602.806
 30
-2512.414
 70
    32
  0
VERTEX
  8
W78LXLIFT
 62
3
 10
2034.989
 20
-6603.530
 30
-2531.690
 70
    32
  0
VERTEX
  8
W78LXLIFT
 62
3
 10
2005.913
 20
-6608.229
 30
-2531.932
 70
    32
  0
VERTEX
  8
W78LXLIFT
 62
3
 10
2002.168
 20
-6608.834
 30
-2527.697
 70
    32
  0
VERTEX
  8
W78LXLIFT
 62
3
 10
2000.633
 20
-6609.082
 30
-2528.269
 70
    32
  0
VERTEX
  8
W78LXLIFT
 62
3
 10
1995.088
 20
-6609.979
 30
-2525.220
 70
    32
  0
VERTEX
  8
W78LXLIFT
 62
3
 10
1989.051
 20
-6610.954
 30
-2515.401
 70
    32
  0
VERTEX
  8
W78LXLIFT
 62
3
 10
1983.112
 20
-6611.914
 30
-2508.022
 70
    32
  0
SEQEND
  8
W78LXLIFT
  0
POLYLINE
  8
W78LXLIFT
 62
3
 66
     1
 70
     9
  0
VERTEX
  8
W78LXLIFT
 62
3
 10
1979.012
 20
-6617.642
 30
-2500.115
 70
    32
  0
VERTEX
  8
W78LXLIFT
 62
3
 10
1984.483
 20
-6616.757
 30
-2499.630
 70
    32
  0
VERTEX
  8
W78LXLIFT
 62
3
 10
1984.826
 20
-6616.702
 30
-2489.644
 70
    32
  0
VERTEX
  8
W78LXLIFT
 62
3
 10
1990.387
 20
-6615.803
 30
-2495.081
 70
    32
  0
VERTEX
  8
W78LXLIFT
 62
3
 10
1994.966
 20
-6615.063
 30
-2491.315
 70
    32
  0
VERTEX
  8
W78LXLIFT
 62
3
 10
1995.604
 20
-6614.960
 30
-2499.807
 70
    32
  0
VERTEX
  8
W78LXLIFT
 62
3
 10
2043.434
 20
-6607.230
 30
-2499.926
 70
    32
  0
VERTEX
  8
W78LXLIFT
 62
3
 10
2043.409
 20
-6607.234
 30
-2503.299
 70
    32
  0
VERTEX
  8
W78LXLIFT
 62
3
 10
2042.242
 20
-6607.422
 30
-2507.931
 70
    32
  0
VERTEX
  8
W78LXLIFT
 62
3
 10
2043.383
 20
-6607.238
 30
-2511.108
 70
    32
  0
VERTEX
  8
W78LXLIFT
 62
3
 10
2042.187
 20
-6607.431
 30
-2513.977
 70
    32
  0
VERTEX
  8
W78LXLIFT
 62
3
 10
2044.428
 20
-6607.069
 30
-2519.778
 70
    32
  0
VERTEX
  8
W78LXLIFT
 62
3
 10
2040.575
 20
-6607.692
 30
-2525.295
 70
    32
  0
VERTEX
  8
W78LXLIFT
 62
3
 10
2035.757
 20
-6608.470
 30
-2528.932
 70
    32
  0
VERTEX
  8
W78LXLIFT
 62
3
 10
2020.944
 20
-6610.865
 30
-2534.022
 70
    32
  0
VERTEX
  8
W78LXLIFT
 62
3
 10
2005.100
 20
-6613.425
 30
-2538.408
 70
    32
  0
VERTEX
  8
W78LXLIFT
 62
3
 10
2000.665
 20
-6614.142
 30
-2536.833
 70
    32
  0
VERTEX
  8
W78LXLIFT
 62
3
 10
2000.529
 20
-6614.164
 30
-2533.945
 70
    32
  0
VERTEX
  8
W78LXLIFT
 62
3
 10
1986.871
 20
-6616.372
 30
-2515.769
 70
    32
  0
VERTEX
  8
W78LXLIFT
 62
3
 10
1981.870
 20
-6617.180
 30
-2504.504
 70
    32
  0
SEQEND
  8
W78LXLIFT
  0
POLYLINE
  8
W78LXLIFT
 62
3
 66
     1
 70
     9
  0
VERTEX
  8
W78LXLIFT
 62
3
 10
1979.591
 20
-6622.613
 30
-2500.298
 70
    32
  0
VERTEX
  8
W78LXLIFT
 62
3
 10
1984.878
 20
-6621.758
 30
-2500.101
 70
    32
  0
VERTEX
  8
W78LXLIFT
 62
3
 10
1984.750
 20
-6621.971
 30
-2488.660
 70
    32
  0
VERTEX
  8
W78LXLIFT
 62
3
 10
1989.364
 20
-6621.033
 30
-2490.995
 70
    32
  0
VERTEX
  8
W78LXLIFT
 62
3
 10
1991.715
 20
-6620.653
 30
-2493.970
 70
    32
  0
VERTEX
  8
W78LXLIFT
 62
3
 10
1997.288
 20
-6619.753
 30
-2489.628
 70
    32
  0
VERTEX
  8
W78LXLIFT
 62
3
 10
1999.064
 20
-6619.466
 30
-2489.766
 70
    32
  0
VERTEX
  8
W78LXLIFT
 62
3
 10
1999.064
 20
-6619.466
 30
-2499.794
 70
    32
  0
VERTEX
  8
W78LXLIFT
 62
3
 10
2047.561
 20
-6611.627
 30
-2500.249
 70
    32
  0
VERTEX
  8
W78LXLIFT
 62
3
 10
2044.858
 20
-6612.064
 30
-2506.025
 70
    32
  0
VERTEX
  8
W78LXLIFT
 62
3
 10
2044.868
 20
-6612.063
 30
-2508.942
 70
    32
  0
VERTEX
  8
W78LXLIFT
 62
3
 10
2045.740
 20
-6611.922
 30
-2510.570
 70
    32
  0
VERTEX
  8
W78LXLIFT
 62
3
 10
2046.321
 20
-6611.828
 30
-2514.982
 70
    32
  0
VERTEX
  8
W78LXLIFT
 62
3
 10
2043.308
 20
-6612.315
 30
-2518.604
 70
    32
  0
VERTEX
  8
W78LXLIFT
 62
3
 10
2038.965
 20
-6613.017
 30
-2524.097
 70
    32
  0
VERTEX
  8
W78LXLIFT
 62
3
 10
2034.522
 20
-6613.735
 30
-2524.587
 70
    32
  0
VERTEX
  8
W78LXLIFT
 62
3
 10
2026.657
 20
-6615.006
 30
-2533.379
 70
    32
  0
VERTEX
  8
W78LXLIFT
 62
3
 10
2008.499
 20
-6617.941
 30
-2537.984
 70
    32
  0
VERTEX
  8
W78LXLIFT
 62
3
 10
2007.995
 20
-6618.022
 30
-2535.894
 70
    32
  0
VERTEX
  8
W78LXLIFT
 62
3
 10
2003.493
 20
-6618.750
 30
-2536.079
 70
    32
  0
VERTEX
  8
W78LXLIFT
 62
3
 10
2003.654
 20
-6618.724
 30
-2539.355
 70
    32
  0
VERTEX
  8
W78LXLIFT
 62
3
 10
1997.494
 20
-6619.719
 30
-2537.172
 70
    32
  0
VERTEX
  8
W78LXLIFT
 62
3
 10
1991.457
 20
-6620.695
 30
-2522.699
 70
    32
  0
VERTEX
  8
W78LXLIFT
 62
3
 10
1987.431
 20
-6621.346
 30
-2517.427
 70
    32
  0
VERTEX
  8
W78LXLIFT
 62
3
 10
1984.748
 20
-6621.780
 30
-2510.821
 70
    32
  0
VERTEX
  8
W78LXLIFT
 62
3
 10
1979.928
 20
-6622.559
 30
-2500.980
 70
    32
  0
SEQEND
  8
W78LXLIFT
  0
POLYLINE
  8
W78LXLIFT
 62
3
 66
     1
 70
     9
  0
VERTEX
  8
W78LXLIFT
 62
3
 10
1978.634
 20
-6627.833
 30
-2499.874
 70
    32
  0
VERTEX
  8
W78LXLIFT
 62
3
 10
1984.648
 20
-6626.861
 30
-2499.874
 70
    32
  0
VERTEX
  8
W78LXLIFT
 62
3
 10
1984.890
 20
-6626.821
 30
-2489.341
 70
    32
  0
VERTEX
  8
W78LXLIFT
 62
3
 10
1987.578
 20
-6626.387
 30
-2488.797
 70
    32
  0
VERTEX
  8
W78LXLIFT
 62
3
 10
1993.912
 20
-6625.363
 30
-2490.592
 70
    32
  0
VERTEX
  8
W78LXLIFT
 62
3
 10
2003.564
 20
-6623.803
 30
-2489.370
 70
    32
  0
VERTEX
  8
W78LXLIFT
 62
3
 10
2003.807
 20
-6623.764
 30
-2499.874
 70
    32
  0
VERTEX
  8
W78LXLIFT
 62
3
 10
2051.674
 20
-6616.028
 30
-2499.909
 70
    32
  0
VERTEX
  8
W78LXLIFT
 62
3
 10
2048.860
 20
-6616.482
 30
-2504.973
 70
    32
  0
VERTEX
  8
W78LXLIFT
 62
3
 10
2048.933
 20
-6616.471
 30
-2509.346
 70
    32
  0
VERTEX
  8
W78LXLIFT
 62
3
 10
2050.106
 20
-6616.281
 30
-2518.268
 70
    32
  0
VERTEX
  8
W78LXLIFT
 62
3
 10
2037.887
 20
-6618.256
 30
-2527.534
 70
    32
  0
VERTEX
  8
W78LXLIFT
 62
3
 10
2022.850
 20
-6620.686
 30
-2540.626
 70
    32
  0
VERTEX
  8
W78LXLIFT
 62
3
 10
2014.185
 20
-6622.087
 30
-2545.102
 70
    32
  0
VERTEX
  8
W78LXLIFT
 62
3
 10
2014.185
 20
-6622.087
 30
-2536.607
 70
    32
  0
VERTEX
  8
W78LXLIFT
 62
3
 10
1995.682
 20
-6625.077
 30
-2535.929
 70
    32
  0
VERTEX
  8
W78LXLIFT
 62
3
 10
1988.499
 20
-6626.238
 30
-2523.027
 70
    32
  0
VERTEX
  8
W78LXLIFT
 62
3
 10
1982.209
 20
-6627.255
 30
-2504.173
 70
    32
  0
SEQEND
  8
W78LXLIFT
  0
POLYLINE
  8
W78LXLIFT
 62
3
 66
     1
 70
     9
  0
VERTEX
  8
W78LXLIFT
 62
3
 10
1979.303
 20
-6632.789
 30
-2500.043
 70
    32
  0
VERTEX
  8
W78LXLIFT
 62
3
 10
1985.288
 20
-6631.822
 30
-2499.767
 70
    32
  0
VERTEX
  8
W78LXLIFT
 62
3
 10
1985.600
 20
-6631.771
 30
-2488.687
 70
    32
  0
VERTEX
  8
W78LXLIFT
 62
3
 10
1988.197
 20
-6631.352
 30
-2488.571
 70
    32
  0
VERTEX
  8
W78LXLIFT
 62
3
 10
1992.571
 20
-6630.645
 30
-2491.417
 70
    32
  0
VERTEX
  8
W78LXLIFT
 62
3
 10
1995.418
 20
-6630.185
 30
-2491.464
 70
    32
  0
VERTEX
  8
W78LXLIFT
 62
3
 10
1997.639
 20
-6629.826
 30
-2490.143
 70
    32
  0
VERTEX
  8
W78LXLIFT
 62
3
 10
2004.820
 20
-6628.665
 30
-2489.256
 70
    32
  0
VERTEX
  8
W78LXLIFT
 62
3
 10
2007.952
 20
-6628.159
 30
-2499.720
 70
    32
  0
VERTEX
  8
W78LXLIFT
 62
3
 10
2055.267
 20
-6620.512
 30
-2500.063
 70
    32
  0
VERTEX
  8
W78LXLIFT
 62
3
 10
2054.398
 20
-6620.652
 30
-2501.823
 70
    32
  0
VERTEX
  8
W78LXLIFT
 62
3
 10
2050.571
 20
-6621.271
 30
-2504.953
 70
    32
  0
VERTEX
  8
W78LXLIFT
 62
3
 10
2051.368
 20
-6621.142
 30
-2519.542
 70
    32
  0
VERTEX
  8
W78LXLIFT
 62
3
 10
2047.436
 20
-6621.777
 30
-2525.322
 70
    32
  0
VERTEX
  8
W78LXLIFT
 62
3
 10
2027.510
 20
-6624.998
 30
-2539.407
 70
    32
  0
VERTEX
  8
W78LXLIFT
 62
3
 10
2021.787
 20
-6625.923
 30
-2544.558
 70
    32
  0
VERTEX
  8
W78LXLIFT
 62
3
 10
2017.760
 20
-6626.574
 30
-2545.516
 70
    32
  0
VERTEX
  8
W78LXLIFT
 62
3
 10
2017.280
 20
-6626.651
 30
-2536.050
 70
    32
  0
VERTEX
  8
W78LXLIFT
 62
3
 10
1993.838
 20
-6630.440
 30
-2536.005
 70
    32
  0
VERTEX
  8
W78LXLIFT
 62
3
 10
1990.690
 20
-6630.949
 30
-2530.196
 70
    32
  0
VERTEX
  8
W78LXLIFT
 62
3
 10
1988.099
 20
-6631.368
 30
-2519.799
 70
    32
  0
VERTEX
  8
W78LXLIFT
 62
3
 10
1982.442
 20
-6632.282
 30
-2505.164
 70
    32
  0
SEQEND
  8
W78LXLIFT
  0
POLYLINE
  8
W78LXLIFT
 62
3
 66
     1
 70
     9
  0
VERTEX
  8
W78LXLIFT
 62
3
 10
1980.139
 20
-6637.719
 30
-2500.130
 70
    32
  0
VERTEX
  8
W78LXLIFT
 62
3
 10
1983.603
 20
-6637.159
 30
-2500.437
 70
    32
  0
VERTEX
  8
W78LXLIFT
 62
3
 10
1985.475
 20
-6636.857
 30
-2499.477
 70
    32
  0
VERTEX
  8
W78LXLIFT
 62
3
 10
1985.554
 20
-6636.844
 30
-2488.781
 70
    32
  0
VERTEX
  8
W78LXLIFT
 62
3
 10
1990.600
 20
-6636.028
 30
-2488.803
 70
    32
  0
VERTEX
  8
W78LXLIFT
 62
3
 10
1994.839
 20
-6635.343
 30
-2490.642
 70
    32
  0
VERTEX
  8
W78LXLIFT
 62
3
 10
2007.472
 20
-6633.301
 30
-2489.443
 70
    32
  0
VERTEX
  8
W78LXLIFT
 62
3
 10
2007.812
 20
-6633.246
 30
-2499.698
 70
    32
  0
VERTEX
  8
W78LXLIFT
 62
3
 10
2056.295
 20
-6625.411
 30
-2500.017
 70
    32
  0
VERTEX
  8
W78LXLIFT
 62
3
 10
2052.135
 20
-6626.083
 30
-2506.037
 70
    32
  0
VERTEX
  8
W78LXLIFT
 62
3
 10
2053.960
 20
-6625.788
 30
-2521.870
 70
    32
  0
VERTEX
  8
W78LXLIFT
 62
3
 10
2047.234
 20
-6626.875
 30
-2529.298
 70
    32
  0
VERTEX
  8
W78LXLIFT
 62
3
 10
2036.713
 20
-6628.575
 30
-2537.346
 70
    32
  0
VERTEX
  8
W78LXLIFT
 62
3
 10
2023.710
 20
-6630.677
 30
-2545.301
 70
    32
  0
VERTEX
  8
W78LXLIFT
 62
3
 10
2020.410
 20
-6631.210
 30
-2545.869
 70
    32
  0
VERTEX
  8
W78LXLIFT
 62
3
 10
2019.818
 20
-6631.306
 30
-2536.296
 70
    32
  0
VERTEX
  8
W78LXLIFT
 62
3
 10
1995.114
 20
-6635.299
 30
-2536.296
 70
    32
  0
VERTEX
  8
W78LXLIFT
 62
3
 10
1990.206
 20
-6636.092
 30
-2529.674
 70
    32
  0
VERTEX
  8
W78LXLIFT
 62
3
 10
1989.286
 20
-6636.241
 30
-2522.537
 70
    32
  0
VERTEX
  8
W78LXLIFT
 62
3
 10
1981.478
 20
-6637.503
 30
-2505.431
 70
    32
  0
VERTEX
  8
W78LXLIFT
 62
3
 10
1981.048
 20
-6637.572
 30
-2502.078
 70
    32
  0
SEQEND
  8
W78LXLIFT
  0
POLYLINE
  8
W78LXLIFT
 62
3
 66
     1
 70
     9
  0
VERTEX
  8
W78LXLIFT
 62
3
 10
1983.245
 20
-6642.282
 30
-2500.373
 70
    32
  0
VERTEX
  8
W78LXLIFT
 62
3
 10
1986.835
 20
-6641.702
 30
-2500.209
 70
    32
  0
VERTEX
  8
W78LXLIFT
 62
3
 10
1986.917
 20
-6641.688
 30
-2487.901
 70
    32
  0
VERTEX
  8
W78LXLIFT
 62
3
 10
2011.679
 20
-6637.686
 30
-2488.017
 70
    32
  0
VERTEX
  8
W78LXLIFT
 62
3
 10
2011.607
 20
-6637.698
 30
-2499.885
 70
    32
  0
VERTEX
  8
W78LXLIFT
 62
3
 10
2054.204
 20
-6630.813
 30
-2499.885
 70
    32
  0
VERTEX
  8
W78LXLIFT
 62
3
 10
2055.641
 20
-6630.581
 30
-2521.700
 70
    32
  0
VERTEX
  8
W78LXLIFT
 62
3
 10
2055.836
 20
-6630.550
 30
-2522.039
 70
    32
  0
VERTEX
  8
W78LXLIFT
 62
3
 10
2055.724
 20
-6630.568
 30
-2523.952
 70
    32
  0
VERTEX
  8
W78LXLIFT
 62
3
 10
2050.995
 20
-6631.332
 30
-2528.154
 70
    32
  0
VERTEX
  8
W78LXLIFT
 62
3
 10
2048.492
 20
-6631.736
 30
-2533.537
 70
    32
  0
VERTEX
  8
W78LXLIFT
 62
3
 10
2041.783
 20
-6632.821
 30
-2537.248
 70
    32
  0
VERTEX
  8
W78LXLIFT
 62
3
 10
2031.742
 20
-6634.444
 30
-2544.591
 70
    32
  0
VERTEX
  8
W78LXLIFT
 62
3
 10
2024.789
 20
-6635.568
 30
-2545.486
 70
    32
  0
VERTEX
  8
W78LXLIFT
 62
3
 10
2023.218
 20
-6635.821
 30
-2536.262
 70
    32
  0
VERTEX
  8
W78LXLIFT
 62
3
 10
1997.034
 20
-6640.053
 30
-2536.161
 70
    32
  0
VERTEX
  8
W78LXLIFT
 62
3
 10
1989.596
 20
-6641.256
 30
-2527.052
 70
    32
  0
SEQEND
  8
W78LXLIFT
  0
POLYLINE
  8
W78LXLIFT
 62
3
 66
     1
 70
     9
  0
VERTEX
  8
W78LXLIFT
 62
3
 10
1981.210
 20
-6647.676
 30
-2500.030
 70
    32
  0
VERTEX
  8
W78LXLIFT
 62
3
 10
2057.986
 20
-6635.267
 30
-2500.016
 70
    32
  0
VERTEX
  8
W78LXLIFT
 62
3
 10
2055.609
 20
-6635.651
 30
-2503.809
 70
    32
  0
VERTEX
  8
W78LXLIFT
 62
3
 10
2056.231
 20
-6635.551
 30
-2513.214
 70
    32
  0
VERTEX
  8
W78LXLIFT
 62
3
 10
2057.766
 20
-6635.302
 30
-2523.499
 70
    32
  0
VERTEX
  8
W78LXLIFT
 62
3
 10
2056.247
 20
-6635.548
 30
-2527.381
 70
    32
  0
VERTEX
  8
W78LXLIFT
 62
3
 10
2047.615
 20
-6636.943
 30
-2537.095
 70
    32
  0
VERTEX
  8
W78LXLIFT
 62
3
 10
2037.304
 20
-6638.610
 30
-2542.668
 70
    32
  0
VERTEX
  8
W78LXLIFT
 62
3
 10
2037.304
 20
-6638.610
 30
-2536.524
 70
    32
  0
VERTEX
  8
W78LXLIFT
 62
3
 10
1993.561
 20
-6645.680
 30
-2536.383
 70
    32
  0
VERTEX
  8
W78LXLIFT
 62
3
 10
1989.073
 20
-6646.405
 30
-2528.045
 70
    32
  0
VERTEX
  8
W78LXLIFT
 62
3
 10
1988.074
 20
-6646.566
 30
-2519.924
 70
    32
  0
VERTEX
  8
W78LXLIFT
 62
3
 10
1982.346
 20
-6647.492
 30
-2501.468
 70
    32
  0
SEQEND
  8
W78LXLIFT
  0
POLYLINE
  8
W78LXLIFT
 62
3
 66
     1
 70
     9
  0
VERTEX
  8
W78LXLIFT
 62
3
 10
1981.156
 20
-6652.749
 30
-2500.079
 70
    32
  0
VERTEX
  8
W78LXLIFT
 62
3
 10
1988.932
 20
-6651.493
 30
-2499.677
 70
    32
  0
VERTEX
  8
W78LXLIFT
 62
3
 10
2053.798
 20
-6641.009
 30
-2499.991
 70
    32
  0
VERTEX
  8
W78LXLIFT
 62
3
 10
2059.017
 20
-6640.165
 30
-2499.992
 70
    32
  0
VERTEX
  8
W78LXLIFT
 62
3
 10
2057.010
 20
-6640.490
 30
-2507.519
 70
    32
  0
VERTEX
  8
W78LXLIFT
 62
3
 10
2057.287
 20
-6640.445
 30
-2515.152
 70
    32
  0
VERTEX
  8
W78LXLIFT
 62
3
 10
2058.210
 20
-6640.296
 30
-2523.703
 70
    32
  0
VERTEX
  8
W78LXLIFT
 62
3
 10
2056.356
 20
-6640.595
 30
-2526.855
 70
    32
  0
VERTEX
  8
W78LXLIFT
 62
3
 10
2054.530
 20
-6640.890
 30
-2532.402
 70
    32
  0
VERTEX
  8
W78LXLIFT
 62
3
 10
2050.224
 20
-6641.586
 30
-2537.738
 70
    32
  0
VERTEX
  8
W78LXLIFT
 62
3
 10
2042.756
 20
-6642.793
 30
-2540.640
 70
    32
  0
VERTEX
  8
W78LXLIFT
 62
3
 10
2042.389
 20
-6642.853
 30
-2536.209
 70
    32
  0
VERTEX
  8
W78LXLIFT
 62
3
 10
1993.066
 20
-6650.824
 30
-2535.809
 70
    32
  0
VERTEX
  8
W78LXLIFT
 62
3
 10
1989.490
 20
-6651.402
 30
-2528.567
 70
    32
  0
VERTEX
  8
W78LXLIFT
 62
3
 10
1987.862
 20
-6651.665
 30
-2516.584
 70
    32
  0
VERTEX
  8
W78LXLIFT
 62
3
 10
1984.105
 20
-6652.273
 30
-2501.594
 70
    32
  0
SEQEND
  8
W78LXLIFT
  0
POLYLINE
  8
W78LXLIFT
 62
3
 66
     1
 70
     9
  0
VERTEX
  8
W78LXLIFT
 62
3
 10
1980.437
 20
-6657.930
 30
-2500.172
 70
    32
  0
VERTEX
  8
W78LXLIFT
 62
3
 10
2054.718
 20
-6645.925
 30
-2500.364
 70
    32
  0
VERTEX
  8
W78LXLIFT
 62
3
 10
2056.292
 20
-6645.671
 30
-2516.647
 70
    32
  0
VERTEX
  8
W78LXLIFT
 62
3
 10
2056.726
 20
-6645.600
 30
-2523.831
 70
    32
  0
VERTEX
  8
W78LXLIFT
 62
3
 10
2054.670
 20
-6645.933
 30
-2533.843
 70
    32
  0
VERTEX
  8
W78LXLIFT
 62
3
 10
2046.411
 20
-6647.268
 30
-2538.488
 70
    32
  0
VERTEX
  8
W78LXLIFT
 62
3
 10
2045.960
 20
-6647.340
 30
-2536.092
 70
    32
  0
VERTEX
  8
W78LXLIFT
 62
3
 10
1993.918
 20
-6655.752
 30
-2536.132
 70
    32
  0
VERTEX
  8
W78LXLIFT
 62
3
 10
1993.585
 20
-6655.805
 30
-2538.093
 70
    32
  0
VERTEX
  8
W78LXLIFT
 62
3
 10
1989.835
 20
-6656.411
 30
-2521.009
 70
    32
  0
VERTEX
  8
W78LXLIFT
 62
3
 10
1984.479
 20
-6657.277
 30
-2503.972
 70
    32
  0
SEQEND
  8
W78LXLIFT
  0
POLYLINE
  8
W78LXLIFT
 62
3
 66
     1
 70
     9
  0
VERTEX
  8
W78LXLIFT
 62
3
 10
1985.080
 20
-6662.245
 30
-2500.043
 70
    32
  0
VERTEX
  8
W78LXLIFT
 62
3
 10
2007.715
 20
-6658.587
 30
-2499.844
 70
    32
  0
VERTEX
  8
W78LXLIFT
 62
3
 10
2009.674
 20
-6658.270
 30
-2496.506
 70
    32
  0
VERTEX
  8
W78LXLIFT
 62
3
 10
2024.208
 20
-6655.921
 30
-2494.087
 70
    32
  0
VERTEX
  8
W78LXLIFT
 62
3
 10
2027.691
 20
-6655.358
 30
-2498.984
 70
    32
  0
VERTEX
  8
W78LXLIFT
 62
3
 10
2058.947
 20
-6650.306
 30
-2499.838
 70
    32
  0
VERTEX
  8
W78LXLIFT
 62
3
 10
2059.164
 20
-6650.271
 30
-2507.118
 70
    32
  0
VERTEX
  8
W78LXLIFT
 62
3
 10
2055.722
 20
-6650.828
 30
-2517.121
 70
    32
  0
VERTEX
  8
W78LXLIFT
 62
3
 10
2057.563
 20
-6650.530
 30
-2524.601
 70
    32
  0
VERTEX
  8
W78LXLIFT
 62
3
 10
2055.141
 20
-6650.922
 30
-2534.407
 70
    32
  0
VERTEX
  8
W78LXLIFT
 62
3
 10
2049.301
 20
-6651.865
 30
-2535.483
 70
    32
  0
VERTEX
  8
W78LXLIFT
 62
3
 10
1995.659
 20
-6660.535
 30
-2536.761
 70
    32
  0
SEQEND
  8
W78LXLIFT
  0
POLYLINE
  8
W78LXLIFT
 62
3
 66
     1
 70
     9
  0
VERTEX
  8
W78LXLIFT
 62
3
 10
1985.469
 20
-6667.247
 30
-2500.083
 70
    32
  0
VERTEX
  8
W78LXLIFT
 62
3
 10
2002.252
 20
-6664.534
 30
-2500.056
 70
    32
  0
VERTEX
  8
W78LXLIFT
 62
3
 10
2014.353
 20
-6662.579
 30
-2496.833
 70
    32
  0
VERTEX
  8
W78LXLIFT
 62
3
 10
2026.756
 20
-6660.574
 30
-2494.961
 70
    32
  0
VERTEX
  8
W78LXLIFT
 62
3
 10
2030.610
 20
-6659.951
 30
-2499.083
 70
    32
  0
VERTEX
  8
W78LXLIFT
 62
3
 10
2044.802
 20
-6657.657
 30
-2500.083
 70
    32
  0
VERTEX
  8
W78LXLIFT
 62
3
 10
2057.873
 20
-6655.545
 30
-2500.083
 70
    32
  0
VERTEX
  8
W78LXLIFT
 62
3
 10
2054.488
 20
-6656.092
 30
-2506.530
 70
    32
  0
VERTEX
  8
W78LXLIFT
 62
3
 10
2054.476
 20
-6656.094
 30
-2511.327
 70
    32
  0
VERTEX
  8
W78LXLIFT
 62
3
 10
2057.965
 20
-6655.530
 30
-2524.491
 70
    32
  0
VERTEX
  8
W78LXLIFT
 62
3
 10
2050.655
 20
-6656.711
 30
-2535.897
 70
    32
  0
VERTEX
  8
W78LXLIFT
 62
3
 10
2001.811
 20
-6664.606
 30
-2535.948
 70
    32
  0
VERTEX
  8
W78LXLIFT
 62
3
 10
1996.989
 20
-6665.385
 30
-2536.607
 70
    32
  0
VERTEX
  8
W78LXLIFT
 62
3
 10
1996.989
 20
-6665.385
 30
-2543.892
 70
    32
  0
VERTEX
  8
W78LXLIFT
 62
3
 10
1994.143
 20
-6665.845
 30
-2536.830
 70
    32
  0
VERTEX
  8
W78LXLIFT
 62
3
 10
1989.790
 20
-6666.549
 30
-2510.311
 70
    32
  0
SEQEND
  8
W78LXLIFT
  0
POLYLINE
  8
W78LXLIFT
 62
3
 66
     1
 70
     9
  0
VERTEX
  8
W78LXLIFT
 62
3
 10
1987.329
 20
-6672.011
 30
-2499.840
 70
    32
  0
VERTEX
  8
W78LXLIFT
 62
3
 10
1990.552
 20
-6671.490
 30
-2499.942
 70
    32
  0
VERTEX
  8
W78LXLIFT
 62
3
 10
2005.333
 20
-6669.101
 30
-2500.155
 70
    32
  0
VERTEX
  8
W78LXLIFT
 62
3
 10
2029.599
 20
-6665.179
 30
-2496.029
 70
    32
  0
VERTEX
  8
W78LXLIFT
 62
3
 10
2029.970
 20
-6665.119
 30
-2500.164
 70
    32
  0
VERTEX
  8
W78LXLIFT
 62
3
 10
2043.745
 20
-6662.893
 30
-2499.991
 70
    32
  0
VERTEX
  8
W78LXLIFT
 62
3
 10
2054.831
 20
-6661.101
 30
-2499.840
 70
    32
  0
VERTEX
  8
W78LXLIFT
 62
3
 10
2052.384
 20
-6661.497
 30
-2504.914
 70
    32
  0
VERTEX
  8
W78LXLIFT
 62
3
 10
2054.835
 20
-6661.101
 30
-2510.100
 70
    32
  0
VERTEX
  8
W78LXLIFT
 62
3
 10
2058.985
 20
-6660.430
 30
-2524.243
 70
    32
  0
VERTEX
  8
W78LXLIFT
 62
3
 10
2058.240
 20
-6660.550
 30
-2531.075
 70
    32
  0
VERTEX
  8
W78LXLIFT
 62
3
 10
2052.374
 20
-6661.498
 30
-2536.057
 70
    32
  0
VERTEX
  8
W78LXLIFT
 62
3
 10
2055.039
 20
-6661.068
 30
-2548.137
 70
    32
  0
VERTEX
  8
W78LXLIFT
 62
3
 10
2021.281
 20
-6666.524
 30
-2547.815
 70
    32
  0
VERTEX
  8
W78LXLIFT
 62
3
 10
1995.953
 20
-6670.617
 30
-2536.057
 70
    32
  0
VERTEX
  8
W78LXLIFT
 62
3
 10
1993.110
 20
-6671.077
 30
-2521.987
 70
    32
  0
SEQEND
  8
W78LXLIFT
  0
POLYLINE
  8
W78LXLIFT
 62
3
 66
     1
 70
     9
  0
VERTEX
  8
W78LXLIFT
 62
3
 10
1988.978
 20
-6676.810
 30
-2499.615
 70
    32
  0
VERTEX
  8
W78LXLIFT
 62
3
 10
1992.937
 20
-6676.170
 30
-2499.922
 70
    32
  0
VERTEX
  8
W78LXLIFT
 62
3
 10
2008.169
 20
-6673.708
 30
-2499.922
 70
    32
  0
VERTEX
  8
W78LXLIFT
 62
3
 10
2022.241
 20
-6671.434
 30
-2498.396
 70
    32
  0
VERTEX
  8
W78LXLIFT
 62
3
 10
2032.197
 20
-6669.824
 30
-2500.175
 70
    32
  0
VERTEX
  8
W78LXLIFT
 62
3
 10
2047.422
 20
-6667.364
 30
-2500.382
 70
    32
  0
VERTEX
  8
W78LXLIFT
 62
3
 10
2048.039
 20
-6667.264
 30
-2495.122
 70
    32
  0
VERTEX
  8
W78LXLIFT
 62
3
 10
2052.388
 20
-6666.561
 30
-2495.909
 70
    32
  0
VERTEX
  8
W78LXLIFT
 62
3
 10
2052.804
 20
-6666.494
 30
-2501.643
 70
    32
  0
VERTEX
  8
W78LXLIFT
 62
3
 10
2054.948
 20
-6666.147
 30
-2506.552
 70
    32
  0
VERTEX
  8
W78LXLIFT
 62
3
 10
2055.679
 20
-6666.029
 30
-2513.273
 70
    32
  0
VERTEX
  8
W78LXLIFT
 62
3
 10
2058.477
 20
-6665.577
 30
-2516.389
 70
    32
  0
VERTEX
  8
W78LXLIFT
 62
3
 10
2060.352
 20
-6665.274
 30
-2522.508
 70
    32
  0
VERTEX
  8
W78LXLIFT
 62
3
 10
2059.129
 20
-6665.472
 30
-2526.820
 70
    32
  0
VERTEX
  8
W78LXLIFT
 62
3
 10
2055.149
 20
-6666.115
 30
-2531.356
 70
    32
  0
VERTEX
  8
W78LXLIFT
 62
3
 10
2053.672
 20
-6666.354
 30
-2535.656
 70
    32
  0
VERTEX
  8
W78LXLIFT
 62
3
 10
2056.528
 20
-6665.892
 30
-2547.952
 70
    32
  0
VERTEX
  8
W78LXLIFT
 62
3
 10
2021.352
 20
-6671.577
 30
-2547.952
 70
    32
  0
VERTEX
  8
W78LXLIFT
 62
3
 10
2012.988
 20
-6672.929
 30
-2548.037
 70
    32
  0
VERTEX
  8
W78LXLIFT
 62
3
 10
2006.203
 20
-6674.026
 30
-2544.453
 70
    32
  0
VERTEX
  8
W78LXLIFT
 62
3
 10
1997.489
 20
-6675.434
 30
-2544.113
 70
    32
  0
VERTEX
  8
W78LXLIFT
 62
3
 10
1993.616
 20
-6676.060
 30
-2520.664
 70
    32
  0
VERTEX
  8
W78LXLIFT
 62
3
 10
1990.031
 20
-6676.639
 30
-2502.896
 70
    32
  0
SEQEND
  8
W78LXLIFT
  0
POLYLINE
  8
W78LXLIFT
 62
3
 66
     1
 70
     9
  0
VERTEX
  8
W78LXLIFT
 62
3
 10
1992.501
 20
-6681.305
 30
-2499.262
 70
    32
  0
VERTEX
  8
W78LXLIFT
 62
3
 10
2004.891
 20
-6679.303
 30
-2500.348
 70
    32
  0
VERTEX
  8
W78LXLIFT
 62
3
 10
2020.222
 20
-6676.825
 30
-2500.085
 70
    32
  0
VERTEX
  8
W78LXLIFT
 62
3
 10
2034.097
 20
-6674.582
 30
-2499.226
 70
    32
  0
VERTEX
  8
W78LXLIFT
 62
3
 10
2040.792
 20
-6673.500
 30
-2499.292
 70
    32
  0
VERTEX
  8
W78LXLIFT
 62
3
 10
2049.277
 20
-6672.129
 30
-2499.467
 70
    32
  0
VERTEX
  8
W78LXLIFT
 62
3
 10
2060.785
 20
-6670.269
 30
-2521.398
 70
    32
  0
VERTEX
  8
W78LXLIFT
 62
3
 10
2060.162
 20
-6670.370
 30
-2522.260
 70
    32
  0
VERTEX
  8
W78LXLIFT
 62
3
 10
2065.520
 20
-6669.504
 30
-2532.101
 70
    32
  0
VERTEX
  8
W78LXLIFT
 62
3
 10
2057.620
 20
-6670.780
 30
-2547.987
 70
    32
  0
VERTEX
  8
W78LXLIFT
 62
3
 10
2029.441
 20
-6675.335
 30
-2547.879
 70
    32
  0
VERTEX
  8
W78LXLIFT
 62
3
 10
2028.769
 20
-6675.443
 30
-2549.520
 70
    32
  0
VERTEX
  8
W78LXLIFT
 62
3
 10
1996.016
 20
-6680.737
 30
-2547.938
 70
    32
  0
VERTEX
  8
W78LXLIFT
 62
3
 10
1993.101
 20
-6681.208
 30
-2508.562
 70
    32
  0
SEQEND
  8
W78LXLIFT
  0
POLYLINE
  8
W78LXLIFT
 62
3
 66
     1
 70
     9
  0
VERTEX
  8
W78LXLIFT
 62
3
 10
1989.227
 20
-6686.899
 30
-2498.862
 70
    32
  0
VERTEX
  8
W78LXLIFT
 62
3
 10
1996.149
 20
-6685.780
 30
-2499.566
 70
    32
  0
VERTEX
  8
W78LXLIFT
 62
3
 10
2004.816
 20
-6684.380
 30
-2498.872
 70
    32
  0
VERTEX
  8
W78LXLIFT
 62
3
 10
2009.523
 20
-6683.619
 30
-2501.059
 70
    32
  0
VERTEX
  8
W78LXLIFT
 62
3
 10
2034.895
 20
-6679.518
 30
-2499.333
 70
    32
  0
VERTEX
  8
W78LXLIFT
 62
3
 10
2043.627
 20
-6678.107
 30
-2498.245
 70
    32
  0
VERTEX
  8
W78LXLIFT
 62
3
 10
2051.846
 20
-6676.778
 30
-2500.277
 70
    32
  0
VERTEX
  8
W78LXLIFT
 62
3
 10
2063.019
 20
-6674.973
 30
-2523.516
 70
    32
  0
VERTEX
  8
W78LXLIFT
 62
3
 10
2057.669
 20
-6675.837
 30
-2536.062
 70
    32
  0
VERTEX
  8
W78LXLIFT
 62
3
 10
2060.532
 20
-6675.375
 30
-2547.862
 70
    32
  0
VERTEX
  8
W78LXLIFT
 62
3
 10
2041.794
 20
-6678.403
 30
-2547.943
 70
    32
  0
VERTEX
  8
W78LXLIFT
 62
3
 10
2041.225
 20
-6678.495
 30
-2549.438
 70
    32
  0
VERTEX
  8
W78LXLIFT
 62
3
 10
2008.045
 20
-6683.858
 30
-2549.334
 70
    32
  0
VERTEX
  8
W78LXLIFT
 62
3
 10
2007.180
 20
-6683.997
 30
-2546.121
 70
    32
  0
VERTEX
  8
W78LXLIFT
 62
3
 10
2001.148
 20
-6684.972
 30
-2543.677
 70
    32
  0
VERTEX
  8
W78LXLIFT
 62
3
 10
1997.390
 20
-6685.580
 30
-2530.995
 70
    32
  0
VERTEX
  8
W78LXLIFT
 62
3
 10
1995.207
 20
-6685.933
 30
-2513.652
 70
    32
  0
VERTEX
  8
W78LXLIFT
 62
3
 10
1992.098
 20
-6686.435
 30
-2502.853
 70
    32
  0
SEQEND
  8
W78LXLIFT
  0
POLYLINE
  8
W78LXLIFT
 62
3
 66
     1
 70
     9
  0
VERTEX
  8
W78LXLIFT
 62
3
 10
1995.411
 20
-6690.964
 30
-2499.679
 70
    32
  0
VERTEX
  8
W78LXLIFT
 62
3
 10
2004.691
 20
-6689.465
 30
-2499.033
 70
    32
  0
VERTEX
  8
W78LXLIFT
 62
3
 10
2012.114
 20
-6688.265
 30
-2502.300
 70
    32
  0
VERTEX
  8
W78LXLIFT
 62
3
 10
2018.906
 20
-6687.167
 30
-2502.767
 70
    32
  0
VERTEX
  8
W78LXLIFT
 62
3
 10
2028.976
 20
-6685.540
 30
-2500.380
 70
    32
  0
VERTEX
  8
W78LXLIFT
 62
3
 10
2036.331
 20
-6684.351
 30
-2500.719
 70
    32
  0
VERTEX
  8
W78LXLIFT
 62
3
 10
2048.792
 20
-6682.337
 30
-2497.682
 70
    32
  0
VERTEX
  8
W78LXLIFT
 62
3
 10
2051.912
 20
-6681.833
 30
-2499.815
 70
    32
  0
VERTEX
  8
W78LXLIFT
 62
3
 10
2059.983
 20
-6680.528
 30
-2495.565
 70
    32
  0
VERTEX
  8
W78LXLIFT
 62
3
 10
2059.408
 20
-6680.621
 30
-2504.282
 70
    32
  0
VERTEX
  8
W78LXLIFT
 62
3
 10
2061.349
 20
-6680.307
 30
-2510.503
 70
    32
  0
VERTEX
  8
W78LXLIFT
 62
3
 10
2064.325
 20
-6679.826
 30
-2516.630
 70
    32
  0
VERTEX
  8
W78LXLIFT
 62
3
 10
2062.280
 20
-6680.157
 30
-2519.924
 70
    32
  0
VERTEX
  8
W78LXLIFT
 62
3
 10
2067.167
 20
-6679.367
 30
-2529.997
 70
    32
  0
VERTEX
  8
W78LXLIFT
 62
3
 10
2056.980
 20
-6681.014
 30
-2547.081
 70
    32
  0
VERTEX
  8
W78LXLIFT
 62
3
 10
2042.202
 20
-6683.402
 30
-2548.903
 70
    32
  0
VERTEX
  8
W78LXLIFT
 62
3
 10
2004.058
 20
-6689.567
 30
-2548.558
 70
    32
  0
VERTEX
  8
W78LXLIFT
 62
3
 10
2001.549
 20
-6689.972
 30
-2539.904
 70
    32
  0
SEQEND
  8
W78LXLIFT
  0
POLYLINE
  8
W78LXLIFT
 62
3
 66
     1
 70
     9
  0
VERTEX
  8
W78LXLIFT
 62
3
 10
2004.122
 20
-6694.622
 30
-2549.588
 70
    32
  0
VERTEX
  8
W78LXLIFT
 62
3
 10
2001.735
 20
-6695.007
 30
-2536.706
 70
    32
  0
VERTEX
  8
W78LXLIFT
 62
3
 10
1994.767
 20
-6696.133
 30
-2499.656
 70
    32
  0
VERTEX
  8
W78LXLIFT
 62
3
 10
2004.521
 20
-6694.557
 30
-2497.763
 70
    32
  0
VERTEX
  8
W78LXLIFT
 62
3
 10
2007.270
 20
-6694.113
 30
-2504.908
 70
    32
  0
VERTEX
  8
W78LXLIFT
 62
3
 10
2018.887
 20
-6692.235
 30
-2507.216
 70
    32
  0
VERTEX
  8
W78LXLIFT
 62
3
 10
2028.170
 20
-6690.735
 30
-2504.908
 70
    32
  0
VERTEX
  8
W78LXLIFT
 62
3
 10
2033.774
 20
-6689.829
 30
-2500.370
 70
    32
  0
VERTEX
  8
W78LXLIFT
 62
3
 10
2044.008
 20
-6688.175
 30
-2500.868
 70
    32
  0
VERTEX
  8
W78LXLIFT
 62
3
 10
2060.066
 20
-6685.580
 30
-2497.755
 70
    32
  0
VERTEX
  8
W78LXLIFT
 62
3
 10
2055.923
 20
-6686.249
 30
-2508.067
 70
    32
  0
VERTEX
  8
W78LXLIFT
 62
3
 10
2067.096
 20
-6684.443
 30
-2530.318
 70
    32
  0
VERTEX
  8
W78LXLIFT
 62
3
 10
2059.309
 20
-6685.702
 30
-2546.453
 70
    32
  0
VERTEX
  8
W78LXLIFT
 62
3
 10
2059.148
 20
-6685.728
 30
-2547.865
 70
    32
  0
VERTEX
  8
W78LXLIFT
 62
3
 10
2046.131
 20
-6687.832
 30
-2547.958
 70
    32
  0
VERTEX
  8
W78LXLIFT
 62
3
 10
2043.331
 20
-6688.284
 30
-2549.725
 70
    32
  0
SEQEND
  8
W78LXLIFT
  0
POLYLINE
  8
W78LXLIFT
 62
3
 66
     1
 70
     9
  0
VERTEX
  8
W78LXLIFT
 62
3
 10
2177.475
 20
-6902.047
 30
-2467.072
 70
    32
  0
VERTEX
  8
W78LXLIFT
 62
3
 10
2176.168
 20
-6903.357
 30
-2467.305
 70
    32
  0
VERTEX
  8
W78LXLIFT
 62
3
 10
2175.087
 20
-6904.440
 30
-2466.081
 70
    32
  0
VERTEX
  8
W78LXLIFT
 62
3
 10
2173.789
 20
-6905.740
 30
-2462.716
 70
    32
  0
VERTEX
  8
W78LXLIFT
 62
3
 10
2170.545
 20
-6908.991
 30
-2456.903
 70
    32
  0
VERTEX
  8
W78LXLIFT
 62
3
 10
2173.238
 20
-6906.293
 30
-2456.975
 70
    32
  0
VERTEX
  8
W78LXLIFT
 62
3
 10
2177.587
 20
-6901.935
 30
-2456.975
 70
    32
  0
VERTEX
  8
W78LXLIFT
 62
3
 10
2180.152
 20
-6899.365
 30
-2456.975
 70
    32
  0
VERTEX
  8
W78LXLIFT
 62
3
 10
2178.590
 20
-6900.929
 30
-2444.038
 70
    32
  0
VERTEX
  8
W78LXLIFT
 62
3
 10
2181.601
 20
-6897.912
 30
-2443.249
 70
    32
  0
VERTEX
  8
W78LXLIFT
 62
3
 10
2183.051
 20
-6896.459
 30
-2443.249
 70
    32
  0
VERTEX
  8
W78LXLIFT
 62
3
 10
2185.504
 20
-6894.001
 30
-2443.091
 70
    32
  0
VERTEX
  8
W78LXLIFT
 62
3
 10
2186.843
 20
-6892.660
 30
-2442.934
 70
    32
  0
VERTEX
  8
W78LXLIFT
 62
3
 10
2188.181
 20
-6891.319
 30
-2443.407
 70
    32
  0
VERTEX
  8
W78LXLIFT
 62
3
 10
2190.077
 20
-6889.419
 30
-2447.509
 70
    32
  0
VERTEX
  8
W78LXLIFT
 62
3
 10
2191.638
 20
-6887.855
 30
-2449.244
 70
    32
  0
VERTEX
  8
W78LXLIFT
 62
3
 10
2192.753
 20
-6886.737
 30
-2450.348
 70
    32
  0
VERTEX
  8
W78LXLIFT
 62
3
 10
2193.533
 20
-6885.955
 30
-2453.819
 70
    32
  0
VERTEX
  8
W78LXLIFT
 62
3
 10
2193.533
 20
-6885.955
 30
-2459.183
 70
    32
  0
VERTEX
  8
W78LXLIFT
 62
3
 10
2193.087
 20
-6886.402
 30
-2461.392
 70
    32
  0
VERTEX
  8
W78LXLIFT
 62
3
 10
2193.422
 20
-6886.067
 30
-2464.863
 70
    32
  0
VERTEX
  8
W78LXLIFT
 62
3
 10
2193.533
 20
-6885.955
 30
-2467.387
 70
    32
  0
VERTEX
  8
W78LXLIFT
 62
3
 10
2190.969
 20
-6888.525
 30
-2466.440
 70
    32
  0
VERTEX
  8
W78LXLIFT
 62
3
 10
2189.407
 20
-6890.090
 30
-2464.705
 70
    32
  0
VERTEX
  8
W78LXLIFT
 62
3
 10
2186.954
 20
-6892.548
 30
-2465.494
 70
    32
  0
VERTEX
  8
W78LXLIFT
 62
3
 10
2185.393
 20
-6894.113
 30
-2464.390
 70
    32
  0
VERTEX
  8
W78LXLIFT
 62
3
 10
2183.274
 20
-6896.236
 30
-2465.336
 70
    32
  0
VERTEX
  8
W78LXLIFT
 62
3
 10
2181.824
 20
-6897.688
 30
-2465.652
 70
    32
  0
VERTEX
  8
W78LXLIFT
 62
3
 10
2179.148
 20
-6900.370
 30
-2466.125
 70
    32
  0
SEQEND
  8
W78LXLIFT
  0
POLYLINE
  8
W78LXLIFT
 62
3
 66
     1
 70
     9
  0
VERTEX
  8
W78LXLIFT
 62
3
 10
2176.125
 20
-6896.321
 30
-2469.449
 70
    32
  0
VERTEX
  8
W78LXLIFT
 62
3
 10
2174.851
 20
-6897.598
 30
-2470.050
 70
    32
  0
VERTEX
  8
W78LXLIFT
 62
3
 10
2173.152
 20
-6899.300
 30
-2469.449
 70
    32
  0
VERTEX
  8
W78LXLIFT
 62
3
 10
2169.329
 20
-6903.131
 30
-2462.839
 70
    32
  0
VERTEX
  8
W78LXLIFT
 62
3
 10
2168.904
 20
-6903.557
 30
-2459.534
 70
    32
  0
VERTEX
  8
W78LXLIFT
 62
3
 10
2167.418
 20
-6905.047
 30
-2457.130
 70
    32
  0
VERTEX
  8
W78LXLIFT
 62
3
 10
2170.816
 20
-6901.642
 30
-2457.130
 70
    32
  0
VERTEX
  8
W78LXLIFT
 62
3
 10
2175.276
 20
-6897.172
 30
-2457.130
 70
    32
  0
VERTEX
  8
W78LXLIFT
 62
3
 10
2178.249
 20
-6894.193
 30
-2457.130
 70
    32
  0
VERTEX
  8
W78LXLIFT
 62
3
 10
2176.338
 20
-6896.108
 30
-2443.909
 70
    32
  0
VERTEX
  8
W78LXLIFT
 62
3
 10
2182.709
 20
-6889.723
 30
-2443.008
 70
    32
  0
VERTEX
  8
W78LXLIFT
 62
3
 10
2187.807
 20
-6884.615
 30
-2443.609
 70
    32
  0
VERTEX
  8
W78LXLIFT
 62
3
 10
2190.993
 20
-6881.423
 30
-2448.717
 70
    32
  0
VERTEX
  8
W78LXLIFT
 62
3
 10
2192.479
 20
-6879.933
 30
-2454.726
 70
    32
  0
VERTEX
  8
W78LXLIFT
 62
3
 10
2192.904
 20
-6879.507
 30
-2460.736
 70
    32
  0
VERTEX
  8
W78LXLIFT
 62
3
 10
2193.116
 20
-6879.294
 30
-2466.144
 70
    32
  0
VERTEX
  8
W78LXLIFT
 62
3
 10
2192.692
 20
-6879.720
 30
-2468.247
 70
    32
  0
VERTEX
  8
W78LXLIFT
 62
3
 10
2190.780
 20
-6881.635
 30
-2467.947
 70
    32
  0
VERTEX
  8
W78LXLIFT
 62
3
 10
2188.019
 20
-6884.402
 30
-2467.346
 70
    32
  0
VERTEX
  8
W78LXLIFT
 62
3
 10
2186.320
 20
-6886.105
 30
-2468.548
 70
    32
  0
VERTEX
  8
W78LXLIFT
 62
3
 10
2184.409
 20
-6888.020
 30
-2467.346
 70
    32
  0
VERTEX
  8
W78LXLIFT
 62
3
 10
2181.223
 20
-6891.213
 30
-2469.449
 70
    32
  0
VERTEX
  8
W78LXLIFT
 62
3
 10
2178.462
 20
-6893.980
 30
-2468.848
 70
    32
  0
SEQEND
  8
W78LXLIFT
  0
POLYLINE
  8
W78LXLIFT
 62
3
 66
     1
 70
     9
  0
VERTEX
  8
W78LXLIFT
 62
3
 10
2164.974
 20
-6900.417
 30
-2457.347
 70
    32
  0
VERTEX
  8
W78LXLIFT
 62
3
 10
2171.857
 20
-6893.519
 30
-2457.033
 70
    32
  0
VERTEX
  8
W78LXLIFT
 62
3
 10
2178.519
 20
-6886.844
 30
-2457.033
 70
    32
  0
VERTEX
  8
W78LXLIFT
 62
3
 10
2176.076
 20
-6889.292
 30
-2443.211
 70
    32
  0
VERTEX
  8
W78LXLIFT
 62
3
 10
2180.073
 20
-6885.287
 30
-2443.211
 70
    32
  0
VERTEX
  8
W78LXLIFT
 62
3
 10
2186.734
 20
-6878.612
 30
-2443.839
 70
    32
  0
VERTEX
  8
W78LXLIFT
 62
3
 10
2188.955
 20
-6876.386
 30
-2448.237
 70
    32
  0
VERTEX
  8
W78LXLIFT
 62
3
 10
2191.175
 20
-6874.161
 30
-2456.091
 70
    32
  0
VERTEX
  8
W78LXLIFT
 62
3
 10
2191.397
 20
-6873.939
 30
-2464.572
 70
    32
  0
VERTEX
  8
W78LXLIFT
 62
3
 10
2191.841
 20
-6873.494
 30
-2468.970
 70
    32
  0
VERTEX
  8
W78LXLIFT
 62
3
 10
2191.175
 20
-6874.161
 30
-2470.226
 70
    32
  0
VERTEX
  8
W78LXLIFT
 62
3
 10
2186.734
 20
-6878.612
 30
-2468.342
 70
    32
  0
VERTEX
  8
W78LXLIFT
 62
3
 10
2184.292
 20
-6881.059
 30
-2468.027
 70
    32
  0
VERTEX
  8
W78LXLIFT
 62
3
 10
2181.405
 20
-6883.952
 30
-2468.970
 70
    32
  0
VERTEX
  8
W78LXLIFT
 62
3
 10
2180.517
 20
-6884.842
 30
-2470.855
 70
    32
  0
VERTEX
  8
W78LXLIFT
 62
3
 10
2178.963
 20
-6886.399
 30
-2471.483
 70
    32
  0
VERTEX
  8
W78LXLIFT
 62
3
 10
2173.190
 20
-6892.184
 30
-2473.682
 70
    32
  0
VERTEX
  8
W78LXLIFT
 62
3
 10
2171.191
 20
-6894.187
 30
-2472.111
 70
    32
  0
SEQEND
  8
W78LXLIFT
  0
POLYLINE
  8
W78LXLIFT
 62
3
 66
     1
 70
     9
  0
VERTEX
  8
W78LXLIFT
 62
3
 10
2169.269
 20
-6889.035
 30
-2476.934
 70
    32
  0
VERTEX
  8
W78LXLIFT
 62
3
 10
2167.949
 20
-6890.358
 30
-2477.557
 70
    32
  0
VERTEX
  8
W78LXLIFT
 62
3
 10
2166.188
 20
-6892.122
 30
-2474.133
 70
    32
  0
VERTEX
  8
W78LXLIFT
 62
3
 10
2163.988
 20
-6894.327
 30
-2466.039
 70
    32
  0
VERTEX
  8
W78LXLIFT
 62
3
 10
2160.027
 20
-6898.295
 30
-2457.012
 70
    32
  0
VERTEX
  8
W78LXLIFT
 62
3
 10
2161.348
 20
-6896.973
 30
-2457.012
 70
    32
  0
VERTEX
  8
W78LXLIFT
 62
3
 10
2169.929
 20
-6888.373
 30
-2457.012
 70
    32
  0
VERTEX
  8
W78LXLIFT
 62
3
 10
2177.190
 20
-6881.097
 30
-2457.012
 70
    32
  0
VERTEX
  8
W78LXLIFT
 62
3
 10
2175.430
 20
-6882.861
 30
-2443.627
 70
    32
  0
VERTEX
  8
W78LXLIFT
 62
3
 10
2180.050
 20
-6878.231
 30
-2444.250
 70
    32
  0
VERTEX
  8
W78LXLIFT
 62
3
 10
2184.451
 20
-6873.821
 30
-2444.872
 70
    32
  0
VERTEX
  8
W78LXLIFT
 62
3
 10
2187.311
 20
-6870.955
 30
-2446.429
 70
    32
  0
VERTEX
  8
W78LXLIFT
 62
3
 10
2188.631
 20
-6869.632
 30
-2448.608
 70
    32
  0
VERTEX
  8
W78LXLIFT
 62
3
 10
2189.512
 20
-6868.750
 30
-2453.899
 70
    32
  0
VERTEX
  8
W78LXLIFT
 62
3
 10
2189.512
 20
-6868.750
 30
-2457.324
 70
    32
  0
VERTEX
  8
W78LXLIFT
 62
3
 10
2189.071
 20
-6869.191
 30
-2460.436
 70
    32
  0
VERTEX
  8
W78LXLIFT
 62
3
 10
2190.392
 20
-6867.868
 30
-2467.907
 70
    32
  0
VERTEX
  8
W78LXLIFT
 62
3
 10
2190.392
 20
-6867.868
 30
-2470.709
 70
    32
  0
VERTEX
  8
W78LXLIFT
 62
3
 10
2188.851
 20
-6869.411
 30
-2471.331
 70
    32
  0
VERTEX
  8
W78LXLIFT
 62
3
 10
2185.551
 20
-6872.719
 30
-2470.397
 70
    32
  0
VERTEX
  8
W78LXLIFT
 62
3
 10
2182.471
 20
-6875.806
 30
-2470.086
 70
    32
  0
VERTEX
  8
W78LXLIFT
 62
3
 10
2178.730
 20
-6879.554
 30
-2470.086
 70
    32
  0
VERTEX
  8
W78LXLIFT
 62
3
 10
2177.850
 20
-6880.436
 30
-2472.576
 70
    32
  0
VERTEX
  8
W78LXLIFT
 62
3
 10
2177.190
 20
-6881.097
 30
-2478.180
 70
    32
  0
VERTEX
  8
W78LXLIFT
 62
3
 10
2177.850
 20
-6880.436
 30
-2480.359
 70
    32
  0
SEQEND
  8
W78LXLIFT
  0
POLYLINE
  8
W78LXLIFT
 62
3
 66
     1
 70
     9
  0
VERTEX
  8
W78LXLIFT
 62
3
 10
2178.226
 20
-6872.981
 30
-2479.060
 70
    32
  0
VERTEX
  8
W78LXLIFT
 62
3
 10
2177.494
 20
-6873.714
 30
-2470.713
 70
    32
  0
VERTEX
  8
W78LXLIFT
 62
3
 10
2183.271
 20
-6867.925
 30
-2470.953
 70
    32
  0
VERTEX
  8
W78LXLIFT
 62
3
 10
2185.649
 20
-6865.542
 30
-2474.078
 70
    32
  0
VERTEX
  8
W78LXLIFT
 62
3
 10
2189.047
 20
-6862.137
 30
-2472.395
 70
    32
  0
VERTEX
  8
W78LXLIFT
 62
3
 10
2186.669
 20
-6864.520
 30
-2457.012
 70
    32
  0
VERTEX
  8
W78LXLIFT
 62
3
 10
2166.732
 20
-6884.499
 30
-2457.107
 70
    32
  0
VERTEX
  8
W78LXLIFT
 62
3
 10
2157.919
 20
-6893.329
 30
-2457.107
 70
    32
  0
VERTEX
  8
W78LXLIFT
 62
3
 10
2155.238
 20
-6896.017
 30
-2457.107
 70
    32
  0
VERTEX
  8
W78LXLIFT
 62
3
 10
2163.666
 20
-6887.570
 30
-2476.892
 70
    32
  0
VERTEX
  8
W78LXLIFT
 62
3
 10
2167.498
 20
-6883.731
 30
-2479.602
 70
    32
  0
VERTEX
  8
W78LXLIFT
 62
3
 10
2173.053
 20
-6878.164
 30
-2480.144
 70
    32
  0
SEQEND
  8
W78LXLIFT
  0
POLYLINE
  8
W78LXLIFT
 62
3
 66
     1
 70
     9
  0
VERTEX
  8
W78LXLIFT
 62
3
 10
2177.062
 20
-6867.069
 30
-2481.302
 70
    32
  0
VERTEX
  8
W78LXLIFT
 62
3
 10
2177.797
 20
-6866.332
 30
-2477.141
 70
    32
  0
VERTEX
  8
W78LXLIFT
 62
3
 10
2179.635
 20
-6864.490
 30
-2475.581
 70
    32
  0
VERTEX
  8
W78LXLIFT
 62
3
 10
2184.231
 20
-6859.885
 30
-2479.742
 70
    32
  0
VERTEX
  8
W78LXLIFT
 62
3
 10
2186.253
 20
-6857.858
 30
-2479.222
 70
    32
  0
VERTEX
  8
W78LXLIFT
 62
3
 10
2185.885
 20
-6858.227
 30
-2474.801
 70
    32
  0
VERTEX
  8
W78LXLIFT
 62
3
 10
2186.253
 20
-6857.858
 30
-2471.940
 70
    32
  0
VERTEX
  8
W78LXLIFT
 62
3
 10
2185.702
 20
-6858.411
 30
-2465.179
 70
    32
  0
VERTEX
  8
W78LXLIFT
 62
3
 10
2182.760
 20
-6861.358
 30
-2457.117
 70
    32
  0
VERTEX
  8
W78LXLIFT
 62
3
 10
2164.194
 20
-6879.963
 30
-2457.117
 70
    32
  0
VERTEX
  8
W78LXLIFT
 62
3
 10
2156.106
 20
-6888.068
 30
-2457.117
 70
    32
  0
VERTEX
  8
W78LXLIFT
 62
3
 10
2151.510
 20
-6892.673
 30
-2457.117
 70
    32
  0
VERTEX
  8
W78LXLIFT
 62
3
 10
2155.922
 20
-6888.252
 30
-2468.819
 70
    32
  0
VERTEX
  8
W78LXLIFT
 62
3
 10
2164.378
 20
-6879.779
 30
-2479.482
 70
    32
  0
VERTEX
  8
W78LXLIFT
 62
3
 10
2165.849
 20
-6878.305
 30
-2477.922
 70
    32
  0
VERTEX
  8
W78LXLIFT
 62
3
 10
2168.055
 20
-6876.095
 30
-2479.742
 70
    32
  0
VERTEX
  8
W78LXLIFT
 62
3
 10
2174.121
 20
-6870.016
 30
-2479.742
 70
    32
  0
VERTEX
  8
W78LXLIFT
 62
3
 10
2174.672
 20
-6869.463
 30
-2481.562
 70
    32
  0
SEQEND
  8
W78LXLIFT
  0
POLYLINE
  8
W78LXLIFT
 62
3
 66
     1
 70
     9
  0
VERTEX
  8
W78LXLIFT
 62
3
 10
2158.499
 20
-6878.592
 30
-2473.240
 70
    32
  0
VERTEX
  8
W78LXLIFT
 62
3
 10
2159.807
 20
-6877.281
 30
-2476.572
 70
    32
  0
VERTEX
  8
W78LXLIFT
 62
3
 10
2163.074
 20
-6874.007
 30
-2483.641
 70
    32
  0
VERTEX
  8
W78LXLIFT
 62
3
 10
2167.302
 20
-6869.771
 30
-2482.553
 70
    32
  0
VERTEX
  8
W78LXLIFT
 62
3
 10
2176.526
 20
-6860.527
 30
-2486.632
 70
    32
  0
VERTEX
  8
W78LXLIFT
 62
3
 10
2178.064
 20
-6858.986
 30
-2485.272
 70
    32
  0
VERTEX
  8
W78LXLIFT
 62
3
 10
2180.754
 20
-6856.290
 30
-2484.185
 70
    32
  0
VERTEX
  8
W78LXLIFT
 62
3
 10
2184.598
 20
-6852.438
 30
-2487.447
 70
    32
  0
VERTEX
  8
W78LXLIFT
 62
3
 10
2185.174
 20
-6851.861
 30
-2477.931
 70
    32
  0
VERTEX
  8
W78LXLIFT
 62
3
 10
2182.676
 20
-6854.364
 30
-2468.415
 70
    32
  0
VERTEX
  8
W78LXLIFT
 62
3
 10
2183.061
 20
-6853.979
 30
-2465.697
 70
    32
  0
VERTEX
  8
W78LXLIFT
 62
3
 10
2179.409
 20
-6857.638
 30
-2456.996
 70
    32
  0
VERTEX
  8
W78LXLIFT
 62
3
 10
2160.960
 20
-6876.126
 30
-2456.725
 70
    32
  0
VERTEX
  8
W78LXLIFT
 62
3
 10
2152.120
 20
-6884.984
 30
-2456.996
 70
    32
  0
VERTEX
  8
W78LXLIFT
 62
3
 10
2147.700
 20
-6889.414
 30
-2456.996
 70
    32
  0
VERTEX
  8
W78LXLIFT
 62
3
 10
2152.312
 20
-6884.792
 30
-2467.056
 70
    32
  0
SEQEND
  8
W78LXLIFT
  0
POLYLINE
  8
W78LXLIFT
 62
3
 66
     1
 70
     9
  0
VERTEX
  8
W78LXLIFT
 62
3
 10
2175.324
 20
-6854.653
 30
-2492.124
 70
    32
  0
VERTEX
  8
W78LXLIFT
 62
3
 10
2179.828
 20
-6850.140
 30
-2492.428
 70
    32
  0
VERTEX
  8
W78LXLIFT
 62
3
 10
2182.401
 20
-6847.561
 30
-2492.428
 70
    32
  0
VERTEX
  8
W78LXLIFT
 62
3
 10
2184.546
 20
-6845.412
 30
-2490.304
 70
    32
  0
VERTEX
  8
W78LXLIFT
 62
3
 10
2184.760
 20
-6845.197
 30
-2486.663
 70
    32
  0
VERTEX
  8
W78LXLIFT
 62
3
 10
2183.045
 20
-6846.917
 30
-2478.775
 70
    32
  0
VERTEX
  8
W78LXLIFT
 62
3
 10
2179.613
 20
-6850.355
 30
-2471.493
 70
    32
  0
VERTEX
  8
W78LXLIFT
 62
3
 10
2177.683
 20
-6852.289
 30
-2462.694
 70
    32
  0
VERTEX
  8
W78LXLIFT
 62
3
 10
2174.681
 20
-6855.298
 30
-2457.233
 70
    32
  0
VERTEX
  8
W78LXLIFT
 62
3
 10
2157.309
 20
-6872.705
 30
-2456.929
 70
    32
  0
VERTEX
  8
W78LXLIFT
 62
3
 10
2150.876
 20
-6879.153
 30
-2456.929
 70
    32
  0
VERTEX
  8
W78LXLIFT
 62
3
 10
2144.013
 20
-6886.030
 30
-2457.233
 70
    32
  0
VERTEX
  8
W78LXLIFT
 62
3
 10
2156.880
 20
-6873.135
 30
-2476.651
 70
    32
  0
VERTEX
  8
W78LXLIFT
 62
3
 10
2160.526
 20
-6869.482
 30
-2480.595
 70
    32
  0
VERTEX
  8
W78LXLIFT
 62
3
 10
2163.958
 20
-6866.043
 30
-2484.236
 70
    32
  0
VERTEX
  8
W78LXLIFT
 62
3
 10
2172.536
 20
-6857.447
 30
-2490.911
 70
    32
  0
SEQEND
  8
W78LXLIFT
  0
POLYLINE
  8
W78LXLIFT
 62
3
 66
     1
 70
     8
  0
VERTEX
  8
W78LXLIFT
 62
3
 10
2150.771
 20
-6858.022
 30
-2457.120
 70
    32
  0
VERTEX
  8
W78LXLIFT
 62
3
 10
2147.325
 20
-6861.475
 30
-2456.921
 70
    32
  0
VERTEX
  8
W78LXLIFT
 62
3
 10
2137.689
 20
-6871.132
 30
-2457.183
 70
    32
  0
VERTEX
  8
W78LXLIFT
 62
3
 10
2138.059
 20
-6870.760
 30
-2460.591
 70
    32
  0
VERTEX
  8
W78LXLIFT
 62
3
 10
2141.395
 20
-6867.418
 30
-2465.310
 70
    32
  0
VERTEX
  8
W78LXLIFT
 62
3
 10
2151.772
 20
-6857.019
 30
-2486.283
 70
    32
  0
VERTEX
  8
W78LXLIFT
 62
3
 10
2154.922
 20
-6853.862
 30
-2497.556
 70
    32
  0
VERTEX
  8
W78LXLIFT
 62
3
 10
2162.705
 20
-6846.063
 30
-2500.964
 70
    32
  0
VERTEX
  8
W78LXLIFT
 62
3
 10
2165.856
 20
-6842.906
 30
-2500.964
 70
    32
  0
VERTEX
  8
W78LXLIFT
 62
3
 10
2167.894
 20
-6840.863
 30
-2502.275
 70
    32
  0
VERTEX
  8
W78LXLIFT
 62
3
 10
2169.376
 20
-6839.378
 30
-2502.275
 70
    32
  0
VERTEX
  8
W78LXLIFT
 62
3
 10
2169.932
 20
-6838.821
 30
-2503.585
 70
    32
  0
VERTEX
  8
W78LXLIFT
 62
3
 10
2174.194
 20
-6834.550
 30
-2504.372
 70
    32
  0
VERTEX
  8
W78LXLIFT
 62
3
 10
2177.901
 20
-6830.836
 30
-2506.207
 70
    32
  0
VERTEX
  8
W78LXLIFT
 62
3
 10
2181.421
 20
-6827.308
 30
-2502.013
 70
    32
  0
VERTEX
  8
W78LXLIFT
 62
3
 10
2181.051
 20
-6827.679
 30
-2493.623
 70
    32
  0
VERTEX
  8
W78LXLIFT
 62
3
 10
2180.124
 20
-6828.608
 30
-2486.807
 70
    32
  0
VERTEX
  8
W78LXLIFT
 62
3
 10
2168.450
 20
-6840.306
 30
-2464.261
 70
    32
  0
VERTEX
  8
W78LXLIFT
 62
3
 10
2160.296
 20
-6848.477
 30
-2452.988
 70
    32
  0
VERTEX
  8
W78LXLIFT
 62
3
 10
2158.443
 20
-6850.334
 30
-2453.513
 70
    32
  0
VERTEX
  8
W78LXLIFT
 62
3
 10
2154.367
 20
-6854.419
 30
-2449.056
 70
    32
  0
VERTEX
  8
W78LXLIFT
 62
3
 10
2150.104
 20
-6858.690
 30
-2450.891
 70
    32
  0
VERTEX
  8
W78LXLIFT
 62
3
 10
2149.919
 20
-6858.876
 30
-2455.872
 70
    32
  0
SEQEND
  8
W78LXLIFT
  0
POLYLINE
  8
W78LXLIFT
 62
3
 66
     1
 70
     9
  0
VERTEX
  8
W78LXLIFT
 62
3
 10
2162.606
 20
-6832.005
 30
-2502.107
 70
    32
  0
VERTEX
  8
W78LXLIFT
 62
3
 10
2150.290
 20
-6844.347
 30
-2502.627
 70
    32
  0
VERTEX
  8
W78LXLIFT
 62
3
 10
2140.915
 20
-6853.741
 30
-2473.761
 70
    32
  0
VERTEX
  8
W78LXLIFT
 62
3
 10
2133.379
 20
-6861.294
 30
-2456.857
 70
    32
  0
VERTEX
  8
W78LXLIFT
 62
3
 10
2138.158
 20
-6856.505
 30
-2456.857
 70
    32
  0
VERTEX
  8
W78LXLIFT
 62
3
 10
2143.673
 20
-6850.978
 30
-2457.117
 70
    32
  0
VERTEX
  8
W78LXLIFT
 62
3
 10
2143.673
 20
-6850.978
 30
-2450.615
 70
    32
  0
VERTEX
  8
W78LXLIFT
 62
3
 10
2149.371
 20
-6845.268
 30
-2453.476
 70
    32
  0
VERTEX
  8
W78LXLIFT
 62
3
 10
2165.731
 20
-6828.874
 30
-2473.500
 70
    32
  0
VERTEX
  8
W78LXLIFT
 62
3
 10
2169.224
 20
-6825.374
 30
-2481.042
 70
    32
  0
VERTEX
  8
W78LXLIFT
 62
3
 10
2169.959
 20
-6824.637
 30
-2487.804
 70
    32
  0
VERTEX
  8
W78LXLIFT
 62
3
 10
2174.003
 20
-6820.584
 30
-2491.705
 70
    32
  0
VERTEX
  8
W78LXLIFT
 62
3
 10
2175.474
 20
-6819.111
 30
-2492.225
 70
    32
  0
VERTEX
  8
W78LXLIFT
 62
3
 10
2176.761
 20
-6817.821
 30
-2495.866
 70
    32
  0
VERTEX
  8
W78LXLIFT
 62
3
 10
2176.393
 20
-6818.190
 30
-2498.466
 70
    32
  0
VERTEX
  8
W78LXLIFT
 62
3
 10
2177.680
 20
-6816.900
 30
-2502.107
 70
    32
  0
VERTEX
  8
W78LXLIFT
 62
3
 10
2173.820
 20
-6820.768
 30
-2502.367
 70
    32
  0
SEQEND
  8
W78LXLIFT
  0
POLYLINE
  8
W78LXLIFT
 62
3
 66
     1
 70
     8
  0
VERTEX
  8
W78LXLIFT
 62
3
 10
2141.421
 20
-6846.156
 30
-2457.018
 70
    32
  0
VERTEX
  8
W78LXLIFT
 62
3
 10
2134.169
 20
-6853.423
 30
-2457.008
 70
    32
  0
VERTEX
  8
W78LXLIFT
 62
3
 10
2130.910
 20
-6856.689
 30
-2457.008
 70
    32
  0
VERTEX
  8
W78LXLIFT
 62
3
 10
2135.074
 20
-6852.516
 30
-2463.924
 70
    32
  0
VERTEX
  8
W78LXLIFT
 62
3
 10
2146.480
 20
-6841.087
 30
-2501.829
 70
    32
  0
VERTEX
  8
W78LXLIFT
 62
3
 10
2149.376
 20
-6838.185
 30
-2502.085
 70
    32
  0
VERTEX
  8
W78LXLIFT
 62
3
 10
2166.937
 20
-6820.587
 30
-2501.829
 70
    32
  0
VERTEX
  8
W78LXLIFT
 62
3
 10
2173.092
 20
-6814.419
 30
-2502.085
 70
    32
  0
VERTEX
  8
W78LXLIFT
 62
3
 10
2171.101
 20
-6816.415
 30
-2496.195
 70
    32
  0
VERTEX
  8
W78LXLIFT
 62
3
 10
2167.842
 20
-6819.680
 30
-2491.841
 70
    32
  0
VERTEX
  8
W78LXLIFT
 62
3
 10
2168.928
 20
-6818.592
 30
-2491.585
 70
    32
  0
VERTEX
  8
W78LXLIFT
 62
3
 10
2168.928
 20
-6818.592
 30
-2489.536
 70
    32
  0
VERTEX
  8
W78LXLIFT
 62
3
 10
2167.661
 20
-6819.862
 30
-2485.438
 70
    32
  0
VERTEX
  8
W78LXLIFT
 62
3
 10
2157.704
 20
-6829.839
 30
-2471.095
 70
    32
  0
VERTEX
  8
W78LXLIFT
 62
3
 10
2145.936
 20
-6841.631
 30
-2457.264
 70
    32
  0
VERTEX
  8
W78LXLIFT
 62
3
 10
2140.867
 20
-6846.711
 30
-2452.142
 70
    32
  0
VERTEX
  8
W78LXLIFT
 62
3
 10
2140.867
 20
-6846.711
 30
-2456.240
 70
    32
  0
SEQEND
  8
W78LXLIFT
  0
POLYLINE
  8
W78LXLIFT
 62
3
 66
     1
 70
     9
  0
VERTEX
  8
W78LXLIFT
 62
3
 10
2134.649
 20
-6845.864
 30
-2456.886
 70
    32
  0
VERTEX
  8
W78LXLIFT
 62
3
 10
2139.314
 20
-6841.189
 30
-2456.886
 70
    32
  0
VERTEX
  8
W78LXLIFT
 62
3
 10
2148.271
 20
-6832.213
 30
-2469.558
 70
    32
  0
VERTEX
  8
W78LXLIFT
 62
3
 10
2151.444
 20
-6829.034
 30
-2472.462
 70
    32
  0
VERTEX
  8
W78LXLIFT
 62
3
 10
2152.750
 20
-6827.725
 30
-2480.646
 70
    32
  0
VERTEX
  8
W78LXLIFT
 62
3
 10
2159.841
 20
-6820.619
 30
-2485.926
 70
    32
  0
VERTEX
  8
W78LXLIFT
 62
3
 10
2164.693
 20
-6815.758
 30
-2493.054
 70
    32
  0
VERTEX
  8
W78LXLIFT
 62
3
 10
2167.678
 20
-6812.766
 30
-2502.030
 70
    32
  0
VERTEX
  8
W78LXLIFT
 62
3
 10
2156.669
 20
-6823.798
 30
-2502.030
 70
    32
  0
VERTEX
  8
W78LXLIFT
 62
3
 10
2144.912
 20
-6835.579
 30
-2502.030
 70
    32
  0
VERTEX
  8
W78LXLIFT
 62
3
 10
2132.223
 20
-6848.295
 30
-2461.110
 70
    32
  0
VERTEX
  8
W78LXLIFT
 62
3
 10
2129.237
 20
-6851.287
 30
-2456.886
 70
    32
  0
SEQEND
  8
W78LXLIFT
  0
POLYLINE
  8
W78LXLIFT
 62
3
 66
     1
 70
     9
  0
VERTEX
  8
W78LXLIFT
 62
3
 10
2178.020
 20
-6915.657
 30
-2457.065
 70
    32
  0
VERTEX
  8
W78LXLIFT
 62
3
 10
2181.095
 20
-6912.576
 30
-2457.065
 70
    32
  0
VERTEX
  8
W78LXLIFT
 62
3
 10
2187.481
 20
-6906.177
 30
-2457.022
 70
    32
  0
VERTEX
  8
W78LXLIFT
 62
3
 10
2185.424
 20
-6908.238
 30
-2444.800
 70
    32
  0
VERTEX
  8
W78LXLIFT
 62
3
 10
2189.538
 20
-6904.116
 30
-2445.465
 70
    32
  0
VERTEX
  8
W78LXLIFT
 62
3
 10
2190.890
 20
-6902.761
 30
-2447.211
 70
    32
  0
VERTEX
  8
W78LXLIFT
 62
3
 10
2191.536
 20
-6902.113
 30
-2450.038
 70
    32
  0
VERTEX
  8
W78LXLIFT
 62
3
 10
2193.593
 20
-6900.052
 30
-2456.773
 70
    32
  0
VERTEX
  8
W78LXLIFT
 62
3
 10
2193.828
 20
-6899.817
 30
-2459.849
 70
    32
  0
VERTEX
  8
W78LXLIFT
 62
3
 10
2193.182
 20
-6900.464
 30
-2461.678
 70
    32
  0
VERTEX
  8
W78LXLIFT
 62
3
 10
2191.830
 20
-6901.819
 30
-2461.262
 70
    32
  0
VERTEX
  8
W78LXLIFT
 62
3
 10
2191.536
 20
-6902.113
 30
-2460.182
 70
    32
  0
VERTEX
  8
W78LXLIFT
 62
3
 10
2190.184
 20
-6903.468
 30
-2460.764
 70
    32
  0
VERTEX
  8
W78LXLIFT
 62
3
 10
2188.010
 20
-6905.647
 30
-2462.260
 70
    32
  0
VERTEX
  8
W78LXLIFT
 62
3
 10
2185.071
 20
-6908.592
 30
-2460.597
 70
    32
  0
VERTEX
  8
W78LXLIFT
 62
3
 10
2182.833
 20
-6910.835
 30
-2460.470
 70
    32
  0
VERTEX
  8
W78LXLIFT
 62
3
 10
2178.421
 20
-6915.256
 30
-2458.579
 70
    32
  0
SEQEND
  8
W78LXLIFT
  0
POLYLINE
  8
W78LXLIFT
 62
3
 66
     1
 70
     9
  0
VERTEX
  8
W78LXLIFT
 62
3
 10
2179.830
 20
-6906.765
 30
-2464.618
 70
    32
  0
VERTEX
  8
W78LXLIFT
 62
3
 10
2173.783
 20
-6912.825
 30
-2456.963
 70
    32
  0
VERTEX
  8
W78LXLIFT
 62
3
 10
2176.647
 20
-6909.955
 30
-2456.963
 70
    32
  0
VERTEX
  8
W78LXLIFT
 62
3
 10
2181.209
 20
-6905.383
 30
-2456.963
 70
    32
  0
VERTEX
  8
W78LXLIFT
 62
3
 10
2184.604
 20
-6901.981
 30
-2456.963
 70
    32
  0
VERTEX
  8
W78LXLIFT
 62
3
 10
2182.164
 20
-6904.426
 30
-2444.505
 70
    32
  0
VERTEX
  8
W78LXLIFT
 62
3
 10
2185.453
 20
-6901.130
 30
-2444.055
 70
    32
  0
VERTEX
  8
W78LXLIFT
 62
3
 10
2187.151
 20
-6899.429
 30
-2443.755
 70
    32
  0
VERTEX
  8
W78LXLIFT
 62
3
 10
2188.954
 20
-6897.622
 30
-2444.055
 70
    32
  0
VERTEX
  8
W78LXLIFT
 62
3
 10
2190.333
 20
-6896.240
 30
-2445.856
 70
    32
  0
VERTEX
  8
W78LXLIFT
 62
3
 10
2191.501
 20
-6895.071
 30
-2448.558
 70
    32
  0
VERTEX
  8
W78LXLIFT
 62
3
 10
2192.774
 20
-6893.795
 30
-2451.860
 70
    32
  0
VERTEX
  8
W78LXLIFT
 62
3
 10
2193.092
 20
-6893.476
 30
-2454.411
 70
    32
  0
VERTEX
  8
W78LXLIFT
 62
3
 10
2193.728
 20
-6892.838
 30
-2456.963
 70
    32
  0
VERTEX
  8
W78LXLIFT
 62
3
 10
2194.047
 20
-6892.519
 30
-2459.664
 70
    32
  0
VERTEX
  8
W78LXLIFT
 62
3
 10
2194.259
 20
-6892.306
 30
-2461.616
 70
    32
  0
VERTEX
  8
W78LXLIFT
 62
3
 10
2193.622
 20
-6892.944
 30
-2463.267
 70
    32
  0
VERTEX
  8
W78LXLIFT
 62
3
 10
2191.925
 20
-6894.645
 30
-2463.717
 70
    32
  0
VERTEX
  8
W78LXLIFT
 62
3
 10
2189.485
 20
-6897.091
 30
-2462.967
 70
    32
  0
VERTEX
  8
W78LXLIFT
 62
3
 10
2188.106
 20
-6898.473
 30
-2463.417
 70
    32
  0
VERTEX
  8
W78LXLIFT
 62
3
 10
2186.196
 20
-6900.386
 30
-2462.666
 70
    32
  0
VERTEX
  8
W78LXLIFT
 62
3
 10
2185.453
 20
-6901.130
 30
-2463.567
 70
    32
  0
VERTEX
  8
W78LXLIFT
 62
3
 10
2184.498
 20
-6902.087
 30
-2463.717
 70
    32
  0
VERTEX
  8
W78LXLIFT
 62
3
 10
2183.437
 20
-6903.150
 30
-2463.567
 70
    32
  0
VERTEX
  8
W78LXLIFT
 62
3
 10
2181.634
 20
-6904.958
 30
-2464.918
 70
    32
  0
SEQEND
  8
W78LXLIFT
  0
LINE
  8
W78LXLIFT
 62
3
 10
2149.919
 20
-6858.876
 30
-2455.872
 11
2150.771
 21
-6858.022
 31
-2457.120
  0
LINE
  8
W78LXLIFT
 62
3
 10
2146.740
 20
-6854.983
 30
-2456.177
 11
2147.269
 21
-6854.453
 31
-2456.955
  0
LINE
  8
W78LXLIFT
 62
3
 10
2140.867
 20
-6846.711
 30
-2456.240
 11
2141.421
 21
-6846.156
 31
-2457.018
  0
POLYLINE
  8
W78LXLIFT
 62
3
 66
     1
 70
     8
  0
VERTEX
  8
W78LXLIFT
 62
3
 10
2147.269
 20
-6854.453
 30
-2456.955
 70
    32
  0
VERTEX
  8
W78LXLIFT
 62
3
 10
2143.481
 20
-6858.249
 30
-2456.945
 70
    32
  0
VERTEX
  8
W78LXLIFT
 62
3
 10
2134.972
 20
-6866.775
 30
-2456.945
 70
    32
  0
VERTEX
  8
W78LXLIFT
 62
3
 10
2147.102
 20
-6854.620
 30
-2481.021
 70
    32
  0
VERTEX
  8
W78LXLIFT
 62
3
 10
2154.343
 20
-6847.364
 30
-2503.047
 70
    32
  0
VERTEX
  8
W78LXLIFT
 62
3
 10
2158.869
 20
-6842.828
 30
-2502.279
 70
    32
  0
VERTEX
  8
W78LXLIFT
 62
3
 10
2166.111
 20
-6835.572
 30
-2502.022
 70
    32
  0
VERTEX
  8
W78LXLIFT
 62
3
 10
2177.878
 20
-6823.780
 30
-2502.022
 70
    32
  0
VERTEX
  8
W78LXLIFT
 62
3
 10
2180.775
 20
-6820.877
 30
-2500.742
 70
    32
  0
VERTEX
  8
W78LXLIFT
 62
3
 10
2178.059
 20
-6823.598
 30
-2488.704
 70
    32
  0
VERTEX
  8
W78LXLIFT
 62
3
 10
2175.887
 20
-6825.775
 30
-2484.094
 70
    32
  0
VERTEX
  8
W78LXLIFT
 62
3
 10
2173.352
 20
-6828.315
 30
-2483.326
 70
    32
  0
VERTEX
  8
W78LXLIFT
 62
3
 10
2171.180
 20
-6830.492
 30
-2480.508
 70
    32
  0
VERTEX
  8
W78LXLIFT
 62
3
 10
2171.542
 20
-6830.129
 30
-2478.459
 70
    32
  0
VERTEX
  8
W78LXLIFT
 62
3
 10
2165.749
 20
-6835.935
 30
-2466.934
 70
    32
  0
VERTEX
  8
W78LXLIFT
 62
3
 10
2157.964
 20
-6843.735
 30
-2456.689
 70
    32
  0
VERTEX
  8
W78LXLIFT
 62
3
 10
2156.516
 20
-6845.187
 30
-2456.689
 70
    32
  0
VERTEX
  8
W78LXLIFT
 62
3
 10
2151.990
 20
-6849.722
 30
-2450.542
 70
    32
  0
VERTEX
  8
W78LXLIFT
 62
3
 10
2146.740
 20
-6854.983
 30
-2450.030
 70
    32
  0
VERTEX
  8
W78LXLIFT
 62
3
 10
2146.740
 20
-6854.983
 30
-2456.177
 70
    32
  0
SEQEND
  8
W78LXLIFT
  0
POLYLINE
  8
W78LXLIFT
 62
3
 66
     1
 70
     9
  0
VERTEX
  8
W78LXLIFT
 62
3
 10
2140.041
 20
-6875.853
 30
-2457.515
 70
    32
  0
VERTEX
  8
W78LXLIFT
 62
3
 10
2145.740
 20
-6870.142
 30
-2465.088
 70
    32
  0
VERTEX
  8
W78LXLIFT
 62
3
 10
2146.776
 20
-6869.104
 30
-2471.195
 70
    32
  0
VERTEX
  8
W78LXLIFT
 62
3
 10
2149.193
 20
-6866.681
 30
-2478.769
 70
    32
  0
VERTEX
  8
W78LXLIFT
 62
3
 10
2154.029
 20
-6861.836
 30
-2485.853
 70
    32
  0
VERTEX
  8
W78LXLIFT
 62
3
 10
2156.619
 20
-6859.241
 30
-2494.648
 70
    32
  0
VERTEX
  8
W78LXLIFT
 62
3
 10
2168.016
 20
-6847.820
 30
-2498.557
 70
    32
  0
VERTEX
  8
W78LXLIFT
 62
3
 10
2177.009
 20
-6838.808
 30
-2501.432
 70
    32
  0
VERTEX
  8
W78LXLIFT
 62
3
 10
2182.176
 20
-6833.630
 30
-2494.404
 70
    32
  0
VERTEX
  8
W78LXLIFT
 62
3
 10
2179.586
 20
-6836.226
 30
-2480.723
 70
    32
  0
VERTEX
  8
W78LXLIFT
 62
3
 10
2173.369
 20
-6842.455
 30
-2466.309
 70
    32
  0
VERTEX
  8
W78LXLIFT
 62
3
 10
2169.915
 20
-6845.916
 30
-2463.134
 70
    32
  0
VERTEX
  8
W78LXLIFT
 62
3
 10
2165.080
 20
-6850.762
 30
-2452.140
 70
    32
  0
VERTEX
  8
W78LXLIFT
 62
3
 10
2160.763
 20
-6855.088
 30
-2451.407
 70
    32
  0
VERTEX
  8
W78LXLIFT
 62
3
 10
2157.655
 20
-6858.202
 30
-2448.964
 70
    32
  0
VERTEX
  8
W78LXLIFT
 62
3
 10
2153.338
 20
-6862.528
 30
-2449.453
 70
    32
  0
VERTEX
  8
W78LXLIFT
 62
3
 10
2153.338
 20
-6862.528
 30
-2456.782
 70
    32
  0
VERTEX
  8
W78LXLIFT
 62
3
 10
2145.049
 20
-6870.834
 30
-2457.026
 70
    32
  0
SEQEND
  8
W78LXLIFT
  0
POLYLINE
  8
W78LXLIFT
 62
3
 66
     1
 70
     9
  0
VERTEX
  8
W78LXLIFT
 62
3
 10
2174.264
 20
-6848.637
 30
-2496.275
 70
    32
  0
VERTEX
  8
W78LXLIFT
 62
3
 10
2160.994
 20
-6861.935
 30
-2490.314
 70
    32
  0
VERTEX
  8
W78LXLIFT
 62
3
 10
2153.089
 20
-6869.856
 30
-2478.871
 70
    32
  0
VERTEX
  8
W78LXLIFT
 62
3
 10
2145.920
 20
-6877.040
 30
-2459.887
 70
    32
  0
VERTEX
  8
W78LXLIFT
 62
3
 10
2143.163
 20
-6879.803
 30
-2457.026
 70
    32
  0
VERTEX
  8
W78LXLIFT
 62
3
 10
2155.479
 20
-6867.461
 30
-2457.026
 70
    32
  0
VERTEX
  8
W78LXLIFT
 62
3
 10
2158.420
 20
-6864.514
 30
-2456.766
 70
    32
  0
VERTEX
  8
W78LXLIFT
 62
3
 10
2158.420
 20
-6864.514
 30
-2448.964
 70
    32
  0
VERTEX
  8
W78LXLIFT
 62
3
 10
2160.810
 20
-6862.119
 30
-2447.924
 70
    32
  0
VERTEX
  8
W78LXLIFT
 62
3
 10
2165.405
 20
-6857.514
 30
-2450.004
 70
    32
  0
VERTEX
  8
W78LXLIFT
 62
3
 10
2173.494
 20
-6849.409
 30
-2459.887
 70
    32
  0
VERTEX
  8
W78LXLIFT
 62
3
 10
2178.089
 20
-6844.804
 30
-2469.769
 70
    32
  0
VERTEX
  8
W78LXLIFT
 62
3
 10
2181.949
 20
-6840.936
 30
-2480.692
 70
    32
  0
VERTEX
  8
W78LXLIFT
 62
3
 10
2183.236
 20
-6839.646
 30
-2491.354
 70
    32
  0
VERTEX
  8
W78LXLIFT
 62
3
 10
2183.420
 20
-6839.462
 30
-2496.555
 70
    32
  0
SEQEND
  8
W78LXLIFT
  0
POLYLINE
  8
W78LXLIFT
 62
3
 66
     1
 70
     9
  0
VERTEX
  8
W78LXLIFT
 62
3
 10
2130.453
 20
-7040.497
 30
-2591.880
 70
    32
  0
VERTEX
  8
W78LXLIFT
 62
3
 10
2127.423
 20
-7042.689
 30
-2559.840
 70
    32
  0
VERTEX
  8
W78LXLIFT
 62
3
 10
2133.637
 20
-7038.194
 30
-2544.000
 70
    32
  0
VERTEX
  8
W78LXLIFT
 62
3
 10
2138.734
 20
-7034.508
 30
-2552.210
 70
    32
  0
VERTEX
  8
W78LXLIFT
 62
3
 10
2142.477
 20
-7031.800
 30
-2560.190
 70
    32
  0
VERTEX
  8
W78LXLIFT
 62
3
 10
2143.166
 20
-7031.302
 30
-2591.970
 70
    32
  0
SEQEND
  8
W78LXLIFT
  0
POLYLINE
  8
W78LXLIFT
 62
3
 66
     1
 70
     9
  0
VERTEX
  8
W78LXLIFT
 62
3
 10
2127.396
 20
-7037.772
 30
-2592.010
 70
    32
  0
VERTEX
  8
W78LXLIFT
 62
3
 10
2122.250
 20
-7041.494
 30
-2540.550
 70
    32
  0
VERTEX
  8
W78LXLIFT
 62
3
 10
2130.645
 20
-7035.422
 30
-2538.480
 70
    32
  0
VERTEX
  8
W78LXLIFT
 62
3
 10
2135.968
 20
-7031.571
 30
-2539.410
 70
    32
  0
VERTEX
  8
W78LXLIFT
 62
3
 10
2141.089
 20
-7027.867
 30
-2591.980
 70
    32
  0
SEQEND
  8
W78LXLIFT
  0
POLYLINE
  8
W78LXLIFT
 62
3
 66
     1
 70
     9
  0
VERTEX
  8
W78LXLIFT
 62
3
 10
2124.581
 20
-7034.871
 30
-2591.990
 70
    32
  0
VERTEX
  8
W78LXLIFT
 62
3
 10
2119.647
 20
-7038.440
 30
-2540.760
 70
    32
  0
VERTEX
  8
W78LXLIFT
 62
3
 10
2128.163
 20
-7032.281
 30
-2539.590
 70
    32
  0
VERTEX
  8
W78LXLIFT
 62
3
 10
2133.332
 20
-7028.541
 30
-2539.510
 70
    32
  0
VERTEX
  8
W78LXLIFT
 62
3
 10
2138.372
 20
-7024.896
 30
-2592.170
 70
    32
  0
SEQEND
  8
W78LXLIFT
  0
POLYLINE
  8
W78LXLIFT
 62
3
 66
     1
 70
     9
  0
VERTEX
  8
W78LXLIFT
 62
3
 10
2123.436
 20
-7030.763
 30
-2591.980
 70
    32
  0
VERTEX
  8
W78LXLIFT
 62
3
 10
2118.510
 20
-7034.326
 30
-2541.850
 70
    32
  0
VERTEX
  8
W78LXLIFT
 62
3
 10
2126.183
 20
-7028.776
 30
-2541.630
 70
    32
  0
VERTEX
  8
W78LXLIFT
 62
3
 10
2134.788
 20
-7022.552
 30
-2542.010
 70
    32
  0
VERTEX
  8
W78LXLIFT
 62
3
 10
2135.857
 20
-7021.778
 30
-2592.010
 70
    32
  0
SEQEND
  8
W78LXLIFT
  0
POLYLINE
  8
W78LXLIFT
 62
3
 66
     1
 70
     9
  0
VERTEX
  8
W78LXLIFT
 62
3
 10
2121.189
 20
-7027.451
 30
-2591.940
 70
    32
  0
VERTEX
  8
W78LXLIFT
 62
3
 10
2116.230
 20
-7031.038
 30
-2541.930
 70
    32
  0
VERTEX
  8
W78LXLIFT
 62
3
 10
2128.246
 20
-7022.347
 30
-2541.960
 70
    32
  0
VERTEX
  8
W78LXLIFT
 62
3
 10
2133.011
 20
-7018.900
 30
-2567.630
 70
    32
  0
VERTEX
  8
W78LXLIFT
 62
3
 10
2133.643
 20
-7018.443
 30
-2592.030
 70
    32
  0
SEQEND
  8
W78LXLIFT
  0
POLYLINE
  8
W78LXLIFT
 62
3
 66
     1
 70
     9
  0
VERTEX
  8
W78LXLIFT
 62
3
 10
2118.974
 20
-7024.116
 30
-2592.040
 70
    32
  0
VERTEX
  8
W78LXLIFT
 62
3
 10
2113.918
 20
-7027.774
 30
-2541.650
 70
    32
  0
VERTEX
  8
W78LXLIFT
 62
3
 10
2121.705
 20
-7022.141
 30
-2541.210
 70
    32
  0
VERTEX
  8
W78LXLIFT
 62
3
 10
2126.097
 20
-7018.965
 30
-2541.700
 70
    32
  0
VERTEX
  8
W78LXLIFT
 62
3
 10
2130.650
 20
-7015.671
 30
-2592.010
 70
    32
  0
SEQEND
  8
W78LXLIFT
  0
POLYLINE
  8
W78LXLIFT
 62
3
 66
     1
 70
     9
  0
VERTEX
  8
W78LXLIFT
 62
3
 10
2116.854
 20
-7020.714
 30
-2592.060
 70
    32
  0
VERTEX
  8
W78LXLIFT
 62
3
 10
2111.685
 20
-7024.453
 30
-2541.730
 70
    32
  0
VERTEX
  8
W78LXLIFT
 62
3
 10
2123.458
 20
-7015.937
 30
-2542.060
 70
    32
  0
VERTEX
  8
W78LXLIFT
 62
3
 10
2128.627
 20
-7012.198
 30
-2592.190
 70
    32
  0
SEQEND
  8
W78LXLIFT
  0
POLYLINE
  8
W78LXLIFT
 62
3
 66
     1
 70
     9
  0
VERTEX
  8
W78LXLIFT
 62
3
 10
2109.987
 20
-7020.744
 30
-2591.990
 70
    32
  0
VERTEX
  8
W78LXLIFT
 62
3
 10
2108.019
 20
-7022.168
 30
-2572.060
 70
    32
  0
VERTEX
  8
W78LXLIFT
 62
3
 10
2109.161
 20
-7021.341
 30
-2541.710
 70
    32
  0
VERTEX
  8
W78LXLIFT
 62
3
 10
2121.598
 20
-7012.345
 30
-2541.920
 70
    32
  0
VERTEX
  8
W78LXLIFT
 62
3
 10
2124.864
 20
-7009.983
 30
-2561.920
 70
    32
  0
VERTEX
  8
W78LXLIFT
 62
3
 10
2123.405
 20
-7011.038
 30
-2592.010
 70
    32
  0
SEQEND
  8
W78LXLIFT
  0
POLYLINE
  8
W78LXLIFT
 62
3
 66
     1
 70
     9
  0
VERTEX
  8
W78LXLIFT
 62
3
 10
2107.142
 20
-7017.865
 30
-2592.050
 70
    32
  0
VERTEX
  8
W78LXLIFT
 62
3
 10
2105.481
 20
-7019.067
 30
-2571.740
 70
    32
  0
VERTEX
  8
W78LXLIFT
 62
3
 10
2107.142
 20
-7017.865
 30
-2541.850
 70
    32
  0
VERTEX
  8
W78LXLIFT
 62
3
 10
2119.239
 20
-7009.115
 30
-2541.820
 70
    32
  0
VERTEX
  8
W78LXLIFT
 62
3
 10
2120.292
 20
-7008.353
 30
-2592.040
 70
    32
  0
SEQEND
  8
W78LXLIFT
  0
POLYLINE
  8
W78LXLIFT
 62
3
 66
     1
 70
     9
  0
VERTEX
  8
W78LXLIFT
 62
3
 10
2112.795
 20
-7008.840
 30
-2592.120
 70
    32
  0
VERTEX
  8
W78LXLIFT
 62
3
 10
2108.063
 20
-7012.262
 30
-2541.120
 70
    32
  0
VERTEX
  8
W78LXLIFT
 62
3
 10
2119.755
 20
-7003.805
 30
-2541.170
 70
    32
  0
VERTEX
  8
W78LXLIFT
 62
3
 10
2121.205
 20
-7002.756
 30
-2592.110
 70
    32
  0
SEQEND
  8
W78LXLIFT
  0
POLYLINE
  8
W78LXLIFT
 62
3
 66
     1
 70
     9
  0
VERTEX
  8
W78LXLIFT
 62
3
 10
2111.317
 20
-7004.971
 30
-2591.850
 70
    32
  0
VERTEX
  8
W78LXLIFT
 62
3
 10
2106.091
 20
-7008.752
 30
-2541.060
 70
    32
  0
VERTEX
  8
W78LXLIFT
 62
3
 10
2109.049
 20
-7006.612
 30
-2540.880
 70
    32
  0
VERTEX
  8
W78LXLIFT
 62
3
 10
2109.105
 20
-7006.571
 30
-2553.160
 70
    32
  0
VERTEX
  8
W78LXLIFT
 62
3
 10
2112.606
 20
-7004.040
 30
-2553.050
 70
    32
  0
VERTEX
  8
W78LXLIFT
 62
3
 10
2112.549
 20
-7004.081
 30
-2540.950
 70
    32
  0
VERTEX
  8
W78LXLIFT
 62
3
 10
2117.880
 20
-7000.224
 30
-2541.290
 70
    32
  0
VERTEX
  8
W78LXLIFT
 62
3
 10
2123.139
 20
-6996.421
 30
-2592.060
 70
    32
  0
SEQEND
  8
W78LXLIFT
  0
POLYLINE
  8
W78LXLIFT
 62
3
 66
     1
 70
     9
  0
VERTEX
  8
W78LXLIFT
 62
3
 10
2108.779
 20
-7001.871
 30
-2592.010
 70
    32
  0
VERTEX
  8
W78LXLIFT
 62
3
 10
2103.796
 20
-7005.475
 30
-2541.320
 70
    32
  0
VERTEX
  8
W78LXLIFT
 62
3
 10
2106.396
 20
-7003.594
 30
-2541.120
 70
    32
  0
VERTEX
  8
W78LXLIFT
 62
3
 10
2106.372
 20
-7003.612
 30
-2553.000
 70
    32
  0
VERTEX
  8
W78LXLIFT
 62
3
 10
2116.614
 20
-6996.204
 30
-2553.040
 70
    32
  0
VERTEX
  8
W78LXLIFT
 62
3
 10
2120.795
 20
-6993.180
 30
-2592.020
 70
    32
  0
SEQEND
  8
W78LXLIFT
  0
POLYLINE
  8
W78LXLIFT
 62
3
 66
     1
 70
     9
  0
VERTEX
  8
W78LXLIFT
 62
3
 10
2106.386
 20
-6998.665
 30
-2592.030
 70
    32
  0
VERTEX
  8
W78LXLIFT
 62
3
 10
2101.597
 20
-7002.129
 30
-2541.480
 70
    32
  0
VERTEX
  8
W78LXLIFT
 62
3
 10
2103.647
 20
-7000.646
 30
-2541.440
 70
    32
  0
VERTEX
  8
W78LXLIFT
 62
3
 10
2103.639
 20
-7000.652
 30
-2553.040
 70
    32
  0
VERTEX
  8
W78LXLIFT
 62
3
 10
2114.269
 20
-6992.963
 30
-2553.020
 70
    32
  0
VERTEX
  8
W78LXLIFT
 62
3
 10
2118.515
 20
-6989.892
 30
-2592.060
 70
    32
  0
SEQEND
  8
W78LXLIFT
  0
POLYLINE
  8
W78LXLIFT
 62
3
 66
     1
 70
     9
  0
VERTEX
  8
W78LXLIFT
 62
3
 10
2099.925
 20
-6998.401
 30
-2592.100
 70
    32
  0
VERTEX
  8
W78LXLIFT
 62
3
 10
2094.618
 20
-7002.240
 30
-2541.010
 70
    32
  0
VERTEX
  8
W78LXLIFT
 62
3
 10
2097.138
 20
-7000.418
 30
-2540.510
 70
    32
  0
VERTEX
  8
W78LXLIFT
 62
3
 10
2097.049
 20
-7000.482
 30
-2552.890
 70
    32
  0
VERTEX
  8
W78LXLIFT
 62
3
 10
2111.552
 20
-6989.991
 30
-2552.940
 70
    32
  0
VERTEX
  8
W78LXLIFT
 62
3
 10
2115.855
 20
-6986.879
 30
-2592.040
 70
    32
  0
SEQEND
  8
W78LXLIFT
  0
POLYLINE
  8
W78LXLIFT
 62
3
 66
     1
 70
     9
  0
VERTEX
  8
W78LXLIFT
 62
3
 10
2097.873
 20
-6994.949
 30
-2592.020
 70
    32
  0
VERTEX
  8
W78LXLIFT
 62
3
 10
2091.642
 20
-6999.456
 30
-2541.880
 70
    32
  0
VERTEX
  8
W78LXLIFT
 62
3
 10
2093.902
 20
-6997.821
 30
-2541.720
 70
    32
  0
VERTEX
  8
W78LXLIFT
 62
3
 10
2093.959
 20
-6997.780
 30
-2553.140
 70
    32
  0
VERTEX
  8
W78LXLIFT
 62
3
 10
2108.900
 20
-6986.973
 30
-2552.950
 70
    32
  0
VERTEX
  8
W78LXLIFT
 62
3
 10
2113.057
 20
-6983.966
 30
-2592.030
 70
    32
  0
SEQEND
  8
W78LXLIFT
  0
POLYLINE
  8
W78LXLIFT
 62
3
 66
     1
 70
     9
  0
VERTEX
  8
W78LXLIFT
 62
3
 10
2095.301
 20
-6991.873
 30
-2592.120
 70
    32
  0
VERTEX
  8
W78LXLIFT
 62
3
 10
2088.503
 20
-6996.790
 30
-2541.420
 70
    32
  0
VERTEX
  8
W78LXLIFT
 62
3
 10
2090.942
 20
-6995.026
 30
-2541.160
 70
    32
  0
VERTEX
  8
W78LXLIFT
 62
3
 10
2090.999
 20
-6994.985
 30
-2553.000
 70
    32
  0
VERTEX
  8
W78LXLIFT
 62
3
 10
2106.556
 20
-6983.732
 30
-2553.090
 70
    32
  0
VERTEX
  8
W78LXLIFT
 62
3
 10
2111.272
 20
-6980.321
 30
-2592.140
 70
    32
  0
SEQEND
  8
W78LXLIFT
  0
POLYLINE
  8
W78LXLIFT
 62
3
 66
     1
 70
     9
  0
VERTEX
  8
W78LXLIFT
 62
3
 10
2092.439
 20
-6989.007
 30
-2592.140
 70
    32
  0
VERTEX
  8
W78LXLIFT
 62
3
 10
2087.318
 20
-6992.711
 30
-2552.970
 70
    32
  0
VERTEX
  8
W78LXLIFT
 62
3
 10
2104.989
 20
-6979.928
 30
-2552.980
 70
    32
  0
VERTEX
  8
W78LXLIFT
 62
3
 10
2104.917
 20
-6979.981
 30
-2541.100
 70
    32
  0
VERTEX
  8
W78LXLIFT
 62
3
 10
2112.484
 20
-6974.507
 30
-2591.940
 70
    32
  0
SEQEND
  8
W78LXLIFT
  0
POLYLINE
  8
W78LXLIFT
 62
3
 66
     1
 70
     9
  0
VERTEX
  8
W78LXLIFT
 62
3
 10
2090.548
 20
-6985.437
 30
-2592.040
 70
    32
  0
VERTEX
  8
W78LXLIFT
 62
3
 10
2085.298
 20
-6989.235
 30
-2553.030
 70
    32
  0
VERTEX
  8
W78LXLIFT
 62
3
 10
2102.467
 20
-6976.816
 30
-2553.100
 70
    32
  0
VERTEX
  8
W78LXLIFT
 62
3
 10
2102.483
 20
-6976.804
 30
-2541.750
 70
    32
  0
VERTEX
  8
W78LXLIFT
 62
3
 10
2104.055
 20
-6975.667
 30
-2541.850
 70
    32
  0
VERTEX
  8
W78LXLIFT
 62
3
 10
2110.399
 20
-6971.078
 30
-2591.990
 70
    32
  0
SEQEND
  8
W78LXLIFT
  0
POLYLINE
  8
W78LXLIFT
 62
3
 66
     1
 70
     9
  0
VERTEX
  8
W78LXLIFT
 62
3
 10
2088.366
 20
-6982.079
 30
-2592.140
 70
    32
  0
VERTEX
  8
W78LXLIFT
 62
3
 10
2083.018
 20
-6985.947
 30
-2553.010
 70
    32
  0
VERTEX
  8
W78LXLIFT
 62
3
 10
2099.798
 20
-6973.810
 30
-2552.930
 70
    32
  0
VERTEX
  8
W78LXLIFT
 62
3
 10
2099.855
 20
-6973.769
 30
-2540.980
 70
    32
  0
VERTEX
  8
W78LXLIFT
 62
3
 10
2101.387
 20
-6972.661
 30
-2541.350
 70
    32
  0
VERTEX
  8
W78LXLIFT
 62
3
 10
2108.039
 20
-6967.849
 30
-2592.110
 70
    32
  0
SEQEND
  8
W78LXLIFT
  0
POLYLINE
  8
W78LXLIFT
 62
3
 66
     1
 70
     9
  0
VERTEX
  8
W78LXLIFT
 62
3
 10
2081.565
 20
-6982.062
 30
-2592.070
 70
    32
  0
VERTEX
  8
W78LXLIFT
 62
3
 10
2076.906
 20
-6985.431
 30
-2553.140
 70
    32
  0
VERTEX
  8
W78LXLIFT
 62
3
 10
2097.260
 20
-6970.709
 30
-2553.050
 70
    32
  0
VERTEX
  8
W78LXLIFT
 62
3
 10
2097.316
 20
-6970.668
 30
-2541.070
 70
    32
  0
VERTEX
  8
W78LXLIFT
 62
3
 10
2098.783
 20
-6969.607
 30
-2542.360
 70
    32
  0
VERTEX
  8
W78LXLIFT
 62
3
 10
2105.597
 20
-6964.678
 30
-2592.040
 70
    32
  0
SEQEND
  8
W78LXLIFT
  0
POLYLINE
  8
W78LXLIFT
 62
3
 66
     1
 70
     9
  0
VERTEX
  8
W78LXLIFT
 62
3
 10
2081.481
 20
-6977.185
 30
-2591.920
 70
    32
  0
VERTEX
  8
W78LXLIFT
 62
3
 10
2073.987
 20
-6982.607
 30
-2565.620
 70
    32
  0
VERTEX
  8
W78LXLIFT
 62
3
 10
2074.173
 20
-6982.472
 30
-2552.940
 70
    32
  0
VERTEX
  8
W78LXLIFT
 62
3
 10
2095.661
 20
-6966.929
 30
-2552.880
 70
    32
  0
VERTEX
  8
W78LXLIFT
 62
3
 10
2095.653
 20
-6966.935
 30
-2540.520
 70
    32
  0
VERTEX
  8
W78LXLIFT
 62
3
 10
2096.649
 20
-6966.214
 30
-2541.230
 70
    32
  0
VERTEX
  8
W78LXLIFT
 62
3
 10
2103.318
 20
-6961.391
 30
-2591.950
 70
    32
  0
SEQEND
  8
W78LXLIFT
  0
POLYLINE
  8
W78LXLIFT
 62
3
 66
     1
 70
     9
  0
VERTEX
  8
W78LXLIFT
 62
3
 10
2080.190
 20
-6973.182
 30
-2591.910
 70
    32
  0
VERTEX
  8
W78LXLIFT
 62
3
 10
2072.234
 20
-6978.938
 30
-2553.100
 70
    32
  0
VERTEX
  8
W78LXLIFT
 62
3
 10
2094.248
 20
-6963.014
 30
-2552.970
 70
    32
  0
VERTEX
  8
W78LXLIFT
 62
3
 10
2094.159
 20
-6963.078
 30
-2541.380
 70
    32
  0
VERTEX
  8
W78LXLIFT
 62
3
 10
2101.460
 20
-6957.798
 30
-2591.950
 70
    32
  0
SEQEND
  8
W78LXLIFT
  0
POLYLINE
  8
W78LXLIFT
 62
3
 66
     1
 70
     9
  0
VERTEX
  8
W78LXLIFT
 62
3
 10
2077.457
 20
-6970.223
 30
-2592.050
 70
    32
  0
VERTEX
  8
W78LXLIFT
 62
3
 10
2069.581
 20
-6975.919
 30
-2553.020
 70
    32
  0
VERTEX
  8
W78LXLIFT
 62
3
 10
2093.022
 20
-6958.964
 30
-2552.990
 70
    32
  0
VERTEX
  8
W78LXLIFT
 62
3
 10
2098.224
 20
-6955.202
 30
-2592.000
 70
    32
  0
SEQEND
  8
W78LXLIFT
  0
POLYLINE
  8
W78LXLIFT
 62
3
 66
     1
 70
     9
  0
VERTEX
  8
W78LXLIFT
 62
3
 10
2072.415
 20
-6968.933
 30
-2592.090
 70
    32
  0
VERTEX
  8
W78LXLIFT
 62
3
 10
2068.112
 20
-6972.045
 30
-2553.110
 70
    32
  0
VERTEX
  8
W78LXLIFT
 62
3
 10
2091.885
 20
-6954.850
 30
-2553.080
 70
    32
  0
VERTEX
  8
W78LXLIFT
 62
3
 10
2096.722
 20
-6951.351
 30
-2592.050
 70
    32
  0
SEQEND
  8
W78LXLIFT
  0
POLYLINE
  8
W78LXLIFT
 62
3
 66
     1
 70
     9
  0
VERTEX
  8
W78LXLIFT
 62
3
 10
2069.519
 20
-6966.091
 30
-2592.120
 70
    32
  0
VERTEX
  8
W78LXLIFT
 62
3
 10
2065.411
 20
-6969.062
 30
-2553.140
 70
    32
  0
VERTEX
  8
W78LXLIFT
 62
3
 10
2088.909
 20
-6952.066
 30
-2553.180
 70
    32
  0
VERTEX
  8
W78LXLIFT
 62
3
 10
2094.038
 20
-6948.356
 30
-2592.090
 70
    32
  0
SEQEND
  8
W78LXLIFT
  0
POLYLINE
  8
W78LXLIFT
 62
3
 66
     1
 70
     9
  0
VERTEX
  8
W78LXLIFT
 62
3
 10
2067.921
 20
-6962.311
 30
-2592.030
 70
    32
  0
VERTEX
  8
W78LXLIFT
 62
3
 10
2063.894
 20
-6965.223
 30
-2552.930
 70
    32
  0
VERTEX
  8
W78LXLIFT
 62
3
 10
2087.213
 20
-6948.356
 30
-2552.940
 70
    32
  0
VERTEX
  8
W78LXLIFT
 62
3
 10
2092.196
 20
-6944.752
 30
-2592.010
 70
    32
  0
SEQEND
  8
W78LXLIFT
  0
POLYLINE
  8
W78LXLIFT
 62
3
 66
     1
 70
     9
  0
VERTEX
  8
W78LXLIFT
 62
3
 10
2065.268
 20
-6959.292
 30
-2592.010
 70
    32
  0
VERTEX
  8
W78LXLIFT
 62
3
 10
2061.144
 20
-6962.275
 30
-2553.210
 70
    32
  0
VERTEX
  8
W78LXLIFT
 62
3
 10
2084.415
 20
-6945.443
 30
-2553.140
 70
    32
  0
VERTEX
  8
W78LXLIFT
 62
3
 10
2089.236
 20
-6941.956
 30
-2591.850
 70
    32
  0
SEQEND
  8
W78LXLIFT
  0
POLYLINE
  8
W78LXLIFT
 62
3
 66
     1
 70
     9
  0
VERTEX
  8
W78LXLIFT
 62
3
 10
2062.778
 20
-6956.157
 30
-2591.990
 70
    32
  0
VERTEX
  8
W78LXLIFT
 62
3
 10
2058.800
 20
-6959.034
 30
-2552.970
 70
    32
  0
VERTEX
  8
W78LXLIFT
 62
3
 10
2081.981
 20
-6942.267
 30
-2552.880
 70
    32
  0
VERTEX
  8
W78LXLIFT
 62
3
 10
2086.908
 20
-6938.703
 30
-2592.110
 70
    32
  0
SEQEND
  8
W78LXLIFT
  0
POLYLINE
  8
W78LXLIFT
 62
3
 66
     1
 70
     9
  0
VERTEX
  8
W78LXLIFT
 62
3
 10
2063.618
 20
-6950.612
 30
-2592.030
 70
    32
  0
VERTEX
  8
W78LXLIFT
 62
3
 10
2053.903
 20
-6957.640
 30
-2543.420
 70
    32
  0
VERTEX
  8
W78LXLIFT
 62
3
 10
2059.000
 20
-6953.953
 30
-2541.800
 70
    32
  0
VERTEX
  8
W78LXLIFT
 62
3
 10
2061.909
 20
-6951.849
 30
-2541.290
 70
    32
  0
VERTEX
  8
W78LXLIFT
 62
3
 10
2061.900
 20
-6951.855
 30
-2552.950
 70
    32
  0
VERTEX
  8
W78LXLIFT
 62
3
 10
2080.715
 20
-6938.246
 30
-2553.010
 70
    32
  0
VERTEX
  8
W78LXLIFT
 62
3
 10
2080.820
 20
-6938.170
 30
-2541.250
 70
    32
  0
VERTEX
  8
W78LXLIFT
 62
3
 10
2082.611
 20
-6936.875
 30
-2542.100
 70
    32
  0
VERTEX
  8
W78LXLIFT
 62
3
 10
2085.617
 20
-6934.701
 30
-2591.970
 70
    32
  0
SEQEND
  8
W78LXLIFT
  0
POLYLINE
  8
W78LXLIFT
 62
3
 66
     1
 70
     9
  0
VERTEX
  8
W78LXLIFT
 62
3
 10
2062.384
 20
-6946.569
 30
-2592.040
 70
    32
  0
VERTEX
  8
W78LXLIFT
 62
3
 10
2056.583
 20
-6950.765
 30
-2542.340
 70
    32
  0
VERTEX
  8
W78LXLIFT
 62
3
 10
2060.253
 20
-6948.110
 30
-2541.330
 70
    32
  0
VERTEX
  8
W78LXLIFT
 62
3
 10
2060.245
 20
-6948.116
 30
-2552.930
 70
    32
  0
VERTEX
  8
W78LXLIFT
 62
3
 10
2078.468
 20
-6934.935
 30
-2552.810
 70
    32
  0
VERTEX
  8
W78LXLIFT
 62
3
 10
2078.524
 20
-6934.894
 30
-2541.190
 70
    32
  0
VERTEX
  8
W78LXLIFT
 62
3
 10
2080.615
 20
-6933.382
 30
-2542.380
 70
    32
  0
VERTEX
  8
W78LXLIFT
 62
3
 10
2083.386
 20
-6931.377
 30
-2591.990
 70
    32
  0
SEQEND
  8
W78LXLIFT
  0
POLYLINE
  8
W78LXLIFT
 62
3
 66
     1
 70
     9
  0
VERTEX
  8
W78LXLIFT
 62
3
 10
2060.331
 20
-6943.117
 30
-2592.080
 70
    32
  0
VERTEX
  8
W78LXLIFT
 62
3
 10
2054.773
 20
-6947.137
 30
-2542.500
 70
    32
  0
VERTEX
  8
W78LXLIFT
 62
3
 10
2058.330
 20
-6944.564
 30
-2541.140
 70
    32
  0
VERTEX
  8
W78LXLIFT
 62
3
 10
2058.289
 20
-6944.593
 30
-2552.960
 70
    32
  0
VERTEX
  8
W78LXLIFT
 62
3
 10
2076.010
 20
-6931.776
 30
-2553.010
 70
    32
  0
VERTEX
  8
W78LXLIFT
 62
3
 10
2076.018
 20
-6931.770
 30
-2541.820
 70
    32
  0
VERTEX
  8
W78LXLIFT
 62
3
 10
2078.538
 20
-6929.947
 30
-2540.850
 70
    32
  0
VERTEX
  8
W78LXLIFT
 62
3
 10
2080.928
 20
-6928.218
 30
-2592.050
 70
    32
  0
SEQEND
  8
W78LXLIFT
  0
POLYLINE
  8
W78LXLIFT
 62
3
 66
     1
 70
     9
  0
VERTEX
  8
W78LXLIFT
 62
3
 10
2067.888
 20
-6932.714
 30
-2591.990
 70
    32
  0
VERTEX
  8
W78LXLIFT
 62
3
 10
2056.140
 20
-6941.212
 30
-2552.980
 70
    32
  0
VERTEX
  8
W78LXLIFT
 62
3
 10
2073.503
 20
-6928.652
 30
-2552.950
 70
    32
  0
VERTEX
  8
W78LXLIFT
 62
3
 10
2073.552
 20
-6928.617
 30
-2540.550
 70
    32
  0
VERTEX
  8
W78LXLIFT
 62
3
 10
2075.999
 20
-6926.847
 30
-2541.340
 70
    32
  0
VERTEX
  8
W78LXLIFT
 62
3
 10
2078.778
 20
-6924.837
 30
-2591.990
 70
    32
  0
SEQEND
  8
W78LXLIFT
  0
POLYLINE
  8
W78LXLIFT
 62
3
 66
     1
 70
     9
  0
VERTEX
  8
W78LXLIFT
 62
3
 10
2064.766
 20
-6930.035
 30
-2592.070
 70
    32
  0
VERTEX
  8
W78LXLIFT
 62
3
 10
2046.649
 20
-6943.140
 30
-2545.070
 70
    32
  0
VERTEX
  8
W78LXLIFT
 62
3
 10
2052.718
 20
-6938.750
 30
-2542.420
 70
    32
  0
VERTEX
  8
W78LXLIFT
 62
3
 10
2052.604
 20
-6938.832
 30
-2552.990
 70
    32
  0
VERTEX
  8
W78LXLIFT
 62
3
 10
2069.936
 20
-6926.296
 30
-2553.060
 70
    32
  0
VERTEX
  8
W78LXLIFT
 62
3
 10
2075.186
 20
-6922.498
 30
-2592.070
 70
    32
  0
SEQEND
  8
W78LXLIFT
  0
POLYLINE
  8
W78LXLIFT
 62
3
 66
     1
 70
     9
  0
VERTEX
  8
W78LXLIFT
 62
3
 10
2065.201
 20
-6924.784
 30
-2591.950
 70
    32
  0
VERTEX
  8
W78LXLIFT
 62
3
 10
2055.527
 20
-6931.782
 30
-2553.050
 70
    32
  0
VERTEX
  8
W78LXLIFT
 62
3
 10
2068.556
 20
-6922.358
 30
-2552.980
 70
    32
  0
VERTEX
  8
W78LXLIFT
 62
3
 10
2068.531
 20
-6922.375
 30
-2541.260
 70
    32
  0
VERTEX
  8
W78LXLIFT
 62
3
 10
2069.755
 20
-6921.490
 30
-2541.890
 70
    32
  0
VERTEX
  8
W78LXLIFT
 62
3
 10
2076.650
 20
-6916.503
 30
-2592.010
 70
    32
  0
SEQEND
  8
W78LXLIFT
  0
POLYLINE
  8
W78LXLIFT
 62
3
 66
     1
 70
     9
  0
VERTEX
  8
W78LXLIFT
 62
3
 10
2064.858
 20
-6920.095
 30
-2592.000
 70
    32
  0
VERTEX
  8
W78LXLIFT
 62
3
 10
2052.810
 20
-6928.810
 30
-2552.920
 70
    32
  0
VERTEX
  8
W78LXLIFT
 62
3
 10
2066.730
 20
-6918.742
 30
-2552.970
 70
    32
  0
VERTEX
  8
W78LXLIFT
 62
3
 10
2066.722
 20
-6918.747
 30
-2540.710
 70
    32
  0
VERTEX
  8
W78LXLIFT
 62
3
 10
2067.386
 20
-6918.267
 30
-2540.930
 70
    32
  0
VERTEX
  8
W78LXLIFT
 62
3
 10
2074.468
 20
-6913.144
 30
-2592.030
 70
    32
  0
SEQEND
  8
W78LXLIFT
  0
POLYLINE
  8
W78LXLIFT
 62
3
 66
     1
 70
     9
  0
VERTEX
  8
W78LXLIFT
 62
3
 10
2062.627
 20
-6916.772
 30
-2592.160
 70
    32
  0
VERTEX
  8
W78LXLIFT
 62
3
 10
2050.174
 20
-6925.780
 30
-2553.200
 70
    32
  0
VERTEX
  8
W78LXLIFT
 62
3
 10
2064.953
 20
-6915.090
 30
-2553.110
 70
    32
  0
VERTEX
  8
W78LXLIFT
 62
3
 10
2064.977
 20
-6915.073
 30
-2541.090
 70
    32
  0
VERTEX
  8
W78LXLIFT
 62
3
 10
2069.498
 20
-6911.802
 30
-2540.890
 70
    32
  0
VERTEX
  8
W78LXLIFT
 62
3
 10
2072.755
 20
-6909.446
 30
-2592.140
 70
    32
  0
SEQEND
  8
W78LXLIFT
  0
POLYLINE
  8
W78LXLIFT
 62
3
 66
     1
 70
     9
  0
VERTEX
  8
W78LXLIFT
 62
3
 10
2060.510
 20
-6913.367
 30
-2592.030
 70
    32
  0
VERTEX
  8
W78LXLIFT
 62
3
 10
2047.748
 20
-6922.598
 30
-2553.140
 70
    32
  0
VERTEX
  8
W78LXLIFT
 62
3
 10
2072.218
 20
-6904.898
 30
-2553.100
 70
    32
  0
VERTEX
  8
W78LXLIFT
 62
3
 10
2074.057
 20
-6903.568
 30
-2572.290
 70
    32
  0
VERTEX
  8
W78LXLIFT
 62
3
 10
2071.926
 20
-6905.109
 30
-2592.010
 70
    32
  0
SEQEND
  8
W78LXLIFT
  0
POLYLINE
  8
W78LXLIFT
 62
3
 66
     1
 70
     9
  0
VERTEX
  8
W78LXLIFT
 62
3
 10
2057.679
 20
-6910.478
 30
-2592.060
 70
    32
  0
VERTEX
  8
W78LXLIFT
 62
3
 10
2045.307
 20
-6919.427
 30
-2553.000
 70
    32
  0
VERTEX
  8
W78LXLIFT
 62
3
 10
2065.798
 20
-6904.605
 30
-2553.010
 70
    32
  0
VERTEX
  8
W78LXLIFT
 62
3
 10
2068.164
 20
-6902.894
 30
-2592.020
 70
    32
  0
SEQEND
  8
W78LXLIFT
  0
POLYLINE
  8
W78LXLIFT
 62
3
 66
     1
 70
     9
  0
VERTEX
  8
W78LXLIFT
 62
3
 10
2055.675
 20
-6906.991
 30
-2591.950
 70
    32
  0
VERTEX
  8
W78LXLIFT
 62
3
 10
2043.157
 20
-6916.046
 30
-2552.960
 70
    32
  0
VERTEX
  8
W78LXLIFT
 62
3
 10
2063.859
 20
-6901.071
 30
-2552.900
 70
    32
  0
VERTEX
  8
W78LXLIFT
 62
3
 10
2066.014
 20
-6899.512
 30
-2591.960
 70
    32
  0
SEQEND
  8
W78LXLIFT
  0
POLYLINE
  8
W78LXLIFT
 62
3
 66
     1
 70
     9
  0
VERTEX
  8
W78LXLIFT
 62
3
 10
2049.101
 20
-6906.809
 30
-2592.050
 70
    32
  0
VERTEX
  8
W78LXLIFT
 62
3
 10
2036.356
 20
-6916.028
 30
-2553.050
 70
    32
  0
VERTEX
  8
W78LXLIFT
 62
3
 10
2056.248
 20
-6901.640
 30
-2553.000
 70
    32
  0
VERTEX
  8
W78LXLIFT
 62
3
 10
2056.467
 20
-6901.481
 30
-2552.500
 70
    32
  0
VERTEX
  8
W78LXLIFT
 62
3
 10
2060.307
 20
-6898.703
 30
-2552.670
 70
    32
  0
VERTEX
  8
W78LXLIFT
 62
3
 10
2063.249
 20
-6896.576
 30
-2591.920
 70
    32
  0
SEQEND
  8
W78LXLIFT
  0
POLYLINE
  8
W78LXLIFT
 62
3
 66
     1
 70
     9
  0
VERTEX
  8
W78LXLIFT
 62
3
 10
2044.316
 20
-6900.397
 30
-2591.970
 70
    32
  0
VERTEX
  8
W78LXLIFT
 62
3
 10
2032.486
 20
-6908.954
 30
-2553.100
 70
    32
  0
VERTEX
  8
W78LXLIFT
 62
3
 10
2052.191
 20
-6894.701
 30
-2553.060
 70
    32
  0
VERTEX
  8
W78LXLIFT
 62
3
 10
2056.704
 20
-6891.436
 30
-2591.870
 70
    32
  0
SEQEND
  8
W78LXLIFT
  0
POLYLINE
  8
W78LXLIFT
 62
3
 66
     1
 70
     9
  0
VERTEX
  8
W78LXLIFT
 62
3
 10
2041.890
 20
-6897.215
 30
-2591.910
 70
    32
  0
VERTEX
  8
W78LXLIFT
 62
3
 10
2029.842
 20
-6905.930
 30
-2554.730
 70
    32
  0
VERTEX
  8
W78LXLIFT
 62
3
 10
2031.325
 20
-6904.857
 30
-2541.860
 70
    32
  0
VERTEX
  8
W78LXLIFT
 62
3
 10
2036.081
 20
-6901.417
 30
-2540.380
 70
    32
  0
VERTEX
  8
W78LXLIFT
 62
3
 10
2038.909
 20
-6899.372
 30
-2540.080
 70
    32
  0
VERTEX
  8
W78LXLIFT
 62
3
 10
2038.868
 20
-6899.401
 30
-2552.980
 70
    32
  0
VERTEX
  8
W78LXLIFT
 62
3
 10
2049.604
 20
-6891.635
 30
-2552.940
 70
    32
  0
VERTEX
  8
W78LXLIFT
 62
3
 10
2053.153
 20
-6889.068
 30
-2561.560
 70
    32
  0
VERTEX
  8
W78LXLIFT
 62
3
 10
2053.112
 20
-6889.098
 30
-2591.960
 70
    32
  0
SEQEND
  8
W78LXLIFT
  0
POLYLINE
  8
W78LXLIFT
 62
3
 66
     1
 70
     9
  0
VERTEX
  8
W78LXLIFT
 62
3
 10
1980.675
 20
-6679.137
 30
-2488.473
 70
    32
  0
VERTEX
  8
W78LXLIFT
 62
3
 10
1984.727
 20
-6699.952
 30
-2487.715
 70
    32
  0
VERTEX
  8
W78LXLIFT
 62
3
 10
1985.783
 20
-6705.380
 30
-2487.821
 70
    32
  0
VERTEX
  8
W78LXLIFT
 62
3
 10
1995.334
 20
-6706.222
 30
-2487.865
 70
    32
  0
VERTEX
  8
W78LXLIFT
 62
3
 10
1996.917
 20
-6706.361
 30
-2487.873
 70
    32
  0
VERTEX
  8
W78LXLIFT
 62
3
 10
2005.711
 20
-6699.230
 30
-2487.765
 70
    32
  0
VERTEX
  8
W78LXLIFT
 62
3
 10
2004.838
 20
-6697.403
 30
-2487.727
 70
    32
  0
VERTEX
  8
W78LXLIFT
 62
3
 10
2003.894
 20
-6695.426
 30
-2487.687
 70
    32
  0
VERTEX
  8
W78LXLIFT
 62
3
 10
2002.560
 20
-6692.634
 30
-2487.796
 70
    32
  0
VERTEX
  8
W78LXLIFT
 62
3
 10
2003.187
 20
-6691.008
 30
-2487.846
 70
    32
  0
VERTEX
  8
W78LXLIFT
 62
3
 10
2003.928
 20
-6689.089
 30
-2487.902
 70
    32
  0
VERTEX
  8
W78LXLIFT
 62
3
 10
1996.593
 20
-6670.453
 30
-2488.599
 70
    32
  0
VERTEX
  8
W78LXLIFT
 62
3
 10
2000.583
 20
-6666.269
 30
-2488.147
 70
    32
  0
VERTEX
  8
W78LXLIFT
 62
3
 10
2006.943
 20
-6659.598
 30
-2488.235
 70
    32
  0
VERTEX
  8
W78LXLIFT
 62
3
 10
2008.767
 20
-6658.112
 30
-2488.250
 70
    32
  0
VERTEX
  8
W78LXLIFT
 62
3
 10
2016.120
 20
-6652.123
 30
-2488.310
 70
    32
  0
VERTEX
  8
W78LXLIFT
 62
3
 10
2020.393
 20
-6650.017
 30
-2488.312
 70
    32
  0
VERTEX
  8
W78LXLIFT
 62
3
 10
2024.090
 20
-6655.292
 30
-2488.145
 70
    32
  0
VERTEX
  8
W78LXLIFT
 62
3
 10
2026.753
 20
-6659.091
 30
-2488.053
 70
    32
  0
VERTEX
  8
W78LXLIFT
 62
3
 10
2027.530
 20
-6660.814
 30
-2488.012
 70
    32
  0
VERTEX
  8
W78LXLIFT
 62
3
 10
2032.087
 20
-6670.930
 30
-2487.768
 70
    32
  0
VERTEX
  8
W78LXLIFT
 62
3
 10
2035.328
 20
-6678.124
 30
-2487.595
 70
    32
  0
VERTEX
  8
W78LXLIFT
 62
3
 10
2035.938
 20
-6682.229
 30
-2487.498
 70
    32
  0
VERTEX
  8
W78LXLIFT
 62
3
 10
2038.041
 20
-6696.389
 30
-2487.501
 70
    32
  0
VERTEX
  8
W78LXLIFT
 62
3
 10
2048.693
 20
-6696.283
 30
-2487.502
 70
    32
  0
VERTEX
  8
W78LXLIFT
 62
3
 10
2054.414
 20
-6693.569
 30
-2487.504
 70
    32
  0
VERTEX
  8
W78LXLIFT
 62
3
 10
2057.796
 20
-6688.440
 30
-2487.507
 70
    32
  0
VERTEX
  8
W78LXLIFT
 62
3
 10
2061.001
 20
-6683.578
 30
-2487.523
 70
    32
  0
VERTEX
  8
W78LXLIFT
 62
3
 10
2056.043
 20
-6672.636
 30
-2487.532
 70
    32
  0
VERTEX
  8
W78LXLIFT
 62
3
 10
2048.622
 20
-6670.174
 30
-2487.521
 70
    32
  0
VERTEX
  8
W78LXLIFT
 62
3
 10
2048.009
 20
-6667.218
 30
-2487.525
 70
    32
  0
VERTEX
  8
W78LXLIFT
 62
3
 10
2056.549
 20
-6664.186
 30
-2487.549
 70
    32
  0
VERTEX
  8
W78LXLIFT
 62
3
 10
2059.821
 20
-6660.780
 30
-2487.562
 70
    32
  0
VERTEX
  8
W78LXLIFT
 62
3
 10
2058.318
 20
-6653.864
 30
-2487.572
 70
    32
  0
VERTEX
  8
W78LXLIFT
 62
3
 10
2059.815
 20
-6651.799
 30
-2487.579
 70
    32
  0
VERTEX
  8
W78LXLIFT
 62
3
 10
2061.722
 20
-6650.410
 30
-2487.586
 70
    32
  0
VERTEX
  8
W78LXLIFT
 62
3
 10
2064.183
 20
-6644.825
 30
-2487.601
 70
    32
  0
VERTEX
  8
W78LXLIFT
 62
3
 10
2063.523
 20
-6643.683
 30
-2487.602
 70
    32
  0
VERTEX
  8
W78LXLIFT
 62
3
 10
2061.054
 20
-6639.414
 30
-2487.517
 70
    32
  0
VERTEX
  8
W78LXLIFT
 62
3
 10
2060.157
 20
-6637.862
 30
-2487.496
 70
    32
  0
VERTEX
  8
W78LXLIFT
 62
3
 10
2060.318
 20
-6630.280
 30
-2487.427
 70
    32
  0
VERTEX
  8
W78LXLIFT
 62
3
 10
2057.675
 20
-6624.447
 30
-2487.354
 70
    32
  0
VERTEX
  8
W78LXLIFT
 62
3
 10
2051.755
 20
-6615.096
 30
-2487.225
 70
    32
  0
VERTEX
  8
W78LXLIFT
 62
3
 10
2051.711
 20
-6615.026
 30
-2487.226
 70
    32
  0
VERTEX
  8
W78LXLIFT
 62
3
 10
2046.232
 20
-6610.550
 30
-2487.297
 70
    32
  0
VERTEX
  8
W78LXLIFT
 62
3
 10
2037.473
 20
-6606.716
 30
-2487.383
 70
    32
  0
VERTEX
  8
W78LXLIFT
 62
3
 10
2035.917
 20
-6605.643
 30
-2487.402
 70
    32
  0
VERTEX
  8
W78LXLIFT
 62
3
 10
2035.482
 20
-6605.344
 30
-2487.411
 70
    32
  0
VERTEX
  8
W78LXLIFT
 62
3
 10
2034.447
 20
-6603.405
 30
-2487.444
 70
    32
  0
VERTEX
  8
W78LXLIFT
 62
3
 10
2033.483
 20
-6601.599
 30
-2487.491
 70
    32
  0
VERTEX
  8
W78LXLIFT
 62
3
 10
2027.812
 20
-6590.979
 30
-2487.724
 70
    32
  0
VERTEX
  8
W78LXLIFT
 62
3
 10
2022.973
 20
-6587.611
 30
-2487.856
 70
    32
  0
VERTEX
  8
W78LXLIFT
 62
3
 10
2013.974
 20
-6585.597
 30
-2488.055
 70
    32
  0
VERTEX
  8
W78LXLIFT
 62
3
 10
2003.243
 20
-6573.319
 30
-2488.411
 70
    32
  0
VERTEX
  8
W78LXLIFT
 62
3
 10
1995.907
 20
-6576.124
 30
-2488.519
 70
    32
  0
VERTEX
  8
W78LXLIFT
 62
3
 10
1995.833
 20
-6576.152
 30
-2488.521
 70
    32
  0
VERTEX
  8
W78LXLIFT
 62
3
 10
1990.273
 20
-6575.212
 30
-2488.643
 70
    32
  0
VERTEX
  8
W78LXLIFT
 62
3
 10
1988.401
 20
-6569.416
 30
-2488.207
 70
    32
  0
VERTEX
  8
W78LXLIFT
 62
3
 10
2000.801
 20
-6561.044
 30
-2485.798
 70
    32
  0
VERTEX
  8
W78LXLIFT
 62
3
 10
2011.628
 20
-6552.110
 30
-2483.715
 70
    32
  0
VERTEX
  8
W78LXLIFT
 62
3
 10
2011.777
 20
-6550.207
 30
-2483.398
 70
    32
  0
VERTEX
  8
W78LXLIFT
 62
3
 10
2023.689
 20
-6535.409
 30
-2480.944
 70
    32
  0
VERTEX
  8
W78LXLIFT
 62
3
 10
2022.883
 20
-6531.340
 30
-2480.266
 70
    32
  0
VERTEX
  8
W78LXLIFT
 62
3
 10
2027.887
 20
-6523.954
 30
-2478.354
 70
    32
  0
VERTEX
  8
W78LXLIFT
 62
3
 10
2019.461
 20
-6515.495
 30
-2476.059
 70
    32
  0
VERTEX
  8
W78LXLIFT
 62
3
 10
2019.016
 20
-6506.165
 30
-2473.188
 70
    32
  0
VERTEX
  8
W78LXLIFT
 62
3
 10
2006.406
 20
-6508.108
 30
-2473.016
 70
    32
  0
VERTEX
  8
W78LXLIFT
 62
3
 10
2008.091
 20
-6519.644
 30
-2477.638
 70
    32
  0
VERTEX
  8
W78LXLIFT
 62
3
 10
2010.273
 20
-6527.974
 30
-2479.698
 70
    32
  0
VERTEX
  8
W78LXLIFT
 62
3
 10
2008.638
 20
-6534.555
 30
-2480.792
 70
    32
  0
VERTEX
  8
W78LXLIFT
 62
3
 10
2003.121
 20
-6541.420
 30
-2482.166
 70
    32
  0
VERTEX
  8
W78LXLIFT
 62
3
 10
1993.202
 20
-6551.295
 30
-2485.072
 70
    32
  0
VERTEX
  8
W78LXLIFT
 62
3
 10
1986.737
 20
-6556.119
 30
-2487.010
 70
    32
  0
VERTEX
  8
W78LXLIFT
 62
3
 10
1980.209
 20
-6553.175
 30
-2487.208
 70
    32
  0
VERTEX
  8
W78LXLIFT
 62
3
 10
1979.452
 20
-6549.379
 30
-2487.437
 70
    32
  0
VERTEX
  8
W78LXLIFT
 62
3
 10
1977.184
 20
-6538.007
 30
-2487.475
 70
    32
  0
VERTEX
  8
W78LXLIFT
 62
3
 10
1972.962
 20
-6520.822
 30
-2487.500
 70
    32
  0
VERTEX
  8
W78LXLIFT
 62
3
 10
1973.000
 20
-6514.795
 30
-2487.500
 70
    32
  0
VERTEX
  8
W78LXLIFT
 62
3
 10
1980.724
 20
-6505.363
 30
-2487.500
 70
    32
  0
VERTEX
  8
W78LXLIFT
 62
3
 10
1991.622
 20
-6500.875
 30
-2487.389
 70
    32
  0
VERTEX
  8
W78LXLIFT
 62
3
 10
1991.421
 20
-6499.060
 30
-2487.384
 70
    32
  0
VERTEX
  8
W78LXLIFT
 62
3
 10
1989.278
 20
-6479.676
 30
-2486.701
 70
    32
  0
VERTEX
  8
W78LXLIFT
 62
3
 10
1983.324
 20
-6470.792
 30
-2486.611
 70
    32
  0
VERTEX
  8
W78LXLIFT
 62
3
 10
1982.798
 20
-6461.817
 30
-2486.274
 70
    32
  0
VERTEX
  8
W78LXLIFT
 62
3
 10
1982.581
 20
-6458.111
 30
-2485.862
 70
    32
  0
VERTEX
  8
W78LXLIFT
 62
3
 10
1982.292
 20
-6453.176
 30
-2485.753
 70
    32
  0
VERTEX
  8
W78LXLIFT
 62
3
 10
1980.777
 20
-6449.364
 30
-2485.662
 70
    32
  0
VERTEX
  8
W78LXLIFT
 62
3
 10
1975.419
 20
-6432.589
 30
-2485.271
 70
    32
  0
VERTEX
  8
W78LXLIFT
 62
3
 10
1972.198
 20
-6422.476
 30
-2485.035
 70
    32
  0
VERTEX
  8
W78LXLIFT
 62
3
 10
1972.105
 20
-6422.444
 30
-2485.034
 70
    32
  0
VERTEX
  8
W78LXLIFT
 62
3
 10
1967.020
 20
-6420.713
 30
-2484.947
 70
    32
  0
VERTEX
  8
W78LXLIFT
 62
3
 10
1963.836
 20
-6414.467
 30
-2484.400
 70
    32
  0
VERTEX
  8
W78LXLIFT
 62
3
 10
1966.156
 20
-6406.699
 30
-2484.002
 70
    32
  0
VERTEX
  8
W78LXLIFT
 62
3
 10
1968.392
 20
-6401.089
 30
-2483.782
 70
    32
  0
VERTEX
  8
W78LXLIFT
 62
3
 10
1963.620
 20
-6394.545
 30
-2483.613
 70
    32
  0
VERTEX
  8
W78LXLIFT
 62
3
 10
1956.076
 20
-6395.593
 30
-2483.739
 70
    32
  0
VERTEX
  8
W78LXLIFT
 62
3
 10
1947.904
 20
-6397.702
 30
-2483.911
 70
    32
  0
VERTEX
  8
W78LXLIFT
 62
3
 10
1947.887
 20
-6397.706
 30
-2484.400
 70
    32
  0
VERTEX
  8
W78LXLIFT
 62
3
 10
1941.763
 20
-6405.785
 30
-2484.857
 70
    32
  0
VERTEX
  8
W78LXLIFT
 62
3
 10
1948.099
 20
-6416.830
 30
-2484.861
 70
    32
  0
VERTEX
  8
W78LXLIFT
 62
3
 10
1955.738
 20
-6430.149
 30
-2485.064
 70
    32
  0
VERTEX
  8
W78LXLIFT
 62
3
 10
1961.794
 20
-6448.129
 30
-2485.537
 70
    32
  0
VERTEX
  8
W78LXLIFT
 62
3
 10
1964.220
 20
-6453.778
 30
-2485.691
 70
    32
  0
VERTEX
  8
W78LXLIFT
 62
3
 10
1967.161
 20
-6460.627
 30
-2485.854
 70
    32
  0
VERTEX
  8
W78LXLIFT
 62
3
 10
1967.202
 20
-6460.722
 30
-2485.865
 70
    32
  0
VERTEX
  8
W78LXLIFT
 62
3
 10
1968.165
 20
-6473.734
 30
-2487.312
 70
    32
  0
VERTEX
  8
W78LXLIFT
 62
3
 10
1967.694
 20
-6475.521
 30
-2487.500
 70
    32
  0
VERTEX
  8
W78LXLIFT
 62
3
 10
1962.713
 20
-6472.882
 30
-2487.500
 70
    32
  0
VERTEX
  8
W78LXLIFT
 62
3
 10
1955.332
 20
-6470.342
 30
-2487.500
 70
    32
  0
VERTEX
  8
W78LXLIFT
 62
3
 10
1948.063
 20
-6457.838
 30
-2487.500
 70
    32
  0
VERTEX
  8
W78LXLIFT
 62
3
 10
1938.662
 20
-6461.805
 30
-2487.500
 70
    32
  0
VERTEX
  8
W78LXLIFT
 62
3
 10
1937.267
 20
-6472.121
 30
-2487.500
 70
    32
  0
VERTEX
  8
W78LXLIFT
 62
3
 10
1946.063
 20
-6479.935
 30
-2487.500
 70
    32
  0
VERTEX
  8
W78LXLIFT
 62
3
 10
1947.043
 20
-6489.723
 30
-2487.500
 70
    32
  0
VERTEX
  8
W78LXLIFT
 62
3
 10
1950.170
 20
-6504.177
 30
-2487.500
 70
    32
  0
VERTEX
  8
W78LXLIFT
 62
3
 10
1949.904
 20
-6511.424
 30
-2487.500
 70
    32
  0
VERTEX
  8
W78LXLIFT
 62
3
 10
1956.544
 20
-6520.250
 30
-2487.500
 70
    32
  0
VERTEX
  8
W78LXLIFT
 62
3
 10
1960.264
 20
-6536.655
 30
-2487.500
 70
    32
  0
VERTEX
  8
W78LXLIFT
 62
3
 10
1960.264
 20
-6536.655
 30
-2487.485
 70
    32
  0
VERTEX
  8
W78LXLIFT
 62
3
 10
1961.355
 20
-6549.174
 30
-2487.433
 70
    32
  0
VERTEX
  8
W78LXLIFT
 62
3
 10
1961.041
 20
-6556.189
 30
-2487.230
 70
    32
  0
VERTEX
  8
W78LXLIFT
 62
3
 10
1961.062
 20
-6560.721
 30
-2486.956
 70
    32
  0
VERTEX
  8
W78LXLIFT
 62
3
 10
1962.434
 20
-6567.968
 30
-2486.725
 70
    32
  0
VERTEX
  8
W78LXLIFT
 62
3
 10
1957.975
 20
-6571.929
 30
-2487.500
 70
    32
  0
VERTEX
  8
W78LXLIFT
 62
3
 10
1955.083
 20
-6585.360
 30
-2487.500
 70
    32
  0
VERTEX
  8
W78LXLIFT
 62
3
 10
1955.954
 20
-6599.270
 30
-2487.500
 70
    32
  0
VERTEX
  8
W78LXLIFT
 62
3
 10
1954.042
 20
-6609.965
 30
-2487.500
 70
    32
  0
VERTEX
  8
W78LXLIFT
 62
3
 10
1944.327
 20
-6619.842
 30
-2487.500
 70
    32
  0
VERTEX
  8
W78LXLIFT
 62
3
 10
1948.618
 20
-6634.865
 30
-2487.500
 70
    32
  0
VERTEX
  8
W78LXLIFT
 62
3
 10
1947.469
 20
-6643.099
 30
-2487.500
 70
    32
  0
VERTEX
  8
W78LXLIFT
 62
3
 10
1947.854
 20
-6656.736
 30
-2488.000
 70
    32
  0
VERTEX
  8
W78LXLIFT
 62
3
 10
1943.586
 20
-6662.897
 30
-2488.000
 70
    32
  0
VERTEX
  8
W78LXLIFT
 62
3
 10
1953.071
 20
-6672.692
 30
-2488.000
 70
    32
  0
VERTEX
  8
W78LXLIFT
 62
3
 10
1956.707
 20
-6675.219
 30
-2488.000
 70
    32
  0
VERTEX
  8
W78LXLIFT
 62
3
 10
1959.742
 20
-6686.051
 30
-2488.000
 70
    32
  0
VERTEX
  8
W78LXLIFT
 62
3
 10
1974.359
 20
-6668.411
 30
-2488.901
 70
    32
  0
VERTEX
  8
W78LXLIFT
 62
3
 10
1980.675
 20
-6679.137
 30
-2488.473
 70
    32
  0
VERTEX
  8
W78LXLIFT
 62
3
 10
1980.675
 20
-6679.137
 30
-2488.473
 70
    32
  0
SEQEND
  8
W78LXLIFT
  0
POLYLINE
  8
W78LXLIFT
 62
3
 66
     1
 70
     9
  0
VERTEX
  8
W78LXLIFT
 62
3
 10
2011.353
 20
-6639.063
 30
-2488.558
 70
    32
  0
VERTEX
  8
W78LXLIFT
 62
3
 10
2000.340
 20
-6648.000
 30
-2488.549
 70
    32
  0
VERTEX
  8
W78LXLIFT
 62
3
 10
1987.555
 20
-6645.107
 30
-2488.581
 70
    32
  0
VERTEX
  8
W78LXLIFT
 62
3
 10
1985.188
 20
-6635.207
 30
-2488.617
 70
    32
  0
VERTEX
  8
W78LXLIFT
 62
3
 10
1984.527
 20
-6615.241
 30
-2488.682
 70
    32
  0
VERTEX
  8
W78LXLIFT
 62
3
 10
1984.432
 20
-6608.039
 30
-2488.705
 70
    32
  0
VERTEX
  8
W78LXLIFT
 62
3
 10
1983.996
 20
-6603.484
 30
-2488.720
 70
    32
  0
VERTEX
  8
W78LXLIFT
 62
3
 10
1983.967
 20
-6603.181
 30
-2488.721
 70
    32
  0
VERTEX
  8
W78LXLIFT
 62
3
 10
1983.439
 20
-6597.655
 30
-2488.737
 70
    32
  0
VERTEX
  8
W78LXLIFT
 62
3
 10
1993.285
 20
-6596.591
 30
-2488.717
 70
    32
  0
VERTEX
  8
W78LXLIFT
 62
3
 10
1997.420
 20
-6603.153
 30
-2488.691
 70
    32
  0
VERTEX
  8
W78LXLIFT
 62
3
 10
1995.305
 20
-6608.006
 30
-2488.683
 70
    32
  0
VERTEX
  8
W78LXLIFT
 62
3
 10
1993.619
 20
-6611.874
 30
-2488.676
 70
    32
  0
VERTEX
  8
W78LXLIFT
 62
3
 10
1993.144
 20
-6612.965
 30
-2488.674
 70
    32
  0
VERTEX
  8
W78LXLIFT
 62
3
 10
2004.035
 20
-6624.498
 30
-2488.617
 70
    32
  0
VERTEX
  8
W78LXLIFT
 62
3
 10
2005.665
 20
-6630.715
 30
-2488.595
 70
    32
  0
VERTEX
  8
W78LXLIFT
 62
3
 10
2011.518
 20
-6637.108
 30
-2488.564
 70
    32
  0
VERTEX
  8
W78LXLIFT
 62
3
 10
2011.353
 20
-6639.063
 30
-2488.558
 70
    32
  0
SEQEND
  8
W78LXLIFT
  0
LINE
  8
W78LXLIFT
 62
3
 10
1974.359
 20
-6668.411
 30
-2488.901
 11
1980.675
 21
-6679.137
 31
-2488.473
  0
POLYLINE
  8
W78LXLIFT
 62
3
 66
     1
 70
     9
  0
VERTEX
  8
W78LXLIFT
 62
3
 10
1995.460
 20
-6321.808
 30
-2481.500
 70
    32
  0
VERTEX
  8
W78LXLIFT
 62
3
 10
1992.381
 20
-6329.420
 30
-2481.020
 70
    32
  0
VERTEX
  8
W78LXLIFT
 62
3
 10
1991.542
 20
-6334.535
 30
-2481.206
 70
    32
  0
VERTEX
  8
W78LXLIFT
 62
3
 10
1985.097
 20
-6351.548
 30
-2481.871
 70
    32
  0
VERTEX
  8
W78LXLIFT
 62
3
 10
1971.286
 20
-6350.666
 30
-2481.500
 70
    32
  0
VERTEX
  8
W78LXLIFT
 62
3
 10
1966.203
 20
-6341.498
 30
-2481.500
 70
    32
  0
VERTEX
  8
W78LXLIFT
 62
3
 10
1956.546
 20
-6334.275
 30
-2481.500
 70
    32
  0
VERTEX
  8
W78LXLIFT
 62
3
 10
1930.107
 20
-6320.907
 30
-2481.500
 70
    32
  0
VERTEX
  8
W78LXLIFT
 62
3
 10
1926.186
 20
-6315.522
 30
-2481.500
 70
    32
  0
VERTEX
  8
W78LXLIFT
 62
3
 10
1929.437
 20
-6308.459
 30
-2481.500
 70
    32
  0
VERTEX
  8
W78LXLIFT
 62
3
 10
1927.907
 20
-6296.810
 30
-2481.500
 70
    32
  0
VERTEX
  8
W78LXLIFT
 62
3
 10
1937.501
 20
-6288.815
 30
-2481.500
 70
    32
  0
VERTEX
  8
W78LXLIFT
 62
3
 10
1942.219
 20
-6300.343
 30
-2481.500
 70
    32
  0
VERTEX
  8
W78LXLIFT
 62
3
 10
1950.612
 20
-6306.601
 30
-2481.500
 70
    32
  0
VERTEX
  8
W78LXLIFT
 62
3
 10
1955.892
 20
-6314.105
 30
-2481.500
 70
    32
  0
VERTEX
  8
W78LXLIFT
 62
3
 10
1968.141
 20
-6322.645
 30
-2481.500
 70
    32
  0
VERTEX
  8
W78LXLIFT
 62
3
 10
1974.691
 20
-6317.351
 30
-2481.500
 70
    32
  0
VERTEX
  8
W78LXLIFT
 62
3
 10
1975.020
 20
-6307.836
 30
-2481.500
 70
    32
  0
VERTEX
  8
W78LXLIFT
 62
3
 10
1986.852
 20
-6306.567
 30
-2481.500
 70
    32
  0
VERTEX
  8
W78LXLIFT
 62
3
 10
1990.105
 20
-6318.126
 30
-2481.500
 70
    32
  0
SEQEND
  8
W78LXLIFT
  0
POLYLINE
  8
W78LXLIFT
 62
3
 66
     1
 70
     9
  0
VERTEX
  8
W78LXLIFT
 62
3
 10
2046.165
 20
-6595.619
 30
-2471.027
 70
    32
  0
VERTEX
  8
W78LXLIFT
 62
3
 10
2042.173
 20
-6585.554
 30
-2471.027
 70
    32
  0
VERTEX
  8
W78LXLIFT
 62
3
 10
2040.020
 20
-6580.600
 30
-2471.027
 70
    32
  0
VERTEX
  8
W78LXLIFT
 62
3
 10
2030.530
 20
-6577.860
 30
-2471.027
 70
    32
  0
VERTEX
  8
W78LXLIFT
 62
3
 10
2019.090
 20
-6579.600
 30
-2471.027
 70
    32
  0
VERTEX
  8
W78LXLIFT
 62
3
 10
2013.280
 20
-6581.820
 30
-2471.027
 70
    32
  0
VERTEX
  8
W78LXLIFT
 62
3
 10
2011.730
 20
-6586.383
 30
-2471.027
 70
    32
  0
VERTEX
  8
W78LXLIFT
 62
3
 10
2017.021
 20
-6594.420
 30
-2471.027
 70
    32
  0
VERTEX
  8
W78LXLIFT
 62
3
 10
2010.358
 20
-6607.422
 30
-2471.027
 70
    32
  0
VERTEX
  8
W78LXLIFT
 62
3
 10
2000.320
 20
-6608.746
 30
-2471.027
 70
    32
  0
VERTEX
  8
W78LXLIFT
 62
3
 10
1997.553
 20
-6604.040
 30
-2471.027
 70
    32
  0
VERTEX
  8
W78LXLIFT
 62
3
 10
1993.450
 20
-6600.164
 30
-2471.027
 70
    32
  0
VERTEX
  8
W78LXLIFT
 62
3
 10
1986.811
 20
-6598.518
 30
-2471.027
 70
    32
  0
VERTEX
  8
W78LXLIFT
 62
3
 10
1978.609
 20
-6588.069
 30
-2471.027
 70
    32
  0
VERTEX
  8
W78LXLIFT
 62
3
 10
1976.214
 20
-6576.023
 30
-2471.027
 70
    32
  0
VERTEX
  8
W78LXLIFT
 62
3
 10
1976.295
 20
-6567.420
 30
-2471.027
 70
    32
  0
VERTEX
  8
W78LXLIFT
 62
3
 10
1970.030
 20
-6556.738
 30
-2471.027
 70
    32
  0
VERTEX
  8
W78LXLIFT
 62
3
 10
1976.551
 20
-6546.346
 30
-2471.027
 70
    32
  0
VERTEX
  8
W78LXLIFT
 62
3
 10
1987.637
 20
-6542.099
 30
-2471.027
 70
    32
  0
VERTEX
  8
W78LXLIFT
 62
3
 10
1990.889
 20
-6552.258
 30
-2471.027
 70
    32
  0
VERTEX
  8
W78LXLIFT
 62
3
 10
1990.889
 20
-6552.258
 30
-2471.027
 70
    32
  0
VERTEX
  8
W78LXLIFT
 62
3
 10
1996.938
 20
-6557.640
 30
-2471.027
 70
    32
  0
VERTEX
  8
W78LXLIFT
 62
3
 10
2001.431
 20
-6562.593
 30
-2471.027
 70
    32
  0
VERTEX
  8
W78LXLIFT
 62
3
 10
2003.995
 20
-6564.458
 30
-2471.027
 70
    32
  0
VERTEX
  8
W78LXLIFT
 62
3
 10
2011.613
 20
-6568.363
 30
-2471.027
 70
    32
  0
VERTEX
  8
W78LXLIFT
 62
3
 10
2011.613
 20
-6568.363
 30
-2471.027
 70
    32
  0
VERTEX
  8
W78LXLIFT
 62
3
 10
2024.410
 20
-6565.660
 30
-2471.027
 70
    32
  0
VERTEX
  8
W78LXLIFT
 62
3
 10
2026.510
 20
-6552.500
 30
-2471.027
 70
    32
  0
VERTEX
  8
W78LXLIFT
 62
3
 10
2029.480
 20
-6548.730
 30
-2471.027
 70
    32
  0
VERTEX
  8
W78LXLIFT
 62
3
 10
2031.720
 20
-6546.340
 30
-2471.027
 70
    32
  0
VERTEX
  8
W78LXLIFT
 62
3
 10
2031.720
 20
-6546.340
 30
-2471.027
 70
    32
  0
VERTEX
  8
W78LXLIFT
 62
3
 10
2038.340
 20
-6543.940
 30
-2471.027
 70
    32
  0
VERTEX
  8
W78LXLIFT
 62
3
 10
2045.250
 20
-6551.510
 30
-2471.027
 70
    32
  0
VERTEX
  8
W78LXLIFT
 62
3
 10
2049.453
 20
-6552.561
 30
-2471.027
 70
    32
  0
VERTEX
  8
W78LXLIFT
 62
3
 10
2049.453
 20
-6552.561
 30
-2471.027
 70
    32
  0
VERTEX
  8
W78LXLIFT
 62
3
 10
2057.053
 20
-6551.706
 30
-2471.027
 70
    32
  0
VERTEX
  8
W78LXLIFT
 62
3
 10
2057.053
 20
-6551.706
 30
-2471.027
 70
    32
  0
VERTEX
  8
W78LXLIFT
 62
3
 10
2067.895
 20
-6554.324
 30
-2471.027
 70
    32
  0
VERTEX
  8
W78LXLIFT
 62
3
 10
2065.945
 20
-6562.453
 30
-2471.027
 70
    32
  0
VERTEX
  8
W78LXLIFT
 62
3
 10
2072.309
 20
-6568.775
 30
-2471.027
 70
    32
  0
VERTEX
  8
W78LXLIFT
 62
3
 10
2067.991
 20
-6576.135
 30
-2471.027
 70
    32
  0
VERTEX
  8
W78LXLIFT
 62
3
 10
2062.820
 20
-6583.966
 30
-2471.027
 70
    32
  0
VERTEX
  8
W78LXLIFT
 62
3
 10
2058.140
 20
-6594.403
 30
-2471.027
 70
    32
  0
SEQEND
  8
W78LXLIFT
  0
POLYLINE
  8
W78LXLIFT
 62
3
 66
     1
 70
     9
  0
VERTEX
  8
W78LXLIFT
 62
3
 10
2042.583
 20
-6550.182
 30
-2461.000
 70
    32
  0
VERTEX
  8
W78LXLIFT
 62
3
 10
2045.701
 20
-6551.934
 30
-2461.000
 70
    32
  0
VERTEX
  8
W78LXLIFT
 62
3
 10
2052.203
 20
-6550.992
 30
-2461.000
 70
    32
  0
VERTEX
  8
W78LXLIFT
 62
3
 10
2062.174
 20
-6551.551
 30
-2461.000
 70
    32
  0
VERTEX
  8
W78LXLIFT
 62
3
 10
2069.837
 20
-6552.968
 30
-2461.000
 70
    32
  0
VERTEX
  8
W78LXLIFT
 62
3
 10
2066.446
 20
-6562.318
 30
-2461.000
 70
    32
  0
VERTEX
  8
W78LXLIFT
 62
3
 10
2073.992
 20
-6567.277
 30
-2461.000
 70
    32
  0
VERTEX
  8
W78LXLIFT
 62
3
 10
2069.840
 20
-6573.715
 30
-2461.000
 70
    32
  0
VERTEX
  8
W78LXLIFT
 62
3
 10
2063.538
 20
-6583.825
 30
-2461.000
 70
    32
  0
VERTEX
  8
W78LXLIFT
 62
3
 10
2063.241
 20
-6585.634
 30
-2461.000
 70
    32
  0
VERTEX
  8
W78LXLIFT
 62
3
 10
2057.542
 20
-6595.843
 30
-2461.000
 70
    32
  0
VERTEX
  8
W78LXLIFT
 62
3
 10
2046.387
 20
-6594.006
 30
-2461.000
 70
    32
  0
VERTEX
  8
W78LXLIFT
 62
3
 10
2036.553
 20
-6578.452
 30
-2461.000
 70
    32
  0
VERTEX
  8
W78LXLIFT
 62
3
 10
2027.350
 20
-6574.149
 30
-2461.000
 70
    32
  0
VERTEX
  8
W78LXLIFT
 62
3
 10
2025.127
 20
-6568.828
 30
-2461.000
 70
    32
  0
VERTEX
  8
W78LXLIFT
 62
3
 10
2027.367
 20
-6560.836
 30
-2461.000
 70
    32
  0
VERTEX
  8
W78LXLIFT
 62
3
 10
2030.673
 20
-6557.665
 30
-2461.000
 70
    32
  0
SEQEND
  8
W78LXLIFT
  0
POLYLINE
  8
W78LXLIFT
 62
3
 66
     1
 70
     9
  0
VERTEX
  8
W78LXLIFT
 62
3
 10
2039.667
 20
-6549.082
 30
-2458.000
 70
    32
  0
VERTEX
  8
W78LXLIFT
 62
3
 10
2041.876
 20
-6548.827
 30
-2458.000
 70
    32
  0
VERTEX
  8
W78LXLIFT
 62
3
 10
2045.503
 20
-6553.140
 30
-2458.000
 70
    32
  0
VERTEX
  8
W78LXLIFT
 62
3
 10
2056.653
 20
-6553.119
 30
-2458.000
 70
    32
  0
VERTEX
  8
W78LXLIFT
 62
3
 10
2067.205
 20
-6554.857
 30
-2458.000
 70
    32
  0
VERTEX
  8
W78LXLIFT
 62
3
 10
2070.276
 20
-6567.284
 30
-2458.000
 70
    32
  0
VERTEX
  8
W78LXLIFT
 62
3
 10
2067.411
 20
-6576.257
 30
-2458.000
 70
    32
  0
VERTEX
  8
W78LXLIFT
 62
3
 10
2056.583
 20
-6594.137
 30
-2458.000
 70
    32
  0
VERTEX
  8
W78LXLIFT
 62
3
 10
2052.871
 20
-6596.003
 30
-2458.000
 70
    32
  0
VERTEX
  8
W78LXLIFT
 62
3
 10
2047.467
 20
-6594.029
 30
-2458.000
 70
    32
  0
VERTEX
  8
W78LXLIFT
 62
3
 10
2040.590
 20
-6585.929
 30
-2458.000
 70
    32
  0
VERTEX
  8
W78LXLIFT
 62
3
 10
2034.240
 20
-6577.451
 30
-2458.000
 70
    32
  0
VERTEX
  8
W78LXLIFT
 62
3
 10
2029.088
 20
-6575.829
 30
-2458.000
 70
    32
  0
VERTEX
  8
W78LXLIFT
 62
3
 10
2024.610
 20
-6572.924
 30
-2458.000
 70
    32
  0
VERTEX
  8
W78LXLIFT
 62
3
 10
2022.567
 20
-6569.336
 30
-2458.000
 70
    32
  0
VERTEX
  8
W78LXLIFT
 62
3
 10
2024.695
 20
-6566.744
 30
-2458.000
 70
    32
  0
VERTEX
  8
W78LXLIFT
 62
3
 10
2025.783
 20
-6560.111
 30
-2458.000
 70
    32
  0
SEQEND
  8
W78LXLIFT
  0
POLYLINE
  8
W78LXLIFT
 62
3
 66
     1
 70
     9
  0
VERTEX
  8
W78LXLIFT
 62
3
 10
2035.577
 20
-6550.421
 30
-2456.000
 70
    32
  0
VERTEX
  8
W78LXLIFT
 62
3
 10
2039.743
 20
-6549.559
 30
-2456.000
 70
    32
  0
VERTEX
  8
W78LXLIFT
 62
3
 10
2049.724
 20
-6553.835
 30
-2456.000
 70
    32
  0
VERTEX
  8
W78LXLIFT
 62
3
 10
2053.757
 20
-6559.454
 30
-2456.000
 70
    32
  0
VERTEX
  8
W78LXLIFT
 62
3
 10
2060.362
 20
-6559.768
 30
-2456.000
 70
    32
  0
VERTEX
  8
W78LXLIFT
 62
3
 10
2066.082
 20
-6567.368
 30
-2456.000
 70
    32
  0
VERTEX
  8
W78LXLIFT
 62
3
 10
2066.821
 20
-6571.360
 30
-2456.000
 70
    32
  0
VERTEX
  8
W78LXLIFT
 62
3
 10
2063.182
 20
-6582.218
 30
-2456.000
 70
    32
  0
VERTEX
  8
W78LXLIFT
 62
3
 10
2059.934
 20
-6588.805
 30
-2456.000
 70
    32
  0
VERTEX
  8
W78LXLIFT
 62
3
 10
2050.360
 20
-6596.209
 30
-2456.000
 70
    32
  0
VERTEX
  8
W78LXLIFT
 62
3
 10
2047.998
 20
-6595.510
 30
-2456.000
 70
    32
  0
VERTEX
  8
W78LXLIFT
 62
3
 10
2033.489
 20
-6578.257
 30
-2456.000
 70
    32
  0
VERTEX
  8
W78LXLIFT
 62
3
 10
2028.759
 20
-6575.000
 30
-2456.000
 70
    32
  0
VERTEX
  8
W78LXLIFT
 62
3
 10
2026.014
 20
-6571.916
 30
-2456.000
 70
    32
  0
VERTEX
  8
W78LXLIFT
 62
3
 10
2025.041
 20
-6564.634
 30
-2456.000
 70
    32
  0
VERTEX
  8
W78LXLIFT
 62
3
 10
2026.228
 20
-6557.397
 30
-2456.000
 70
    32
  0
SEQEND
  8
W78LXLIFT
  0
POLYLINE
  8
W78LXLIFT
 62
3
 66
     1
 70
     9
  0
VERTEX
  8
W78LXLIFT
 62
3
 10
2035.992
 20
-6550.722
 30
-2453.000
 70
    32
  0
VERTEX
  8
W78LXLIFT
 62
3
 10
2040.424
 20
-6550.601
 30
-2453.000
 70
    32
  0
VERTEX
  8
W78LXLIFT
 62
3
 10
2045.504
 20
-6553.605
 30
-2453.000
 70
    32
  0
VERTEX
  8
W78LXLIFT
 62
3
 10
2049.098
 20
-6554.352
 30
-2453.000
 70
    32
  0
VERTEX
  8
W78LXLIFT
 62
3
 10
2057.295
 20
-6563.366
 30
-2453.000
 70
    32
  0
VERTEX
  8
W78LXLIFT
 62
3
 10
2061.071
 20
-6566.774
 30
-2453.000
 70
    32
  0
VERTEX
  8
W78LXLIFT
 62
3
 10
2062.925
 20
-6570.099
 30
-2453.000
 70
    32
  0
VERTEX
  8
W78LXLIFT
 62
3
 10
2064.831
 20
-6574.052
 30
-2453.000
 70
    32
  0
VERTEX
  8
W78LXLIFT
 62
3
 10
2063.557
 20
-6581.351
 30
-2453.000
 70
    32
  0
VERTEX
  8
W78LXLIFT
 62
3
 10
2059.456
 20
-6588.417
 30
-2453.000
 70
    32
  0
VERTEX
  8
W78LXLIFT
 62
3
 10
2055.549
 20
-6592.418
 30
-2453.000
 70
    32
  0
VERTEX
  8
W78LXLIFT
 62
3
 10
2049.331
 20
-6596.349
 30
-2453.000
 70
    32
  0
VERTEX
  8
W78LXLIFT
 62
3
 10
2036.492
 20
-6584.015
 30
-2453.000
 70
    32
  0
VERTEX
  8
W78LXLIFT
 62
3
 10
2031.314
 20
-6577.357
 30
-2453.000
 70
    32
  0
VERTEX
  8
W78LXLIFT
 62
3
 10
2025.572
 20
-6570.837
 30
-2453.000
 70
    32
  0
VERTEX
  8
W78LXLIFT
 62
3
 10
2024.419
 20
-6567.009
 30
-2453.000
 70
    32
  0
VERTEX
  8
W78LXLIFT
 62
3
 10
2024.407
 20
-6562.362
 30
-2453.000
 70
    32
  0
VERTEX
  8
W78LXLIFT
 62
3
 10
2026.053
 20
-6557.988
 30
-2453.000
 70
    32
  0
SEQEND
  8
W78LXLIFT
  0
POLYLINE
  8
W78LXLIFT
 62
3
 66
     1
 70
     9
  0
VERTEX
  8
W78LXLIFT
 62
3
 10
2035.904
 20
-6550.785
 30
-2450.000
 70
    32
  0
VERTEX
  8
W78LXLIFT
 62
3
 10
2038.541
 20
-6550.755
 30
-2450.000
 70
    32
  0
VERTEX
  8
W78LXLIFT
 62
3
 10
2044.512
 20
-6553.519
 30
-2450.000
 70
    32
  0
VERTEX
  8
W78LXLIFT
 62
3
 10
2048.869
 20
-6558.107
 30
-2450.000
 70
    32
  0
VERTEX
  8
W78LXLIFT
 62
3
 10
2052.358
 20
-6557.598
 30
-2450.000
 70
    32
  0
VERTEX
  8
W78LXLIFT
 62
3
 10
2059.294
 20
-6569.114
 30
-2450.000
 70
    32
  0
VERTEX
  8
W78LXLIFT
 62
3
 10
2060.311
 20
-6569.049
 30
-2450.000
 70
    32
  0
VERTEX
  8
W78LXLIFT
 62
3
 10
2064.518
 20
-6574.542
 30
-2450.000
 70
    32
  0
VERTEX
  8
W78LXLIFT
 62
3
 10
2063.669
 20
-6581.137
 30
-2450.000
 70
    32
  0
VERTEX
  8
W78LXLIFT
 62
3
 10
2061.188
 20
-6583.051
 30
-2450.000
 70
    32
  0
VERTEX
  8
W78LXLIFT
 62
3
 10
2058.806
 20
-6589.549
 30
-2450.000
 70
    32
  0
VERTEX
  8
W78LXLIFT
 62
3
 10
2053.945
 20
-6593.702
 30
-2450.000
 70
    32
  0
VERTEX
  8
W78LXLIFT
 62
3
 10
2049.808
 20
-6596.273
 30
-2450.000
 70
    32
  0
VERTEX
  8
W78LXLIFT
 62
3
 10
2047.536
 20
-6596.440
 30
-2450.000
 70
    32
  0
VERTEX
  8
W78LXLIFT
 62
3
 10
2034.681
 20
-6582.788
 30
-2450.000
 70
    32
  0
VERTEX
  8
W78LXLIFT
 62
3
 10
2024.539
 20
-6569.583
 30
-2450.000
 70
    32
  0
VERTEX
  8
W78LXLIFT
 62
3
 10
2024.210
 20
-6568.755
 30
-2450.000
 70
    32
  0
VERTEX
  8
W78LXLIFT
 62
3
 10
2024.940
 20
-6559.585
 30
-2450.000
 70
    32
  0
SEQEND
  8
W78LXLIFT
  0
POLYLINE
  8
W78LXLIFT
 62
3
 66
     1
 70
     9
  0
VERTEX
  8
W78LXLIFT
 62
3
 10
2024.764
 20
-6559.711
 30
-2447.000
 70
    32
  0
VERTEX
  8
W78LXLIFT
 62
3
 10
2029.675
 20
-6555.256
 30
-2447.000
 70
    32
  0
VERTEX
  8
W78LXLIFT
 62
3
 10
2035.981
 20
-6551.262
 30
-2447.000
 70
    32
  0
VERTEX
  8
W78LXLIFT
 62
3
 10
2037.751
 20
-6551.322
 30
-2447.000
 70
    32
  0
VERTEX
  8
W78LXLIFT
 62
3
 10
2045.800
 20
-6556.053
 30
-2447.000
 70
    32
  0
VERTEX
  8
W78LXLIFT
 62
3
 10
2051.698
 20
-6564.457
 30
-2447.000
 70
    32
  0
VERTEX
  8
W78LXLIFT
 62
3
 10
2054.728
 20
-6561.085
 30
-2447.000
 70
    32
  0
VERTEX
  8
W78LXLIFT
 62
3
 10
2055.349
 20
-6563.432
 30
-2447.000
 70
    32
  0
VERTEX
  8
W78LXLIFT
 62
3
 10
2059.951
 20
-6570.770
 30
-2447.000
 70
    32
  0
VERTEX
  8
W78LXLIFT
 62
3
 10
2064.343
 20
-6574.668
 30
-2447.000
 70
    32
  0
VERTEX
  8
W78LXLIFT
 62
3
 10
2064.334
 20
-6576.137
 30
-2447.000
 70
    32
  0
VERTEX
  8
W78LXLIFT
 62
3
 10
2062.843
 20
-6577.208
 30
-2447.000
 70
    32
  0
VERTEX
  8
W78LXLIFT
 62
3
 10
2063.091
 20
-6580.887
 30
-2447.000
 70
    32
  0
VERTEX
  8
W78LXLIFT
 62
3
 10
2059.305
 20
-6588.392
 30
-2447.000
 70
    32
  0
VERTEX
  8
W78LXLIFT
 62
3
 10
2054.120
 20
-6593.577
 30
-2447.000
 70
    32
  0
VERTEX
  8
W78LXLIFT
 62
3
 10
2047.198
 20
-6597.081
 30
-2447.000
 70
    32
  0
VERTEX
  8
W78LXLIFT
 62
3
 10
2038.159
 20
-6588.006
 30
-2447.000
 70
    32
  0
VERTEX
  8
W78LXLIFT
 62
3
 10
2036.080
 20
-6585.109
 30
-2447.000
 70
    32
  0
VERTEX
  8
W78LXLIFT
 62
3
 10
2034.892
 20
-6581.971
 30
-2447.000
 70
    32
  0
VERTEX
  8
W78LXLIFT
 62
3
 10
2030.758
 20
-6576.026
 30
-2447.000
 70
    32
  0
VERTEX
  8
W78LXLIFT
 62
3
 10
2027.486
 20
-6573.320
 30
-2447.000
 70
    32
  0
VERTEX
  8
W78LXLIFT
 62
3
 10
2024.212
 20
-6569.684
 30
-2447.000
 70
    32
  0
SEQEND
  8
W78LXLIFT
  0
POLYLINE
  8
W78LXLIFT
 62
3
 66
     1
 70
     9
  0
VERTEX
  8
W78LXLIFT
 62
3
 10
2023.802
 20
-6561.333
 30
-2444.000
 70
    32
  0
VERTEX
  8
W78LXLIFT
 62
3
 10
2029.201
 20
-6556.261
 30
-2444.000
 70
    32
  0
VERTEX
  8
W78LXLIFT
 62
3
 10
2036.726
 20
-6552.856
 30
-2444.000
 70
    32
  0
VERTEX
  8
W78LXLIFT
 62
3
 10
2043.550
 20
-6555.141
 30
-2444.000
 70
    32
  0
VERTEX
  8
W78LXLIFT
 62
3
 10
2048.039
 20
-6562.693
 30
-2444.000
 70
    32
  0
VERTEX
  8
W78LXLIFT
 62
3
 10
2054.272
 20
-6569.526
 30
-2444.000
 70
    32
  0
VERTEX
  8
W78LXLIFT
 62
3
 10
2057.543
 20
-6567.045
 30
-2444.000
 70
    32
  0
VERTEX
  8
W78LXLIFT
 62
3
 10
2059.471
 20
-6569.917
 30
-2444.000
 70
    32
  0
VERTEX
  8
W78LXLIFT
 62
3
 10
2061.232
 20
-6575.704
 30
-2444.000
 70
    32
  0
VERTEX
  8
W78LXLIFT
 62
3
 10
2061.295
 20
-6580.978
 30
-2444.000
 70
    32
  0
VERTEX
  8
W78LXLIFT
 62
3
 10
2057.926
 20
-6589.249
 30
-2444.000
 70
    32
  0
VERTEX
  8
W78LXLIFT
 62
3
 10
2052.361
 20
-6592.977
 30
-2444.000
 70
    32
  0
VERTEX
  8
W78LXLIFT
 62
3
 10
2048.721
 20
-6593.461
 30
-2444.000
 70
    32
  0
VERTEX
  8
W78LXLIFT
 62
3
 10
2043.895
 20
-6591.738
 30
-2444.000
 70
    32
  0
VERTEX
  8
W78LXLIFT
 62
3
 10
2037.718
 20
-6587.391
 30
-2444.000
 70
    32
  0
VERTEX
  8
W78LXLIFT
 62
3
 10
2034.766
 20
-6581.796
 30
-2444.000
 70
    32
  0
VERTEX
  8
W78LXLIFT
 62
3
 10
2030.229
 20
-6575.475
 30
-2444.000
 70
    32
  0
VERTEX
  8
W78LXLIFT
 62
3
 10
2027.259
 20
-6572.818
 30
-2444.000
 70
    32
  0
VERTEX
  8
W78LXLIFT
 62
3
 10
2024.619
 20
-6566.732
 30
-2444.000
 70
    32
  0
SEQEND
  8
W78LXLIFT
  0
POLYLINE
  8
W78LXLIFT
 62
3
 66
     1
 70
     9
  0
VERTEX
  8
W78LXLIFT
 62
3
 10
2031.698
 20
-6555.666
 30
-2441.000
 70
    32
  0
VERTEX
  8
W78LXLIFT
 62
3
 10
2038.742
 20
-6555.665
 30
-2441.000
 70
    32
  0
VERTEX
  8
W78LXLIFT
 62
3
 10
2043.897
 20
-6558.217
 30
-2441.000
 70
    32
  0
VERTEX
  8
W78LXLIFT
 62
3
 10
2044.244
 20
-6561.294
 30
-2441.000
 70
    32
  0
VERTEX
  8
W78LXLIFT
 62
3
 10
2048.049
 20
-6566.410
 30
-2441.000
 70
    32
  0
VERTEX
  8
W78LXLIFT
 62
3
 10
2053.611
 20
-6571.197
 30
-2441.000
 70
    32
  0
VERTEX
  8
W78LXLIFT
 62
3
 10
2055.213
 20
-6574.171
 30
-2441.000
 70
    32
  0
VERTEX
  8
W78LXLIFT
 62
3
 10
2057.398
 20
-6574.066
 30
-2441.000
 70
    32
  0
VERTEX
  8
W78LXLIFT
 62
3
 10
2057.601
 20
-6579.905
 30
-2441.000
 70
    32
  0
VERTEX
  8
W78LXLIFT
 62
3
 10
2056.799
 20
-6585.270
 30
-2441.000
 70
    32
  0
VERTEX
  8
W78LXLIFT
 62
3
 10
2052.793
 20
-6589.874
 30
-2441.000
 70
    32
  0
VERTEX
  8
W78LXLIFT
 62
3
 10
2048.374
 20
-6590.385
 30
-2441.000
 70
    32
  0
VERTEX
  8
W78LXLIFT
 62
3
 10
2044.668
 20
-6589.852
 30
-2441.000
 70
    32
  0
VERTEX
  8
W78LXLIFT
 62
3
 10
2038.454
 20
-6585.268
 30
-2441.000
 70
    32
  0
VERTEX
  8
W78LXLIFT
 62
3
 10
2032.120
 20
-6578.108
 30
-2441.000
 70
    32
  0
VERTEX
  8
W78LXLIFT
 62
3
 10
2029.219
 20
-6573.141
 30
-2441.000
 70
    32
  0
VERTEX
  8
W78LXLIFT
 62
3
 10
2027.864
 20
-6568.660
 30
-2441.000
 70
    32
  0
VERTEX
  8
W78LXLIFT
 62
3
 10
2026.920
 20
-6563.085
 30
-2441.000
 70
    32
  0
VERTEX
  8
W78LXLIFT
 62
3
 10
2028.092
 20
-6559.717
 30
-2441.000
 70
    32
  0
SEQEND
  8
W78LXLIFT
  0
POLYLINE
  8
W78LXLIFT
 62
3
 66
     1
 70
     9
  0
VERTEX
  8
W78LXLIFT
 62
3
 10
2032.344
 20
-6557.863
 30
-2438.000
 70
    32
  0
VERTEX
  8
W78LXLIFT
 62
3
 10
2038.121
 20
-6558.505
 30
-2438.000
 70
    32
  0
VERTEX
  8
W78LXLIFT
 62
3
 10
2047.549
 20
-6567.567
 30
-2438.000
 70
    32
  0
VERTEX
  8
W78LXLIFT
 62
3
 10
2053.229
 20
-6573.999
 30
-2438.000
 70
    32
  0
VERTEX
  8
W78LXLIFT
 62
3
 10
2054.758
 20
-6582.611
 30
-2438.000
 70
    32
  0
VERTEX
  8
W78LXLIFT
 62
3
 10
2051.402
 20
-6586.084
 30
-2438.000
 70
    32
  0
VERTEX
  8
W78LXLIFT
 62
3
 10
2049.057
 20
-6587.633
 30
-2438.000
 70
    32
  0
VERTEX
  8
W78LXLIFT
 62
3
 10
2044.371
 20
-6586.474
 30
-2438.000
 70
    32
  0
VERTEX
  8
W78LXLIFT
 62
3
 10
2037.981
 20
-6582.016
 30
-2438.000
 70
    32
  0
VERTEX
  8
W78LXLIFT
 62
3
 10
2031.395
 20
-6574.505
 30
-2438.000
 70
    32
  0
VERTEX
  8
W78LXLIFT
 62
3
 10
2029.580
 20
-6567.162
 30
-2438.000
 70
    32
  0
SEQEND
  8
W78LXLIFT
  0
POLYLINE
  8
W78LXLIFT
 62
3
 66
     1
 70
     9
  0
VERTEX
  8
W78LXLIFT
 62
3
 10
2032.579
 20
-6561.385
 30
-2436.000
 70
    32
  0
VERTEX
  8
W78LXLIFT
 62
3
 10
2034.502
 20
-6559.805
 30
-2436.000
 70
    32
  0
VERTEX
  8
W78LXLIFT
 62
3
 10
2036.517
 20
-6559.556
 30
-2436.000
 70
    32
  0
VERTEX
  8
W78LXLIFT
 62
3
 10
2037.547
 20
-6559.881
 30
-2436.000
 70
    32
  0
VERTEX
  8
W78LXLIFT
 62
3
 10
2039.680
 20
-6561.742
 30
-2436.000
 70
    32
  0
VERTEX
  8
W78LXLIFT
 62
3
 10
2044.177
 20
-6567.360
 30
-2436.000
 70
    32
  0
VERTEX
  8
W78LXLIFT
 62
3
 10
2045.585
 20
-6567.746
 30
-2436.000
 70
    32
  0
VERTEX
  8
W78LXLIFT
 62
3
 10
2046.485
 20
-6568.630
 30
-2436.000
 70
    32
  0
VERTEX
  8
W78LXLIFT
 62
3
 10
2048.916
 20
-6571.740
 30
-2436.000
 70
    32
  0
VERTEX
  8
W78LXLIFT
 62
3
 10
2049.429
 20
-6573.566
 30
-2436.000
 70
    32
  0
VERTEX
  8
W78LXLIFT
 62
3
 10
2051.383
 20
-6578.881
 30
-2436.000
 70
    32
  0
VERTEX
  8
W78LXLIFT
 62
3
 10
2051.715
 20
-6581.104
 30
-2436.000
 70
    32
  0
VERTEX
  8
W78LXLIFT
 62
3
 10
2049.709
 20
-6582.012
 30
-2436.000
 70
    32
  0
VERTEX
  8
W78LXLIFT
 62
3
 10
2047.682
 20
-6582.336
 30
-2436.000
 70
    32
  0
VERTEX
  8
W78LXLIFT
 62
3
 10
2046.312
 20
-6584.317
 30
-2436.000
 70
    32
  0
VERTEX
  8
W78LXLIFT
 62
3
 10
2042.414
 20
-6582.126
 30
-2436.000
 70
    32
  0
VERTEX
  8
W78LXLIFT
 62
3
 10
2040.204
 20
-6579.788
 30
-2436.000
 70
    32
  0
VERTEX
  8
W78LXLIFT
 62
3
 10
2040.050
 20
-6578.369
 30
-2436.000
 70
    32
  0
VERTEX
  8
W78LXLIFT
 62
3
 10
2039.477
 20
-6577.849
 30
-2436.000
 70
    32
  0
VERTEX
  8
W78LXLIFT
 62
3
 10
2038.993
 20
-6577.731
 30
-2436.000
 70
    32
  0
VERTEX
  8
W78LXLIFT
 62
3
 10
2038.499
 20
-6578.617
 30
-2436.000
 70
    32
  0
VERTEX
  8
W78LXLIFT
 62
3
 10
2037.048
 20
-6578.262
 30
-2436.000
 70
    32
  0
VERTEX
  8
W78LXLIFT
 62
3
 10
2035.304
 20
-6576.388
 30
-2436.000
 70
    32
  0
VERTEX
  8
W78LXLIFT
 62
3
 10
2032.334
 20
-6571.138
 30
-2436.000
 70
    32
  0
VERTEX
  8
W78LXLIFT
 62
3
 10
2032.952
 20
-6569.962
 30
-2436.000
 70
    32
  0
VERTEX
  8
W78LXLIFT
 62
3
 10
2032.500
 20
-6567.294
 30
-2436.000
 70
    32
  0
VERTEX
  8
W78LXLIFT
 62
3
 10
2032.791
 20
-6565.755
 30
-2436.000
 70
    32
  0
VERTEX
  8
W78LXLIFT
 62
3
 10
2032.821
 20
-6562.741
 30
-2436.000
 70
    32
  0
SEQEND
  8
W78LXLIFT
  0
POLYLINE
  8
W78LXLIFT
 62
3
 66
     1
 70
     9
  0
VERTEX
  8
W78LXLIFT
 62
3
 10
2039.211
 20
-6562.478
 30
-2433.000
 70
    32
  0
VERTEX
  8
W78LXLIFT
 62
3
 10
2041.181
 20
-6564.389
 30
-2433.000
 70
    32
  0
VERTEX
  8
W78LXLIFT
 62
3
 10
2042.659
 20
-6567.652
 30
-2433.000
 70
    32
  0
VERTEX
  8
W78LXLIFT
 62
3
 10
2044.806
 20
-6569.902
 30
-2433.000
 70
    32
  0
VERTEX
  8
W78LXLIFT
 62
3
 10
2047.134
 20
-6574.349
 30
-2433.000
 70
    32
  0
VERTEX
  8
W78LXLIFT
 62
3
 10
2040.453
 20
-6576.617
 30
-2433.000
 70
    32
  0
VERTEX
  8
W78LXLIFT
 62
3
 10
2039.863
 20
-6576.442
 30
-2433.000
 70
    32
  0
VERTEX
  8
W78LXLIFT
 62
3
 10
2039.664
 20
-6575.055
 30
-2433.000
 70
    32
  0
VERTEX
  8
W78LXLIFT
 62
3
 10
2036.855
 20
-6574.011
 30
-2433.000
 70
    32
  0
VERTEX
  8
W78LXLIFT
 62
3
 10
2036.257
 20
-6573.177
 30
-2433.000
 70
    32
  0
VERTEX
  8
W78LXLIFT
 62
3
 10
2034.007
 20
-6572.265
 30
-2433.000
 70
    32
  0
VERTEX
  8
W78LXLIFT
 62
3
 10
2033.796
 20
-6570.953
 30
-2433.000
 70
    32
  0
VERTEX
  8
W78LXLIFT
 62
3
 10
2034.184
 20
-6570.475
 30
-2433.000
 70
    32
  0
VERTEX
  8
W78LXLIFT
 62
3
 10
2035.126
 20
-6570.398
 30
-2433.000
 70
    32
  0
VERTEX
  8
W78LXLIFT
 62
3
 10
2035.374
 20
-6566.761
 30
-2433.000
 70
    32
  0
VERTEX
  8
W78LXLIFT
 62
3
 10
2035.202
 20
-6565.688
 30
-2433.000
 70
    32
  0
VERTEX
  8
W78LXLIFT
 62
3
 10
2036.096
 20
-6564.248
 30
-2433.000
 70
    32
  0
VERTEX
  8
W78LXLIFT
 62
3
 10
2037.068
 20
-6563.750
 30
-2433.000
 70
    32
  0
VERTEX
  8
W78LXLIFT
 62
3
 10
2037.467
 20
-6562.732
 30
-2433.000
 70
    32
  0
VERTEX
  8
W78LXLIFT
 62
3
 10
2038.401
 20
-6562.460
 30
-2433.000
 70
    32
  0
SEQEND
  8
W78LXLIFT
  0
POLYLINE
  8
W78LXLIFT
 62
3
 66
     1
 70
     9
  0
VERTEX
  8
W78LXLIFT
 62
3
 10
2030.647
 20
-6575.158
 30
-2429.500
 70
    32
  0
VERTEX
  8
W78LXLIFT
 62
3
 10
2030.688
 20
-6573.775
 30
-2429.500
 70
    32
  0
VERTEX
  8
W78LXLIFT
 62
3
 10
2031.816
 20
-6571.134
 30
-2429.500
 70
    32
  0
VERTEX
  8
W78LXLIFT
 62
3
 10
2031.756
 20
-6568.390
 30
-2429.500
 70
    32
  0
VERTEX
  8
W78LXLIFT
 62
3
 10
2032.544
 20
-6567.824
 30
-2429.500
 70
    32
  0
VERTEX
  8
W78LXLIFT
 62
3
 10
2032.622
 20
-6565.937
 30
-2429.500
 70
    32
  0
VERTEX
  8
W78LXLIFT
 62
3
 10
2033.813
 20
-6564.604
 30
-2429.500
 70
    32
  0
VERTEX
  8
W78LXLIFT
 62
3
 10
2034.827
 20
-6564.354
 30
-2429.500
 70
    32
  0
VERTEX
  8
W78LXLIFT
 62
3
 10
2035.091
 20
-6564.722
 30
-2429.500
 70
    32
  0
VERTEX
  8
W78LXLIFT
 62
3
 10
2035.054
 20
-6567.774
 30
-2429.500
 70
    32
  0
VERTEX
  8
W78LXLIFT
 62
3
 10
2036.522
 20
-6568.711
 30
-2429.500
 70
    32
  0
VERTEX
  8
W78LXLIFT
 62
3
 10
2037.042
 20
-6569.214
 30
-2429.500
 70
    32
  0
VERTEX
  8
W78LXLIFT
 62
3
 10
2038.470
 20
-6568.985
 30
-2429.500
 70
    32
  0
VERTEX
  8
W78LXLIFT
 62
3
 10
2039.059
 20
-6569.917
 30
-2429.500
 70
    32
  0
VERTEX
  8
W78LXLIFT
 62
3
 10
2037.335
 20
-6571.950
 30
-2429.500
 70
    32
  0
VERTEX
  8
W78LXLIFT
 62
3
 10
2037.314
 20
-6572.363
 30
-2429.500
 70
    32
  0
VERTEX
  8
W78LXLIFT
 62
3
 10
2036.587
 20
-6573.124
 30
-2429.500
 70
    32
  0
VERTEX
  8
W78LXLIFT
 62
3
 10
2035.683
 20
-6572.419
 30
-2429.500
 70
    32
  0
VERTEX
  8
W78LXLIFT
 62
3
 10
2033.965
 20
-6573.573
 30
-2429.500
 70
    32
  0
VERTEX
  8
W78LXLIFT
 62
3
 10
2032.661
 20
-6575.305
 30
-2429.500
 70
    32
  0
VERTEX
  8
W78LXLIFT
 62
3
 10
2031.705
 20
-6574.638
 30
-2429.500
 70
    32
  0
SEQEND
  8
W78LXLIFT
  0
POLYLINE
  8
W78LXLIFT
 62
3
 66
     1
 70
     9
  0
VERTEX
  8
W78LXLIFT
 62
3
 10
2008.144
 20
-6555.122
 30
-2435.500
 70
    32
  0
VERTEX
  8
W78LXLIFT
 62
3
 10
2004.805
 20
-6554.415
 30
-2435.500
 70
    32
  0
VERTEX
  8
W78LXLIFT
 62
3
 10
1997.401
 20
-6557.436
 30
-2435.500
 70
    32
  0
VERTEX
  8
W78LXLIFT
 62
3
 10
1996.262
 20
-6555.286
 30
-2435.500
 70
    32
  0
VERTEX
  8
W78LXLIFT
 62
3
 10
1993.266
 20
-6553.929
 30
-2435.500
 70
    32
  0
VERTEX
  8
W78LXLIFT
 62
3
 10
1988.988
 20
-6554.167
 30
-2435.500
 70
    32
  0
VERTEX
  8
W78LXLIFT
 62
3
 10
1985.429
 20
-6556.721
 30
-2435.500
 70
    32
  0
VERTEX
  8
W78LXLIFT
 62
3
 10
1982.942
 20
-6560.395
 30
-2435.500
 70
    32
  0
VERTEX
  8
W78LXLIFT
 62
3
 10
1981.451
 20
-6564.703
 30
-2435.500
 70
    32
  0
VERTEX
  8
W78LXLIFT
 62
3
 10
1983.382
 20
-6567.769
 30
-2435.500
 70
    32
  0
VERTEX
  8
W78LXLIFT
 62
3
 10
1987.070
 20
-6570.653
 30
-2435.500
 70
    32
  0
VERTEX
  8
W78LXLIFT
 62
3
 10
1995.220
 20
-6570.739
 30
-2435.500
 70
    32
  0
VERTEX
  8
W78LXLIFT
 62
3
 10
1998.284
 20
-6568.809
 30
-2435.500
 70
    32
  0
VERTEX
  8
W78LXLIFT
 62
3
 10
1998.841
 20
-6567.330
 30
-2435.500
 70
    32
  0
VERTEX
  8
W78LXLIFT
 62
3
 10
1999.978
 20
-6568.538
 30
-2435.500
 70
    32
  0
VERTEX
  8
W78LXLIFT
 62
3
 10
2000.455
 20
-6570.894
 30
-2435.500
 70
    32
  0
VERTEX
  8
W78LXLIFT
 62
3
 10
2006.529
 20
-6570.716
 30
-2435.500
 70
    32
  0
VERTEX
  8
W78LXLIFT
 62
3
 10
2006.881
 20
-6573.836
 30
-2435.500
 70
    32
  0
VERTEX
  8
W78LXLIFT
 62
3
 10
1998.852
 20
-6576.361
 30
-2435.500
 70
    32
  0
VERTEX
  8
W78LXLIFT
 62
3
 10
1995.607
 20
-6577.476
 30
-2435.500
 70
    32
  0
VERTEX
  8
W78LXLIFT
 62
3
 10
1988.167
 20
-6581.198
 30
-2435.500
 70
    32
  0
VERTEX
  8
W78LXLIFT
 62
3
 10
1988.742
 20
-6581.999
 30
-2435.500
 70
    32
  0
VERTEX
  8
W78LXLIFT
 62
3
 10
1992.362
 20
-6582.909
 30
-2435.500
 70
    32
  0
VERTEX
  8
W78LXLIFT
 62
3
 10
1993.818
 20
-6584.562
 30
-2435.500
 70
    32
  0
VERTEX
  8
W78LXLIFT
 62
3
 10
1993.414
 20
-6586.066
 30
-2435.500
 70
    32
  0
VERTEX
  8
W78LXLIFT
 62
3
 10
1990.576
 20
-6586.619
 30
-2435.500
 70
    32
  0
VERTEX
  8
W78LXLIFT
 62
3
 10
1992.820
 20
-6592.563
 30
-2435.500
 70
    32
  0
VERTEX
  8
W78LXLIFT
 62
3
 10
1991.710
 20
-6596.463
 30
-2435.500
 70
    32
  0
VERTEX
  8
W78LXLIFT
 62
3
 10
1992.856
 20
-6601.441
 30
-2435.500
 70
    32
  0
VERTEX
  8
W78LXLIFT
 62
3
 10
1995.762
 20
-6607.180
 30
-2435.500
 70
    32
  0
VERTEX
  8
W78LXLIFT
 62
3
 10
1997.982
 20
-6608.959
 30
-2435.500
 70
    32
  0
VERTEX
  8
W78LXLIFT
 62
3
 10
2004.468
 20
-6610.105
 30
-2435.500
 70
    32
  0
VERTEX
  8
W78LXLIFT
 62
3
 10
2010.558
 20
-6611.265
 30
-2435.500
 70
    32
  0
VERTEX
  8
W78LXLIFT
 62
3
 10
2023.839
 20
-6596.335
 30
-2435.500
 70
    32
  0
VERTEX
  8
W78LXLIFT
 62
3
 10
2024.991
 20
-6593.620
 30
-2435.500
 70
    32
  0
VERTEX
  8
W78LXLIFT
 62
3
 10
2024.519
 20
-6593.150
 30
-2435.500
 70
    32
  0
VERTEX
  8
W78LXLIFT
 62
3
 10
2020.930
 20
-6593.972
 30
-2435.500
 70
    32
  0
VERTEX
  8
W78LXLIFT
 62
3
 10
2019.729
 20
-6592.675
 30
-2435.500
 70
    32
  0
VERTEX
  8
W78LXLIFT
 62
3
 10
2021.431
 20
-6590.914
 30
-2435.500
 70
    32
  0
VERTEX
  8
W78LXLIFT
 62
3
 10
2023.999
 20
-6584.349
 30
-2435.500
 70
    32
  0
VERTEX
  8
W78LXLIFT
 62
3
 10
2031.074
 20
-6582.373
 30
-2435.500
 70
    32
  0
VERTEX
  8
W78LXLIFT
 62
3
 10
2032.409
 20
-6581.415
 30
-2435.500
 70
    32
  0
VERTEX
  8
W78LXLIFT
 62
3
 10
2034.434
 20
-6576.724
 30
-2435.500
 70
    32
  0
VERTEX
  8
W78LXLIFT
 62
3
 10
2028.733
 20
-6568.405
 30
-2435.500
 70
    32
  0
VERTEX
  8
W78LXLIFT
 62
3
 10
2024.469
 20
-6564.719
 30
-2435.500
 70
    32
  0
VERTEX
  8
W78LXLIFT
 62
3
 10
2022.982
 20
-6565.652
 30
-2435.500
 70
    32
  0
VERTEX
  8
W78LXLIFT
 62
3
 10
2023.003
 20
-6568.875
 30
-2435.500
 70
    32
  0
VERTEX
  8
W78LXLIFT
 62
3
 10
2019.967
 20
-6571.594
 30
-2435.500
 70
    32
  0
VERTEX
  8
W78LXLIFT
 62
3
 10
2016.938
 20
-6567.562
 30
-2435.500
 70
    32
  0
VERTEX
  8
W78LXLIFT
 62
3
 10
2014.440
 20
-6562.204
 30
-2435.500
 70
    32
  0
VERTEX
  8
W78LXLIFT
 62
3
 10
2013.176
 20
-6560.818
 30
-2435.500
 70
    32
  0
SEQEND
  8
W78LXLIFT
  0
POLYLINE
  8
W78LXLIFT
 62
3
 66
     1
 70
     9
  0
VERTEX
  8
W78LXLIFT
 62
3
 10
1987.627
 20
-6554.806
 30
-2453.500
 70
    32
  0
VERTEX
  8
W78LXLIFT
 62
3
 10
1969.666
 20
-6562.841
 30
-2453.500
 70
    32
  0
VERTEX
  8
W78LXLIFT
 62
3
 10
1969.485
 20
-6571.605
 30
-2453.500
 70
    32
  0
VERTEX
  8
W78LXLIFT
 62
3
 10
1972.413
 20
-6580.567
 30
-2453.500
 70
    32
  0
VERTEX
  8
W78LXLIFT
 62
3
 10
1983.109
 20
-6599.601
 30
-2453.500
 70
    32
  0
VERTEX
  8
W78LXLIFT
 62
3
 10
1986.144
 20
-6601.200
 30
-2453.500
 70
    32
  0
VERTEX
  8
W78LXLIFT
 62
3
 10
1994.723
 20
-6618.786
 30
-2453.500
 70
    32
  0
VERTEX
  8
W78LXLIFT
 62
3
 10
1999.214
 20
-6622.038
 30
-2453.500
 70
    32
  0
VERTEX
  8
W78LXLIFT
 62
3
 10
2015.896
 20
-6612.222
 30
-2453.500
 70
    32
  0
VERTEX
  8
W78LXLIFT
 62
3
 10
2020.022
 20
-6611.959
 30
-2453.500
 70
    32
  0
VERTEX
  8
W78LXLIFT
 62
3
 10
2024.854
 20
-6609.300
 30
-2453.500
 70
    32
  0
VERTEX
  8
W78LXLIFT
 62
3
 10
2029.877
 20
-6601.648
 30
-2453.500
 70
    32
  0
VERTEX
  8
W78LXLIFT
 62
3
 10
2027.722
 20
-6595.640
 30
-2453.500
 70
    32
  0
VERTEX
  8
W78LXLIFT
 62
3
 10
2021.010
 20
-6581.030
 30
-2453.500
 70
    32
  0
VERTEX
  8
W78LXLIFT
 62
3
 10
2016.153
 20
-6574.263
 30
-2453.500
 70
    32
  0
VERTEX
  8
W78LXLIFT
 62
3
 10
2011.797
 20
-6564.439
 30
-2453.500
 70
    32
  0
VERTEX
  8
W78LXLIFT
 62
3
 10
2005.479
 20
-6554.134
 30
-2453.500
 70
    32
  0
VERTEX
  8
W78LXLIFT
 62
3
 10
2000.783
 20
-6550.220
 30
-2453.500
 70
    32
  0
SEQEND
  8
W78LXLIFT
  0
POLYLINE
  8
W78LXLIFT
 62
3
 66
     1
 70
     9
  0
VERTEX
  8
W78LXLIFT
 62
3
 10
1992.131
 20
-6553.192
 30
-2456.500
 70
    32
  0
VERTEX
  8
W78LXLIFT
 62
3
 10
1973.659
 20
-6560.515
 30
-2456.500
 70
    32
  0
VERTEX
  8
W78LXLIFT
 62
3
 10
1969.932
 20
-6566.968
 30
-2456.500
 70
    32
  0
VERTEX
  8
W78LXLIFT
 62
3
 10
1976.631
 20
-6586.443
 30
-2456.500
 70
    32
  0
VERTEX
  8
W78LXLIFT
 62
3
 10
1981.698
 20
-6595.757
 30
-2456.500
 70
    32
  0
VERTEX
  8
W78LXLIFT
 62
3
 10
1990.891
 20
-6604.808
 30
-2456.500
 70
    32
  0
VERTEX
  8
W78LXLIFT
 62
3
 10
1996.091
 20
-6616.185
 30
-2456.500
 70
    32
  0
VERTEX
  8
W78LXLIFT
 62
3
 10
2000.610
 20
-6620.227
 30
-2456.500
 70
    32
  0
VERTEX
  8
W78LXLIFT
 62
3
 10
2008.929
 20
-6616.414
 30
-2456.500
 70
    32
  0
VERTEX
  8
W78LXLIFT
 62
3
 10
2013.555
 20
-6613.093
 30
-2456.500
 70
    32
  0
VERTEX
  8
W78LXLIFT
 62
3
 10
2019.616
 20
-6612.521
 30
-2456.500
 70
    32
  0
VERTEX
  8
W78LXLIFT
 62
3
 10
2023.175
 20
-6609.966
 30
-2456.500
 70
    32
  0
VERTEX
  8
W78LXLIFT
 62
3
 10
2025.579
 20
-6603.924
 30
-2456.500
 70
    32
  0
VERTEX
  8
W78LXLIFT
 62
3
 10
2021.677
 20
-6582.710
 30
-2456.500
 70
    32
  0
VERTEX
  8
W78LXLIFT
 62
3
 10
2015.153
 20
-6571.743
 30
-2456.500
 70
    32
  0
VERTEX
  8
W78LXLIFT
 62
3
 10
2012.409
 20
-6564.539
 30
-2456.500
 70
    32
  0
VERTEX
  8
W78LXLIFT
 62
3
 10
2002.667
 20
-6550.216
 30
-2456.500
 70
    32
  0
SEQEND
  8
W78LXLIFT
  0
POLYLINE
  8
W78LXLIFT
 62
3
 66
     1
 70
     9
  0
VERTEX
  8
W78LXLIFT
 62
3
 10
1995.690
 20
-6550.638
 30
-2450.500
 70
    32
  0
VERTEX
  8
W78LXLIFT
 62
3
 10
1975.027
 20
-6557.914
 30
-2450.500
 70
    32
  0
VERTEX
  8
W78LXLIFT
 62
3
 10
1970.967
 20
-6563.526
 30
-2450.500
 70
    32
  0
VERTEX
  8
W78LXLIFT
 62
3
 10
1969.445
 20
-6575.681
 30
-2450.500
 70
    32
  0
VERTEX
  8
W78LXLIFT
 62
3
 10
1971.761
 20
-6584.542
 30
-2450.500
 70
    32
  0
VERTEX
  8
W78LXLIFT
 62
3
 10
1985.159
 20
-6604.335
 30
-2450.500
 70
    32
  0
VERTEX
  8
W78LXLIFT
 62
3
 10
1989.116
 20
-6607.970
 30
-2450.500
 70
    32
  0
VERTEX
  8
W78LXLIFT
 62
3
 10
1994.299
 20
-6622.328
 30
-2450.500
 70
    32
  0
VERTEX
  8
W78LXLIFT
 62
3
 10
1997.079
 20
-6623.571
 30
-2450.500
 70
    32
  0
VERTEX
  8
W78LXLIFT
 62
3
 10
2007.510
 20
-6619.321
 30
-2450.500
 70
    32
  0
VERTEX
  8
W78LXLIFT
 62
3
 10
2018.037
 20
-6612.575
 30
-2450.500
 70
    32
  0
VERTEX
  8
W78LXLIFT
 62
3
 10
2024.654
 20
-6610.524
 30
-2450.500
 70
    32
  0
VERTEX
  8
W78LXLIFT
 62
3
 10
2026.884
 20
-6606.494
 30
-2450.500
 70
    32
  0
VERTEX
  8
W78LXLIFT
 62
3
 10
2030.373
 20
-6596.704
 30
-2450.500
 70
    32
  0
VERTEX
  8
W78LXLIFT
 62
3
 10
2029.441
 20
-6590.898
 30
-2450.500
 70
    32
  0
VERTEX
  8
W78LXLIFT
 62
3
 10
2017.148
 20
-6574.898
 30
-2450.500
 70
    32
  0
VERTEX
  8
W78LXLIFT
 62
3
 10
2013.098
 20
-6565.124
 30
-2450.500
 70
    32
  0
VERTEX
  8
W78LXLIFT
 62
3
 10
2004.274
 20
-6550.952
 30
-2450.500
 70
    32
  0
VERTEX
  8
W78LXLIFT
 62
3
 10
2001.545
 20
-6549.403
 30
-2450.500
 70
    32
  0
SEQEND
  8
W78LXLIFT
  0
POLYLINE
  8
W78LXLIFT
 62
3
 66
     1
 70
     9
  0
VERTEX
  8
W78LXLIFT
 62
3
 10
2001.595
 20
-6549.097
 30
-2447.500
 70
    32
  0
VERTEX
  8
W78LXLIFT
 62
3
 10
1979.536
 20
-6558.185
 30
-2447.500
 70
    32
  0
VERTEX
  8
W78LXLIFT
 62
3
 10
1969.102
 20
-6571.071
 30
-2447.500
 70
    32
  0
VERTEX
  8
W78LXLIFT
 62
3
 10
1968.638
 20
-6578.689
 30
-2447.500
 70
    32
  0
VERTEX
  8
W78LXLIFT
 62
3
 10
1973.021
 20
-6589.303
 30
-2447.500
 70
    32
  0
VERTEX
  8
W78LXLIFT
 62
3
 10
1982.613
 20
-6604.544
 30
-2447.500
 70
    32
  0
VERTEX
  8
W78LXLIFT
 62
3
 10
1993.104
 20
-6622.916
 30
-2447.500
 70
    32
  0
VERTEX
  8
W78LXLIFT
 62
3
 10
1998.485
 20
-6625.530
 30
-2447.500
 70
    32
  0
VERTEX
  8
W78LXLIFT
 62
3
 10
2006.675
 20
-6621.539
 30
-2447.500
 70
    32
  0
VERTEX
  8
W78LXLIFT
 62
3
 10
2025.566
 20
-6608.789
 30
-2447.500
 70
    32
  0
VERTEX
  8
W78LXLIFT
 62
3
 10
2029.877
 20
-6601.648
 30
-2447.500
 70
    32
  0
VERTEX
  8
W78LXLIFT
 62
3
 10
2030.368
 20
-6594.819
 30
-2447.500
 70
    32
  0
VERTEX
  8
W78LXLIFT
 62
3
 10
2028.647
 20
-6589.040
 30
-2447.500
 70
    32
  0
VERTEX
  8
W78LXLIFT
 62
3
 10
2017.682
 20
-6574.515
 30
-2447.500
 70
    32
  0
VERTEX
  8
W78LXLIFT
 62
3
 10
2013.582
 20
-6565.047
 30
-2447.500
 70
    32
  0
VERTEX
  8
W78LXLIFT
 62
3
 10
2004.068
 20
-6550.290
 30
-2447.500
 70
    32
  0
SEQEND
  8
W78LXLIFT
  0
POLYLINE
  8
W78LXLIFT
 62
3
 66
     1
 70
     9
  0
VERTEX
  8
W78LXLIFT
 62
3
 10
2013.860
 20
-6564.307
 30
-2444.500
 70
    32
  0
VERTEX
  8
W78LXLIFT
 62
3
 10
2004.169
 20
-6549.678
 30
-2444.500
 70
    32
  0
VERTEX
  8
W78LXLIFT
 62
3
 10
2001.289
 20
-6549.047
 30
-2444.500
 70
    32
  0
VERTEX
  8
W78LXLIFT
 62
3
 10
1990.374
 20
-6553.374
 30
-2444.500
 70
    32
  0
VERTEX
  8
W78LXLIFT
 62
3
 10
1978.985
 20
-6561.549
 30
-2444.500
 70
    32
  0
VERTEX
  8
W78LXLIFT
 62
3
 10
1970.959
 20
-6570.277
 30
-2444.500
 70
    32
  0
VERTEX
  8
W78LXLIFT
 62
3
 10
1969.317
 20
-6575.503
 30
-2444.500
 70
    32
  0
VERTEX
  8
W78LXLIFT
 62
3
 10
1970.267
 20
-6578.329
 30
-2444.500
 70
    32
  0
VERTEX
  8
W78LXLIFT
 62
3
 10
1975.016
 20
-6592.458
 30
-2444.500
 70
    32
  0
VERTEX
  8
W78LXLIFT
 62
3
 10
1981.540
 20
-6603.425
 30
-2444.500
 70
    32
  0
VERTEX
  8
W78LXLIFT
 62
3
 10
1986.131
 20
-6606.066
 30
-2444.500
 70
    32
  0
VERTEX
  8
W78LXLIFT
 62
3
 10
1995.906
 20
-6623.064
 30
-2444.500
 70
    32
  0
VERTEX
  8
W78LXLIFT
 62
3
 10
2000.525
 20
-6626.494
 30
-2444.500
 70
    32
  0
VERTEX
  8
W78LXLIFT
 62
3
 10
2013.137
 20
-6618.520
 30
-2444.500
 70
    32
  0
VERTEX
  8
W78LXLIFT
 62
3
 10
2025.338
 20
-6609.223
 30
-2444.500
 70
    32
  0
VERTEX
  8
W78LXLIFT
 62
3
 10
2029.827
 20
-6601.954
 30
-2444.500
 70
    32
  0
VERTEX
  8
W78LXLIFT
 62
3
 10
2028.516
 20
-6597.498
 30
-2444.500
 70
    32
  0
VERTEX
  8
W78LXLIFT
 62
3
 10
2029.614
 20
-6588.885
 30
-2444.500
 70
    32
  0
VERTEX
  8
W78LXLIFT
 62
3
 10
2017.632
 20
-6574.821
 30
-2444.500
 70
    32
  0
SEQEND
  8
W78LXLIFT
  0
POLYLINE
  8
W78LXLIFT
 62
3
 66
     1
 70
     9
  0
VERTEX
  8
W78LXLIFT
 62
3
 10
2012.457
 20
-6553.712
 30
-2441.500
 70
    32
  0
VERTEX
  8
W78LXLIFT
 62
3
 10
2005.287
 20
-6548.606
 30
-2441.500
 70
    32
  0
VERTEX
  8
W78LXLIFT
 62
3
 10
1996.657
 20
-6550.483
 30
-2441.500
 70
    32
  0
VERTEX
  8
W78LXLIFT
 62
3
 10
1985.085
 20
-6556.900
 30
-2441.500
 70
    32
  0
VERTEX
  8
W78LXLIFT
 62
3
 10
1980.564
 20
-6561.495
 30
-2441.500
 70
    32
  0
VERTEX
  8
W78LXLIFT
 62
3
 10
1971.643
 20
-6568.977
 30
-2441.500
 70
    32
  0
VERTEX
  8
W78LXLIFT
 62
3
 10
1976.561
 20
-6579.208
 30
-2441.500
 70
    32
  0
VERTEX
  8
W78LXLIFT
 62
3
 10
1979.651
 20
-6582.386
 30
-2441.500
 70
    32
  0
VERTEX
  8
W78LXLIFT
 62
3
 10
1977.658
 20
-6589.753
 30
-2441.500
 70
    32
  0
VERTEX
  8
W78LXLIFT
 62
3
 10
1982.881
 20
-6600.034
 30
-2441.500
 70
    32
  0
VERTEX
  8
W78LXLIFT
 62
3
 10
1994.334
 20
-6616.367
 30
-2441.500
 70
    32
  0
VERTEX
  8
W78LXLIFT
 62
3
 10
2000.497
 20
-6625.704
 30
-2441.500
 70
    32
  0
VERTEX
  8
W78LXLIFT
 62
3
 10
2005.585
 20
-6623.401
 30
-2441.500
 70
    32
  0
VERTEX
  8
W78LXLIFT
 62
3
 10
2014.505
 20
-6615.919
 30
-2441.500
 70
    32
  0
VERTEX
  8
W78LXLIFT
 62
3
 10
2025.566
 20
-6608.789
 30
-2441.500
 70
    32
  0
VERTEX
  8
W78LXLIFT
 62
3
 10
2029.694
 20
-6599.890
 30
-2441.500
 70
    32
  0
VERTEX
  8
W78LXLIFT
 62
3
 10
2027.238
 20
-6595.717
 30
-2441.500
 70
    32
  0
VERTEX
  8
W78LXLIFT
 62
3
 10
2030.083
 20
-6583.152
 30
-2441.500
 70
    32
  0
VERTEX
  8
W78LXLIFT
 62
3
 10
2029.672
 20
-6581.828
 30
-2441.500
 70
    32
  0
VERTEX
  8
W78LXLIFT
 62
3
 10
2019.123
 20
-6570.513
 30
-2441.500
 70
    32
  0
SEQEND
  8
W78LXLIFT
  0
POLYLINE
  8
W78LXLIFT
 62
3
 66
     1
 70
     9
  0
VERTEX
  8
W78LXLIFT
 62
3
 10
2006.848
 20
-6551.533
 30
-2438.500
 70
    32
  0
VERTEX
  8
W78LXLIFT
 62
3
 10
1998.264
 20
-6551.218
 30
-2438.500
 70
    32
  0
VERTEX
  8
W78LXLIFT
 62
3
 10
1989.740
 20
-6554.369
 30
-2438.500
 70
    32
  0
VERTEX
  8
W78LXLIFT
 62
3
 10
1984.780
 20
-6556.850
 30
-2438.500
 70
    32
  0
VERTEX
  8
W78LXLIFT
 62
3
 10
1981.687
 20
-6562.308
 30
-2438.500
 70
    32
  0
VERTEX
  8
W78LXLIFT
 62
3
 10
1977.794
 20
-6564.022
 30
-2438.500
 70
    32
  0
VERTEX
  8
W78LXLIFT
 62
3
 10
1976.681
 20
-6566.980
 30
-2438.500
 70
    32
  0
VERTEX
  8
W78LXLIFT
 62
3
 10
1981.521
 20
-6576.727
 30
-2438.500
 70
    32
  0
VERTEX
  8
W78LXLIFT
 62
3
 10
1983.922
 20
-6579.321
 30
-2438.500
 70
    32
  0
VERTEX
  8
W78LXLIFT
 62
3
 10
1982.490
 20
-6587.094
 30
-2438.500
 70
    32
  0
VERTEX
  8
W78LXLIFT
 62
3
 10
1986.713
 20
-6594.855
 30
-2438.500
 70
    32
  0
VERTEX
  8
W78LXLIFT
 62
3
 10
1989.335
 20
-6603.766
 30
-2438.500
 70
    32
  0
VERTEX
  8
W78LXLIFT
 62
3
 10
1993.219
 20
-6608.803
 30
-2438.500
 70
    32
  0
VERTEX
  8
W78LXLIFT
 62
3
 10
1999.094
 20
-6615.109
 30
-2438.500
 70
    32
  0
VERTEX
  8
W78LXLIFT
 62
3
 10
2004.197
 20
-6618.462
 30
-2438.500
 70
    32
  0
VERTEX
  8
W78LXLIFT
 62
3
 10
2024.433
 20
-6604.206
 30
-2438.500
 70
    32
  0
VERTEX
  8
W78LXLIFT
 62
3
 10
2026.910
 20
-6596.762
 30
-2438.500
 70
    32
  0
VERTEX
  8
W78LXLIFT
 62
3
 10
2025.449
 20
-6593.224
 30
-2438.500
 70
    32
  0
VERTEX
  8
W78LXLIFT
 62
3
 10
2025.945
 20
-6588.281
 30
-2438.500
 70
    32
  0
VERTEX
  8
W78LXLIFT
 62
3
 10
2027.747
 20
-6585.908
 30
-2438.500
 70
    32
  0
VERTEX
  8
W78LXLIFT
 62
3
 10
2030.344
 20
-6585.393
 30
-2438.500
 70
    32
  0
VERTEX
  8
W78LXLIFT
 62
3
 10
2031.985
 20
-6580.168
 30
-2438.500
 70
    32
  0
VERTEX
  8
W78LXLIFT
 62
3
 10
2030.602
 20
-6577.113
 30
-2438.500
 70
    32
  0
VERTEX
  8
W78LXLIFT
 62
3
 10
2026.768
 20
-6571.771
 30
-2438.500
 70
    32
  0
VERTEX
  8
W78LXLIFT
 62
3
 10
2017.547
 20
-6561.931
 30
-2438.500
 70
    32
  0
SEQEND
  8
W78LXLIFT
  0
POLYLINE
  8
W78LXLIFT
 62
3
 66
     1
 70
     9
  0
VERTEX
  8
W78LXLIFT
 62
3
 10
2000.883
 20
-6549.608
 30
-2458.000
 70
    32
  0
VERTEX
  8
W78LXLIFT
 62
3
 10
1969.639
 20
-6562.051
 30
-2458.000
 70
    32
  0
VERTEX
  8
W78LXLIFT
 62
3
 10
1968.555
 20
-6576.320
 30
-2458.000
 70
    32
  0
VERTEX
  8
W78LXLIFT
 62
3
 10
1975.525
 20
-6582.649
 30
-2458.000
 70
    32
  0
VERTEX
  8
W78LXLIFT
 62
3
 10
1983.072
 20
-6595.041
 30
-2458.000
 70
    32
  0
VERTEX
  8
W78LXLIFT
 62
3
 10
1997.595
 20
-6607.011
 30
-2458.000
 70
    32
  0
VERTEX
  8
W78LXLIFT
 62
3
 10
1998.141
 20
-6620.919
 30
-2458.000
 70
    32
  0
VERTEX
  8
W78LXLIFT
 62
3
 10
1999.520
 20
-6622.088
 30
-2458.000
 70
    32
  0
VERTEX
  8
W78LXLIFT
 62
3
 10
2022.947
 20
-6610.400
 30
-2458.000
 70
    32
  0
VERTEX
  8
W78LXLIFT
 62
3
 10
2022.952
 20
-6593.127
 30
-2458.000
 70
    32
  0
VERTEX
  8
W78LXLIFT
 62
3
 10
2021.261
 20
-6579.501
 30
-2458.000
 70
    32
  0
VERTEX
  8
W78LXLIFT
 62
3
 10
2014.376
 20
-6566.905
 30
-2458.000
 70
    32
  0
VERTEX
  8
W78LXLIFT
 62
3
 10
2012.131
 20
-6565.279
 30
-2458.000
 70
    32
  0
VERTEX
  8
W78LXLIFT
 62
3
 10
2013.544
 20
-6560.487
 30
-2458.000
 70
    32
  0
SEQEND
  8
W78LXLIFT
  0
POLYLINE
  8
W78LXLIFT
 62
3
 66
     1
 70
     9
  0
VERTEX
  8
W78LXLIFT
 62
3
 10
1996.079
 20
-6590.803
 30
-2432.500
 70
    32
  0
VERTEX
  8
W78LXLIFT
 62
3
 10
2002.420
 20
-6590.439
 30
-2432.500
 70
    32
  0
VERTEX
  8
W78LXLIFT
 62
3
 10
2013.655
 20
-6585.897
 30
-2432.500
 70
    32
  0
VERTEX
  8
W78LXLIFT
 62
3
 10
2008.400
 20
-6569.909
 30
-2432.500
 70
    32
  0
VERTEX
  8
W78LXLIFT
 62
3
 10
1998.978
 20
-6565.003
 30
-2432.500
 70
    32
  0
VERTEX
  8
W78LXLIFT
 62
3
 10
1989.737
 20
-6563.913
 30
-2432.500
 70
    32
  0
VERTEX
  8
W78LXLIFT
 62
3
 10
1985.569
 20
-6560.824
 30
-2432.500
 70
    32
  0
VERTEX
  8
W78LXLIFT
 62
3
 10
1986.294
 20
-6556.464
 30
-2432.500
 70
    32
  0
VERTEX
  8
W78LXLIFT
 62
3
 10
1989.012
 20
-6555.010
 30
-2432.500
 70
    32
  0
VERTEX
  8
W78LXLIFT
 62
3
 10
1989.737
 20
-6555.737
 30
-2432.500
 70
    32
  0
VERTEX
  8
W78LXLIFT
 62
3
 10
1993.179
 20
-6555.737
 30
-2432.500
 70
    32
  0
VERTEX
  8
W78LXLIFT
 62
3
 10
1998.072
 20
-6559.371
 30
-2432.500
 70
    32
  0
VERTEX
  8
W78LXLIFT
 62
3
 10
2009.849
 20
-6565.548
 30
-2432.500
 70
    32
  0
VERTEX
  8
W78LXLIFT
 62
3
 10
2021.084
 20
-6574.269
 30
-2432.500
 70
    32
  0
VERTEX
  8
W78LXLIFT
 62
3
 10
2025.976
 20
-6571.544
 30
-2432.500
 70
    32
  0
VERTEX
  8
W78LXLIFT
 62
3
 10
2028.875
 20
-6568.092
 30
-2432.500
 70
    32
  0
VERTEX
  8
W78LXLIFT
 62
3
 10
2029.781
 20
-6564.821
 30
-2432.500
 70
    32
  0
VERTEX
  8
W78LXLIFT
 62
3
 10
2033.949
 20
-6568.819
 30
-2432.500
 70
    32
  0
VERTEX
  8
W78LXLIFT
 62
3
 10
2036.848
 20
-6573.179
 30
-2432.500
 70
    32
  0
VERTEX
  8
W78LXLIFT
 62
3
 10
2034.130
 20
-6578.266
 30
-2432.500
 70
    32
  0
VERTEX
  8
W78LXLIFT
 62
3
 10
2028.332
 20
-6579.538
 30
-2432.500
 70
    32
  0
VERTEX
  8
W78LXLIFT
 62
3
 10
2019.815
 20
-6586.987
 30
-2432.500
 70
    32
  0
VERTEX
  8
W78LXLIFT
 62
3
 10
2013.655
 20
-6602.067
 30
-2432.500
 70
    32
  0
VERTEX
  8
W78LXLIFT
 62
3
 10
2010.212
 20
-6605.337
 30
-2432.500
 70
    32
  0
VERTEX
  8
W78LXLIFT
 62
3
 10
2007.494
 20
-6605.337
 30
-2432.500
 70
    32
  0
VERTEX
  8
W78LXLIFT
 62
3
 10
1997.347
 20
-6597.707
 30
-2432.500
 70
    32
  0
VERTEX
  8
W78LXLIFT
 62
3
 10
1995.172
 20
-6591.893
 30
-2432.500
 70
    32
  0
SEQEND
  8
W78LXLIFT
  0
POLYLINE
  8
W78LXLIFT
 62
3
 66
     1
 70
     9
  0
VERTEX
  8
W78LXLIFT
 62
3
 10
1974.138
 20
-6675.383
 30
-2460.000
 70
    32
  0
VERTEX
  8
W78LXLIFT
 62
3
 10
1962.636
 20
-6668.857
 30
-2460.000
 70
    32
  0
VERTEX
  8
W78LXLIFT
 62
3
 10
1966.996
 20
-6663.454
 30
-2460.000
 70
    32
  0
VERTEX
  8
W78LXLIFT
 62
3
 10
1972.980
 20
-6653.190
 30
-2460.000
 70
    32
  0
VERTEX
  8
W78LXLIFT
 62
3
 10
1980.339
 20
-6645.633
 30
-2460.000
 70
    32
  0
VERTEX
  8
W78LXLIFT
 62
3
 10
1983.867
 20
-6640.258
 30
-2460.000
 70
    32
  0
VERTEX
  8
W78LXLIFT
 62
3
 10
1988.318
 20
-6639.337
 30
-2460.000
 70
    32
  0
VERTEX
  8
W78LXLIFT
 62
3
 10
1994.437
 20
-6629.260
 30
-2460.000
 70
    32
  0
VERTEX
  8
W78LXLIFT
 62
3
 10
1999.354
 20
-6621.467
 30
-2460.000
 70
    32
  0
VERTEX
  8
W78LXLIFT
 62
3
 10
1999.401
 20
-6619.159
 30
-2460.000
 70
    32
  0
VERTEX
  8
W78LXLIFT
 62
3
 10
2000.719
 20
-6620.203
 30
-2460.000
 70
    32
  0
VERTEX
  8
W78LXLIFT
 62
3
 10
2012.107
 20
-6614.302
 30
-2460.000
 70
    32
  0
VERTEX
  8
W78LXLIFT
 62
3
 10
2012.392
 20
-6620.636
 30
-2460.000
 70
    32
  0
VERTEX
  8
W78LXLIFT
 62
3
 10
2018.090
 20
-6624.221
 30
-2460.000
 70
    32
  0
VERTEX
  8
W78LXLIFT
 62
3
 10
2026.788
 20
-6625.653
 30
-2460.000
 70
    32
  0
VERTEX
  8
W78LXLIFT
 62
3
 10
2045.573
 20
-6626.099
 30
-2460.000
 70
    32
  0
VERTEX
  8
W78LXLIFT
 62
3
 10
2048.501
 20
-6627.408
 30
-2460.000
 70
    32
  0
VERTEX
  8
W78LXLIFT
 62
3
 10
2062.228
 20
-6653.656
 30
-2460.000
 70
    32
  0
VERTEX
  8
W78LXLIFT
 62
3
 10
2061.037
 20
-6659.912
 30
-2460.000
 70
    32
  0
VERTEX
  8
W78LXLIFT
 62
3
 10
2058.528
 20
-6665.124
 30
-2460.000
 70
    32
  0
VERTEX
  8
W78LXLIFT
 62
3
 10
2056.115
 20
-6665.719
 30
-2460.000
 70
    32
  0
VERTEX
  8
W78LXLIFT
 62
3
 10
2048.917
 20
-6663.210
 30
-2460.000
 70
    32
  0
VERTEX
  8
W78LXLIFT
 62
3
 10
2040.758
 20
-6662.529
 30
-2460.000
 70
    32
  0
VERTEX
  8
W78LXLIFT
 62
3
 10
2037.518
 20
-6665.139
 30
-2460.000
 70
    32
  0
VERTEX
  8
W78LXLIFT
 62
3
 10
2029.874
 20
-6666.362
 30
-2460.000
 70
    32
  0
VERTEX
  8
W78LXLIFT
 62
3
 10
2027.278
 20
-6669.078
 30
-2460.000
 70
    32
  0
VERTEX
  8
W78LXLIFT
 62
3
 10
2021.941
 20
-6670.350
 30
-2460.000
 70
    32
  0
VERTEX
  8
W78LXLIFT
 62
3
 10
2015.229
 20
-6668.914
 30
-2460.000
 70
    32
  0
VERTEX
  8
W78LXLIFT
 62
3
 10
2008.787
 20
-6667.853
 30
-2460.000
 70
    32
  0
VERTEX
  8
W78LXLIFT
 62
3
 10
2001.055
 20
-6666.580
 30
-2460.000
 70
    32
  0
VERTEX
  8
W78LXLIFT
 62
3
 10
1996.054
 20
-6662.779
 30
-2460.000
 70
    32
  0
VERTEX
  8
W78LXLIFT
 62
3
 10
1989.881
 20
-6662.093
 30
-2460.000
 70
    32
  0
VERTEX
  8
W78LXLIFT
 62
3
 10
1979.290
 20
-6665.147
 30
-2460.000
 70
    32
  0
SEQEND
  8
W78LXLIFT
  0
POLYLINE
  8
W78LXLIFT
 62
3
 66
     1
 70
     9
  0
VERTEX
  8
W78LXLIFT
 62
3
 10
1982.266
 20
-6664.148
 30
-2457.000
 70
    32
  0
VERTEX
  8
W78LXLIFT
 62
3
 10
1972.821
 20
-6654.156
 30
-2457.000
 70
    32
  0
VERTEX
  8
W78LXLIFT
 62
3
 10
1980.608
 20
-6646.008
 30
-2457.000
 70
    32
  0
VERTEX
  8
W78LXLIFT
 62
3
 10
1985.448
 20
-6639.692
 30
-2457.000
 70
    32
  0
VERTEX
  8
W78LXLIFT
 62
3
 10
1992.736
 20
-6635.598
 30
-2457.000
 70
    32
  0
VERTEX
  8
W78LXLIFT
 62
3
 10
1995.860
 20
-6629.660
 30
-2457.000
 70
    32
  0
VERTEX
  8
W78LXLIFT
 62
3
 10
1997.869
 20
-6628.502
 30
-2457.000
 70
    32
  0
VERTEX
  8
W78LXLIFT
 62
3
 10
1999.618
 20
-6619.856
 30
-2457.000
 70
    32
  0
VERTEX
  8
W78LXLIFT
 62
3
 10
2000.801
 20
-6620.713
 30
-2457.000
 70
    32
  0
VERTEX
  8
W78LXLIFT
 62
3
 10
2011.680
 20
-6614.894
 30
-2457.000
 70
    32
  0
VERTEX
  8
W78LXLIFT
 62
3
 10
2013.618
 20
-6617.198
 30
-2457.000
 70
    32
  0
VERTEX
  8
W78LXLIFT
 62
3
 10
2016.836
 20
-6626.827
 30
-2457.000
 70
    32
  0
VERTEX
  8
W78LXLIFT
 62
3
 10
2022.202
 20
-6626.387
 30
-2457.000
 70
    32
  0
VERTEX
  8
W78LXLIFT
 62
3
 10
2047.025
 20
-6627.330
 30
-2457.000
 70
    32
  0
VERTEX
  8
W78LXLIFT
 62
3
 10
2049.256
 20
-6628.856
 30
-2457.000
 70
    32
  0
VERTEX
  8
W78LXLIFT
 62
3
 10
2058.428
 20
-6647.571
 30
-2457.000
 70
    32
  0
VERTEX
  8
W78LXLIFT
 62
3
 10
2060.242
 20
-6653.660
 30
-2457.000
 70
    32
  0
VERTEX
  8
W78LXLIFT
 62
3
 10
2059.719
 20
-6658.868
 30
-2457.000
 70
    32
  0
VERTEX
  8
W78LXLIFT
 62
3
 10
2052.864
 20
-6664.357
 30
-2457.000
 70
    32
  0
VERTEX
  8
W78LXLIFT
 62
3
 10
2042.936
 20
-6664.376
 30
-2457.000
 70
    32
  0
VERTEX
  8
W78LXLIFT
 62
3
 10
2033.927
 20
-6666.863
 30
-2457.000
 70
    32
  0
VERTEX
  8
W78LXLIFT
 62
3
 10
2019.288
 20
-6671.402
 30
-2457.000
 70
    32
  0
VERTEX
  8
W78LXLIFT
 62
3
 10
2007.873
 20
-6667.372
 30
-2457.000
 70
    32
  0
VERTEX
  8
W78LXLIFT
 62
3
 10
1996.482
 20
-6662.188
 30
-2457.000
 70
    32
  0
VERTEX
  8
W78LXLIFT
 62
3
 10
1995.886
 20
-6659.773
 30
-2457.000
 70
    32
  0
VERTEX
  8
W78LXLIFT
 62
3
 10
1986.337
 20
-6661.510
 30
-2457.000
 70
    32
  0
SEQEND
  8
W78LXLIFT
  0
POLYLINE
  8
W78LXLIFT
 62
3
 66
     1
 70
     9
  0
VERTEX
  8
W78LXLIFT
 62
3
 10
1991.107
 20
-6638.473
 30
-2454.000
 70
    32
  0
VERTEX
  8
W78LXLIFT
 62
3
 10
1996.100
 20
-6629.203
 30
-2454.000
 70
    32
  0
VERTEX
  8
W78LXLIFT
 62
3
 10
1998.701
 20
-6628.473
 30
-2454.000
 70
    32
  0
VERTEX
  8
W78LXLIFT
 62
3
 10
1999.998
 20
-6621.573
 30
-2454.000
 70
    32
  0
VERTEX
  8
W78LXLIFT
 62
3
 10
2012.002
 20
-6614.947
 30
-2454.000
 70
    32
  0
VERTEX
  8
W78LXLIFT
 62
3
 10
2012.849
 20
-6620.877
 30
-2454.000
 70
    32
  0
VERTEX
  8
W78LXLIFT
 62
3
 10
2013.720
 20
-6625.652
 30
-2454.000
 70
    32
  0
VERTEX
  8
W78LXLIFT
 62
3
 10
2021.534
 20
-6627.435
 30
-2454.000
 70
    32
  0
VERTEX
  8
W78LXLIFT
 62
3
 10
2038.274
 20
-6626.221
 30
-2454.000
 70
    32
  0
VERTEX
  8
W78LXLIFT
 62
3
 10
2047.001
 20
-6628.485
 30
-2454.000
 70
    32
  0
VERTEX
  8
W78LXLIFT
 62
3
 10
2049.987
 20
-6631.458
 30
-2454.000
 70
    32
  0
VERTEX
  8
W78LXLIFT
 62
3
 10
2058.217
 20
-6648.860
 30
-2454.000
 70
    32
  0
VERTEX
  8
W78LXLIFT
 62
3
 10
2058.771
 20
-6655.568
 30
-2454.000
 70
    32
  0
VERTEX
  8
W78LXLIFT
 62
3
 10
2058.056
 20
-6658.925
 30
-2454.000
 70
    32
  0
VERTEX
  8
W78LXLIFT
 62
3
 10
2050.908
 20
-6665.193
 30
-2454.000
 70
    32
  0
VERTEX
  8
W78LXLIFT
 62
3
 10
2044.629
 20
-6665.151
 30
-2454.000
 70
    32
  0
VERTEX
  8
W78LXLIFT
 62
3
 10
2035.619
 20
-6667.638
 30
-2454.000
 70
    32
  0
VERTEX
  8
W78LXLIFT
 62
3
 10
2027.413
 20
-6669.265
 30
-2454.000
 70
    32
  0
VERTEX
  8
W78LXLIFT
 62
3
 10
2022.644
 20
-6672.120
 30
-2454.000
 70
    32
  0
VERTEX
  8
W78LXLIFT
 62
3
 10
2018.725
 20
-6671.805
 30
-2454.000
 70
    32
  0
VERTEX
  8
W78LXLIFT
 62
3
 10
2007.955
 20
-6667.881
 30
-2454.000
 70
    32
  0
VERTEX
  8
W78LXLIFT
 62
3
 10
2001.607
 20
-6662.204
 30
-2454.000
 70
    32
  0
VERTEX
  8
W78LXLIFT
 62
3
 10
1996.221
 20
-6654.700
 30
-2454.000
 70
    32
  0
VERTEX
  8
W78LXLIFT
 62
3
 10
1993.032
 20
-6645.903
 30
-2454.000
 70
    32
  0
SEQEND
  8
W78LXLIFT
  0
POLYLINE
  8
W78LXLIFT
 62
3
 66
     1
 70
     9
  0
VERTEX
  8
W78LXLIFT
 62
3
 10
1998.106
 20
-6657.326
 30
-2451.000
 70
    32
  0
VERTEX
  8
W78LXLIFT
 62
3
 10
1995.923
 20
-6653.493
 30
-2451.000
 70
    32
  0
VERTEX
  8
W78LXLIFT
 62
3
 10
1990.972
 20
-6638.285
 30
-2451.000
 70
    32
  0
VERTEX
  8
W78LXLIFT
 62
3
 10
1993.235
 20
-6631.544
 30
-2451.000
 70
    32
  0
VERTEX
  8
W78LXLIFT
 62
3
 10
1997.307
 20
-6628.906
 30
-2451.000
 70
    32
  0
VERTEX
  8
W78LXLIFT
 62
3
 10
1999.599
 20
-6622.996
 30
-2451.000
 70
    32
  0
VERTEX
  8
W78LXLIFT
 62
3
 10
2007.238
 20
-6619.787
 30
-2451.000
 70
    32
  0
VERTEX
  8
W78LXLIFT
 62
3
 10
2013.507
 20
-6615.856
 30
-2451.000
 70
    32
  0
VERTEX
  8
W78LXLIFT
 62
3
 10
2013.422
 20
-6624.445
 30
-2451.000
 70
    32
  0
VERTEX
  8
W78LXLIFT
 62
3
 10
2015.038
 20
-6626.696
 30
-2451.000
 70
    32
  0
VERTEX
  8
W78LXLIFT
 62
3
 10
2023.384
 20
-6627.243
 30
-2451.000
 70
    32
  0
VERTEX
  8
W78LXLIFT
 62
3
 10
2037.817
 20
-6625.980
 30
-2451.000
 70
    32
  0
VERTEX
  8
W78LXLIFT
 62
3
 10
2045.929
 20
-6628.970
 30
-2451.000
 70
    32
  0
VERTEX
  8
W78LXLIFT
 62
3
 10
2049.934
 20
-6631.780
 30
-2451.000
 70
    32
  0
VERTEX
  8
W78LXLIFT
 62
3
 10
2056.765
 20
-6647.628
 30
-2451.000
 70
    32
  0
VERTEX
  8
W78LXLIFT
 62
3
 10
2058.006
 20
-6650.149
 30
-2451.000
 70
    32
  0
VERTEX
  8
W78LXLIFT
 62
3
 10
2058.151
 20
-6654.308
 30
-2451.000
 70
    32
  0
VERTEX
  8
W78LXLIFT
 62
3
 10
2057.839
 20
-6658.227
 30
-2451.000
 70
    32
  0
VERTEX
  8
W78LXLIFT
 62
3
 10
2051.042
 20
-6665.380
 30
-2451.000
 70
    32
  0
VERTEX
  8
W78LXLIFT
 62
3
 10
2030.066
 20
-6668.213
 30
-2451.000
 70
    32
  0
VERTEX
  8
W78LXLIFT
 62
3
 10
2027.225
 20
-6669.400
 30
-2451.000
 70
    32
  0
VERTEX
  8
W78LXLIFT
 62
3
 10
2022.913
 20
-6672.495
 30
-2451.000
 70
    32
  0
VERTEX
  8
W78LXLIFT
 62
3
 10
2018.274
 20
-6673.551
 30
-2451.000
 70
    32
  0
VERTEX
  8
W78LXLIFT
 62
3
 10
2014.725
 20
-6670.981
 30
-2451.000
 70
    32
  0
VERTEX
  8
W78LXLIFT
 62
3
 10
2012.734
 20
-6668.999
 30
-2451.000
 70
    32
  0
VERTEX
  8
W78LXLIFT
 62
3
 10
2008.253
 20
-6669.089
 30
-2451.000
 70
    32
  0
VERTEX
  8
W78LXLIFT
 62
3
 10
2001.069
 20
-6661.454
 30
-2451.000
 70
    32
  0
SEQEND
  8
W78LXLIFT
  0
POLYLINE
  8
W78LXLIFT
 62
3
 66
     1
 70
     9
  0
VERTEX
  8
W78LXLIFT
 62
3
 10
1995.241
 20
-6653.759
 30
-2448.000
 70
    32
  0
VERTEX
  8
W78LXLIFT
 62
3
 10
1991.062
 20
-6638.891
 30
-2448.000
 70
    32
  0
VERTEX
  8
W78LXLIFT
 62
3
 10
1992.547
 20
-6633.593
 30
-2448.000
 70
    32
  0
VERTEX
  8
W78LXLIFT
 62
3
 10
1996.800
 20
-6627.539
 30
-2448.000
 70
    32
  0
VERTEX
  8
W78LXLIFT
 62
3
 10
1996.982
 20
-6625.007
 30
-2448.000
 70
    32
  0
VERTEX
  8
W78LXLIFT
 62
3
 10
1998.627
 20
-6625.627
 30
-2448.000
 70
    32
  0
VERTEX
  8
W78LXLIFT
 62
3
 10
2006.965
 20
-6621.643
 30
-2448.000
 70
    32
  0
VERTEX
  8
W78LXLIFT
 62
3
 10
2011.547
 20
-6618.554
 30
-2448.000
 70
    32
  0
VERTEX
  8
W78LXLIFT
 62
3
 10
2012.997
 20
-6623.917
 30
-2448.000
 70
    32
  0
VERTEX
  8
W78LXLIFT
 62
3
 10
2014.967
 20
-6626.105
 30
-2448.000
 70
    32
  0
VERTEX
  8
W78LXLIFT
 62
3
 10
2024.281
 20
-6626.823
 30
-2448.000
 70
    32
  0
VERTEX
  8
W78LXLIFT
 62
3
 10
2038.106
 20
-6626.304
 30
-2448.000
 70
    32
  0
VERTEX
  8
W78LXLIFT
 62
3
 10
2045.840
 20
-6629.557
 30
-2448.000
 70
    32
  0
VERTEX
  8
W78LXLIFT
 62
3
 10
2050.004
 20
-6632.572
 30
-2448.000
 70
    32
  0
VERTEX
  8
W78LXLIFT
 62
3
 10
2057.988
 20
-6652.053
 30
-2448.000
 70
    32
  0
VERTEX
  8
W78LXLIFT
 62
3
 10
2057.604
 20
-6656.532
 30
-2448.000
 70
    32
  0
VERTEX
  8
W78LXLIFT
 62
3
 10
2055.124
 20
-6661.713
 30
-2448.000
 70
    32
  0
VERTEX
  8
W78LXLIFT
 62
3
 10
2051.185
 20
-6665.141
 30
-2448.000
 70
    32
  0
VERTEX
  8
W78LXLIFT
 62
3
 10
2045.408
 20
-6666.286
 30
-2448.000
 70
    32
  0
VERTEX
  8
W78LXLIFT
 62
3
 10
2039.347
 20
-6667.035
 30
-2448.000
 70
    32
  0
VERTEX
  8
W78LXLIFT
 62
3
 10
2032.564
 20
-6666.501
 30
-2448.000
 70
    32
  0
VERTEX
  8
W78LXLIFT
 62
3
 10
2018.551
 20
-6674.558
 30
-2448.000
 70
    32
  0
VERTEX
  8
W78LXLIFT
 62
3
 10
2007.033
 20
-6668.818
 30
-2448.000
 70
    32
  0
VERTEX
  8
W78LXLIFT
 62
3
 10
2003.340
 20
-6665.066
 30
-2448.000
 70
    32
  0
VERTEX
  8
W78LXLIFT
 62
3
 10
1998.221
 20
-6657.935
 30
-2448.000
 70
    32
  0
SEQEND
  8
W78LXLIFT
  0
POLYLINE
  8
W78LXLIFT
 62
3
 66
     1
 70
     9
  0
VERTEX
  8
W78LXLIFT
 62
3
 10
1997.436
 20
-6655.315
 30
-2445.000
 70
    32
  0
VERTEX
  8
W78LXLIFT
 62
3
 10
1990.944
 20
-6640.380
 30
-2445.000
 70
    32
  0
VERTEX
  8
W78LXLIFT
 62
3
 10
1990.683
 20
-6637.227
 30
-2445.000
 70
    32
  0
VERTEX
  8
W78LXLIFT
 62
3
 10
1992.630
 20
-6634.049
 30
-2445.000
 70
    32
  0
VERTEX
  8
W78LXLIFT
 62
3
 10
1996.746
 20
-6632.653
 30
-2445.000
 70
    32
  0
VERTEX
  8
W78LXLIFT
 62
3
 10
1996.367
 20
-6624.687
 30
-2445.000
 70
    32
  0
VERTEX
  8
W78LXLIFT
 62
3
 10
1995.964
 20
-6623.195
 30
-2445.000
 70
    32
  0
VERTEX
  8
W78LXLIFT
 62
3
 10
2000.514
 20
-6627.054
 30
-2445.000
 70
    32
  0
VERTEX
  8
W78LXLIFT
 62
3
 10
2014.194
 20
-6617.903
 30
-2445.000
 70
    32
  0
VERTEX
  8
W78LXLIFT
 62
3
 10
2016.192
 20
-6626.266
 30
-2445.000
 70
    32
  0
VERTEX
  8
W78LXLIFT
 62
3
 10
2021.931
 20
-6626.822
 30
-2445.000
 70
    32
  0
VERTEX
  8
W78LXLIFT
 62
3
 10
2037.925
 20
-6626.475
 30
-2445.000
 70
    32
  0
VERTEX
  8
W78LXLIFT
 62
3
 10
2046.490
 20
-6630.347
 30
-2445.000
 70
    32
  0
VERTEX
  8
W78LXLIFT
 62
3
 10
2049.944
 20
-6632.989
 30
-2445.000
 70
    32
  0
VERTEX
  8
W78LXLIFT
 62
3
 10
2057.453
 20
-6651.201
 30
-2445.000
 70
    32
  0
VERTEX
  8
W78LXLIFT
 62
3
 10
2057.888
 20
-6656.456
 30
-2445.000
 70
    32
  0
VERTEX
  8
W78LXLIFT
 62
3
 10
2055.275
 20
-6662.116
 30
-2445.000
 70
    32
  0
VERTEX
  8
W78LXLIFT
 62
3
 10
2048.708
 20
-6666.607
 30
-2445.000
 70
    32
  0
VERTEX
  8
W78LXLIFT
 62
3
 10
2041.564
 20
-6667.504
 30
-2445.000
 70
    32
  0
VERTEX
  8
W78LXLIFT
 62
3
 10
2025.849
 20
-6670.100
 30
-2445.000
 70
    32
  0
VERTEX
  8
W78LXLIFT
 62
3
 10
2020.939
 20
-6673.180
 30
-2445.000
 70
    32
  0
VERTEX
  8
W78LXLIFT
 62
3
 10
2016.443
 20
-6673.735
 30
-2445.000
 70
    32
  0
VERTEX
  8
W78LXLIFT
 62
3
 10
2008.153
 20
-6670.556
 30
-2445.000
 70
    32
  0
VERTEX
  8
W78LXLIFT
 62
3
 10
2003.626
 20
-6667.349
 30
-2445.000
 70
    32
  0
VERTEX
  8
W78LXLIFT
 62
3
 10
2000.416
 20
-6661.637
 30
-2445.000
 70
    32
  0
SEQEND
  8
W78LXLIFT
  0
POLYLINE
  8
W78LXLIFT
 62
3
 66
     1
 70
     9
  0
VERTEX
  8
W78LXLIFT
 62
3
 10
2002.318
 20
-6666.276
 30
-2442.000
 70
    32
  0
VERTEX
  8
W78LXLIFT
 62
3
 10
1990.295
 20
-6639.022
 30
-2442.000
 70
    32
  0
VERTEX
  8
W78LXLIFT
 62
3
 10
1996.671
 20
-6632.790
 30
-2442.000
 70
    32
  0
VERTEX
  8
W78LXLIFT
 62
3
 10
1995.509
 20
-6618.185
 30
-2442.000
 70
    32
  0
VERTEX
  8
W78LXLIFT
 62
3
 10
2000.526
 20
-6625.734
 30
-2442.000
 70
    32
  0
VERTEX
  8
W78LXLIFT
 62
3
 10
2005.451
 20
-6623.505
 30
-2442.000
 70
    32
  0
VERTEX
  8
W78LXLIFT
 62
3
 10
2012.008
 20
-6618.096
 30
-2442.000
 70
    32
  0
VERTEX
  8
W78LXLIFT
 62
3
 10
2017.617
 20
-6627.028
 30
-2442.000
 70
    32
  0
VERTEX
  8
W78LXLIFT
 62
3
 10
2037.927
 20
-6626.731
 30
-2442.000
 70
    32
  0
VERTEX
  8
W78LXLIFT
 62
3
 10
2046.066
 20
-6630.641
 30
-2442.000
 70
    32
  0
VERTEX
  8
W78LXLIFT
 62
3
 10
2049.774
 20
-6633.500
 30
-2442.000
 70
    32
  0
VERTEX
  8
W78LXLIFT
 62
3
 10
2058.159
 20
-6651.588
 30
-2442.000
 70
    32
  0
VERTEX
  8
W78LXLIFT
 62
3
 10
2057.706
 20
-6657.617
 30
-2442.000
 70
    32
  0
VERTEX
  8
W78LXLIFT
 62
3
 10
2055.338
 20
-6662.261
 30
-2442.000
 70
    32
  0
VERTEX
  8
W78LXLIFT
 62
3
 10
2048.645
 20
-6666.513
 30
-2442.000
 70
    32
  0
VERTEX
  8
W78LXLIFT
 62
3
 10
2043.139
 20
-6666.785
 30
-2442.000
 70
    32
  0
VERTEX
  8
W78LXLIFT
 62
3
 10
2038.987
 20
-6666.637
 30
-2442.000
 70
    32
  0
VERTEX
  8
W78LXLIFT
 62
3
 10
2036.454
 20
-6667.719
 30
-2442.000
 70
    32
  0
VERTEX
  8
W78LXLIFT
 62
3
 10
2032.097
 20
-6668.822
 30
-2442.000
 70
    32
  0
VERTEX
  8
W78LXLIFT
 62
3
 10
2028.651
 20
-6668.798
 30
-2442.000
 70
    32
  0
VERTEX
  8
W78LXLIFT
 62
3
 10
2021.773
 20
-6672.316
 30
-2442.000
 70
    32
  0
VERTEX
  8
W78LXLIFT
 62
3
 10
2017.916
 20
-6672.507
 30
-2442.000
 70
    32
  0
VERTEX
  8
W78LXLIFT
 62
3
 10
2004.656
 20
-6668.748
 30
-2442.000
 70
    32
  0
SEQEND
  8
W78LXLIFT
  0
POLYLINE
  8
W78LXLIFT
 62
3
 66
     1
 70
     9
  0
VERTEX
  8
W78LXLIFT
 62
3
 10
2003.275
 20
-6663.519
 30
-2439.000
 70
    32
  0
VERTEX
  8
W78LXLIFT
 62
3
 10
1998.942
 20
-6657.216
 30
-2439.000
 70
    32
  0
VERTEX
  8
W78LXLIFT
 62
3
 10
1992.470
 20
-6644.186
 30
-2439.000
 70
    32
  0
VERTEX
  8
W78LXLIFT
 62
3
 10
1990.951
 20
-6639.129
 30
-2439.000
 70
    32
  0
VERTEX
  8
W78LXLIFT
 62
3
 10
1996.091
 20
-6635.055
 30
-2439.000
 70
    32
  0
VERTEX
  8
W78LXLIFT
 62
3
 10
1996.990
 20
-6632.296
 30
-2439.000
 70
    32
  0
VERTEX
  8
W78LXLIFT
 62
3
 10
1994.302
 20
-6609.827
 30
-2439.000
 70
    32
  0
VERTEX
  8
W78LXLIFT
 62
3
 10
1999.304
 20
-6615.459
 30
-2439.000
 70
    32
  0
VERTEX
  8
W78LXLIFT
 62
3
 10
2004.136
 20
-6618.714
 30
-2439.000
 70
    32
  0
VERTEX
  8
W78LXLIFT
 62
3
 10
2010.507
 20
-6613.949
 30
-2439.000
 70
    32
  0
VERTEX
  8
W78LXLIFT
 62
3
 10
2013.932
 20
-6626.476
 30
-2439.000
 70
    32
  0
VERTEX
  8
W78LXLIFT
 62
3
 10
2019.465
 20
-6627.499
 30
-2439.000
 70
    32
  0
VERTEX
  8
W78LXLIFT
 62
3
 10
2037.925
 20
-6626.737
 30
-2439.000
 70
    32
  0
VERTEX
  8
W78LXLIFT
 62
3
 10
2046.660
 20
-6631.418
 30
-2439.000
 70
    32
  0
VERTEX
  8
W78LXLIFT
 62
3
 10
2049.696
 20
-6634.042
 30
-2439.000
 70
    32
  0
VERTEX
  8
W78LXLIFT
 62
3
 10
2058.047
 20
-6651.294
 30
-2439.000
 70
    32
  0
VERTEX
  8
W78LXLIFT
 62
3
 10
2058.457
 20
-6655.610
 30
-2439.000
 70
    32
  0
VERTEX
  8
W78LXLIFT
 62
3
 10
2056.710
 20
-6660.130
 30
-2439.000
 70
    32
  0
VERTEX
  8
W78LXLIFT
 62
3
 10
2053.582
 20
-6663.528
 30
-2439.000
 70
    32
  0
VERTEX
  8
W78LXLIFT
 62
3
 10
2048.458
 20
-6666.821
 30
-2439.000
 70
    32
  0
VERTEX
  8
W78LXLIFT
 62
3
 10
2046.411
 20
-6667.714
 30
-2439.000
 70
    32
  0
VERTEX
  8
W78LXLIFT
 62
3
 10
2040.751
 20
-6666.782
 30
-2439.000
 70
    32
  0
VERTEX
  8
W78LXLIFT
 62
3
 10
2032.813
 20
-6668.830
 30
-2439.000
 70
    32
  0
VERTEX
  8
W78LXLIFT
 62
3
 10
2030.925
 20
-6668.072
 30
-2439.000
 70
    32
  0
VERTEX
  8
W78LXLIFT
 62
3
 10
2019.055
 20
-6671.596
 30
-2439.000
 70
    32
  0
VERTEX
  8
W78LXLIFT
 62
3
 10
2012.322
 20
-6669.705
 30
-2439.000
 70
    32
  0
VERTEX
  8
W78LXLIFT
 62
3
 10
2006.401
 20
-6666.270
 30
-2439.000
 70
    32
  0
SEQEND
  8
W78LXLIFT
  0
POLYLINE
  8
W78LXLIFT
 62
3
 66
     1
 70
     9
  0
VERTEX
  8
W78LXLIFT
 62
3
 10
2001.893
 20
-6659.179
 30
-2436.000
 70
    32
  0
VERTEX
  8
W78LXLIFT
 62
3
 10
1995.421
 20
-6640.362
 30
-2436.000
 70
    32
  0
VERTEX
  8
W78LXLIFT
 62
3
 10
1999.243
 20
-6630.579
 30
-2436.000
 70
    32
  0
VERTEX
  8
W78LXLIFT
 62
3
 10
2009.833
 20
-6625.325
 30
-2436.000
 70
    32
  0
VERTEX
  8
W78LXLIFT
 62
3
 10
2016.486
 20
-6628.468
 30
-2436.000
 70
    32
  0
VERTEX
  8
W78LXLIFT
 62
3
 10
2025.320
 20
-6629.752
 30
-2436.000
 70
    32
  0
VERTEX
  8
W78LXLIFT
 62
3
 10
2037.577
 20
-6626.820
 30
-2436.000
 70
    32
  0
VERTEX
  8
W78LXLIFT
 62
3
 10
2040.405
 20
-6628.310
 30
-2436.000
 70
    32
  0
VERTEX
  8
W78LXLIFT
 62
3
 10
2048.145
 20
-6634.193
 30
-2436.000
 70
    32
  0
VERTEX
  8
W78LXLIFT
 62
3
 10
2055.742
 20
-6649.269
 30
-2436.000
 70
    32
  0
VERTEX
  8
W78LXLIFT
 62
3
 10
2058.417
 20
-6655.854
 30
-2436.000
 70
    32
  0
VERTEX
  8
W78LXLIFT
 62
3
 10
2056.905
 20
-6659.872
 30
-2436.000
 70
    32
  0
VERTEX
  8
W78LXLIFT
 62
3
 10
2047.264
 20
-6667.673
 30
-2436.000
 70
    32
  0
VERTEX
  8
W78LXLIFT
 62
3
 10
2027.774
 20
-6667.878
 30
-2436.000
 70
    32
  0
VERTEX
  8
W78LXLIFT
 62
3
 10
2025.066
 20
-6669.821
 30
-2436.000
 70
    32
  0
VERTEX
  8
W78LXLIFT
 62
3
 10
2018.642
 20
-6669.447
 30
-2436.000
 70
    32
  0
SEQEND
  8
W78LXLIFT
  0
POLYLINE
  8
W78LXLIFT
 62
3
 66
     1
 70
     9
  0
VERTEX
  8
W78LXLIFT
 62
3
 10
2011.335
 20
-6662.039
 30
-2433.000
 70
    32
  0
VERTEX
  8
W78LXLIFT
 62
3
 10
2005.492
 20
-6654.384
 30
-2433.000
 70
    32
  0
VERTEX
  8
W78LXLIFT
 62
3
 10
2000.048
 20
-6642.432
 30
-2433.000
 70
    32
  0
VERTEX
  8
W78LXLIFT
 62
3
 10
2000.510
 20
-6636.524
 30
-2433.000
 70
    32
  0
VERTEX
  8
W78LXLIFT
 62
3
 10
2006.080
 20
-6634.094
 30
-2433.000
 70
    32
  0
VERTEX
  8
W78LXLIFT
 62
3
 10
2018.757
 20
-6631.618
 30
-2433.000
 70
    32
  0
VERTEX
  8
W78LXLIFT
 62
3
 10
2035.524
 20
-6627.076
 30
-2433.000
 70
    32
  0
VERTEX
  8
W78LXLIFT
 62
3
 10
2037.877
 20
-6626.956
 30
-2433.000
 70
    32
  0
VERTEX
  8
W78LXLIFT
 62
3
 10
2044.194
 20
-6633.574
 30
-2433.000
 70
    32
  0
VERTEX
  8
W78LXLIFT
 62
3
 10
2055.885
 20
-6650.104
 30
-2433.000
 70
    32
  0
VERTEX
  8
W78LXLIFT
 62
3
 10
2057.047
 20
-6654.149
 30
-2433.000
 70
    32
  0
VERTEX
  8
W78LXLIFT
 62
3
 10
2057.110
 20
-6659.332
 30
-2433.000
 70
    32
  0
VERTEX
  8
W78LXLIFT
 62
3
 10
2050.790
 20
-6665.330
 30
-2433.000
 70
    32
  0
VERTEX
  8
W78LXLIFT
 62
3
 10
2046.096
 20
-6668.117
 30
-2433.000
 70
    32
  0
VERTEX
  8
W78LXLIFT
 62
3
 10
2039.439
 20
-6667.360
 30
-2433.000
 70
    32
  0
VERTEX
  8
W78LXLIFT
 62
3
 10
2031.261
 20
-6668.132
 30
-2433.000
 70
    32
  0
VERTEX
  8
W78LXLIFT
 62
3
 10
2022.309
 20
-6667.421
 30
-2433.000
 70
    32
  0
VERTEX
  8
W78LXLIFT
 62
3
 10
2014.879
 20
-6665.181
 30
-2433.000
 70
    32
  0
SEQEND
  8
W78LXLIFT
  0
POLYLINE
  8
W78LXLIFT
 62
3
 66
     1
 70
     9
  0
VERTEX
  8
W78LXLIFT
 62
3
 10
2008.927
 20
-6652.698
 30
-2430.000
 70
    32
  0
VERTEX
  8
W78LXLIFT
 62
3
 10
2008.655
 20
-6639.190
 30
-2430.000
 70
    32
  0
VERTEX
  8
W78LXLIFT
 62
3
 10
2009.955
 20
-6636.488
 30
-2430.000
 70
    32
  0
VERTEX
  8
W78LXLIFT
 62
3
 10
2026.176
 20
-6632.212
 30
-2430.000
 70
    32
  0
VERTEX
  8
W78LXLIFT
 62
3
 10
2031.988
 20
-6631.283
 30
-2430.000
 70
    32
  0
VERTEX
  8
W78LXLIFT
 62
3
 10
2033.066
 20
-6628.888
 30
-2430.000
 70
    32
  0
VERTEX
  8
W78LXLIFT
 62
3
 10
2036.887
 20
-6627.030
 30
-2430.000
 70
    32
  0
VERTEX
  8
W78LXLIFT
 62
3
 10
2037.834
 20
-6627.529
 30
-2430.000
 70
    32
  0
VERTEX
  8
W78LXLIFT
 62
3
 10
2044.208
 20
-6634.152
 30
-2430.000
 70
    32
  0
VERTEX
  8
W78LXLIFT
 62
3
 10
2052.929
 20
-6649.995
 30
-2430.000
 70
    32
  0
VERTEX
  8
W78LXLIFT
 62
3
 10
2052.782
 20
-6662.920
 30
-2430.000
 70
    32
  0
VERTEX
  8
W78LXLIFT
 62
3
 10
2049.490
 20
-6664.693
 30
-2430.000
 70
    32
  0
VERTEX
  8
W78LXLIFT
 62
3
 10
2034.487
 20
-6666.768
 30
-2430.000
 70
    32
  0
VERTEX
  8
W78LXLIFT
 62
3
 10
2026.250
 20
-6665.755
 30
-2430.000
 70
    32
  0
VERTEX
  8
W78LXLIFT
 62
3
 10
2016.782
 20
-6661.795
 30
-2430.000
 70
    32
  0
SEQEND
  8
W78LXLIFT
  0
POLYLINE
  8
W78LXLIFT
 62
3
 66
     1
 70
     9
  0
VERTEX
  8
W78LXLIFT
 62
3
 10
2013.371
 20
-6647.659
 30
-2427.000
 70
    32
  0
VERTEX
  8
W78LXLIFT
 62
3
 10
2014.847
 20
-6637.997
 30
-2427.000
 70
    32
  0
VERTEX
  8
W78LXLIFT
 62
3
 10
2018.639
 20
-6636.771
 30
-2427.000
 70
    32
  0
VERTEX
  8
W78LXLIFT
 62
3
 10
2030.744
 20
-6634.628
 30
-2427.000
 70
    32
  0
VERTEX
  8
W78LXLIFT
 62
3
 10
2036.201
 20
-6635.200
 30
-2427.000
 70
    32
  0
VERTEX
  8
W78LXLIFT
 62
3
 10
2039.507
 20
-6636.941
 30
-2427.000
 70
    32
  0
VERTEX
  8
W78LXLIFT
 62
3
 10
2040.792
 20
-6642.377
 30
-2427.000
 70
    32
  0
VERTEX
  8
W78LXLIFT
 62
3
 10
2038.200
 20
-6650.223
 30
-2427.000
 70
    32
  0
VERTEX
  8
W78LXLIFT
 62
3
 10
2032.113
 20
-6658.146
 30
-2427.000
 70
    32
  0
VERTEX
  8
W78LXLIFT
 62
3
 10
2028.921
 20
-6659.688
 30
-2427.000
 70
    32
  0
VERTEX
  8
W78LXLIFT
 62
3
 10
2019.592
 20
-6656.846
 30
-2427.000
 70
    32
  0
SEQEND
  8
W78LXLIFT
  0
POLYLINE
  8
W78LXLIFT
 62
3
 66
     1
 70
     9
  0
VERTEX
  8
W78LXLIFT
 62
3
 10
2021.747
 20
-6643.704
 30
-2424.000
 70
    32
  0
VERTEX
  8
W78LXLIFT
 62
3
 10
2024.565
 20
-6641.120
 30
-2424.000
 70
    32
  0
VERTEX
  8
W78LXLIFT
 62
3
 10
2028.025
 20
-6641.255
 30
-2424.000
 70
    32
  0
VERTEX
  8
W78LXLIFT
 62
3
 10
2030.822
 20
-6644.110
 30
-2424.000
 70
    32
  0
VERTEX
  8
W78LXLIFT
 62
3
 10
2031.222
 20
-6648.312
 30
-2424.000
 70
    32
  0
VERTEX
  8
W78LXLIFT
 62
3
 10
2027.891
 20
-6650.702
 30
-2424.000
 70
    32
  0
VERTEX
  8
W78LXLIFT
 62
3
 10
2023.814
 20
-6651.011
 30
-2424.000
 70
    32
  0
VERTEX
  8
W78LXLIFT
 62
3
 10
2021.052
 20
-6647.943
 30
-2424.000
 70
    32
  0
SEQEND
  8
W78LXLIFT
  0
POLYLINE
  8
W78LXLIFT
 62
3
 66
     1
 70
     9
  0
VERTEX
  8
W78LXLIFT
 62
3
 10
1947.720
 20
-6533.860
 30
-2473.440
 70
    32
  0
VERTEX
  8
W78LXLIFT
 62
3
 10
1958.858
 20
-6530.067
 30
-2473.461
 70
    32
  0
VERTEX
  8
W78LXLIFT
 62
3
 10
1961.098
 20
-6542.481
 30
-2472.502
 70
    32
  0
VERTEX
  8
W78LXLIFT
 62
3
 10
1970.292
 20
-6543.715
 30
-2472.553
 70
    32
  0
VERTEX
  8
W78LXLIFT
 62
3
 10
1981.778
 20
-6537.545
 30
-2472.995
 70
    32
  0
VERTEX
  8
W78LXLIFT
 62
3
 10
1987.776
 20
-6533.527
 30
-2471.889
 70
    32
  0
VERTEX
  8
W78LXLIFT
 62
3
 10
1997.887
 20
-6525.300
 30
-2471.955
 70
    32
  0
VERTEX
  8
W78LXLIFT
 62
3
 10
1997.004
 20
-6522.824
 30
-2471.968
 70
    32
  0
VERTEX
  8
W78LXLIFT
 62
3
 10
1999.419
 20
-6515.270
 30
-2472.018
 70
    32
  0
VERTEX
  8
W78LXLIFT
 62
3
 10
1998.684
 20
-6512.873
 30
-2472.066
 70
    32
  0
VERTEX
  8
W78LXLIFT
 62
3
 10
1999.648
 20
-6508.538
 30
-2472.044
 70
    32
  0
VERTEX
  8
W78LXLIFT
 62
3
 10
2005.140
 20
-6504.868
 30
-2472.025
 70
    32
  0
VERTEX
  8
W78LXLIFT
 62
3
 10
1998.976
 20
-6489.884
 30
-2471.950
 70
    32
  0
VERTEX
  8
W78LXLIFT
 62
3
 10
1990.105
 20
-6473.185
 30
-2471.866
 70
    32
  0
VERTEX
  8
W78LXLIFT
 62
3
 10
1994.509
 20
-6464.350
 30
-2472.364
 70
    32
  0
VERTEX
  8
W78LXLIFT
 62
3
 10
1998.648
 20
-6457.528
 30
-2472.041
 70
    32
  0
VERTEX
  8
W78LXLIFT
 62
3
 10
2004.600
 20
-6453.214
 30
-2472.032
 70
    32
  0
VERTEX
  8
W78LXLIFT
 62
3
 10
2017.550
 20
-6450.606
 30
-2471.297
 70
    32
  0
VERTEX
  8
W78LXLIFT
 62
3
 10
2023.124
 20
-6447.407
 30
-2470.914
 70
    32
  0
VERTEX
  8
W78LXLIFT
 62
3
 10
2023.570
 20
-6433.098
 30
-2469.967
 70
    32
  0
VERTEX
  8
W78LXLIFT
 62
3
 10
2027.347
 20
-6427.846
 30
-2469.617
 70
    32
  0
VERTEX
  8
W78LXLIFT
 62
3
 10
2027.954
 20
-6427.182
 30
-2469.567
 70
    32
  0
VERTEX
  8
W78LXLIFT
 62
3
 10
2033.589
 20
-6421.013
 30
-2469.062
 70
    32
  0
VERTEX
  8
W78LXLIFT
 62
3
 10
2034.313
 20
-6420.380
 30
-2468.673
 70
    32
  0
VERTEX
  8
W78LXLIFT
 62
3
 10
2034.655
 20
-6414.736
 30
-2467.898
 70
    32
  0
VERTEX
  8
W78LXLIFT
 62
3
 10
2041.760
 20
-6408.897
 30
-2467.401
 70
    32
  0
VERTEX
  8
W78LXLIFT
 62
3
 10
2048.940
 20
-6404.995
 30
-2466.969
 70
    32
  0
VERTEX
  8
W78LXLIFT
 62
3
 10
2053.852
 20
-6407.981
 30
-2466.870
 70
    32
  0
VERTEX
  8
W78LXLIFT
 62
3
 10
2056.249
 20
-6407.998
 30
-2466.772
 70
    32
  0
VERTEX
  8
W78LXLIFT
 62
3
 10
2060.988
 20
-6412.929
 30
-2466.748
 70
    32
  0
VERTEX
  8
W78LXLIFT
 62
3
 10
2067.522
 20
-6410.654
 30
-2466.399
 70
    32
  0
VERTEX
  8
W78LXLIFT
 62
3
 10
2070.048
 20
-6406.373
 30
-2466.145
 70
    32
  0
VERTEX
  8
W78LXLIFT
 62
3
 10
2059.088
 20
-6387.435
 30
-2466.701
 70
    32
  0
VERTEX
  8
W78LXLIFT
 62
3
 10
2059.398
 20
-6383.552
 30
-2466.759
 70
    32
  0
VERTEX
  8
W78LXLIFT
 62
3
 10
2057.992
 20
-6377.140
 30
-2466.332
 70
    32
  0
VERTEX
  8
W78LXLIFT
 62
3
 10
2048.069
 20
-6367.668
 30
-2465.412
 70
    32
  0
VERTEX
  8
W78LXLIFT
 62
3
 10
2047.359
 20
-6357.002
 30
-2464.976
 70
    32
  0
VERTEX
  8
W78LXLIFT
 62
3
 10
2043.072
 20
-6353.594
 30
-2464.771
 70
    32
  0
VERTEX
  8
W78LXLIFT
 62
3
 10
2041.223
 20
-6350.344
 30
-2464.612
 70
    32
  0
VERTEX
  8
W78LXLIFT
 62
3
 10
2035.078
 20
-6350.928
 30
-2464.536
 70
    32
  0
VERTEX
  8
W78LXLIFT
 62
3
 10
2028.285
 20
-6354.633
 30
-2464.573
 70
    32
  0
VERTEX
  8
W78LXLIFT
 62
3
 10
2029.231
 20
-6364.733
 30
-2464.991
 70
    32
  0
VERTEX
  8
W78LXLIFT
 62
3
 10
2023.744
 20
-6370.655
 30
-2466.218
 70
    32
  0
VERTEX
  8
W78LXLIFT
 62
3
 10
2019.156
 20
-6379.852
 30
-2466.862
 70
    32
  0
VERTEX
  8
W78LXLIFT
 62
3
 10
2023.343
 20
-6385.777
 30
-2466.938
 70
    32
  0
VERTEX
  8
W78LXLIFT
 62
3
 10
2022.732
 20
-6389.399
 30
-2467.135
 70
    32
  0
VERTEX
  8
W78LXLIFT
 62
3
 10
2015.349
 20
-6400.986
 30
-2468.022
 70
    32
  0
VERTEX
  8
W78LXLIFT
 62
3
 10
2001.913
 20
-6401.627
 30
-2468.689
 70
    32
  0
VERTEX
  8
W78LXLIFT
 62
3
 10
1992.647
 20
-6409.302
 30
-2469.484
 70
    32
  0
VERTEX
  8
W78LXLIFT
 62
3
 10
1998.150
 20
-6419.331
 30
-2468.205
 70
    32
  0
VERTEX
  8
W78LXLIFT
 62
3
 10
1997.644
 20
-6437.403
 30
-2468.486
 70
    32
  0
VERTEX
  8
W78LXLIFT
 62
3
 10
1995.796
 20
-6443.395
 30
-2471.691
 70
    32
  0
VERTEX
  8
W78LXLIFT
 62
3
 10
1989.162
 20
-6448.667
 30
-2472.036
 70
    32
  0
VERTEX
  8
W78LXLIFT
 62
3
 10
1982.325
 20
-6448.305
 30
-2472.215
 70
    32
  0
VERTEX
  8
W78LXLIFT
 62
3
 10
1977.066
 20
-6437.173
 30
-2471.622
 70
    32
  0
VERTEX
  8
W78LXLIFT
 62
3
 10
1981.421
 20
-6428.033
 30
-2471.603
 70
    32
  0
VERTEX
  8
W78LXLIFT
 62
3
 10
1980.682
 20
-6423.536
 30
-2471.547
 70
    32
  0
VERTEX
  8
W78LXLIFT
 62
3
 10
1974.960
 20
-6420.984
 30
-2471.432
 70
    32
  0
VERTEX
  8
W78LXLIFT
 62
3
 10
1974.376
 20
-6419.271
 30
-2471.560
 70
    32
  0
VERTEX
  8
W78LXLIFT
 62
3
 10
1971.662
 20
-6414.186
 30
-2470.605
 70
    32
  0
VERTEX
  8
W78LXLIFT
 62
3
 10
1968.402
 20
-6399.117
 30
-2468.841
 70
    32
  0
VERTEX
  8
W78LXLIFT
 62
3
 10
1969.763
 20
-6390.622
 30
-2469.780
 70
    32
  0
VERTEX
  8
W78LXLIFT
 62
3
 10
1975.113
 20
-6378.869
 30
-2471.063
 70
    32
  0
VERTEX
  8
W78LXLIFT
 62
3
 10
1979.099
 20
-6370.960
 30
-2470.505
 70
    32
  0
VERTEX
  8
W78LXLIFT
 62
3
 10
1979.099
 20
-6370.960
 30
-2470.705
 70
    32
  0
VERTEX
  8
W78LXLIFT
 62
3
 10
1983.161
 20
-6363.145
 30
-2470.705
 70
    32
  0
VERTEX
  8
W78LXLIFT
 62
3
 10
1986.269
 20
-6354.319
 30
-2469.603
 70
    32
  0
VERTEX
  8
W78LXLIFT
 62
3
 10
1989.985
 20
-6350.619
 30
-2469.655
 70
    32
  0
VERTEX
  8
W78LXLIFT
 62
3
 10
1994.037
 20
-6352.184
 30
-2469.710
 70
    32
  0
VERTEX
  8
W78LXLIFT
 62
3
 10
2000.124
 20
-6358.903
 30
-2469.820
 70
    32
  0
VERTEX
  8
W78LXLIFT
 62
3
 10
2005.123
 20
-6358.871
 30
-2469.876
 70
    32
  0
VERTEX
  8
W78LXLIFT
 62
3
 10
2013.327
 20
-6361.739
 30
-2469.985
 70
    32
  0
VERTEX
  8
W78LXLIFT
 62
3
 10
2016.626
 20
-6359.035
 30
-2470.005
 70
    32
  0
VERTEX
  8
W78LXLIFT
 62
3
 10
2018.267
 20
-6351.487
 30
-2469.976
 70
    32
  0
VERTEX
  8
W78LXLIFT
 62
3
 10
2006.599
 20
-6347.369
 30
-2469.820
 70
    32
  0
VERTEX
  8
W78LXLIFT
 62
3
 10
2002.809
 20
-6343.479
 30
-2469.753
 70
    32
  0
VERTEX
  8
W78LXLIFT
 62
3
 10
2002.882
 20
-6335.402
 30
-2469.703
 70
    32
  0
VERTEX
  8
W78LXLIFT
 62
3
 10
1998.402
 20
-6333.611
 30
-2469.436
 70
    32
  0
VERTEX
  8
W78LXLIFT
 62
3
 10
1994.816
 20
-6325.502
 30
-2469.546
 70
    32
  0
VERTEX
  8
W78LXLIFT
 62
3
 10
1989.643
 20
-6318.703
 30
-2469.264
 70
    32
  0
VERTEX
  8
W78LXLIFT
 62
3
 10
1986.961
 20
-6309.171
 30
-2468.849
 70
    32
  0
VERTEX
  8
W78LXLIFT
 62
3
 10
1982.047
 20
-6304.344
 30
-2468.655
 70
    32
  0
VERTEX
  8
W78LXLIFT
 62
3
 10
1980.480
 20
-6298.997
 30
-2468.588
 70
    32
  0
VERTEX
  8
W78LXLIFT
 62
3
 10
1974.694
 20
-6299.396
 30
-2468.051
 70
    32
  0
VERTEX
  8
W78LXLIFT
 62
3
 10
1969.165
 20
-6304.034
 30
-2468.117
 70
    32
  0
VERTEX
  8
W78LXLIFT
 62
3
 10
1972.070
 20
-6310.626
 30
-2469.391
 70
    32
  0
VERTEX
  8
W78LXLIFT
 62
3
 10
1969.106
 20
-6318.967
 30
-2469.404
 70
    32
  0
VERTEX
  8
W78LXLIFT
 62
3
 10
1965.440
 20
-6319.895
 30
-2469.238
 70
    32
  0
VERTEX
  8
W78LXLIFT
 62
3
 10
1957.228
 20
-6313.982
 30
-2468.711
 70
    32
  0
VERTEX
  8
W78LXLIFT
 62
3
 10
1948.160
 20
-6305.616
 30
-2469.168
 70
    32
  0
VERTEX
  8
W78LXLIFT
 62
3
 10
1942.025
 20
-6302.254
 30
-2467.398
 70
    32
  0
VERTEX
  8
W78LXLIFT
 62
3
 10
1933.749
 20
-6291.312
 30
-2466.592
 70
    32
  0
VERTEX
  8
W78LXLIFT
 62
3
 10
1928.696
 20
-6281.772
 30
-2465.976
 70
    32
  0
VERTEX
  8
W78LXLIFT
 62
3
 10
1920.351
 20
-6285.032
 30
-2465.775
 70
    32
  0
VERTEX
  8
W78LXLIFT
 62
3
 10
1917.678
 20
-6288.008
 30
-2465.794
 70
    32
  0
VERTEX
  8
W78LXLIFT
 62
3
 10
1921.937
 20
-6301.309
 30
-2466.537
 70
    32
  0
VERTEX
  8
W78LXLIFT
 62
3
 10
1929.269
 20
-6309.301
 30
-2467.179
 70
    32
  0
VERTEX
  8
W78LXLIFT
 62
3
 10
1935.146
 20
-6317.669
 30
-2469.062
 70
    32
  0
VERTEX
  8
W78LXLIFT
 62
3
 10
1936.879
 20
-6323.780
 30
-2469.656
 70
    32
  0
VERTEX
  8
W78LXLIFT
 62
3
 10
1944.185
 20
-6326.739
 30
-2468.836
 70
    32
  0
VERTEX
  8
W78LXLIFT
 62
3
 10
1953.660
 20
-6333.908
 30
-2468.919
 70
    32
  0
VERTEX
  8
W78LXLIFT
 62
3
 10
1959.418
 20
-6336.504
 30
-2469.258
 70
    32
  0
VERTEX
  8
W78LXLIFT
 62
3
 10
1968.107
 20
-6351.646
 30
-2470.086
 70
    32
  0
VERTEX
  8
W78LXLIFT
 62
3
 10
1964.069
 20
-6357.886
 30
-2470.410
 70
    32
  0
VERTEX
  8
W78LXLIFT
 62
3
 10
1956.998
 20
-6361.088
 30
-2470.020
 70
    32
  0
VERTEX
  8
W78LXLIFT
 62
3
 10
1944.220
 20
-6365.209
 30
-2469.340
 70
    32
  0
VERTEX
  8
W78LXLIFT
 62
3
 10
1944.222
 20
-6373.916
 30
-2469.216
 70
    32
  0
VERTEX
  8
W78LXLIFT
 62
3
 10
1938.274
 20
-6380.686
 30
-2469.666
 70
    32
  0
VERTEX
  8
W78LXLIFT
 62
3
 10
1934.148
 20
-6392.754
 30
-2469.807
 70
    32
  0
VERTEX
  8
W78LXLIFT
 62
3
 10
1939.214
 20
-6402.882
 30
-2470.843
 70
    32
  0
VERTEX
  8
W78LXLIFT
 62
3
 10
1951.329
 20
-6434.391
 30
-2471.755
 70
    32
  0
VERTEX
  8
W78LXLIFT
 62
3
 10
1951.844
 20
-6435.563
 30
-2470.893
 70
    32
  0
VERTEX
  8
W78LXLIFT
 62
3
 10
1948.491
 20
-6445.584
 30
-2471.004
 70
    32
  0
VERTEX
  8
W78LXLIFT
 62
3
 10
1954.431
 20
-6456.483
 30
-2471.432
 70
    32
  0
VERTEX
  8
W78LXLIFT
 62
3
 10
1960.174
 20
-6462.651
 30
-2471.713
 70
    32
  0
VERTEX
  8
W78LXLIFT
 62
3
 10
1962.119
 20
-6466.423
 30
-2471.859
 70
    32
  0
VERTEX
  8
W78LXLIFT
 62
3
 10
1955.521
 20
-6477.801
 30
-2471.756
 70
    32
  0
VERTEX
  8
W78LXLIFT
 62
3
 10
1949.674
 20
-6485.442
 30
-2471.636
 70
    32
  0
VERTEX
  8
W78LXLIFT
 62
3
 10
1950.773
 20
-6494.794
 30
-2473.312
 70
    32
  0
VERTEX
  8
W78LXLIFT
 62
3
 10
1950.756
 20
-6509.726
 30
-2473.229
 70
    32
  0
VERTEX
  8
W78LXLIFT
 62
3
 10
1948.570
 20
-6511.660
 30
-2471.180
 70
    32
  0
VERTEX
  8
W78LXLIFT
 62
3
 10
1943.240
 20
-6512.410
 30
-2471.320
 70
    32
  0
VERTEX
  8
W78LXLIFT
 62
3
 10
1930.740
 20
-6536.560
 30
-2472.370
 70
    32
  0
SEQEND
  8
W78LXLIFT
  0
POLYLINE
  8
W78LXLIFT
 62
3
 66
     1
 70
     9
  0
VERTEX
  8
W78LXLIFT
 62
3
 10
1994.575
 20
-6463.871
 30
-2486.757
 70
    32
  0
VERTEX
  8
W78LXLIFT
 62
3
 10
1997.713
 20
-6458.408
 30
-2487.201
 70
    32
  0
VERTEX
  8
W78LXLIFT
 62
3
 10
2004.708
 20
-6452.875
 30
-2488.123
 70
    32
  0
VERTEX
  8
W78LXLIFT
 62
3
 10
2015.800
 20
-6447.887
 30
-2489.251
 70
    32
  0
VERTEX
  8
W78LXLIFT
 62
3
 10
2021.504
 20
-6439.528
 30
-2490.340
 70
    32
  0
VERTEX
  8
W78LXLIFT
 62
3
 10
2030.402
 20
-6426.530
 30
-2491.103
 70
    32
  0
VERTEX
  8
W78LXLIFT
 62
3
 10
2036.404
 20
-6414.050
 30
-2491.509
 70
    32
  0
VERTEX
  8
W78LXLIFT
 62
3
 10
2035.952
 20
-6407.220
 30
-2491.661
 70
    32
  0
VERTEX
  8
W78LXLIFT
 62
3
 10
2045.099
 20
-6391.312
 30
-2492.207
 70
    32
  0
VERTEX
  8
W78LXLIFT
 62
3
 10
2059.719
 20
-6379.020
 30
-2491.009
 70
    32
  0
VERTEX
  8
W78LXLIFT
 62
3
 10
2050.275
 20
-6368.570
 30
-2491.004
 70
    32
  0
VERTEX
  8
W78LXLIFT
 62
3
 10
2031.574
 20
-6361.179
 30
-2491.014
 70
    32
  0
VERTEX
  8
W78LXLIFT
 62
3
 10
2026.648
 20
-6379.007
 30
-2492.154
 70
    32
  0
VERTEX
  8
W78LXLIFT
 62
3
 10
2021.250
 20
-6391.193
 30
-2491.766
 70
    32
  0
VERTEX
  8
W78LXLIFT
 62
3
 10
2008.238
 20
-6407.116
 30
-2491.149
 70
    32
  0
VERTEX
  8
W78LXLIFT
 62
3
 10
1999.807
 20
-6410.905
 30
-2490.903
 70
    32
  0
VERTEX
  8
W78LXLIFT
 62
3
 10
1999.620
 20
-6430.629
 30
-2489.763
 70
    32
  0
VERTEX
  8
W78LXLIFT
 62
3
 10
1992.961
 20
-6445.692
 30
-2488.024
 70
    32
  0
VERTEX
  8
W78LXLIFT
 62
3
 10
1984.218
 20
-6447.922
 30
-2487.285
 70
    32
  0
SEQEND
  8
W78LXLIFT
  0
POINT
  8
W78LXLIFT
 62
3
 10
1989.829
 20
-6499.452
 30
-2473.200
  0
POLYLINE
  8
W78LXLIFT
 62
3
 66
     1
 70
     9
  0
VERTEX
  8
W78LXLIFT
 62
3
 10
1989.829
 20
-6497.242
 30
-2473.200
 70
    32
  0
VERTEX
  8
W78LXLIFT
 62
3
 10
1991.578
 20
-6500.422
 30
-2473.200
 70
    32
  0
VERTEX
  8
W78LXLIFT
 62
3
 10
1988.079
 20
-6500.420
 30
-2473.200
 70
    32
  0
SEQEND
  8
W78LXLIFT
  0
POINT
  8
W78LXLIFT
 62
3
 10
1982.598
 20
-6416.581
 30
-2540.834
  0
POLYLINE
  8
W78LXLIFT
 62
3
 66
     1
 70
     8
  0
VERTEX
  8
W78LXLIFT
 62
3
 10
1985.598
 20
-6416.581
 30
-2540.834
 70
    32
  0
VERTEX
  8
W78LXLIFT
 62
3
 10
1985.587
 20
-6416.319
 30
-2540.834
 70
    32
  0
VERTEX
  8
W78LXLIFT
 62
3
 10
1985.553
 20
-6416.060
 30
-2540.834
 70
    32
  0
VERTEX
  8
W78LXLIFT
 62
3
 10
1985.496
 20
-6415.804
 30
-2540.834
 70
    32
  0
VERTEX
  8
W78LXLIFT
 62
3
 10
1985.417
 20
-6415.555
 30
-2540.834
 70
    32
  0
VERTEX
  8
W78LXLIFT
 62
3
 10
1985.317
 20
-6415.313
 30
-2540.834
 70
    32
  0
VERTEX
  8
W78LXLIFT
 62
3
 10
1985.196
 20
-6415.081
 30
-2540.834
 70
    32
  0
VERTEX
  8
W78LXLIFT
 62
3
 10
1985.056
 20
-6414.860
 30
-2540.834
 70
    32
  0
VERTEX
  8
W78LXLIFT
 62
3
 10
1984.896
 20
-6414.652
 30
-2540.834
 70
    32
  0
VERTEX
  8
W78LXLIFT
 62
3
 10
1984.720
 20
-6414.459
 30
-2540.834
 70
    32
  0
VERTEX
  8
W78LXLIFT
 62
3
 10
1984.527
 20
-6414.283
 30
-2540.834
 70
    32
  0
VERTEX
  8
W78LXLIFT
 62
3
 10
1984.319
 20
-6414.123
 30
-2540.834
 70
    32
  0
VERTEX
  8
W78LXLIFT
 62
3
 10
1984.098
 20
-6413.983
 30
-2540.834
 70
    32
  0
VERTEX
  8
W78LXLIFT
 62
3
 10
1983.866
 20
-6413.862
 30
-2540.834
 70
    32
  0
VERTEX
  8
W78LXLIFT
 62
3
 10
1983.624
 20
-6413.762
 30
-2540.834
 70
    32
  0
VERTEX
  8
W78LXLIFT
 62
3
 10
1983.375
 20
-6413.683
 30
-2540.834
 70
    32
  0
VERTEX
  8
W78LXLIFT
 62
3
 10
1983.119
 20
-6413.626
 30
-2540.834
 70
    32
  0
VERTEX
  8
W78LXLIFT
 62
3
 10
1982.860
 20
-6413.592
 30
-2540.834
 70
    32
  0
VERTEX
  8
W78LXLIFT
 62
3
 10
1982.598
 20
-6413.581
 30
-2540.834
 70
    32
  0
VERTEX
  8
W78LXLIFT
 62
3
 10
1982.337
 20
-6413.592
 30
-2540.834
 70
    32
  0
VERTEX
  8
W78LXLIFT
 62
3
 10
1982.077
 20
-6413.626
 30
-2540.834
 70
    32
  0
VERTEX
  8
W78LXLIFT
 62
3
 10
1981.822
 20
-6413.683
 30
-2540.834
 70
    32
  0
VERTEX
  8
W78LXLIFT
 62
3
 10
1981.572
 20
-6413.762
 30
-2540.834
 70
    32
  0
VERTEX
  8
W78LXLIFT
 62
3
 10
1981.330
 20
-6413.862
 30
-2540.834
 70
    32
  0
VERTEX
  8
W78LXLIFT
 62
3
 10
1981.098
 20
-6413.983
 30
-2540.834
 70
    32
  0
VERTEX
  8
W78LXLIFT
 62
3
 10
1980.877
 20
-6414.123
 30
-2540.834
 70
    32
  0
VERTEX
  8
W78LXLIFT
 62
3
 10
1980.670
 20
-6414.283
 30
-2540.834
 70
    32
  0
VERTEX
  8
W78LXLIFT
 62
3
 10
1980.477
 20
-6414.459
 30
-2540.834
 70
    32
  0
VERTEX
  8
W78LXLIFT
 62
3
 10
1980.300
 20
-6414.652
 30
-2540.834
 70
    32
  0
VERTEX
  8
W78LXLIFT
 62
3
 10
1980.141
 20
-6414.860
 30
-2540.834
 70
    32
  0
VERTEX
  8
W78LXLIFT
 62
3
 10
1980.000
 20
-6415.081
 30
-2540.834
 70
    32
  0
VERTEX
  8
W78LXLIFT
 62
3
 10
1979.879
 20
-6415.313
 30
-2540.834
 70
    32
  0
VERTEX
  8
W78LXLIFT
 62
3
 10
1979.779
 20
-6415.555
 30
-2540.834
 70
    32
  0
VERTEX
  8
W78LXLIFT
 62
3
 10
1979.700
 20
-6415.804
 30
-2540.834
 70
    32
  0
VERTEX
  8
W78LXLIFT
 62
3
 10
1979.644
 20
-6416.060
 30
-2540.834
 70
    32
  0
VERTEX
  8
W78LXLIFT
 62
3
 10
1979.610
 20
-6416.319
 30
-2540.834
 70
    32
  0
VERTEX
  8
W78LXLIFT
 62
3
 10
1979.598
 20
-6416.581
 30
-2540.834
 70
    32
  0
VERTEX
  8
W78LXLIFT
 62
3
 10
1979.610
 20
-6416.842
 30
-2540.834
 70
    32
  0
VERTEX
  8
W78LXLIFT
 62
3
 10
1979.644
 20
-6417.102
 30
-2540.834
 70
    32
  0
VERTEX
  8
W78LXLIFT
 62
3
 10
1979.700
 20
-6417.357
 30
-2540.834
 70
    32
  0
VERTEX
  8
W78LXLIFT
 62
3
 10
1979.779
 20
-6417.607
 30
-2540.834
 70
    32
  0
VERTEX
  8
W78LXLIFT
 62
3
 10
1979.879
 20
-6417.849
 30
-2540.834
 70
    32
  0
VERTEX
  8
W78LXLIFT
 62
3
 10
1980.000
 20
-6418.081
 30
-2540.834
 70
    32
  0
VERTEX
  8
W78LXLIFT
 62
3
 10
1980.141
 20
-6418.301
 30
-2540.834
 70
    32
  0
VERTEX
  8
W78LXLIFT
 62
3
 10
1980.300
 20
-6418.509
 30
-2540.834
 70
    32
  0
VERTEX
  8
W78LXLIFT
 62
3
 10
1980.477
 20
-6418.702
 30
-2540.834
 70
    32
  0
VERTEX
  8
W78LXLIFT
 62
3
 10
1980.670
 20
-6418.879
 30
-2540.834
 70
    32
  0
VERTEX
  8
W78LXLIFT
 62
3
 10
1980.877
 20
-6419.038
 30
-2540.834
 70
    32
  0
VERTEX
  8
W78LXLIFT
 62
3
 10
1981.098
 20
-6419.179
 30
-2540.834
 70
    32
  0
VERTEX
  8
W78LXLIFT
 62
3
 10
1981.330
 20
-6419.300
 30
-2540.834
 70
    32
  0
VERTEX
  8
W78LXLIFT
 62
3
 10
1981.572
 20
-6419.400
 30
-2540.834
 70
    32
  0
VERTEX
  8
W78LXLIFT
 62
3
 10
1981.822
 20
-6419.478
 30
-2540.834
 70
    32
  0
VERTEX
  8
W78LXLIFT
 62
3
 10
1982.077
 20
-6419.535
 30
-2540.834
 70
    32
  0
VERTEX
  8
W78LXLIFT
 62
3
 10
1982.337
 20
-6419.569
 30
-2540.834
 70
    32
  0
VERTEX
  8
W78LXLIFT
 62
3
 10
1982.598
 20
-6419.581
 30
-2540.834
 70
    32
  0
VERTEX
  8
W78LXLIFT
 62
3
 10
1982.860
 20
-6419.569
 30
-2540.834
 70
    32
  0
VERTEX
  8
W78LXLIFT
 62
3
 10
1983.119
 20
-6419.535
 30
-2540.834
 70
    32
  0
VERTEX
  8
W78LXLIFT
 62
3
 10
1983.375
 20
-6419.478
 30
-2540.834
 70
    32
  0
VERTEX
  8
W78LXLIFT
 62
3
 10
1983.624
 20
-6419.400
 30
-2540.834
 70
    32
  0
VERTEX
  8
W78LXLIFT
 62
3
 10
1983.866
 20
-6419.300
 30
-2540.834
 70
    32
  0
VERTEX
  8
W78LXLIFT
 62
3
 10
1984.098
 20
-6419.179
 30
-2540.834
 70
    32
  0
VERTEX
  8
W78LXLIFT
 62
3
 10
1984.319
 20
-6419.038
 30
-2540.834
 70
    32
  0
VERTEX
  8
W78LXLIFT
 62
3
 10
1984.527
 20
-6418.879
 30
-2540.834
 70
    32
  0
VERTEX
  8
W78LXLIFT
 62
3
 10
1984.720
 20
-6418.702
 30
-2540.834
 70
    32
  0
VERTEX
  8
W78LXLIFT
 62
3
 10
1984.896
 20
-6418.509
 30
-2540.834
 70
    32
  0
VERTEX
  8
W78LXLIFT
 62
3
 10
1985.056
 20
-6418.301
 30
-2540.834
 70
    32
  0
VERTEX
  8
W78LXLIFT
 62
3
 10
1985.196
 20
-6418.081
 30
-2540.834
 70
    32
  0
VERTEX
  8
W78LXLIFT
 62
3
 10
1985.317
 20
-6417.849
 30
-2540.834
 70
    32
  0
VERTEX
  8
W78LXLIFT
 62
3
 10
1985.417
 20
-6417.607
 30
-2540.834
 70
    32
  0
VERTEX
  8
W78LXLIFT
 62
3
 10
1985.496
 20
-6417.357
 30
-2540.834
 70
    32
  0
VERTEX
  8
W78LXLIFT
 62
3
 10
1985.553
 20
-6417.102
 30
-2540.834
 70
    32
  0
VERTEX
  8
W78LXLIFT
 62
3
 10
1985.587
 20
-6416.842
 30
-2540.834
 70
    32
  0
VERTEX
  8
W78LXLIFT
 62
3
 10
1985.598
 20
-6416.581
 30
-2540.834
 70
    32
  0
SEQEND
  8
W78LXLIFT
  0
POINT
  8
W78LXLIFT
 62
3
 10
2294.643
 20
-7475.742
 30
-2491.389
  0
POLYLINE
  8
W78LXLIFT
 62
3
 66
     1
 70
     9
  0
VERTEX
  8
W78LXLIFT
 62
3
 10
2294.643
 20
-7474.009
 30
-2491.389
 70
    32
  0
VERTEX
  8
W78LXLIFT
 62
3
 10
2292.643
 20
-7477.476
 30
-2491.389
 70
    32
  0
VERTEX
  8
W78LXLIFT
 62
3
 10
2296.643
 20
-7477.476
 30
-2491.389
 70
    32
  0
SEQEND
  8
W78LXLIFT
  0
POLYLINE
  8
W78LXLIFT
 62
3
 66
     1
 70
     9
  0
VERTEX
  8
W78LXLIFT
 62
3
 10
2303.141
 20
-7486.952
 30
-2497.706
 70
    32
  0
VERTEX
  8
W78LXLIFT
 62
3
 10
2301.141
 20
-7490.419
 30
-2497.706
 70
    32
  0
VERTEX
  8
W78LXLIFT
 62
3
 10
2305.141
 20
-7490.419
 30
-2497.706
 70
    32
  0
SEQEND
  8
W78LXLIFT
  0
POINT
  8
W78LXLIFT
 62
3
 10
2303.141
 20
-7488.686
 30
-2497.706
  0
POLYLINE
  8
W78LXLIFT
 62
3
 66
     1
 70
     9
  0
VERTEX
  8
W78LXLIFT
 62
3
 10
2302.710
 20
-7519.068
 30
-2492.700
 70
    32
  0
VERTEX
  8
W78LXLIFT
 62
3
 10
2300.710
 20
-7522.534
 30
-2492.700
 70
    32
  0
VERTEX
  8
W78LXLIFT
 62
3
 10
2304.710
 20
-7522.534
 30
-2492.700
 70
    32
  0
SEQEND
  8
W78LXLIFT
  0
POINT
  8
W78LXLIFT
 62
3
 10
2302.710
 20
-7520.801
 30
-2492.700
  0
TEXT
  8
W78LXLIFT
 62
3
 10
1992.998
 20
-6456.489
 30
-2487.077
 40
1.969
  1
Fl -2487.077
 41
 1.0 
  0
TEXT
  8
W78LXLIFT
 62
3
 10
1993.827
 20
-6502.531
 30
-2473.200
 40
1.969
  1
-2473.200
 41
 1.0 
  0
TEXT
  8
W78LXLIFT
 62
3
 10
1994.070
 20
-6497.511
 30
-2473.200
 40
1.969
  1
ST-872R
 41
 1.0 
  0
TEXT
  8
W78LXLIFT
 62
3
 10
1992.121
 20
-6508.757
 30
-2472.045
 40
1.969
  1
BK -2472.045
 41
 1.0 
  0
TEXT
  8
W78LXLIFT
 62
3
 10
2028.598
 20
-6416.581
 30
-2540.834
 40
5.000
  1
-2540.8341
 50
54.889
 41
 1.0 
  0
TEXT
  8
W78LXLIFT
 62
3
 10
1983.598
 20
-6416.581
 30
-2540.834
 40
5.000
  1
41BB78
 50
54.889
 41
 1.0 
  0
TEXT
  8
W78LXLIFT
 62
3
 10
1996.036
 20
-6647.164
 30
-2454.814
 40
3.000
  1
BK -2454.814
 50
-53.858
 41
 1.0 
  0
TEXT
  8
W78LXLIFT
 62
3
 10
2305.086
 20
-7469.299
 30
-2491.389
 40
1.969
  1
-2491.3893
 50
10.188
 41
 1.0 
  0
TEXT
  8
W78LXLIFT
 62
3
 10
2305.857
 20
-7473.658
 30
-2491.389
 40
1.969
  1
ST-586T
 50
10.188
 41
 1.0 
  0
TEXT
  8
W78LXLIFT
 62
3
 10
2311.896
 20
-7488.306
 30
-2497.706
 40
1.969
  1
28CEL828
 50
10.188
 41
 1.0 
  0
TEXT
  8
W78LXLIFT
 62
3
 10
2311.881
 20
-7492.476
 30
-2497.706
 40
1.969
  1
-2497.7056
 50
10.188
 41
 1.0 
  0
TEXT
  8
W78LXLIFT
 62
3
 10
2319.597
 20
-7516.253
 30
-2492.700
 40
1.969
  1
ST-586S
 50
10.188
 41
 1.0 
  0
TEXT
  8
W78LXLIFT
 62
3
 10
2320.529
 20
-7520.422
 30
-2492.700
 40
1.969
  1
-2492.7004
 50
10.188
 41
 1.0 
  0
TEXT
  8
W78LXLIFT
 62
5
 10
2325.383
 20
-7460.907
 30
1000.000
 40
1.969
  1
sol.
 50
11.340
 41
 1.0 
  0
TEXT
  8
W78LXLIFT
 62
5
 10
2304.791
 20
-7464.913
 30
-2503.389
 40
1.969
  1
-2503.3893
 50
11.340
 41
 1.0 
  0
TEXT
  8
W78LXLIFT
 62
5
 10
2322.924
 20
-7522.739
 30
-2503.700
 40
1.969
  1
-2503.7004 sol.
 50
11.340
 41
 1.0 
  0
POLYLINE
  8
W78LXLIFT
 62
2
 66
     1
 70
     9
  0
VERTEX
  8
W78LXLIFT
 62
2
 10
1927.375
 20
-6047.333
 30
-2560.854
 70
    32
  0
VERTEX
  8
W78LXLIFT
 62
2
 10
1935.392
 20
-6038.796
 30
-2561.903
 70
    32
  0
VERTEX
  8
W78LXLIFT
 62
2
 10
1940.349
 20
-6029.590
 30
-2561.221
 70
    32
  0
VERTEX
  8
W78LXLIFT
 62
2
 10
1958.354
 20
-6000.526
 30
-2554.698
 70
    32
  0
VERTEX
  8
W78LXLIFT
 62
2
 10
1957.444
 20
-5982.834
 30
-2554.023
 70
    32
  0
VERTEX
  8
W78LXLIFT
 62
2
 10
1949.289
 20
-5963.625
 30
-2555.056
 70
    32
  0
VERTEX
  8
W78LXLIFT
 62
2
 10
1944.438
 20
-5954.191
 30
-2553.465
 70
    32
  0
VERTEX
  8
W78LXLIFT
 62
2
 10
1949.917
 20
-5950.238
 30
-2553.465
 70
    32
  0
VERTEX
  8
W78LXLIFT
 62
2
 10
1957.124
 20
-5945.804
 30
-2554.428
 70
    32
  0
VERTEX
  8
W78LXLIFT
 62
2
 10
1961.886
 20
-5949.229
 30
-2555.354
 70
    32
  0
VERTEX
  8
W78LXLIFT
 62
2
 10
1964.352
 20
-5960.079
 30
-2555.131
 70
    32
  0
VERTEX
  8
W78LXLIFT
 62
2
 10
1967.674
 20
-5963.841
 30
-2555.023
 70
    32
  0
VERTEX
  8
W78LXLIFT
 62
2
 10
1976.710
 20
-5976.065
 30
-2552.553
 70
    32
  0
VERTEX
  8
W78LXLIFT
 62
2
 10
1984.963
 20
-5992.980
 30
-2551.449
 70
    32
  0
VERTEX
  8
W78LXLIFT
 62
2
 10
1966.657
 20
-6010.178
 30
-2554.326
 70
    32
  0
VERTEX
  8
W78LXLIFT
 62
2
 10
1956.064
 20
-6026.654
 30
-2558.774
 70
    32
  0
VERTEX
  8
W78LXLIFT
 62
2
 10
1948.924
 20
-6039.276
 30
-2561.865
 70
    32
  0
VERTEX
  8
W78LXLIFT
 62
2
 10
1942.442
 20
-6047.940
 30
-2560.081
 70
    32
  0
VERTEX
  8
W78LXLIFT
 62
2
 10
1933.603
 20
-6054.535
 30
-2560.066
 70
    32
  0
SEQEND
  8
W78LXLIFT
  0
POINT
  8
W78LXLIFT
 62
2
 10
1963.222
 20
-5978.490
 30
-2553.934
  0
POLYLINE
  8
W78LXLIFT
 62
2
 66
     1
 70
     9
  0
VERTEX
  8
W78LXLIFT
 62
2
 10
1963.222
 20
-5976.283
 30
-2553.934
 70
    32
  0
VERTEX
  8
W78LXLIFT
 62
2
 10
1961.222
 20
-5979.749
 30
-2553.934
 70
    32
  0
VERTEX
  8
W78LXLIFT
 62
2
 10
1965.222
 20
-5979.749
 30
-2553.934
 70
    32
  0
SEQEND
  8
W78LXLIFT
  0
POLYLINE
  8
W78LXLIFT
 62
2
 66
     1
 70
     9
  0
VERTEX
  8
W78LXLIFT
 62
2
 10
1971.283
 20
-5990.747
 30
-2554.385
 70
    32
  0
VERTEX
  8
W78LXLIFT
 62
2
 10
1969.283
 20
-5994.214
 30
-2554.385
 70
    32
  0
VERTEX
  8
W78LXLIFT
 62
2
 10
1973.283
 20
-5994.214
 30
-2554.385
 70
    32
  0
SEQEND
  8
W78LXLIFT
  0
POINT
  8
W78LXLIFT
 62
2
 10
1971.283
 20
-5992.797
 30
-2554.385
  0
POLYLINE
  8
W78LXLIFT
 62
2
 66
     1
 70
     9
  0
VERTEX
  8
W78LXLIFT
 62
2
 10
1959.834
 20
-5987.011
 30
-2543.751
 70
    32
  0
VERTEX
  8
W78LXLIFT
 62
2
 10
1957.834
 20
-5990.478
 30
-2543.751
 70
    32
  0
VERTEX
  8
W78LXLIFT
 62
2
 10
1961.834
 20
-5990.478
 30
-2543.751
 70
    32
  0
SEQEND
  8
W78LXLIFT
  0
POINT
  8
W78LXLIFT
 62
2
 10
1959.834
 20
-5989.324
 30
-2543.751
  0
POINT
  8
W78LXLIFT
 62
2
 10
1963.792
 20
-6004.295
 30
-2544.959
  0
POLYLINE
  8
W78LXLIFT
 62
2
 66
     1
 70
     9
  0
VERTEX
  8
W78LXLIFT
 62
2
 10
1963.792
 20
-6001.789
 30
-2544.959
 70
    32
  0
VERTEX
  8
W78LXLIFT
 62
2
 10
1961.792
 20
-6005.255
 30
-2544.959
 70
    32
  0
VERTEX
  8
W78LXLIFT
 62
2
 10
1965.792
 20
-6005.255
 30
-2544.959
 70
    32
  0
SEQEND
  8
W78LXLIFT
  0
POLYLINE
  8
W78LXLIFT
 62
2
 66
     1
 70
     9
  0
VERTEX
  8
W78LXLIFT
 62
2
 10
1963.664
 20
-6019.451
 30
-2552.200
 70
    32
  0
VERTEX
  8
W78LXLIFT
 62
2
 10
1961.664
 20
-6022.917
 30
-2552.200
 70
    32
  0
VERTEX
  8
W78LXLIFT
 62
2
 10
1965.664
 20
-6022.917
 30
-2552.200
 70
    32
  0
SEQEND
  8
W78LXLIFT
  0
POINT
  8
W78LXLIFT
 62
2
 10
1963.664
 20
-6021.501
 30
-2552.200
  0
TEXT
  8
W78LXLIFT
 62
2
 10
1963.532
 20
-5988.745
 30
-2543.751
 40
1.969
  1
ST-447T
 50
19.277
 41
 1.0 
  0
TEXT
  8
W78LXLIFT
 62
2
 10
1961.319
 20
-5986.811
 30
-2543.751
 40
1.969
  1
-2543.7508
 50
19.277
 41
 1.0 
  0
TEXT
  8
W78LXLIFT
 62
2
 10
1971.250
 20
-6006.035
 30
-2544.959
 40
1.969
  1
-2544.9591
 50
19.277
 41
 1.0 
  0
TEXT
  8
W78LXLIFT
 62
2
 10
1968.646
 20
-6003.908
 30
-2544.959
 40
1.969
  1
ST-447S
 50
19.277
 41
 1.0 
  0
TEXT
  8
W78LXLIFT
 62
2
 10
1964.932
 20
-6021.967
 30
-2552.200
 40
1.969
  1
-2552.2004
 50
2.010
 41
 1.0 
  0
TEXT
  8
W78LXLIFT
 62
2
 10
1964.707
 20
-5974.854
 30
-2553.934
 40
1.969
  1
-2553.9344
 50
29.267
 41
 1.0 
  0
TEXT
  8
W78LXLIFT
 62
2
 10
1966.464
 20
-5978.016
 30
-2553.934
 40
1.969
  1
ST-406T
 50
29.267
 41
 1.0 
  0
TEXT
  8
W78LXLIFT
 62
2
 10
1974.524
 20
-5992.797
 30
-2554.385
 40
1.969
  1
ST-406S
 50
29.267
 41
 1.0 
  0
TEXT
  8
W78LXLIFT
 62
2
 10
1976.291
 20
-5995.327
 30
-2554.385
 40
1.969
  1
-2554.3853
 50
29.267
 41
 1.0 
  0
POLYLINE
  8
W78LXLIFT
 62
1
 66
     1
 70
     9
  0
VERTEX
  8
W78LXLIFT
 62
1
 10
2387.938
 20
-6861.526
 30
-2475.670
 70
    32
  0
VERTEX
  8
W78LXLIFT
 62
1
 10
2400.284
 20
-6861.862
 30
-2476.940
 70
    32
  0
VERTEX
  8
W78LXLIFT
 62
1
 10
2408.095
 20
-6857.267
 30
-2476.940
 70
    32
  0
VERTEX
  8
W78LXLIFT
 62
1
 10
2413.312
 20
-6856.162
 30
-2476.940
 70
    32
  0
VERTEX
  8
W78LXLIFT
 62
1
 10
2412.457
 20
-6845.033
 30
-2476.940
 70
    32
  0
VERTEX
  8
W78LXLIFT
 62
1
 10
2407.857
 20
-6841.368
 30
-2476.940
 70
    32
  0
VERTEX
  8
W78LXLIFT
 62
1
 10
2405.354
 20
-6828.774
 30
-2476.940
 70
    32
  0
VERTEX
  8
W78LXLIFT
 62
1
 10
2395.049
 20
-6830.813
 30
-2476.940
 70
    32
  0
VERTEX
  8
W78LXLIFT
 62
1
 10
2387.664
 20
-6838.065
 30
-2476.139
 70
    32
  0
VERTEX
  8
W78LXLIFT
 62
1
 10
2384.921
 20
-6848.022
 30
-2475.613
 70
    32
  0
SEQEND
  8
W78LXLIFT
  0
POLYLINE
  8
W78LXLIFT
 62
3
 66
     1
 70
     9
  0
VERTEX
  8
W78LXLIFT
 62
3
 10
2306.818
 20
-7542.843
 30
-2492.655
 70
    32
  0
VERTEX
  8
W78LXLIFT
 62
3
 10
2310.188
 20
-7545.974
 30
-2492.921
 70
    32
  0
VERTEX
  8
W78LXLIFT
 62
3
 10
2317.532
 20
-7544.849
 30
-2492.232
 70
    32
  0
VERTEX
  8
W78LXLIFT
 62
3
 10
2321.337
 20
-7545.329
 30
-2491.182
 70
    32
  0
VERTEX
  8
W78LXLIFT
 62
3
 10
2324.160
 20
-7553.296
 30
-2490.736
 70
    32
  0
VERTEX
  8
W78LXLIFT
 62
3
 10
2325.028
 20
-7564.901
 30
-2491.395
 70
    32
  0
VERTEX
  8
W78LXLIFT
 62
3
 10
2336.147
 20
-7564.934
 30
-2490.565
 70
    32
  0
VERTEX
  8
W78LXLIFT
 62
3
 10
2333.378
 20
-7550.448
 30
-2491.152
 70
    32
  0
VERTEX
  8
W78LXLIFT
 62
3
 10
2332.850
 20
-7542.284
 30
-2491.512
 70
    32
  0
VERTEX
  8
W78LXLIFT
 62
3
 10
2323.208
 20
-7525.844
 30
-2490.116
 70
    32
  0
VERTEX
  8
W78LXLIFT
 62
3
 10
2313.317
 20
-7510.376
 30
-2491.456
 70
    32
  0
VERTEX
  8
W78LXLIFT
 62
3
 10
2306.256
 20
-7498.551
 30
-2492.626
 70
    32
  0
VERTEX
  8
W78LXLIFT
 62
3
 10
2303.014
 20
-7488.657
 30
-2491.508
 70
    32
  0
VERTEX
  8
W78LXLIFT
 62
3
 10
2302.313
 20
-7477.011
 30
-2490.718
 70
    32
  0
VERTEX
  8
W78LXLIFT
 62
3
 10
2305.012
 20
-7469.965
 30
-2490.531
 70
    32
  0
VERTEX
  8
W78LXLIFT
 62
3
 10
2299.021
 20
-7467.622
 30
-2490.609
 70
    32
  0
VERTEX
  8
W78LXLIFT
 62
3
 10
2298.275
 20
-7456.212
 30
-2490.945
 70
    32
  0
VERTEX
  8
W78LXLIFT
 62
3
 10
2294.871
 20
-7444.808
 30
-2489.846
 70
    32
  0
VERTEX
  8
W78LXLIFT
 62
3
 10
2282.255
 20
-7446.904
 30
-2489.837
 70
    32
  0
VERTEX
  8
W78LXLIFT
 62
3
 10
2285.521
 20
-7461.378
 30
-2490.990
 70
    32
  0
VERTEX
  8
W78LXLIFT
 62
3
 10
2281.572
 20
-7468.210
 30
-2491.076
 70
    32
  0
VERTEX
  8
W78LXLIFT
 62
3
 10
2283.466
 20
-7478.988
 30
-2491.118
 70
    32
  0
VERTEX
  8
W78LXLIFT
 62
3
 10
2281.801
 20
-7481.866
 30
-2491.144
 70
    32
  0
VERTEX
  8
W78LXLIFT
 62
3
 10
2285.675
 20
-7488.421
 30
-2490.916
 70
    32
  0
VERTEX
  8
W78LXLIFT
 62
3
 10
2286.512
 20
-7493.926
 30
-2491.797
 70
    32
  0
VERTEX
  8
W78LXLIFT
 62
3
 10
2294.036
 20
-7500.629
 30
-2491.173
 70
    32
  0
VERTEX
  8
W78LXLIFT
 62
3
 10
2299.508
 20
-7507.741
 30
-2491.447
 70
    32
  0
VERTEX
  8
W78LXLIFT
 62
3
 10
2300.100
 20
-7511.129
 30
-2491.810
 70
    32
  0
VERTEX
  8
W78LXLIFT
 62
3
 10
2297.320
 20
-7514.502
 30
-2492.639
 70
    32
  0
VERTEX
  8
W78LXLIFT
 62
3
 10
2292.352
 20
-7515.212
 30
-2492.459
 70
    32
  0
SEQEND
  8
W78LXLIFT
  0
POLYLINE
  8
W78LXLIFT
 62
3
 66
     1
 70
     9
  0
VERTEX
  8
W78LXLIFT
 62
3
 10
2384.093
 20
-7187.977
 30
-2526.434
 70
    32
  0
VERTEX
  8
W78LXLIFT
 62
3
 10
2383.149
 20
-7179.789
 30
-2525.411
 70
    32
  0
VERTEX
  8
W78LXLIFT
 62
3
 10
2381.750
 20
-7176.553
 30
-2526.970
 70
    32
  0
VERTEX
  8
W78LXLIFT
 62
3
 10
2374.511
 20
-7177.515
 30
-2526.493
 70
    32
  0
VERTEX
  8
W78LXLIFT
 62
3
 10
2373.707
 20
-7174.889
 30
-2526.340
 70
    32
  0
VERTEX
  8
W78LXLIFT
 62
3
 10
2372.800
 20
-7169.371
 30
-2526.833
 70
    32
  0
VERTEX
  8
W78LXLIFT
 62
3
 10
2374.822
 20
-7164.424
 30
-2526.897
 70
    32
  0
VERTEX
  8
W78LXLIFT
 62
3
 10
2382.907
 20
-7162.029
 30
-2527.087
 70
    32
  0
VERTEX
  8
W78LXLIFT
 62
3
 10
2385.119
 20
-7159.614
 30
-2526.485
 70
    32
  0
VERTEX
  8
W78LXLIFT
 62
3
 10
2385.903
 20
-7155.864
 30
-2527.403
 70
    32
  0
VERTEX
  8
W78LXLIFT
 62
3
 10
2388.667
 20
-7151.925
 30
-2527.425
 70
    32
  0
VERTEX
  8
W78LXLIFT
 62
3
 10
2383.636
 20
-7143.884
 30
-2528.593
 70
    32
  0
VERTEX
  8
W78LXLIFT
 62
3
 10
2381.680
 20
-7139.249
 30
-2527.682
 70
    32
  0
VERTEX
  8
W78LXLIFT
 62
3
 10
2374.726
 20
-7128.783
 30
-2527.013
 70
    32
  0
VERTEX
  8
W78LXLIFT
 62
3
 10
2367.156
 20
-7120.592
 30
-2526.545
 70
    32
  0
VERTEX
  8
W78LXLIFT
 62
3
 10
2367.165
 20
-7117.978
 30
-2526.887
 70
    32
  0
VERTEX
  8
W78LXLIFT
 62
3
 10
2363.691
 20
-7112.078
 30
-2526.531
 70
    32
  0
VERTEX
  8
W78LXLIFT
 62
3
 10
2365.042
 20
-7110.296
 30
-2526.912
 70
    32
  0
VERTEX
  8
W78LXLIFT
 62
3
 10
2360.005
 20
-7100.826
 30
-2527.409
 70
    32
  0
VERTEX
  8
W78LXLIFT
 62
3
 10
2365.976
 20
-7097.073
 30
-2526.385
 70
    32
  0
VERTEX
  8
W78LXLIFT
 62
3
 10
2366.682
 20
-7096.261
 30
-2526.740
 70
    32
  0
VERTEX
  8
W78LXLIFT
 62
3
 10
2369.155
 20
-7095.813
 30
-2526.890
 70
    32
  0
VERTEX
  8
W78LXLIFT
 62
3
 10
2371.861
 20
-7094.344
 30
-2526.484
 70
    32
  0
VERTEX
  8
W78LXLIFT
 62
3
 10
2369.489
 20
-7083.900
 30
-2527.133
 70
    32
  0
VERTEX
  8
W78LXLIFT
 62
3
 10
2366.098
 20
-7073.913
 30
-2526.105
 70
    32
  0
VERTEX
  8
W78LXLIFT
 62
3
 10
2373.286
 20
-7072.099
 30
-2526.702
 70
    32
  0
VERTEX
  8
W78LXLIFT
 62
3
 10
2375.213
 20
-7071.693
 30
-2526.258
 70
    32
  0
VERTEX
  8
W78LXLIFT
 62
3
 10
2381.723
 20
-7093.093
 30
-2526.842
 70
    32
  0
VERTEX
  8
W78LXLIFT
 62
3
 10
2384.252
 20
-7107.904
 30
-2525.808
 70
    32
  0
VERTEX
  8
W78LXLIFT
 62
3
 10
2386.610
 20
-7120.336
 30
-2526.881
 70
    32
  0
VERTEX
  8
W78LXLIFT
 62
3
 10
2392.601
 20
-7131.015
 30
-2526.975
 70
    32
  0
VERTEX
  8
W78LXLIFT
 62
3
 10
2397.099
 20
-7136.977
 30
-2528.818
 70
    32
  0
VERTEX
  8
W78LXLIFT
 62
3
 10
2398.623
 20
-7138.732
 30
-2529.555
 70
    32
  0
VERTEX
  8
W78LXLIFT
 62
3
 10
2401.824
 20
-7147.656
 30
-2528.287
 70
    32
  0
VERTEX
  8
W78LXLIFT
 62
3
 10
2402.118
 20
-7151.791
 30
-2528.763
 70
    32
  0
VERTEX
  8
W78LXLIFT
 62
3
 10
2406.852
 20
-7150.568
 30
-2525.881
 70
    32
  0
VERTEX
  8
W78LXLIFT
 62
3
 10
2411.064
 20
-7149.671
 30
-2525.639
 70
    32
  0
VERTEX
  8
W78LXLIFT
 62
3
 10
2416.417
 20
-7151.075
 30
-2526.179
 70
    32
  0
VERTEX
  8
W78LXLIFT
 62
3
 10
2422.620
 20
-7157.018
 30
-2525.802
 70
    32
  0
VERTEX
  8
W78LXLIFT
 62
3
 10
2413.263
 20
-7163.656
 30
-2526.951
 70
    32
  0
VERTEX
  8
W78LXLIFT
 62
3
 10
2408.258
 20
-7169.225
 30
-2527.832
 70
    32
  0
VERTEX
  8
W78LXLIFT
 62
3
 10
2405.961
 20
-7175.263
 30
-2527.701
 70
    32
  0
VERTEX
  8
W78LXLIFT
 62
3
 10
2406.493
 20
-7179.118
 30
-2527.515
 70
    32
  0
VERTEX
  8
W78LXLIFT
 62
3
 10
2396.118
 20
-7187.187
 30
-2526.641
 70
    32
  0
VERTEX
  8
W78LXLIFT
 62
3
 10
2396.337
 20
-7190.075
 30
-2527.089
 70
    32
  0
SEQEND
  8
W78LXLIFT
  0
POLYLINE
  8
W78LXLIFT
 62
2
 66
     1
 70
     9
  0
VERTEX
  8
W78LXLIFT
 62
2
 10
1927.601
 20
-6047.009
 30
-2560.836
 70
    32
  0
VERTEX
  8
W78LXLIFT
 62
2
 10
1931.465
 20
-6043.535
 30
-2559.739
 70
    32
  0
VERTEX
  8
W78LXLIFT
 62
2
 10
1947.564
 20
-6022.484
 30
-2552.120
 70
    32
  0
VERTEX
  8
W78LXLIFT
 62
2
 10
1956.833
 20
-6006.626
 30
-2544.590
 70
    32
  0
VERTEX
  8
W78LXLIFT
 62
2
 10
1955.460
 20
-5997.195
 30
-2543.858
 70
    32
  0
VERTEX
  8
W78LXLIFT
 62
2
 10
1952.912
 20
-5987.310
 30
-2543.479
 70
    32
  0
VERTEX
  8
W78LXLIFT
 62
2
 10
1949.670
 20
-5976.707
 30
-2543.265
 70
    32
  0
VERTEX
  8
W78LXLIFT
 62
2
 10
1950.394
 20
-5973.401
 30
-2541.863
 70
    32
  0
VERTEX
  8
W78LXLIFT
 62
2
 10
1942.057
 20
-5956.777
 30
-2540.949
 70
    32
  0
VERTEX
  8
W78LXLIFT
 62
2
 10
1934.172
 20
-5935.243
 30
-2541.462
 70
    32
  0
VERTEX
  8
W78LXLIFT
 62
2
 10
1941.054
 20
-5929.262
 30
-2541.693
 70
    32
  0
VERTEX
  8
W78LXLIFT
 62
2
 10
1947.252
 20
-5926.407
 30
-2541.547
 70
    32
  0
VERTEX
  8
W78LXLIFT
 62
2
 10
1952.432
 20
-5939.563
 30
-2541.355
 70
    32
  0
VERTEX
  8
W78LXLIFT
 62
2
 10
1959.325
 20
-5954.953
 30
-2541.667
 70
    32
  0
VERTEX
  8
W78LXLIFT
 62
2
 10
1963.697
 20
-5965.816
 30
-2541.546
 70
    32
  0
VERTEX
  8
W78LXLIFT
 62
2
 10
1963.652
 20
-5965.843
 30
-2541.508
 70
    32
  0
VERTEX
  8
W78LXLIFT
 62
2
 10
1969.119
 20
-5973.484
 30
-2541.541
 70
    32
  0
VERTEX
  8
W78LXLIFT
 62
2
 10
1980.731
 20
-5994.033
 30
-2545.137
 70
    32
  0
VERTEX
  8
W78LXLIFT
 62
2
 10
1987.012
 20
-6002.505
 30
-2544.952
 70
    32
  0
VERTEX
  8
W78LXLIFT
 62
2
 10
1989.788
 20
-6008.773
 30
-2544.315
 70
    32
  0
VERTEX
  8
W78LXLIFT
 62
2
 10
1997.770
 20
-6019.716
 30
-2544.529
 70
    32
  0
VERTEX
  8
W78LXLIFT
 62
2
 10
1989.835
 20
-6025.989
 30
-2545.097
 70
    32
  0
VERTEX
  8
W78LXLIFT
 62
2
 10
1982.921
 20
-6015.931
 30
-2545.008
 70
    32
  0
VERTEX
  8
W78LXLIFT
 62
2
 10
1978.990
 20
-6010.473
 30
-2545.125
 70
    32
  0
VERTEX
  8
W78LXLIFT
 62
2
 10
1978.253
 20
-6008.739
 30
-2545.518
 70
    32
  0
VERTEX
  8
W78LXLIFT
 62
2
 10
1973.387
 20
-6003.634
 30
-2545.668
 70
    32
  0
VERTEX
  8
W78LXLIFT
 62
2
 10
1970.065
 20
-6005.258
 30
-2543.952
 70
    32
  0
VERTEX
  8
W78LXLIFT
 62
2
 10
1967.088
 20
-6013.806
 30
-2543.791
 70
    32
  0
VERTEX
  8
W78LXLIFT
 62
2
 10
1963.533
 20
-6021.480
 30
-2546.309
 70
    32
  0
VERTEX
  8
W78LXLIFT
 62
2
 10
1951.562
 20
-6034.978
 30
-2554.142
 70
    32
  0
VERTEX
  8
W78LXLIFT
 62
2
 10
1949.245
 20
-6040.532
 30
-2555.311
 70
    32
  0
VERTEX
  8
W78LXLIFT
 62
2
 10
1945.682
 20
-6044.063
 30
-2556.428
 70
    32
  0
VERTEX
  8
W78LXLIFT
 62
2
 10
1930.799
 20
-6057.784
 30
-2561.480
 70
    32
  0
SEQEND
  8
W78LXLIFT
  0
ENDSEC
  0
EOF
