999
********************************
999
*   DXF File - Entities Only   *
999
*        3D Data Format        *
999
*     Output from ENVISAGE     *
999
*     02-Jan-2008 11:50:42     *
999
********************************
  0
SECTION 
  2
HEADER
  9
$ACADVER
  1
AC1009
  9
$EXTMIN
 10
-290000.000
 20
-250000.000
 30
-4000.000
  9
$EXTMAX
 10
320000.000
 20
160000.000
 30
6000.000
  0
ENDSEC
  0
SECTION
  2
ENTITIES
  0
LINE
  8
W80LPLIFT
 62
3
 10
2161.147
 20
-7131.700
 30
-2647.000
 11
2179.361
 21
-7146.791
 31
-2647.000
  0
POLYLINE
  8
W80LPLIFT
 62
3
 66
     1
 70
     9
  0
VERTEX
  8
W80LPLIFT
 62
3
 10
2216.510
 20
-7099.020
 30
-2563.430
 70
    32
  0
VERTEX
  8
W80LPLIFT
 62
3
 10
2238.154
 20
-7086.931
 30
-2562.046
 70
    32
  0
VERTEX
  8
W80LPLIFT
 62
3
 10
2243.471
 20
-7092.881
 30
-2562.013
 70
    32
  0
VERTEX
  8
W80LPLIFT
 62
3
 10
2248.694
 20
-7103.517
 30
-2561.960
 70
    32
  0
VERTEX
  8
W80LPLIFT
 62
3
 10
2252.728
 20
-7113.597
 30
-2562.000
 70
    32
  0
VERTEX
  8
W80LPLIFT
 62
3
 10
2262.432
 20
-7110.405
 30
-2562.000
 70
    32
  0
VERTEX
  8
W80LPLIFT
 62
3
 10
2259.763
 20
-7100.278
 30
-2561.959
 70
    32
  0
VERTEX
  8
W80LPLIFT
 62
3
 10
2255.086
 20
-7082.204
 30
-2562.043
 70
    32
  0
VERTEX
  8
W80LPLIFT
 62
3
 10
2255.817
 20
-7076.141
 30
-2562.069
 70
    32
  0
VERTEX
  8
W80LPLIFT
 62
3
 10
2255.005
 20
-7071.178
 30
-2561.848
 70
    32
  0
VERTEX
  8
W80LPLIFT
 62
3
 10
2249.173
 20
-7061.016
 30
-2560.533
 70
    32
  0
VERTEX
  8
W80LPLIFT
 62
3
 10
2247.885
 20
-7059.243
 30
-2560.475
 70
    32
  0
VERTEX
  8
W80LPLIFT
 62
3
 10
2245.527
 20
-7051.997
 30
-2560.475
 70
    32
  0
VERTEX
  8
W80LPLIFT
 62
3
 10
2255.121
 20
-7025.970
 30
-2560.475
 70
    32
  0
VERTEX
  8
W80LPLIFT
 62
3
 10
2245.232
 20
-7022.042
 30
-2560.475
 70
    32
  0
VERTEX
  8
W80LPLIFT
 62
3
 10
2239.415
 20
-7035.371
 30
-2560.475
 70
    32
  0
VERTEX
  8
W80LPLIFT
 62
3
 10
2236.259
 20
-7037.637
 30
-2560.475
 70
    32
  0
VERTEX
  8
W80LPLIFT
 62
3
 10
2231.465
 20
-7036.366
 30
-2560.475
 70
    32
  0
VERTEX
  8
W80LPLIFT
 62
3
 10
2227.702
 20
-7031.668
 30
-2560.483
 70
    32
  0
VERTEX
  8
W80LPLIFT
 62
3
 10
2220.864
 20
-7024.784
 30
-2560.473
 70
    32
  0
VERTEX
  8
W80LPLIFT
 62
3
 10
2213.075
 20
-7018.112
 30
-2560.462
 70
    32
  0
VERTEX
  8
W80LPLIFT
 62
3
 10
2204.297
 20
-7023.969
 30
-2560.462
 70
    32
  0
VERTEX
  8
W80LPLIFT
 62
3
 10
2198.907
 20
-7032.608
 30
-2560.466
 70
    32
  0
VERTEX
  8
W80LPLIFT
 62
3
 10
2209.994
 20
-7039.011
 30
-2560.479
 70
    32
  0
VERTEX
  8
W80LPLIFT
 62
3
 10
2219.326
 20
-7051.806
 30
-2560.495
 70
    32
  0
VERTEX
  8
W80LPLIFT
 62
3
 10
2229.531
 20
-7067.733
 30
-2560.516
 70
    32
  0
VERTEX
  8
W80LPLIFT
 62
3
 10
2230.225
 20
-7072.793
 30
-2560.790
 70
    32
  0
VERTEX
  8
W80LPLIFT
 62
3
 10
2228.380
 20
-7078.420
 30
-2562.760
 70
    32
  0
VERTEX
  8
W80LPLIFT
 62
3
 10
2218.260
 20
-7086.930
 30
-2563.040
 70
    32
  0
VERTEX
  8
W80LPLIFT
 62
3
 10
2210.120
 20
-7092.310
 30
-2563.420
 70
    32
  0
SEQEND
  8
W80LPLIFT
  0
POLYLINE
  8
W80LPLIFT
 62
3
 66
     1
 70
     8
  0
VERTEX
  8
W80LPLIFT
 62
3
 10
2243.626
 20
-7027.373
 30
-2560.480
 70
    32
  0
VERTEX
  8
W80LPLIFT
 62
3
 10
2243.625
 20
-7027.351
 30
-2560.480
 70
    32
  0
VERTEX
  8
W80LPLIFT
 62
3
 10
2243.622
 20
-7027.330
 30
-2560.480
 70
    32
  0
VERTEX
  8
W80LPLIFT
 62
3
 10
2243.617
 20
-7027.308
 30
-2560.480
 70
    32
  0
VERTEX
  8
W80LPLIFT
 62
3
 10
2243.611
 20
-7027.288
 30
-2560.480
 70
    32
  0
VERTEX
  8
W80LPLIFT
 62
3
 10
2243.602
 20
-7027.267
 30
-2560.480
 70
    32
  0
VERTEX
  8
W80LPLIFT
 62
3
 10
2243.592
 20
-7027.248
 30
-2560.480
 70
    32
  0
VERTEX
  8
W80LPLIFT
 62
3
 10
2243.581
 20
-7027.230
 30
-2560.480
 70
    32
  0
VERTEX
  8
W80LPLIFT
 62
3
 10
2243.567
 20
-7027.212
 30
-2560.480
 70
    32
  0
VERTEX
  8
W80LPLIFT
 62
3
 10
2243.553
 20
-7027.196
 30
-2560.480
 70
    32
  0
VERTEX
  8
W80LPLIFT
 62
3
 10
2243.537
 20
-7027.182
 30
-2560.480
 70
    32
  0
VERTEX
  8
W80LPLIFT
 62
3
 10
2243.519
 20
-7027.168
 30
-2560.480
 70
    32
  0
VERTEX
  8
W80LPLIFT
 62
3
 10
2243.501
 20
-7027.157
 30
-2560.480
 70
    32
  0
VERTEX
  8
W80LPLIFT
 62
3
 10
2243.482
 20
-7027.146
 30
-2560.480
 70
    32
  0
VERTEX
  8
W80LPLIFT
 62
3
 10
2243.461
 20
-7027.138
 30
-2560.480
 70
    32
  0
VERTEX
  8
W80LPLIFT
 62
3
 10
2243.441
 20
-7027.132
 30
-2560.480
 70
    32
  0
VERTEX
  8
W80LPLIFT
 62
3
 10
2243.419
 20
-7027.127
 30
-2560.480
 70
    32
  0
VERTEX
  8
W80LPLIFT
 62
3
 10
2243.398
 20
-7027.124
 30
-2560.480
 70
    32
  0
VERTEX
  8
W80LPLIFT
 62
3
 10
2243.376
 20
-7027.123
 30
-2560.480
 70
    32
  0
VERTEX
  8
W80LPLIFT
 62
3
 10
2243.354
 20
-7027.124
 30
-2560.480
 70
    32
  0
VERTEX
  8
W80LPLIFT
 62
3
 10
2243.333
 20
-7027.127
 30
-2560.480
 70
    32
  0
VERTEX
  8
W80LPLIFT
 62
3
 10
2243.311
 20
-7027.132
 30
-2560.480
 70
    32
  0
VERTEX
  8
W80LPLIFT
 62
3
 10
2243.290
 20
-7027.138
 30
-2560.480
 70
    32
  0
VERTEX
  8
W80LPLIFT
 62
3
 10
2243.270
 20
-7027.146
 30
-2560.480
 70
    32
  0
VERTEX
  8
W80LPLIFT
 62
3
 10
2243.251
 20
-7027.157
 30
-2560.480
 70
    32
  0
VERTEX
  8
W80LPLIFT
 62
3
 10
2243.233
 20
-7027.168
 30
-2560.480
 70
    32
  0
VERTEX
  8
W80LPLIFT
 62
3
 10
2243.215
 20
-7027.182
 30
-2560.480
 70
    32
  0
VERTEX
  8
W80LPLIFT
 62
3
 10
2243.199
 20
-7027.196
 30
-2560.480
 70
    32
  0
VERTEX
  8
W80LPLIFT
 62
3
 10
2243.184
 20
-7027.212
 30
-2560.480
 70
    32
  0
VERTEX
  8
W80LPLIFT
 62
3
 10
2243.171
 20
-7027.230
 30
-2560.480
 70
    32
  0
VERTEX
  8
W80LPLIFT
 62
3
 10
2243.159
 20
-7027.248
 30
-2560.480
 70
    32
  0
VERTEX
  8
W80LPLIFT
 62
3
 10
2243.149
 20
-7027.267
 30
-2560.480
 70
    32
  0
VERTEX
  8
W80LPLIFT
 62
3
 10
2243.141
 20
-7027.288
 30
-2560.480
 70
    32
  0
VERTEX
  8
W80LPLIFT
 62
3
 10
2243.134
 20
-7027.308
 30
-2560.480
 70
    32
  0
VERTEX
  8
W80LPLIFT
 62
3
 10
2243.130
 20
-7027.330
 30
-2560.480
 70
    32
  0
VERTEX
  8
W80LPLIFT
 62
3
 10
2243.127
 20
-7027.351
 30
-2560.480
 70
    32
  0
VERTEX
  8
W80LPLIFT
 62
3
 10
2243.126
 20
-7027.373
 30
-2560.480
 70
    32
  0
VERTEX
  8
W80LPLIFT
 62
3
 10
2243.127
 20
-7027.395
 30
-2560.480
 70
    32
  0
VERTEX
  8
W80LPLIFT
 62
3
 10
2243.130
 20
-7027.416
 30
-2560.480
 70
    32
  0
VERTEX
  8
W80LPLIFT
 62
3
 10
2243.134
 20
-7027.438
 30
-2560.480
 70
    32
  0
VERTEX
  8
W80LPLIFT
 62
3
 10
2243.141
 20
-7027.459
 30
-2560.480
 70
    32
  0
VERTEX
  8
W80LPLIFT
 62
3
 10
2243.149
 20
-7027.479
 30
-2560.480
 70
    32
  0
VERTEX
  8
W80LPLIFT
 62
3
 10
2243.159
 20
-7027.498
 30
-2560.480
 70
    32
  0
VERTEX
  8
W80LPLIFT
 62
3
 10
2243.171
 20
-7027.516
 30
-2560.480
 70
    32
  0
VERTEX
  8
W80LPLIFT
 62
3
 10
2243.184
 20
-7027.534
 30
-2560.480
 70
    32
  0
VERTEX
  8
W80LPLIFT
 62
3
 10
2243.199
 20
-7027.550
 30
-2560.480
 70
    32
  0
VERTEX
  8
W80LPLIFT
 62
3
 10
2243.215
 20
-7027.565
 30
-2560.480
 70
    32
  0
VERTEX
  8
W80LPLIFT
 62
3
 10
2243.233
 20
-7027.578
 30
-2560.480
 70
    32
  0
VERTEX
  8
W80LPLIFT
 62
3
 10
2243.251
 20
-7027.590
 30
-2560.480
 70
    32
  0
VERTEX
  8
W80LPLIFT
 62
3
 10
2243.270
 20
-7027.600
 30
-2560.480
 70
    32
  0
VERTEX
  8
W80LPLIFT
 62
3
 10
2243.290
 20
-7027.608
 30
-2560.480
 70
    32
  0
VERTEX
  8
W80LPLIFT
 62
3
 10
2243.311
 20
-7027.615
 30
-2560.480
 70
    32
  0
VERTEX
  8
W80LPLIFT
 62
3
 10
2243.333
 20
-7027.619
 30
-2560.480
 70
    32
  0
VERTEX
  8
W80LPLIFT
 62
3
 10
2243.354
 20
-7027.622
 30
-2560.480
 70
    32
  0
VERTEX
  8
W80LPLIFT
 62
3
 10
2243.376
 20
-7027.623
 30
-2560.480
 70
    32
  0
VERTEX
  8
W80LPLIFT
 62
3
 10
2243.398
 20
-7027.622
 30
-2560.480
 70
    32
  0
VERTEX
  8
W80LPLIFT
 62
3
 10
2243.419
 20
-7027.619
 30
-2560.480
 70
    32
  0
VERTEX
  8
W80LPLIFT
 62
3
 10
2243.441
 20
-7027.615
 30
-2560.480
 70
    32
  0
VERTEX
  8
W80LPLIFT
 62
3
 10
2243.461
 20
-7027.608
 30
-2560.480
 70
    32
  0
VERTEX
  8
W80LPLIFT
 62
3
 10
2243.482
 20
-7027.600
 30
-2560.480
 70
    32
  0
VERTEX
  8
W80LPLIFT
 62
3
 10
2243.501
 20
-7027.590
 30
-2560.480
 70
    32
  0
VERTEX
  8
W80LPLIFT
 62
3
 10
2243.519
 20
-7027.578
 30
-2560.480
 70
    32
  0
VERTEX
  8
W80LPLIFT
 62
3
 10
2243.537
 20
-7027.565
 30
-2560.480
 70
    32
  0
VERTEX
  8
W80LPLIFT
 62
3
 10
2243.553
 20
-7027.550
 30
-2560.480
 70
    32
  0
VERTEX
  8
W80LPLIFT
 62
3
 10
2243.567
 20
-7027.534
 30
-2560.480
 70
    32
  0
VERTEX
  8
W80LPLIFT
 62
3
 10
2243.581
 20
-7027.516
 30
-2560.480
 70
    32
  0
VERTEX
  8
W80LPLIFT
 62
3
 10
2243.592
 20
-7027.498
 30
-2560.480
 70
    32
  0
VERTEX
  8
W80LPLIFT
 62
3
 10
2243.602
 20
-7027.479
 30
-2560.480
 70
    32
  0
VERTEX
  8
W80LPLIFT
 62
3
 10
2243.611
 20
-7027.459
 30
-2560.480
 70
    32
  0
VERTEX
  8
W80LPLIFT
 62
3
 10
2243.617
 20
-7027.438
 30
-2560.480
 70
    32
  0
VERTEX
  8
W80LPLIFT
 62
3
 10
2243.622
 20
-7027.416
 30
-2560.480
 70
    32
  0
VERTEX
  8
W80LPLIFT
 62
3
 10
2243.625
 20
-7027.395
 30
-2560.480
 70
    32
  0
VERTEX
  8
W80LPLIFT
 62
3
 10
2243.626
 20
-7027.373
 30
-2560.480
 70
    32
  0
SEQEND
  8
W80LPLIFT
  0
POLYLINE
  8
W80LPLIFT
 62
3
 66
     1
 70
     9
  0
VERTEX
  8
W80LPLIFT
 62
3
 10
2538.689
 20
-8048.373
 30
-2618.289
 70
    32
  0
VERTEX
  8
W80LPLIFT
 62
3
 10
2536.689
 20
-8051.839
 30
-2618.289
 70
    32
  0
VERTEX
  8
W80LPLIFT
 62
3
 10
2540.689
 20
-8051.839
 30
-2618.289
 70
    32
  0
SEQEND
  8
W80LPLIFT
  0
TEXT
  8
W80LPLIFT
 62
3
 10
2536.370
 20
-8058.809
 30
-2618.289
 40
1.969
  1
-2618.2895
 50
33.765
 41
 1.0 
  0
POINT
  8
W80LPLIFT
 62
3
 10
2538.689
 20
-8050.106
 30
-2618.289
  0
TEXT
  8
W80LPLIFT
 62
3
 10
2531.358
 20
-8052.114
 30
-2618.289
 40
1.969
  1
ST-570T
 50
33.765
 41
 1.0 
  0
TEXT
  8
W80LPLIFT
 62
1
 10
2536.370
 20
-8058.809
 30
-2618.289
 40
1.969
  1
-2618.2895
 50
33.765
 41
 1.0 
  0
POINT
  8
W80LPLIFT
 62
3
 10
2538.689
 20
-8050.106
 30
-2618.289
  0
POINT
  8
W80LPLIFT
 62
2
 10
2523.013
 20
-8041.009
 30
-2622.440
  0
POINT
  8
W80LPLIFT
 62
3
 10
2523.013
 20
-8041.009
 30
-2622.440
  0
POLYLINE
  8
W80LPLIFT
 62
2
 66
     1
 70
     9
  0
VERTEX
  8
W80LPLIFT
 62
2
 10
2523.013
 20
-8039.275
 30
-2622.440
 70
    32
  0
VERTEX
  8
W80LPLIFT
 62
2
 10
2521.013
 20
-8042.742
 30
-2622.440
 70
    32
  0
VERTEX
  8
W80LPLIFT
 62
2
 10
2525.013
 20
-8042.742
 30
-2622.440
 70
    32
  0
SEQEND
  8
W80LPLIFT
  0
POLYLINE
  8
W80LPLIFT
 62
3
 66
     1
 70
     9
  0
VERTEX
  8
W80LPLIFT
 62
3
 10
2523.013
 20
-8039.275
 30
-2622.440
 70
    32
  0
VERTEX
  8
W80LPLIFT
 62
3
 10
2521.013
 20
-8042.742
 30
-2622.440
 70
    32
  0
VERTEX
  8
W80LPLIFT
 62
3
 10
2525.013
 20
-8042.742
 30
-2622.440
 70
    32
  0
SEQEND
  8
W80LPLIFT
  0
TEXT
  8
W80LPLIFT
 62
1
 10
2531.358
 20
-8052.114
 30
-2618.289
 40
1.969
  1
ST-570T
 50
33.765
 41
 1.0 
  0
TEXT
  8
W80LPLIFT
 62
1
 10
2531.358
 20
-8052.114
 30
-2618.289
 40
1.969
  1
ST-570T
 50
33.765
 41
 1.0 
  0
POINT
  8
W80LPLIFT
 62
3
 10
2538.689
 20
-8050.106
 30
-2618.289
  0
TEXT
  8
W80LPLIFT
 62
1
 10
2536.370
 20
-8058.809
 30
-2618.289
 40
1.969
  1
-2618.2895
 50
33.765
 41
 1.0 
  0
POINT
  8
W80LPLIFT
 62
3
 10
2538.689
 20
-8050.106
 30
-2618.289
  0
POLYLINE
  8
W80LPLIFT
 62
3
 66
     1
 70
     9
  0
VERTEX
  8
W80LPLIFT
 62
3
 10
2538.689
 20
-8048.373
 30
-2618.289
 70
    32
  0
VERTEX
  8
W80LPLIFT
 62
3
 10
2536.689
 20
-8051.839
 30
-2618.289
 70
    32
  0
VERTEX
  8
W80LPLIFT
 62
3
 10
2540.689
 20
-8051.839
 30
-2618.289
 70
    32
  0
SEQEND
  8
W80LPLIFT
  0
POLYLINE
  8
W80LPLIFT
 62
3
 66
     1
 70
     9
  0
VERTEX
  8
W80LPLIFT
 62
3
 10
2538.689
 20
-8048.373
 30
-2618.289
 70
    32
  0
VERTEX
  8
W80LPLIFT
 62
3
 10
2536.689
 20
-8051.839
 30
-2618.289
 70
    32
  0
VERTEX
  8
W80LPLIFT
 62
3
 10
2540.689
 20
-8051.839
 30
-2618.289
 70
    32
  0
SEQEND
  8
W80LPLIFT
  0
TEXT
  8
W80LPLIFT
 62
1
 10
2451.394
 20
-7850.517
 30
-2607.660
 40
1.969
  1
-2607.66 sol.
 50
86.750
 41
 1.0 
  0
POINT
  8
W80LPLIFT
 62
3
 10
2563.052
 20
-7897.142
 30
-2607.243
  0
POINT
  8
W80LPLIFT
 62
3
 10
2569.310
 20
-7901.347
 30
-2607.113
  0
POLYLINE
  8
W80LPLIFT
 62
3
 66
     1
 70
     9
  0
VERTEX
  8
W80LPLIFT
 62
3
 10
2563.052
 20
-7895.409
 30
-2607.243
 70
    32
  0
VERTEX
  8
W80LPLIFT
 62
3
 10
2561.052
 20
-7898.876
 30
-2607.243
 70
    32
  0
VERTEX
  8
W80LPLIFT
 62
3
 10
2565.052
 20
-7898.876
 30
-2607.243
 70
    32
  0
SEQEND
  8
W80LPLIFT
  0
POINT
  8
W80LPLIFT
 62
2
 10
2541.070
 20
-7915.150
 30
-2607.550
  0
POLYLINE
  8
W80LPLIFT
 62
2
 66
     1
 70
     9
  0
VERTEX
  8
W80LPLIFT
 62
2
 10
2541.070
 20
-7913.417
 30
-2607.550
 70
    32
  0
VERTEX
  8
W80LPLIFT
 62
2
 10
2539.070
 20
-7916.883
 30
-2607.550
 70
    32
  0
VERTEX
  8
W80LPLIFT
 62
2
 10
2543.070
 20
-7916.883
 30
-2607.550
 70
    32
  0
SEQEND
  8
W80LPLIFT
  0
TEXT
  8
W80LPLIFT
 62
3
 10
2567.097
 20
-7914.883
 30
-2607.113
 40
1.969
  1
ST-753S
 50
58.152
 41
 1.0 
  0
TEXT
  8
W80LPLIFT
 62
3
 10
2548.094
 20
-7909.752
 30
-2607.243
 40
1.969
  1
ST-753T
 50
55.787
 41
 1.0 
  0
TEXT
  8
W80LPLIFT
 62
3
 10
2540.977
 20
-7912.819
 30
-2607.243
 40
1.969
  1
-2607.2429
 50
55.787
 41
 1.0 
  0
TEXT
  8
W80LPLIFT
 62
3
 10
2570.007
 20
-7916.978
 30
-2607.113
 40
1.969
  1
-2607.1127
 50
58.152
 41
 1.0 
  0
POLYLINE
  8
W80LPLIFT
 62
3
 66
     1
 70
     9
  0
VERTEX
  8
W80LPLIFT
 62
3
 10
2569.310
 20
-7899.614
 30
-2607.113
 70
    32
  0
VERTEX
  8
W80LPLIFT
 62
3
 10
2567.310
 20
-7903.080
 30
-2607.113
 70
    32
  0
VERTEX
  8
W80LPLIFT
 62
3
 10
2571.310
 20
-7903.080
 30
-2607.113
 70
    32
  0
SEQEND
  8
W80LPLIFT
  0
POLYLINE
  8
W80LPLIFT
 62
3
 66
     1
 70
     9
  0
VERTEX
  8
W80LPLIFT
 62
3
 10
2530.827
 20
-8034.078
 30
-2616.431
 70
    32
  0
VERTEX
  8
W80LPLIFT
 62
3
 10
2535.256
 20
-8033.888
 30
-2617.359
 70
    32
  0
VERTEX
  8
W80LPLIFT
 62
3
 10
2540.482
 20
-8035.426
 30
-2617.624
 70
    32
  0
VERTEX
  8
W80LPLIFT
 62
3
 10
2548.724
 20
-8032.331
 30
-2615.331
 70
    32
  0
VERTEX
  8
W80LPLIFT
 62
3
 10
2552.948
 20
-8040.417
 30
-2622.895
 70
    32
  0
VERTEX
  8
W80LPLIFT
 62
3
 10
2553.610
 20
-8047.754
 30
-2621.481
 70
    32
  0
VERTEX
  8
W80LPLIFT
 62
3
 10
2548.634
 20
-8055.002
 30
-2621.116
 70
    32
  0
VERTEX
  8
W80LPLIFT
 62
3
 10
2544.905
 20
-8058.933
 30
-2618.609
 70
    32
  0
VERTEX
  8
W80LPLIFT
 62
3
 10
2537.702
 20
-8064.865
 30
-2618.548
 70
    32
  0
VERTEX
  8
W80LPLIFT
 62
3
 10
2534.148
 20
-8059.571
 30
-2619.165
 70
    32
  0
VERTEX
  8
W80LPLIFT
 62
3
 10
2522.275
 20
-8039.961
 30
-2616.273
 70
    32
  0
SEQEND
  8
W80LPLIFT
  0
POLYLINE
  8
W80LPLIFT
 62
3
 66
     1
 70
     9
  0
VERTEX
  8
W80LPLIFT
 62
3
 10
2526.535
 20
-7924.125
 30
-2608.570
 70
    32
  0
VERTEX
  8
W80LPLIFT
 62
3
 10
2546.411
 20
-7912.833
 30
-2608.467
 70
    32
  0
VERTEX
  8
W80LPLIFT
 62
3
 10
2557.606
 20
-7901.440
 30
-2606.447
 70
    32
  0
VERTEX
  8
W80LPLIFT
 62
3
 10
2549.719
 20
-7893.354
 30
-2608.574
 70
    32
  0
VERTEX
  8
W80LPLIFT
 62
3
 10
2540.642
 20
-7891.553
 30
-2608.818
 70
    32
  0
VERTEX
  8
W80LPLIFT
 62
3
 10
2532.418
 20
-7897.377
 30
-2607.967
 70
    32
  0
VERTEX
  8
W80LPLIFT
 62
3
 10
2530.012
 20
-7897.884
 30
-2608.386
 70
    32
  0
VERTEX
  8
W80LPLIFT
 62
3
 10
2520.122
 20
-7895.054
 30
-2608.570
 70
    32
  0
VERTEX
  8
W80LPLIFT
 62
3
 10
2515.955
 20
-7894.496
 30
-2608.223
 70
    32
  0
VERTEX
  8
W80LPLIFT
 62
3
 10
2506.190
 20
-7893.271
 30
-2607.090
 70
    32
  0
VERTEX
  8
W80LPLIFT
 62
3
 10
2495.148
 20
-7894.540
 30
-2606.667
 70
    32
  0
VERTEX
  8
W80LPLIFT
 62
3
 10
2491.840
 20
-7895.156
 30
-2606.896
 70
    32
  0
VERTEX
  8
W80LPLIFT
 62
3
 10
2489.219
 20
-7889.518
 30
-2607.941
 70
    32
  0
VERTEX
  8
W80LPLIFT
 62
3
 10
2486.854
 20
-7884.217
 30
-2607.714
 70
    32
  0
VERTEX
  8
W80LPLIFT
 62
3
 10
2486.925
 20
-7876.143
 30
-2605.143
 70
    32
  0
VERTEX
  8
W80LPLIFT
 62
3
 10
2485.282
 20
-7865.916
 30
-2605.279
 70
    32
  0
VERTEX
  8
W80LPLIFT
 62
3
 10
2472.479
 20
-7860.938
 30
-2605.443
 70
    32
  0
VERTEX
  8
W80LPLIFT
 62
3
 10
2477.731
 20
-7851.718
 30
-2612.773
 70
    32
  0
VERTEX
  8
W80LPLIFT
 62
3
 10
2491.615
 20
-7857.483
 30
-2605.570
 70
    32
  0
VERTEX
  8
W80LPLIFT
 62
3
 10
2497.363
 20
-7853.139
 30
-2604.598
 70
    32
  0
VERTEX
  8
W80LPLIFT
 62
3
 10
2506.009
 20
-7855.823
 30
-2604.904
 70
    32
  0
VERTEX
  8
W80LPLIFT
 62
3
 10
2512.470
 20
-7861.645
 30
-2606.469
 70
    32
  0
VERTEX
  8
W80LPLIFT
 62
3
 10
2523.857
 20
-7871.130
 30
-2606.966
 70
    32
  0
VERTEX
  8
W80LPLIFT
 62
3
 10
2531.104
 20
-7874.725
 30
-2605.244
 70
    32
  0
VERTEX
  8
W80LPLIFT
 62
3
 10
2543.209
 20
-7879.678
 30
-2607.712
 70
    32
  0
VERTEX
  8
W80LPLIFT
 62
3
 10
2554.627
 20
-7882.018
 30
-2606.495
 70
    32
  0
VERTEX
  8
W80LPLIFT
 62
3
 10
2566.973
 20
-7890.086
 30
-2606.610
 70
    32
  0
VERTEX
  8
W80LPLIFT
 62
3
 10
2570.568
 20
-7894.122
 30
-2605.963
 70
    32
  0
VERTEX
  8
W80LPLIFT
 62
3
 10
2578.964
 20
-7899.391
 30
-2604.334
 70
    32
  0
VERTEX
  8
W80LPLIFT
 62
3
 10
2579.582
 20
-7907.747
 30
-2604.657
 70
    32
  0
VERTEX
  8
W80LPLIFT
 62
3
 10
2570.091
 20
-7912.901
 30
-2606.086
 70
    32
  0
VERTEX
  8
W80LPLIFT
 62
3
 10
2568.637
 20
-7916.480
 30
-2606.416
 70
    32
  0
VERTEX
  8
W80LPLIFT
 62
3
 10
2558.046
 20
-7917.708
 30
-2607.585
 70
    32
  0
VERTEX
  8
W80LPLIFT
 62
3
 10
2546.445
 20
-7923.902
 30
-2607.207
 70
    32
  0
VERTEX
  8
W80LPLIFT
 62
3
 10
2533.288
 20
-7930.628
 30
-2608.460
 70
    32
  0
SEQEND
  8
W80LPLIFT
  0
ENDSEC
  0
EOF
