999
********************************
999
*   DXF File - Entities Only   *
999
*        3D Data Format        *
999
*     Output from ENVISAGE     *
999
*     02-Jan-2008 11:51:18     *
999
********************************
  0
SECTION 
  2
HEADER
  9
$ACADVER
  1
AC1009
  9
$EXTMIN
 10
-290000.000
 20
-250000.000
 30
-4000.000
  9
$EXTMAX
 10
320000.000
 20
160000.000
 30
6000.000
  0
ENDSEC
  0
SECTION
  2
ENTITIES
  0
POLYLINE
  8
W80LXLIFT
 62
3
 66
     1
 70
     9
  0
VERTEX
  8
W80LXLIFT
 62
3
 10
2057.196
 20
-6791.021
 30
-2595.000
 70
    32
  0
VERTEX
  8
W80LXLIFT
 62
3
 10
2048.371
 20
-6786.699
 30
-2595.000
 70
    32
  0
VERTEX
  8
W80LXLIFT
 62
3
 10
2045.640
 20
-6775.295
 30
-2595.000
 70
    32
  0
VERTEX
  8
W80LXLIFT
 62
3
 10
2034.290
 20
-6750.566
 30
-2595.000
 70
    32
  0
VERTEX
  8
W80LXLIFT
 62
3
 10
2040.217
 20
-6746.596
 30
-2595.000
 70
    32
  0
VERTEX
  8
W80LXLIFT
 62
3
 10
2035.347
 20
-6733.838
 30
-2595.000
 70
    32
  0
VERTEX
  8
W80LXLIFT
 62
3
 10
2019.509
 20
-6727.570
 30
-2595.000
 70
    32
  0
VERTEX
  8
W80LXLIFT
 62
3
 10
2007.071
 20
-6728.657
 30
-2595.000
 70
    32
  0
VERTEX
  8
W80LXLIFT
 62
3
 10
2001.842
 20
-6714.847
 30
-2595.000
 70
    32
  0
VERTEX
  8
W80LXLIFT
 62
3
 10
2004.587
 20
-6713.084
 30
-2595.000
 70
    32
  0
VERTEX
  8
W80LXLIFT
 62
3
 10
2017.570
 20
-6705.611
 30
-2595.000
 70
    32
  0
VERTEX
  8
W80LXLIFT
 62
3
 10
2031.442
 20
-6718.576
 30
-2595.000
 70
    32
  0
VERTEX
  8
W80LXLIFT
 62
3
 10
2050.089
 20
-6717.948
 30
-2595.000
 70
    32
  0
VERTEX
  8
W80LXLIFT
 62
3
 10
2068.390
 20
-6722.227
 30
-2595.000
 70
    32
  0
VERTEX
  8
W80LXLIFT
 62
3
 10
2079.124
 20
-6731.948
 30
-2595.000
 70
    32
  0
VERTEX
  8
W80LXLIFT
 62
3
 10
2077.603
 20
-6747.923
 30
-2595.000
 70
    32
  0
VERTEX
  8
W80LXLIFT
 62
3
 10
2093.363
 20
-6765.971
 30
-2595.000
 70
    32
  0
VERTEX
  8
W80LXLIFT
 62
3
 10
2082.389
 20
-6776.222
 30
-2595.000
 70
    32
  0
VERTEX
  8
W80LXLIFT
 62
3
 10
2078.361
 20
-6786.593
 30
-2595.000
 70
    32
  0
VERTEX
  8
W80LXLIFT
 62
3
 10
2095.337
 20
-6845.504
 30
-2595.000
 70
    32
  0
VERTEX
  8
W80LXLIFT
 62
3
 10
2084.406
 20
-6854.507
 30
-2595.000
 70
    32
  0
VERTEX
  8
W80LXLIFT
 62
3
 10
2073.566
 20
-6855.370
 30
-2595.000
 70
    32
  0
VERTEX
  8
W80LXLIFT
 62
3
 10
2059.250
 20
-6824.723
 30
-2595.000
 70
    32
  0
VERTEX
  8
W80LXLIFT
 62
3
 10
2053.487
 20
-6825.140
 30
-2595.000
 70
    32
  0
VERTEX
  8
W80LXLIFT
 62
3
 10
2046.016
 20
-6835.925
 30
-2595.000
 70
    32
  0
VERTEX
  8
W80LXLIFT
 62
3
 10
2039.881
 20
-6861.502
 30
-2595.000
 70
    32
  0
VERTEX
  8
W80LXLIFT
 62
3
 10
2032.196
 20
-6865.485
 30
-2595.000
 70
    32
  0
VERTEX
  8
W80LXLIFT
 62
3
 10
2018.584
 20
-6862.714
 30
-2595.000
 70
    32
  0
VERTEX
  8
W80LXLIFT
 62
3
 10
2014.495
 20
-6857.210
 30
-2595.000
 70
    32
  0
VERTEX
  8
W80LXLIFT
 62
3
 10
2021.041
 20
-6843.040
 30
-2595.000
 70
    32
  0
VERTEX
  8
W80LXLIFT
 62
3
 10
2019.162
 20
-6815.508
 30
-2595.000
 70
    32
  0
VERTEX
  8
W80LXLIFT
 62
3
 10
2044.911
 20
-6810.566
 30
-2595.000
 70
    32
  0
VERTEX
  8
W80LXLIFT
 62
3
 10
2058.935
 20
-6797.213
 30
-2595.000
 70
    32
  0
SEQEND
  8
W80LXLIFT
  0
POLYLINE
  8
W80LXLIFT
 62
3
 66
     1
 70
     9
  0
VERTEX
  8
W80LXLIFT
 62
3
 10
2059.196
 20
-6789.021
 30
-2585.000
 70
    32
  0
VERTEX
  8
W80LXLIFT
 62
3
 10
2050.371
 20
-6784.699
 30
-2585.000
 70
    32
  0
VERTEX
  8
W80LXLIFT
 62
3
 10
2047.640
 20
-6773.295
 30
-2585.000
 70
    32
  0
VERTEX
  8
W80LXLIFT
 62
3
 10
2036.290
 20
-6748.566
 30
-2585.000
 70
    32
  0
VERTEX
  8
W80LXLIFT
 62
3
 10
2042.217
 20
-6744.596
 30
-2585.000
 70
    32
  0
VERTEX
  8
W80LXLIFT
 62
3
 10
2037.347
 20
-6731.838
 30
-2585.000
 70
    32
  0
VERTEX
  8
W80LXLIFT
 62
3
 10
2021.509
 20
-6725.570
 30
-2585.000
 70
    32
  0
VERTEX
  8
W80LXLIFT
 62
3
 10
2009.071
 20
-6726.657
 30
-2585.000
 70
    32
  0
VERTEX
  8
W80LXLIFT
 62
3
 10
2003.842
 20
-6712.847
 30
-2585.000
 70
    32
  0
VERTEX
  8
W80LXLIFT
 62
3
 10
2006.587
 20
-6711.084
 30
-2585.000
 70
    32
  0
VERTEX
  8
W80LXLIFT
 62
3
 10
2019.570
 20
-6703.611
 30
-2585.000
 70
    32
  0
VERTEX
  8
W80LXLIFT
 62
3
 10
2033.442
 20
-6716.576
 30
-2585.000
 70
    32
  0
VERTEX
  8
W80LXLIFT
 62
3
 10
2052.089
 20
-6715.948
 30
-2585.000
 70
    32
  0
VERTEX
  8
W80LXLIFT
 62
3
 10
2070.390
 20
-6720.227
 30
-2585.000
 70
    32
  0
VERTEX
  8
W80LXLIFT
 62
3
 10
2081.124
 20
-6729.948
 30
-2585.000
 70
    32
  0
VERTEX
  8
W80LXLIFT
 62
3
 10
2079.603
 20
-6745.923
 30
-2585.000
 70
    32
  0
VERTEX
  8
W80LXLIFT
 62
3
 10
2095.363
 20
-6763.971
 30
-2585.000
 70
    32
  0
VERTEX
  8
W80LXLIFT
 62
3
 10
2084.389
 20
-6774.222
 30
-2585.000
 70
    32
  0
VERTEX
  8
W80LXLIFT
 62
3
 10
2080.361
 20
-6784.593
 30
-2585.000
 70
    32
  0
VERTEX
  8
W80LXLIFT
 62
3
 10
2097.337
 20
-6843.504
 30
-2585.000
 70
    32
  0
VERTEX
  8
W80LXLIFT
 62
3
 10
2086.406
 20
-6852.507
 30
-2585.000
 70
    32
  0
VERTEX
  8
W80LXLIFT
 62
3
 10
2075.566
 20
-6853.370
 30
-2585.000
 70
    32
  0
VERTEX
  8
W80LXLIFT
 62
3
 10
2061.250
 20
-6822.723
 30
-2585.000
 70
    32
  0
VERTEX
  8
W80LXLIFT
 62
3
 10
2055.487
 20
-6823.140
 30
-2585.000
 70
    32
  0
VERTEX
  8
W80LXLIFT
 62
3
 10
2048.016
 20
-6833.925
 30
-2585.000
 70
    32
  0
VERTEX
  8
W80LXLIFT
 62
3
 10
2041.881
 20
-6859.502
 30
-2585.000
 70
    32
  0
VERTEX
  8
W80LXLIFT
 62
3
 10
2034.196
 20
-6863.485
 30
-2585.000
 70
    32
  0
VERTEX
  8
W80LXLIFT
 62
3
 10
2020.584
 20
-6860.714
 30
-2585.000
 70
    32
  0
VERTEX
  8
W80LXLIFT
 62
3
 10
2016.495
 20
-6855.210
 30
-2585.000
 70
    32
  0
VERTEX
  8
W80LXLIFT
 62
3
 10
2023.041
 20
-6841.040
 30
-2585.000
 70
    32
  0
VERTEX
  8
W80LXLIFT
 62
3
 10
2021.162
 20
-6813.508
 30
-2585.000
 70
    32
  0
VERTEX
  8
W80LXLIFT
 62
3
 10
2046.911
 20
-6808.566
 30
-2585.000
 70
    32
  0
VERTEX
  8
W80LXLIFT
 62
3
 10
2060.935
 20
-6795.213
 30
-2585.000
 70
    32
  0
SEQEND
  8
W80LXLIFT
  0
LINE
  8
W80LXLIFT
 62
3
 10
2051.758
 20
-6738.812
 30
-2571.000
 11
2067.438
 21
-6769.106
 31
-2585.000
  0
POINT
  8
W80LXLIFT
 62
3
 10
2067.438
 20
-6769.106
 30
-2585.000
  0
POINT
  8
W80LXLIFT
 62
3
 10
2051.758
 20
-6738.812
 30
-2571.000
  0
POLYLINE
  8
W80LXLIFT
 62
3
 66
     1
 70
     9
  0
VERTEX
  8
W80LXLIFT
 62
3
 10
2160.918
 20
-6940.083
 30
-2610.860
 70
    32
  0
VERTEX
  8
W80LXLIFT
 62
3
 10
2135.840
 20
-6956.237
 30
-2566.840
 70
    32
  0
VERTEX
  8
W80LXLIFT
 62
3
 10
2175.192
 20
-6930.888
 30
-2566.930
 70
    32
  0
VERTEX
  8
W80LXLIFT
 62
3
 10
2166.424
 20
-6936.536
 30
-2610.990
 70
    32
  0
SEQEND
  8
W80LXLIFT
  0
POLYLINE
  8
W80LXLIFT
 62
3
 66
     1
 70
     9
  0
VERTEX
  8
W80LXLIFT
 62
3
 10
2152.399
 20
-6936.055
 30
-2611.080
 70
    32
  0
VERTEX
  8
W80LXLIFT
 62
3
 10
2129.970
 20
-6950.503
 30
-2566.330
 70
    32
  0
VERTEX
  8
W80LXLIFT
 62
3
 10
2168.641
 20
-6925.592
 30
-2567.170
 70
    32
  0
VERTEX
  8
W80LXLIFT
 62
3
 10
2161.445
 20
-6930.228
 30
-2610.190
 70
    32
  0
SEQEND
  8
W80LXLIFT
  0
POLYLINE
  8
W80LXLIFT
 62
3
 66
     1
 70
     9
  0
VERTEX
  8
W80LXLIFT
 62
3
 10
2144.981
 20
-6931.317
 30
-2610.310
 70
    32
  0
VERTEX
  8
W80LXLIFT
 62
3
 10
2130.908
 20
-6940.382
 30
-2567.260
 70
    32
  0
VERTEX
  8
W80LXLIFT
 62
3
 10
2171.706
 20
-6914.101
 30
-2567.460
 70
    32
  0
VERTEX
  8
W80LXLIFT
 62
3
 10
2158.457
 20
-6922.636
 30
-2610.320
 70
    32
  0
SEQEND
  8
W80LXLIFT
  0
POLYLINE
  8
W80LXLIFT
 62
3
 66
     1
 70
     9
  0
VERTEX
  8
W80LXLIFT
 62
3
 10
2130.508
 20
-6921.608
 30
-2610.290
 70
    32
  0
VERTEX
  8
W80LXLIFT
 62
3
 10
2128.549
 20
-6922.870
 30
-2567.000
 70
    32
  0
VERTEX
  8
W80LXLIFT
 62
3
 10
2165.076
 20
-6899.340
 30
-2567.220
 70
    32
  0
VERTEX
  8
W80LXLIFT
 62
3
 10
2145.766
 20
-6911.779
 30
-2610.120
 70
    32
  0
SEQEND
  8
W80LXLIFT
  0
POLYLINE
  8
W80LXLIFT
 62
3
 66
     1
 70
     9
  0
VERTEX
  8
W80LXLIFT
 62
3
 10
2139.797
 20
-6929.898
 30
-2610.210
 70
    32
  0
VERTEX
  8
W80LXLIFT
 62
3
 10
2131.735
 20
-6935.092
 30
-2566.610
 70
    32
  0
VERTEX
  8
W80LXLIFT
 62
3
 10
2170.734
 20
-6909.970
 30
-2566.820
 70
    32
  0
VERTEX
  8
W80LXLIFT
 62
3
 10
2156.485
 20
-6919.149
 30
-2610.020
 70
    32
  0
SEQEND
  8
W80LXLIFT
  0
POLYLINE
  8
W80LXLIFT
 62
3
 66
     1
 70
     9
  0
VERTEX
  8
W80LXLIFT
 62
3
 10
2146.315
 20
-6935.216
 30
-2610.190
 70
    32
  0
VERTEX
  8
W80LXLIFT
 62
3
 10
2124.668
 20
-6949.160
 30
-2566.630
 70
    32
  0
VERTEX
  8
W80LXLIFT
 62
3
 10
2169.055
 20
-6920.567
 30
-2566.880
 70
    32
  0
VERTEX
  8
W80LXLIFT
 62
3
 10
2159.867
 20
-6926.486
 30
-2610.220
 70
    32
  0
SEQEND
  8
W80LXLIFT
  0
POLYLINE
  8
W80LXLIFT
 62
3
 66
     1
 70
     9
  0
VERTEX
  8
W80LXLIFT
 62
3
 10
2134.588
 20
-6928.496
 30
-2610.270
 70
    32
  0
VERTEX
  8
W80LXLIFT
 62
3
 10
2133.327
 20
-6929.308
 30
-2566.770
 70
    32
  0
VERTEX
  8
W80LXLIFT
 62
3
 10
2169.123
 20
-6906.249
 30
-2566.750
 70
    32
  0
VERTEX
  8
W80LXLIFT
 62
3
 10
2154.268
 20
-6915.818
 30
-2610.280
 70
    32
  0
SEQEND
  8
W80LXLIFT
  0
POLYLINE
  8
W80LXLIFT
 62
3
 66
     1
 70
     9
  0
VERTEX
  8
W80LXLIFT
 62
3
 10
2132.867
 20
-6924.846
 30
-2610.700
 70
    32
  0
VERTEX
  8
W80LXLIFT
 62
3
 10
2131.043
 20
-6926.021
 30
-2566.870
 70
    32
  0
VERTEX
  8
W80LXLIFT
 62
3
 10
2166.587
 20
-6903.125
 30
-2566.960
 70
    32
  0
VERTEX
  8
W80LXLIFT
 62
3
 10
2152.135
 20
-6912.434
 30
-2610.180
 70
    32
  0
SEQEND
  8
W80LXLIFT
  0
POLYLINE
  8
W80LXLIFT
 62
3
 66
     1
 70
     9
  0
VERTEX
  8
W80LXLIFT
 62
3
 10
2128.434
 20
-6918.186
 30
-2609.970
 70
    32
  0
VERTEX
  8
W80LXLIFT
 62
3
 10
2126.383
 20
-6919.507
 30
-2566.780
 70
    32
  0
VERTEX
  8
W80LXLIFT
 62
3
 10
2164.104
 20
-6895.208
 30
-2566.430
 70
    32
  0
VERTEX
  8
W80LXLIFT
 62
3
 10
2139.892
 20
-6910.805
 30
-2611.210
 70
    32
  0
SEQEND
  8
W80LXLIFT
  0
POLYLINE
  8
W80LXLIFT
 62
3
 66
     1
 70
     9
  0
VERTEX
  8
W80LXLIFT
 62
3
 10
2125.940
 20
-6915.034
 30
-2610.170
 70
    32
  0
VERTEX
  8
W80LXLIFT
 62
3
 10
2124.099
 20
-6916.220
 30
-2566.780
 70
    32
  0
VERTEX
  8
W80LXLIFT
 62
3
 10
2161.055
 20
-6892.414
 30
-2566.840
 70
    32
  0
VERTEX
  8
W80LXLIFT
 62
3
 10
2137.709
 20
-6907.453
 30
-2610.330
 70
    32
  0
SEQEND
  8
W80LXLIFT
  0
POLYLINE
  8
W80LXLIFT
 62
3
 66
     1
 70
     9
  0
VERTEX
  8
W80LXLIFT
 62
3
 10
2123.891
 20
-6911.596
 30
-2609.950
 70
    32
  0
VERTEX
  8
W80LXLIFT
 62
3
 10
2123.017
 20
-6912.159
 30
-2566.800
 70
    32
  0
VERTEX
  8
W80LXLIFT
 62
3
 10
2161.495
 20
-6887.373
 30
-2566.630
 70
    32
  0
VERTEX
  8
W80LXLIFT
 62
3
 10
2134.888
 20
-6904.512
 30
-2611.340
 70
    32
  0
SEQEND
  8
W80LXLIFT
  0
POLYLINE
  8
W80LXLIFT
 62
3
 66
     1
 70
     9
  0
VERTEX
  8
W80LXLIFT
 62
3
 10
2121.919
 20
-6908.108
 30
-2609.990
 70
    32
  0
VERTEX
  8
W80LXLIFT
 62
3
 10
2121.549
 20
-6908.347
 30
-2566.610
 70
    32
  0
VERTEX
  8
W80LXLIFT
 62
3
 10
2153.436
 20
-6887.806
 30
-2566.730
 70
    32
  0
VERTEX
  8
W80LXLIFT
 62
3
 10
2130.771
 20
-6902.406
 30
-2609.910
 70
    32
  0
SEQEND
  8
W80LXLIFT
  0
POLYLINE
  8
W80LXLIFT
 62
3
 66
     1
 70
     9
  0
VERTEX
  8
W80LXLIFT
 62
3
 10
2115.386
 20
-6899.580
 30
-2610.020
 70
    32
  0
VERTEX
  8
W80LXLIFT
 62
3
 10
2109.837
 20
-6903.154
 30
-2566.390
 70
    32
  0
VERTEX
  8
W80LXLIFT
 62
3
 10
2150.114
 20
-6877.209
 30
-2566.160
 70
    32
  0
VERTEX
  8
W80LXLIFT
 62
3
 10
2131.930
 20
-6888.922
 30
-2609.630
 70
    32
  0
SEQEND
  8
W80LXLIFT
  0
POLYLINE
  8
W80LXLIFT
 62
3
 66
     1
 70
     9
  0
VERTEX
  8
W80LXLIFT
 62
3
 10
2119.408
 20
-6904.968
 30
-2610.170
 70
    32
  0
VERTEX
  8
W80LXLIFT
 62
3
 10
2119.097
 20
-6905.168
 30
-2566.790
 70
    32
  0
VERTEX
  8
W80LXLIFT
 62
3
 10
2150.958
 20
-6884.644
 30
-2567.010
 70
    32
  0
VERTEX
  8
W80LXLIFT
 62
3
 10
2127.335
 20
-6899.861
 30
-2610.050
 70
    32
  0
SEQEND
  8
W80LXLIFT
  0
POLYLINE
  8
W80LXLIFT
 62
3
 66
     1
 70
     9
  0
VERTEX
  8
W80LXLIFT
 62
3
 10
2116.578
 20
-6902.033
 30
-2610.240
 70
    32
  0
VERTEX
  8
W80LXLIFT
 62
3
 10
2111.962
 20
-6905.006
 30
-2566.730
 70
    32
  0
VERTEX
  8
W80LXLIFT
 62
3
 10
2154.601
 20
-6877.539
 30
-2567.060
 70
    32
  0
VERTEX
  8
W80LXLIFT
 62
3
 10
2130.096
 20
-6893.325
 30
-2610.000
 70
    32
  0
SEQEND
  8
W80LXLIFT
  0
POLYLINE
  8
W80LXLIFT
 62
3
 66
     1
 70
     9
  0
VERTEX
  8
W80LXLIFT
 62
3
 10
2111.144
 20
-6896.017
 30
-2610.250
 70
    32
  0
VERTEX
  8
W80LXLIFT
 62
3
 10
2101.880
 20
-6901.985
 30
-2566.590
 70
    32
  0
VERTEX
  8
W80LXLIFT
 62
3
 10
2146.923
 20
-6872.969
 30
-2566.880
 70
    32
  0
VERTEX
  8
W80LXLIFT
 62
3
 10
2128.395
 20
-6884.904
 30
-2610.740
 70
    32
  0
SEQEND
  8
W80LXLIFT
  0
POLYLINE
  8
W80LXLIFT
 62
3
 66
     1
 70
     9
  0
VERTEX
  8
W80LXLIFT
 62
3
 10
2106.929
 20
-6889.216
 30
-2610.380
 70
    32
  0
VERTEX
  8
W80LXLIFT
 62
3
 10
2097.236
 20
-6895.460
 30
-2566.990
 70
    32
  0
VERTEX
  8
W80LXLIFT
 62
3
 10
2141.691
 20
-6866.823
 30
-2567.120
 70
    32
  0
VERTEX
  8
W80LXLIFT
 62
3
 10
2124.827
 20
-6877.686
 30
-2610.410
 70
    32
  0
SEQEND
  8
W80LXLIFT
  0
POLYLINE
  8
W80LXLIFT
 62
3
 66
     1
 70
     9
  0
VERTEX
  8
W80LXLIFT
 62
3
 10
2105.007
 20
-6885.696
 30
-2610.200
 70
    32
  0
VERTEX
  8
W80LXLIFT
 62
3
 10
2094.969
 20
-6892.162
 30
-2567.050
 70
    32
  0
VERTEX
  8
W80LXLIFT
 62
3
 10
2139.727
 20
-6863.330
 30
-2566.960
 70
    32
  0
VERTEX
  8
W80LXLIFT
 62
3
 10
2122.552
 20
-6874.394
 30
-2610.310
 70
    32
  0
SEQEND
  8
W80LXLIFT
  0
POLYLINE
  8
W80LXLIFT
 62
3
 66
     1
 70
     9
  0
VERTEX
  8
W80LXLIFT
 62
3
 10
2102.429
 20
-6882.598
 30
-2610.600
 70
    32
  0
VERTEX
  8
W80LXLIFT
 62
3
 10
2092.374
 20
-6889.075
 30
-2567.020
 70
    32
  0
VERTEX
  8
W80LXLIFT
 62
3
 10
2137.855
 20
-6859.778
 30
-2567.450
 70
    32
  0
VERTEX
  8
W80LXLIFT
 62
3
 10
2119.596
 20
-6871.540
 30
-2610.520
 70
    32
  0
SEQEND
  8
W80LXLIFT
  0
POLYLINE
  8
W80LXLIFT
 62
3
 66
     1
 70
     9
  0
VERTEX
  8
W80LXLIFT
 62
3
 10
2100.246
 20
-6879.247
 30
-2610.250
 70
    32
  0
VERTEX
  8
W80LXLIFT
 62
3
 10
2089.796
 20
-6885.978
 30
-2566.510
 70
    32
  0
VERTEX
  8
W80LXLIFT
 62
3
 10
2130.872
 20
-6859.518
 30
-2566.910
 70
    32
  0
VERTEX
  8
W80LXLIFT
 62
3
 10
2116.757
 20
-6868.611
 30
-2610.540
 70
    32
  0
SEQEND
  8
W80LXLIFT
  0
POLYLINE
  8
W80LXLIFT
 62
3
 66
     1
 70
     9
  0
VERTEX
  8
W80LXLIFT
 62
3
 10
2098.399
 20
-6875.678
 30
-2610.400
 70
    32
  0
VERTEX
  8
W80LXLIFT
 62
3
 10
2088.362
 20
-6882.144
 30
-2566.380
 70
    32
  0
VERTEX
  8
W80LXLIFT
 62
3
 10
2124.376
 20
-6858.945
 30
-2566.870
 70
    32
  0
VERTEX
  8
W80LXLIFT
 62
3
 10
2110.816
 20
-6867.680
 30
-2610.470
 70
    32
  0
SEQEND
  8
W80LXLIFT
  0
POLYLINE
  8
W80LXLIFT
 62
3
 66
     1
 70
     9
  0
VERTEX
  8
W80LXLIFT
 62
3
 10
2097.007
 20
-6871.817
 30
-2610.740
 70
    32
  0
VERTEX
  8
W80LXLIFT
 62
3
 10
2090.794
 20
-6875.819
 30
-2566.900
 70
    32
  0
VERTEX
  8
W80LXLIFT
 62
3
 10
2122.824
 20
-6855.187
 30
-2567.480
 70
    32
  0
VERTEX
  8
W80LXLIFT
 62
3
 10
2108.238
 20
-6864.582
 30
-2610.640
 70
    32
  0
SEQEND
  8
W80LXLIFT
  0
POLYLINE
  8
W80LXLIFT
 62
3
 66
     1
 70
     9
  0
VERTEX
  8
W80LXLIFT
 62
3
 10
2094.748
 20
-6868.514
 30
-2611.240
 70
    32
  0
VERTEX
  8
W80LXLIFT
 62
3
 10
2088.376
 20
-6872.619
 30
-2566.810
 70
    32
  0
VERTEX
  8
W80LXLIFT
 62
3
 10
2115.555
 20
-6855.111
 30
-2566.980
 70
    32
  0
VERTEX
  8
W80LXLIFT
 62
3
 10
2106.156
 20
-6861.165
 30
-2611.030
 70
    32
  0
SEQEND
  8
W80LXLIFT
  0
POLYLINE
  8
W80LXLIFT
 62
3
 66
     1
 70
     9
  0
VERTEX
  8
W80LXLIFT
 62
3
 10
2085.844
 20
-6862.355
 30
-2610.140
 70
    32
  0
VERTEX
  8
W80LXLIFT
 62
3
 10
2076.201
 20
-6868.566
 30
-2560.590
 70
    32
  0
VERTEX
  8
W80LXLIFT
 62
3
 10
2115.881
 20
-6843.006
 30
-2560.560
 70
    32
  0
VERTEX
  8
W80LXLIFT
 62
3
 10
2104.120
 20
-6850.582
 30
-2610.150
 70
    32
  0
SEQEND
  8
W80LXLIFT
  0
POLYLINE
  8
W80LXLIFT
 62
3
 66
     1
 70
     9
  0
VERTEX
  8
W80LXLIFT
 62
3
 10
2088.647
 20
-6867.686
 30
-2610.600
 70
    32
  0
VERTEX
  8
W80LXLIFT
 62
3
 10
2079.576
 20
-6873.529
 30
-2561.400
 70
    32
  0
VERTEX
  8
W80LXLIFT
 62
3
 10
2082.964
 20
-6871.347
 30
-2561.510
 70
    32
  0
VERTEX
  8
W80LXLIFT
 62
3
 10
2090.446
 20
-6866.527
 30
-2561.360
 70
    32
  0
VERTEX
  8
W80LXLIFT
 62
3
 10
2095.432
 20
-6863.316
 30
-2560.970
 70
    32
  0
VERTEX
  8
W80LXLIFT
 62
3
 10
2102.880
 20
-6858.518
 30
-2560.340
 70
    32
  0
VERTEX
  8
W80LXLIFT
 62
3
 10
2109.631
 20
-6854.169
 30
-2560.640
 70
    32
  0
VERTEX
  8
W80LXLIFT
 62
3
 10
2114.111
 20
-6851.283
 30
-2560.890
 70
    32
  0
VERTEX
  8
W80LXLIFT
 62
3
 10
2117.172
 20
-6849.311
 30
-2561.810
 70
    32
  0
VERTEX
  8
W80LXLIFT
 62
3
 10
2120.568
 20
-6847.124
 30
-2564.460
 70
    32
  0
VERTEX
  8
W80LXLIFT
 62
3
 10
2107.008
 20
-6855.859
 30
-2610.440
 70
    32
  0
SEQEND
  8
W80LXLIFT
  0
POLYLINE
  8
W80LXLIFT
 62
3
 66
     1
 70
     9
  0
VERTEX
  8
W80LXLIFT
 62
3
 10
2109.280
 20
-6892.459
 30
-2610.380
 70
    32
  0
VERTEX
  8
W80LXLIFT
 62
3
 10
2099.360
 20
-6898.849
 30
-2566.220
 70
    32
  0
VERTEX
  8
W80LXLIFT
 62
3
 10
2144.353
 20
-6869.866
 30
-2566.750
 70
    32
  0
VERTEX
  8
W80LXLIFT
 62
3
 10
2126.439
 20
-6881.406
 30
-2610.500
 70
    32
  0
SEQEND
  8
W80LXLIFT
  0
POLYLINE
  8
W80LXLIFT
 62
3
 66
     1
 70
     9
  0
VERTEX
  8
W80LXLIFT
 62
3
 10
2158.393
 20
-6944.746
 30
-2652.000
 70
    32
  0
VERTEX
  8
W80LXLIFT
 62
3
 10
2133.371
 20
-6936.356
 30
-2652.000
 70
    32
  0
VERTEX
  8
W80LXLIFT
 62
3
 10
2124.907
 20
-6925.822
 30
-2652.000
 70
    32
  0
VERTEX
  8
W80LXLIFT
 62
3
 10
2111.536
 20
-6903.631
 30
-2652.000
 70
    32
  0
VERTEX
  8
W80LXLIFT
 62
3
 10
2107.971
 20
-6895.381
 30
-2652.000
 70
    32
  0
VERTEX
  8
W80LXLIFT
 62
3
 10
2108.067
 20
-6880.475
 30
-2652.000
 70
    32
  0
VERTEX
  8
W80LXLIFT
 62
3
 10
2105.687
 20
-6873.439
 30
-2652.000
 70
    32
  0
VERTEX
  8
W80LXLIFT
 62
3
 10
2094.914
 20
-6857.729
 30
-2652.000
 70
    32
  0
VERTEX
  8
W80LXLIFT
 62
3
 10
2108.990
 20
-6851.168
 30
-2652.000
 70
    32
  0
VERTEX
  8
W80LXLIFT
 62
3
 10
2122.911
 20
-6859.069
 30
-2652.000
 70
    32
  0
VERTEX
  8
W80LXLIFT
 62
3
 10
2139.653
 20
-6901.992
 30
-2652.000
 70
    32
  0
VERTEX
  8
W80LXLIFT
 62
3
 10
2152.014
 20
-6918.540
 30
-2652.000
 70
    32
  0
VERTEX
  8
W80LXLIFT
 62
3
 10
2157.156
 20
-6925.059
 30
-2652.000
 70
    32
  0
VERTEX
  8
W80LXLIFT
 62
3
 10
2163.572
 20
-6935.563
 30
-2652.000
 70
    32
  0
SEQEND
  8
W80LXLIFT
  0
POLYLINE
  8
W80LXLIFT
 62
3
 66
     1
 70
     9
  0
VERTEX
  8
W80LXLIFT
 62
3
 10
2175.269
 20
-6945.482
 30
-2642.000
 70
    32
  0
VERTEX
  8
W80LXLIFT
 62
3
 10
2166.030
 20
-6933.570
 30
-2642.000
 70
    32
  0
VERTEX
  8
W80LXLIFT
 62
3
 10
2165.600
 20
-6920.569
 30
-2642.000
 70
    32
  0
VERTEX
  8
W80LXLIFT
 62
3
 10
2158.983
 20
-6919.384
 30
-2642.000
 70
    32
  0
VERTEX
  8
W80LXLIFT
 62
3
 10
2152.379
 20
-6908.493
 30
-2642.000
 70
    32
  0
VERTEX
  8
W80LXLIFT
 62
3
 10
2133.140
 20
-6897.516
 30
-2642.000
 70
    32
  0
VERTEX
  8
W80LXLIFT
 62
3
 10
2126.542
 20
-6886.742
 30
-2642.000
 70
    32
  0
VERTEX
  8
W80LXLIFT
 62
3
 10
2125.991
 20
-6885.654
 30
-2642.000
 70
    32
  0
VERTEX
  8
W80LXLIFT
 62
3
 10
2123.133
 20
-6876.488
 30
-2642.000
 70
    32
  0
VERTEX
  8
W80LXLIFT
 62
3
 10
2107.283
 20
-6857.986
 30
-2642.000
 70
    32
  0
VERTEX
  8
W80LXLIFT
 62
3
 10
2094.136
 20
-6849.958
 30
-2642.000
 70
    32
  0
VERTEX
  8
W80LXLIFT
 62
3
 10
2084.687
 20
-6841.936
 30
-2642.000
 70
    32
  0
VERTEX
  8
W80LXLIFT
 62
3
 10
2076.974
 20
-6848.948
 30
-2642.000
 70
    32
  0
VERTEX
  8
W80LXLIFT
 62
3
 10
2080.733
 20
-6856.967
 30
-2642.000
 70
    32
  0
VERTEX
  8
W80LXLIFT
 62
3
 10
2081.559
 20
-6864.984
 30
-2642.000
 70
    32
  0
VERTEX
  8
W80LXLIFT
 62
3
 10
2105.397
 20
-6888.151
 30
-2642.000
 70
    32
  0
VERTEX
  8
W80LXLIFT
 62
3
 10
2109.353
 20
-6897.465
 30
-2642.000
 70
    32
  0
VERTEX
  8
W80LXLIFT
 62
3
 10
2109.482
 20
-6906.412
 30
-2642.000
 70
    32
  0
VERTEX
  8
W80LXLIFT
 62
3
 10
2114.413
 20
-6908.053
 30
-2642.000
 70
    32
  0
VERTEX
  8
W80LXLIFT
 62
3
 10
2122.938
 20
-6913.448
 30
-2642.000
 70
    32
  0
VERTEX
  8
W80LXLIFT
 62
3
 10
2123.416
 20
-6919.668
 30
-2642.000
 70
    32
  0
VERTEX
  8
W80LXLIFT
 62
3
 10
2137.189
 20
-6934.810
 30
-2642.000
 70
    32
  0
VERTEX
  8
W80LXLIFT
 62
3
 10
2148.335
 20
-6938.364
 30
-2642.000
 70
    32
  0
VERTEX
  8
W80LXLIFT
 62
3
 10
2163.874
 20
-6952.428
 30
-2642.000
 70
    32
  0
VERTEX
  8
W80LXLIFT
 62
3
 10
2170.463
 20
-6950.611
 30
-2642.000
 70
    32
  0
SEQEND
  8
W80LXLIFT
  0
POLYLINE
  8
W80LXLIFT
 62
3
 66
     1
 70
     9
  0
VERTEX
  8
W80LXLIFT
 62
3
 10
2021.711
 20
-6804.413
 30
-2553.000
 70
    32
  0
VERTEX
  8
W80LXLIFT
 62
3
 10
2024.559
 20
-6800.870
 30
-2553.000
 70
    32
  0
VERTEX
  8
W80LXLIFT
 62
3
 10
2023.125
 20
-6791.615
 30
-2553.000
 70
    32
  0
VERTEX
  8
W80LXLIFT
 62
3
 10
2029.740
 20
-6787.030
 30
-2553.000
 70
    32
  0
VERTEX
  8
W80LXLIFT
 62
3
 10
2036.029
 20
-6784.281
 30
-2553.000
 70
    32
  0
VERTEX
  8
W80LXLIFT
 62
3
 10
2038.781
 20
-6781.684
 30
-2553.000
 70
    32
  0
VERTEX
  8
W80LXLIFT
 62
3
 10
2032.488
 20
-6764.992
 30
-2553.000
 70
    32
  0
VERTEX
  8
W80LXLIFT
 62
3
 10
2025.089
 20
-6749.941
 30
-2553.000
 70
    32
  0
VERTEX
  8
W80LXLIFT
 62
3
 10
2024.007
 20
-6748.458
 30
-2553.000
 70
    32
  0
VERTEX
  8
W80LXLIFT
 62
3
 10
2023.622
 20
-6743.060
 30
-2553.000
 70
    32
  0
VERTEX
  8
W80LXLIFT
 62
3
 10
2018.309
 20
-6729.590
 30
-2553.000
 70
    32
  0
VERTEX
  8
W80LXLIFT
 62
3
 10
2016.901
 20
-6721.517
 30
-2553.000
 70
    32
  0
VERTEX
  8
W80LXLIFT
 62
3
 10
2016.255
 20
-6709.671
 30
-2553.000
 70
    32
  0
VERTEX
  8
W80LXLIFT
 62
3
 10
2016.426
 20
-6705.776
 30
-2553.000
 70
    32
  0
VERTEX
  8
W80LXLIFT
 62
3
 10
2012.536
 20
-6691.450
 30
-2553.000
 70
    32
  0
VERTEX
  8
W80LXLIFT
 62
3
 10
2029.072
 20
-6683.950
 30
-2553.000
 70
    32
  0
VERTEX
  8
W80LXLIFT
 62
3
 10
2041.470
 20
-6684.494
 30
-2553.000
 70
    32
  0
VERTEX
  8
W80LXLIFT
 62
3
 10
2051.270
 20
-6718.024
 30
-2553.000
 70
    32
  0
VERTEX
  8
W80LXLIFT
 62
3
 10
2065.199
 20
-6728.640
 30
-2553.000
 70
    32
  0
VERTEX
  8
W80LXLIFT
 62
3
 10
2065.079
 20
-6733.429
 30
-2553.000
 70
    32
  0
VERTEX
  8
W80LXLIFT
 62
3
 10
2070.457
 20
-6743.258
 30
-2553.000
 70
    32
  0
VERTEX
  8
W80LXLIFT
 62
3
 10
2085.865
 20
-6758.818
 30
-2553.000
 70
    32
  0
VERTEX
  8
W80LXLIFT
 62
3
 10
2081.782
 20
-6770.709
 30
-2553.000
 70
    32
  0
VERTEX
  8
W80LXLIFT
 62
3
 10
2078.322
 20
-6780.985
 30
-2553.000
 70
    32
  0
VERTEX
  8
W80LXLIFT
 62
3
 10
2077.495
 20
-6801.409
 30
-2553.000
 70
    32
  0
VERTEX
  8
W80LXLIFT
 62
3
 10
2058.565
 20
-6814.672
 30
-2553.000
 70
    32
  0
VERTEX
  8
W80LXLIFT
 62
3
 10
2044.328
 20
-6818.095
 30
-2553.000
 70
    32
  0
VERTEX
  8
W80LXLIFT
 62
3
 10
2028.997
 20
-6822.333
 30
-2553.000
 70
    32
  0
VERTEX
  8
W80LXLIFT
 62
3
 10
2020.313
 20
-6825.668
 30
-2553.000
 70
    32
  0
VERTEX
  8
W80LXLIFT
 62
3
 10
2012.680
 20
-6821.677
 30
-2553.000
 70
    32
  0
SEQEND
  8
W80LXLIFT
  0
LINE
  8
W80LXLIFT
 62
3
 10
2192.367
 20
-7127.623
 30
-2578.000
 11
2173.051
 21
-7126.535
 31
-2578.000
  0
LINE
  8
W80LXLIFT
 62
3
 10
2280.540
 20
-7186.703
 30
-2632.000
 11
2283.539
 21
-7198.002
 31
-2632.000
  0
LINE
  8
W80LXLIFT
 62
3
 10
2081.889
 20
-6992.572
 30
-2592.000
 11
2091.252
 21
-7005.991
 31
-2592.000
  0
POLYLINE
  8
W80LXLIFT
 62
3
 66
     1
 70
     9
  0
VERTEX
  8
W80LXLIFT
 62
3
 10
2249.383
 20
-7228.373
 30
-2632.199
 70
    32
  0
VERTEX
  8
W80LXLIFT
 62
3
 10
2243.707
 20
-7225.860
 30
-2632.296
 70
    32
  0
VERTEX
  8
W80LXLIFT
 62
3
 10
2237.382
 20
-7220.974
 30
-2632.417
 70
    32
  0
VERTEX
  8
W80LXLIFT
 62
3
 10
2226.493
 20
-7205.098
 30
-2632.721
 70
    32
  0
VERTEX
  8
W80LXLIFT
 62
3
 10
2219.780
 20
-7198.745
 30
-2633.064
 70
    32
  0
VERTEX
  8
W80LXLIFT
 62
3
 10
2206.390
 20
-7180.729
 30
-2634.000
 70
    32
  0
VERTEX
  8
W80LXLIFT
 62
3
 10
2207.436
 20
-7171.104
 30
-2634.000
 70
    32
  0
VERTEX
  8
W80LXLIFT
 62
3
 10
2199.028
 20
-7160.458
 30
-2634.000
 70
    32
  0
VERTEX
  8
W80LXLIFT
 62
3
 10
2194.736
 20
-7158.877
 30
-2634.000
 70
    32
  0
VERTEX
  8
W80LXLIFT
 62
3
 10
2189.345
 20
-7153.135
 30
-2634.000
 70
    32
  0
VERTEX
  8
W80LXLIFT
 62
3
 10
2184.728
 20
-7151.457
 30
-2634.000
 70
    32
  0
VERTEX
  8
W80LXLIFT
 62
3
 10
2178.780
 20
-7144.015
 30
-2635.797
 70
    32
  0
VERTEX
  8
W80LXLIFT
 62
3
 10
2165.682
 20
-7123.902
 30
-2636.567
 70
    32
  0
VERTEX
  8
W80LXLIFT
 62
3
 10
2170.156
 20
-7101.294
 30
-2634.000
 70
    32
  0
VERTEX
  8
W80LXLIFT
 62
3
 10
2168.888
 20
-7092.767
 30
-2634.000
 70
    32
  0
VERTEX
  8
W80LXLIFT
 62
3
 10
2167.382
 20
-7085.870
 30
-2634.000
 70
    32
  0
VERTEX
  8
W80LXLIFT
 62
3
 10
2168.798
 20
-7081.056
 30
-2634.000
 70
    32
  0
VERTEX
  8
W80LXLIFT
 62
3
 10
2167.820
 20
-7067.362
 30
-2634.000
 70
    32
  0
VERTEX
  8
W80LXLIFT
 62
3
 10
2163.841
 20
-7056.031
 30
-2634.000
 70
    32
  0
VERTEX
  8
W80LXLIFT
 62
3
 10
2176.738
 20
-7051.724
 30
-2634.000
 70
    32
  0
VERTEX
  8
W80LXLIFT
 62
3
 10
2179.438
 20
-7059.376
 30
-2634.000
 70
    32
  0
VERTEX
  8
W80LXLIFT
 62
3
 10
2199.296
 20
-7062.132
 30
-2634.000
 70
    32
  0
VERTEX
  8
W80LXLIFT
 62
3
 10
2213.232
 20
-7077.315
 30
-2634.000
 70
    32
  0
VERTEX
  8
W80LXLIFT
 62
3
 10
2217.984
 20
-7082.491
 30
-2634.000
 70
    32
  0
VERTEX
  8
W80LXLIFT
 62
3
 10
2218.441
 20
-7086.663
 30
-2634.000
 70
    32
  0
VERTEX
  8
W80LXLIFT
 62
3
 10
2208.386
 20
-7095.944
 30
-2634.000
 70
    32
  0
VERTEX
  8
W80LXLIFT
 62
3
 10
2207.847
 20
-7098.283
 30
-2634.000
 70
    32
  0
VERTEX
  8
W80LXLIFT
 62
3
 10
2208.681
 20
-7106.562
 30
-2634.000
 70
    32
  0
VERTEX
  8
W80LXLIFT
 62
3
 10
2208.681
 20
-7106.562
 30
-2634.000
 70
    32
  0
VERTEX
  8
W80LXLIFT
 62
3
 10
2209.180
 20
-7107.592
 30
-2634.000
 70
    32
  0
VERTEX
  8
W80LXLIFT
 62
3
 10
2202.395
 20
-7114.100
 30
-2634.000
 70
    32
  0
VERTEX
  8
W80LXLIFT
 62
3
 10
2202.300
 20
-7115.477
 30
-2634.000
 70
    32
  0
VERTEX
  8
W80LXLIFT
 62
3
 10
2207.718
 20
-7131.376
 30
-2634.000
 70
    32
  0
VERTEX
  8
W80LXLIFT
 62
3
 10
2201.644
 20
-7138.815
 30
-2634.000
 70
    32
  0
VERTEX
  8
W80LXLIFT
 62
3
 10
2208.792
 20
-7150.188
 30
-2634.000
 70
    32
  0
VERTEX
  8
W80LXLIFT
 62
3
 10
2214.070
 20
-7158.030
 30
-2634.000
 70
    32
  0
VERTEX
  8
W80LXLIFT
 62
3
 10
2222.160
 20
-7166.582
 30
-2634.000
 70
    32
  0
VERTEX
  8
W80LXLIFT
 62
3
 10
2226.505
 20
-7174.148
 30
-2633.778
 70
    32
  0
VERTEX
  8
W80LXLIFT
 62
3
 10
2235.107
 20
-7185.547
 30
-2633.114
 70
    32
  0
VERTEX
  8
W80LXLIFT
 62
3
 10
2248.924
 20
-7209.428
 30
-2632.447
 70
    32
  0
VERTEX
  8
W80LXLIFT
 62
3
 10
2255.564
 20
-7225.740
 30
-2632.162
 70
    32
  0
SEQEND
  8
W80LXLIFT
  0
LINE
  8
W80LXLIFT
 62
3
 10
2318.948
 20
-7185.864
 30
-2657.000
 11
2324.593
 21
-7198.187
 31
-2657.000
  0
POLYLINE
  8
W80LXLIFT
 62
3
 66
     1
 70
     9
  0
VERTEX
  8
W80LXLIFT
 62
3
 10
2324.593
 20
-7198.187
 30
-2657.000
 70
    32
  0
VERTEX
  8
W80LXLIFT
 62
3
 10
2332.495
 20
-7199.297
 30
-2657.000
 70
    32
  0
VERTEX
  8
W80LXLIFT
 62
3
 10
2345.525
 20
-7207.292
 30
-2657.000
 70
    32
  0
VERTEX
  8
W80LXLIFT
 62
3
 10
2347.160
 20
-7206.140
 30
-2657.000
 70
    32
  0
VERTEX
  8
W80LXLIFT
 62
3
 10
2356.148
 20
-7210.639
 30
-2657.000
 70
    32
  0
VERTEX
  8
W80LXLIFT
 62
3
 10
2361.396
 20
-7202.640
 30
-2657.000
 70
    32
  0
VERTEX
  8
W80LXLIFT
 62
3
 10
2346.495
 20
-7189.923
 30
-2657.000
 70
    32
  0
VERTEX
  8
W80LXLIFT
 62
3
 10
2344.201
 20
-7183.307
 30
-2657.000
 70
    32
  0
VERTEX
  8
W80LXLIFT
 62
3
 10
2331.570
 20
-7160.120
 30
-2657.000
 70
    32
  0
VERTEX
  8
W80LXLIFT
 62
3
 10
2326.869
 20
-7157.693
 30
-2657.000
 70
    32
  0
VERTEX
  8
W80LXLIFT
 62
3
 10
2317.206
 20
-7145.081
 30
-2657.000
 70
    32
  0
VERTEX
  8
W80LXLIFT
 62
3
 10
2307.499
 20
-7151.291
 30
-2657.000
 70
    32
  0
VERTEX
  8
W80LXLIFT
 62
3
 10
2313.212
 20
-7161.674
 30
-2657.000
 70
    32
  0
VERTEX
  8
W80LXLIFT
 62
3
 10
2318.849
 20
-7174.085
 30
-2657.000
 70
    32
  0
VERTEX
  8
W80LXLIFT
 62
3
 10
2316.691
 20
-7178.678
 30
-2657.000
 70
    32
  0
VERTEX
  8
W80LXLIFT
 62
3
 10
2318.948
 20
-7185.864
 30
-2657.000
 70
    32
  0
SEQEND
  8
W80LXLIFT
  0
POLYLINE
  8
W80LXLIFT
 62
3
 66
     1
 70
     9
  0
VERTEX
  8
W80LXLIFT
 62
3
 10
2173.723
 20
-7146.898
 30
-2683.000
 70
    32
  0
VERTEX
  8
W80LXLIFT
 62
3
 10
2184.118
 20
-7151.379
 30
-2683.000
 70
    32
  0
VERTEX
  8
W80LXLIFT
 62
3
 10
2202.373
 20
-7178.020
 30
-2683.000
 70
    32
  0
VERTEX
  8
W80LXLIFT
 62
3
 10
2217.132
 20
-7197.084
 30
-2683.000
 70
    32
  0
VERTEX
  8
W80LXLIFT
 62
3
 10
2230.841
 20
-7218.632
 30
-2683.000
 70
    32
  0
VERTEX
  8
W80LXLIFT
 62
3
 10
2247.056
 20
-7251.953
 30
-2683.000
 70
    32
  0
VERTEX
  8
W80LXLIFT
 62
3
 10
2254.983
 20
-7245.342
 30
-2683.000
 70
    32
  0
VERTEX
  8
W80LXLIFT
 62
3
 10
2253.685
 20
-7238.979
 30
-2683.000
 70
    32
  0
VERTEX
  8
W80LXLIFT
 62
3
 10
2259.816
 20
-7230.977
 30
-2683.000
 70
    32
  0
VERTEX
  8
W80LXLIFT
 62
3
 10
2253.889
 20
-7217.289
 30
-2683.000
 70
    32
  0
VERTEX
  8
W80LXLIFT
 62
3
 10
2249.340
 20
-7194.342
 30
-2683.000
 70
    32
  0
VERTEX
  8
W80LXLIFT
 62
3
 10
2238.297
 20
-7173.769
 30
-2683.000
 70
    32
  0
VERTEX
  8
W80LXLIFT
 62
3
 10
2223.318
 20
-7157.219
 30
-2683.000
 70
    32
  0
VERTEX
  8
W80LXLIFT
 62
3
 10
2211.007
 20
-7147.096
 30
-2683.000
 70
    32
  0
VERTEX
  8
W80LXLIFT
 62
3
 10
2202.044
 20
-7130.572
 30
-2683.000
 70
    32
  0
VERTEX
  8
W80LXLIFT
 62
3
 10
2193.086
 20
-7119.970
 30
-2683.000
 70
    32
  0
VERTEX
  8
W80LXLIFT
 62
3
 10
2189.229
 20
-7116.133
 30
-2683.000
 70
    32
  0
VERTEX
  8
W80LXLIFT
 62
3
 10
2170.243
 20
-7096.255
 30
-2683.000
 70
    32
  0
VERTEX
  8
W80LXLIFT
 62
3
 10
2155.697
 20
-7102.919
 30
-2683.000
 70
    32
  0
VERTEX
  8
W80LXLIFT
 62
3
 10
2168.423
 20
-7130.586
 30
-2683.000
 70
    32
  0
VERTEX
  8
W80LXLIFT
 62
3
 10
2163.085
 20
-7139.348
 30
-2683.000
 70
    32
  0
VERTEX
  8
W80LXLIFT
 62
3
 10
2173.723
 20
-7146.898
 30
-2683.000
 70
    32
  0
SEQEND
  8
W80LXLIFT
  0
LINE
  8
W80LXLIFT
 62
3
 10
2163.242
 20
-7139.460
 30
-2683.000
 11
2171.626
 21
-7145.410
 31
-2683.000
  0
LINE
  8
W80LXLIFT
 62
3
 10
2161.147
 20
-7131.700
 30
-2647.000
 11
2179.361
 21
-7146.791
 31
-2647.000
  0
LINE
  8
W80LXLIFT
 62
3
 10
2237.232
 20
-7181.638
 30
-2646.604
 11
2246.525
 21
-7204.576
 31
-2646.282
  0
POLYLINE
  8
W80LXLIFT
 62
3
 66
     1
 70
     9
  0
VERTEX
  8
W80LXLIFT
 62
3
 10
2175.072
 20
-7146.716
 30
-2661.000
 70
    32
  0
VERTEX
  8
W80LXLIFT
 62
3
 10
2177.704
 20
-7147.187
 30
-2661.000
 70
    32
  0
VERTEX
  8
W80LXLIFT
 62
3
 10
2183.017
 20
-7155.828
 30
-2661.000
 70
    32
  0
VERTEX
  8
W80LXLIFT
 62
3
 10
2194.512
 20
-7169.232
 30
-2661.000
 70
    32
  0
VERTEX
  8
W80LXLIFT
 62
3
 10
2203.670
 20
-7176.129
 30
-2661.000
 70
    32
  0
VERTEX
  8
W80LXLIFT
 62
3
 10
2210.614
 20
-7185.275
 30
-2661.000
 70
    32
  0
VERTEX
  8
W80LXLIFT
 62
3
 10
2216.741
 20
-7197.854
 30
-2661.000
 70
    32
  0
VERTEX
  8
W80LXLIFT
 62
3
 10
2218.923
 20
-7205.287
 30
-2661.000
 70
    32
  0
VERTEX
  8
W80LXLIFT
 62
3
 10
2224.833
 20
-7209.606
 30
-2661.000
 70
    32
  0
VERTEX
  8
W80LXLIFT
 62
3
 10
2226.615
 20
-7213.215
 30
-2661.000
 70
    32
  0
VERTEX
  8
W80LXLIFT
 62
3
 10
2229.705
 20
-7216.123
 30
-2661.000
 70
    32
  0
VERTEX
  8
W80LXLIFT
 62
3
 10
2238.624
 20
-7228.071
 30
-2661.000
 70
    32
  0
VERTEX
  8
W80LXLIFT
 62
3
 10
2249.119
 20
-7242.963
 30
-2661.000
 70
    32
  0
VERTEX
  8
W80LXLIFT
 62
3
 10
2262.203
 20
-7244.361
 30
-2661.000
 70
    32
  0
VERTEX
  8
W80LXLIFT
 62
3
 10
2263.691
 20
-7241.147
 30
-2661.000
 70
    32
  0
VERTEX
  8
W80LXLIFT
 62
3
 10
2263.219
 20
-7233.146
 30
-2661.000
 70
    32
  0
VERTEX
  8
W80LXLIFT
 62
3
 10
2253.941
 20
-7219.939
 30
-2661.000
 70
    32
  0
VERTEX
  8
W80LXLIFT
 62
3
 10
2249.729
 20
-7211.140
 30
-2661.000
 70
    32
  0
VERTEX
  8
W80LXLIFT
 62
3
 10
2253.693
 20
-7207.024
 30
-2661.000
 70
    32
  0
VERTEX
  8
W80LXLIFT
 62
3
 10
2256.312
 20
-7184.670
 30
-2661.000
 70
    32
  0
VERTEX
  8
W80LXLIFT
 62
3
 10
2234.428
 20
-7163.353
 30
-2661.000
 70
    32
  0
VERTEX
  8
W80LXLIFT
 62
3
 10
2228.723
 20
-7149.516
 30
-2661.000
 70
    32
  0
VERTEX
  8
W80LXLIFT
 62
3
 10
2220.148
 20
-7135.054
 30
-2661.000
 70
    32
  0
VERTEX
  8
W80LXLIFT
 62
3
 10
2218.151
 20
-7125.011
 30
-2661.000
 70
    32
  0
VERTEX
  8
W80LXLIFT
 62
3
 10
2207.420
 20
-7109.903
 30
-2661.000
 70
    32
  0
VERTEX
  8
W80LXLIFT
 62
3
 10
2201.756
 20
-7108.438
 30
-2661.000
 70
    32
  0
VERTEX
  8
W80LXLIFT
 62
3
 10
2198.287
 20
-7105.548
 30
-2661.000
 70
    32
  0
VERTEX
  8
W80LXLIFT
 62
3
 10
2196.732
 20
-7100.598
 30
-2661.000
 70
    32
  0
VERTEX
  8
W80LXLIFT
 62
3
 10
2198.934
 20
-7095.957
 30
-2661.000
 70
    32
  0
VERTEX
  8
W80LXLIFT
 62
3
 10
2188.756
 20
-7089.963
 30
-2661.000
 70
    32
  0
VERTEX
  8
W80LXLIFT
 62
3
 10
2177.411
 20
-7092.141
 30
-2661.000
 70
    32
  0
VERTEX
  8
W80LXLIFT
 62
3
 10
2170.841
 20
-7092.176
 30
-2661.000
 70
    32
  0
VERTEX
  8
W80LXLIFT
 62
3
 10
2159.381
 20
-7101.031
 30
-2661.000
 70
    32
  0
VERTEX
  8
W80LXLIFT
 62
3
 10
2162.839
 20
-7106.553
 30
-2661.000
 70
    32
  0
VERTEX
  8
W80LXLIFT
 62
3
 10
2158.510
 20
-7116.081
 30
-2661.000
 70
    32
  0
VERTEX
  8
W80LXLIFT
 62
3
 10
2163.308
 20
-7123.254
 30
-2661.000
 70
    32
  0
VERTEX
  8
W80LXLIFT
 62
3
 10
2166.722
 20
-7129.116
 30
-2661.000
 70
    32
  0
VERTEX
  8
W80LXLIFT
 62
3
 10
2167.014
 20
-7133.264
 30
-2661.000
 70
    32
  0
VERTEX
  8
W80LXLIFT
 62
3
 10
2175.072
 20
-7146.716
 30
-2661.000
 70
    32
  0
SEQEND
  8
W80LXLIFT
  0
LINE
  8
W80LXLIFT
 62
3
 10
2167.014
 20
-7133.264
 30
-2661.000
 11
2175.072
 21
-7146.716
 31
-2661.000
  0
LINE
  8
W80LXLIFT
 62
3
 10
2256.312
 20
-7184.670
 30
-2661.000
 11
2253.693
 21
-7207.024
 31
-2661.000
  0
POLYLINE
  8
W80LXLIFT
 62
3
 66
     1
 70
     9
  0
VERTEX
  8
W80LXLIFT
 62
3
 10
2249.708
 20
-7197.954
 30
-2672.000
 70
    32
  0
VERTEX
  8
W80LXLIFT
 62
3
 10
2254.385
 20
-7204.322
 30
-2672.000
 70
    32
  0
VERTEX
  8
W80LXLIFT
 62
3
 10
2252.792
 20
-7209.226
 30
-2672.000
 70
    32
  0
VERTEX
  8
W80LXLIFT
 62
3
 10
2255.510
 20
-7213.163
 30
-2672.000
 70
    32
  0
VERTEX
  8
W80LXLIFT
 62
3
 10
2257.862
 20
-7219.381
 30
-2672.000
 70
    32
  0
VERTEX
  8
W80LXLIFT
 62
3
 10
2260.179
 20
-7222.734
 30
-2672.000
 70
    32
  0
VERTEX
  8
W80LXLIFT
 62
3
 10
2260.071
 20
-7225.236
 30
-2672.000
 70
    32
  0
VERTEX
  8
W80LXLIFT
 62
3
 10
2263.122
 20
-7230.672
 30
-2672.000
 70
    32
  0
VERTEX
  8
W80LXLIFT
 62
3
 10
2256.612
 20
-7237.807
 30
-2672.000
 70
    32
  0
VERTEX
  8
W80LXLIFT
 62
3
 10
2256.682
 20
-7239.326
 30
-2672.000
 70
    32
  0
VERTEX
  8
W80LXLIFT
 62
3
 10
2260.166
 20
-7244.059
 30
-2672.000
 70
    32
  0
VERTEX
  8
W80LXLIFT
 62
3
 10
2267.530
 20
-7247.734
 30
-2672.000
 70
    32
  0
VERTEX
  8
W80LXLIFT
 62
3
 10
2270.261
 20
-7252.381
 30
-2672.000
 70
    32
  0
VERTEX
  8
W80LXLIFT
 62
3
 10
2276.748
 20
-7257.638
 30
-2672.000
 70
    32
  0
VERTEX
  8
W80LXLIFT
 62
3
 10
2268.307
 20
-7264.989
 30
-2672.000
 70
    32
  0
VERTEX
  8
W80LXLIFT
 62
3
 10
2263.442
 20
-7260.949
 30
-2672.000
 70
    32
  0
VERTEX
  8
W80LXLIFT
 62
3
 10
2257.344
 20
-7262.924
 30
-2672.000
 70
    32
  0
VERTEX
  8
W80LXLIFT
 62
3
 10
2246.411
 20
-7245.202
 30
-2672.000
 70
    32
  0
VERTEX
  8
W80LXLIFT
 62
3
 10
2232.547
 20
-7222.489
 30
-2672.000
 70
    32
  0
VERTEX
  8
W80LXLIFT
 62
3
 10
2220.370
 20
-7201.725
 30
-2672.000
 70
    32
  0
VERTEX
  8
W80LXLIFT
 62
3
 10
2214.383
 20
-7196.084
 30
-2672.000
 70
    32
  0
VERTEX
  8
W80LXLIFT
 62
3
 10
2212.444
 20
-7196.118
 30
-2672.000
 70
    32
  0
VERTEX
  8
W80LXLIFT
 62
3
 10
2212.055
 20
-7195.893
 30
-2672.000
 70
    32
  0
VERTEX
  8
W80LXLIFT
 62
3
 10
2204.279
 20
-7181.494
 30
-2672.000
 70
    32
  0
VERTEX
  8
W80LXLIFT
 62
3
 10
2197.540
 20
-7176.561
 30
-2672.000
 70
    32
  0
VERTEX
  8
W80LXLIFT
 62
3
 10
2192.996
 20
-7177.957
 30
-2672.000
 70
    32
  0
VERTEX
  8
W80LXLIFT
 62
3
 10
2185.613
 20
-7165.572
 30
-2672.000
 70
    32
  0
VERTEX
  8
W80LXLIFT
 62
3
 10
2183.050
 20
-7157.361
 30
-2672.000
 70
    32
  0
VERTEX
  8
W80LXLIFT
 62
3
 10
2178.002
 20
-7150.525
 30
-2672.000
 70
    32
  0
VERTEX
  8
W80LXLIFT
 62
3
 10
2172.515
 20
-7146.778
 30
-2672.000
 70
    32
  0
VERTEX
  8
W80LXLIFT
 62
3
 10
2162.482
 20
-7139.778
 30
-2672.000
 70
    32
  0
VERTEX
  8
W80LXLIFT
 62
3
 10
2165.178
 20
-7133.282
 30
-2672.000
 70
    32
  0
VERTEX
  8
W80LXLIFT
 62
3
 10
2164.851
 20
-7128.982
 30
-2672.000
 70
    32
  0
VERTEX
  8
W80LXLIFT
 62
3
 10
2160.487
 20
-7123.025
 30
-2672.000
 70
    32
  0
VERTEX
  8
W80LXLIFT
 62
3
 10
2154.472
 20
-7118.818
 30
-2672.000
 70
    32
  0
VERTEX
  8
W80LXLIFT
 62
3
 10
2156.255
 20
-7110.404
 30
-2672.000
 70
    32
  0
VERTEX
  8
W80LXLIFT
 62
3
 10
2154.810
 20
-7104.926
 30
-2672.000
 70
    32
  0
VERTEX
  8
W80LXLIFT
 62
3
 10
2148.691
 20
-7099.349
 30
-2672.000
 70
    32
  0
VERTEX
  8
W80LXLIFT
 62
3
 10
2153.126
 20
-7094.743
 30
-2672.000
 70
    32
  0
VERTEX
  8
W80LXLIFT
 62
3
 10
2157.416
 20
-7087.775
 30
-2672.000
 70
    32
  0
VERTEX
  8
W80LXLIFT
 62
3
 10
2155.569
 20
-7080.916
 30
-2672.000
 70
    32
  0
VERTEX
  8
W80LXLIFT
 62
3
 10
2166.810
 20
-7079.284
 30
-2672.000
 70
    32
  0
VERTEX
  8
W80LXLIFT
 62
3
 10
2178.240
 20
-7100.059
 30
-2672.000
 70
    32
  0
VERTEX
  8
W80LXLIFT
 62
3
 10
2186.326
 20
-7101.059
 30
-2672.000
 70
    32
  0
VERTEX
  8
W80LXLIFT
 62
3
 10
2189.525
 20
-7107.824
 30
-2672.000
 70
    32
  0
VERTEX
  8
W80LXLIFT
 62
3
 10
2196.670
 20
-7117.536
 30
-2672.000
 70
    32
  0
VERTEX
  8
W80LXLIFT
 62
3
 10
2204.733
 20
-7116.410
 30
-2672.000
 70
    32
  0
VERTEX
  8
W80LXLIFT
 62
3
 10
2212.764
 20
-7126.375
 30
-2672.000
 70
    32
  0
VERTEX
  8
W80LXLIFT
 62
3
 10
2212.380
 20
-7143.111
 30
-2672.000
 70
    32
  0
VERTEX
  8
W80LXLIFT
 62
3
 10
2217.442
 20
-7150.936
 30
-2672.000
 70
    32
  0
VERTEX
  8
W80LXLIFT
 62
3
 10
2227.131
 20
-7159.053
 30
-2672.000
 70
    32
  0
VERTEX
  8
W80LXLIFT
 62
3
 10
2246.814
 20
-7172.282
 30
-2672.000
 70
    32
  0
VERTEX
  8
W80LXLIFT
 62
3
 10
2246.951
 20
-7176.040
 30
-2672.000
 70
    32
  0
VERTEX
  8
W80LXLIFT
 62
3
 10
2249.930
 20
-7181.112
 30
-2672.000
 70
    32
  0
VERTEX
  8
W80LXLIFT
 62
3
 10
2248.090
 20
-7186.863
 30
-2672.000
 70
    32
  0
VERTEX
  8
W80LXLIFT
 62
3
 10
2252.470
 20
-7193.388
 30
-2672.000
 70
    32
  0
SEQEND
  8
W80LXLIFT
  0
LINE
  8
W80LXLIFT
 62
3
 10
2162.482
 20
-7139.778
 30
-2672.000
 11
2172.515
 21
-7146.778
 31
-2672.000
  0
POLYLINE
  8
W80LXLIFT
 62
3
 66
     1
 70
     9
  0
VERTEX
  8
W80LXLIFT
 62
3
 10
2126.057
 20
-6924.897
 30
-2631.000
 70
    32
  0
VERTEX
  8
W80LXLIFT
 62
3
 10
2128.156
 20
-6920.400
 30
-2631.000
 70
    32
  0
VERTEX
  8
W80LXLIFT
 62
3
 10
2113.025
 20
-6902.976
 30
-2631.000
 70
    32
  0
VERTEX
  8
W80LXLIFT
 62
3
 10
2109.248
 20
-6895.391
 30
-2631.000
 70
    32
  0
VERTEX
  8
W80LXLIFT
 62
3
 10
2112.370
 20
-6889.057
 30
-2631.000
 70
    32
  0
VERTEX
  8
W80LXLIFT
 62
3
 10
2109.487
 20
-6877.728
 30
-2631.000
 70
    32
  0
VERTEX
  8
W80LXLIFT
 62
3
 10
2102.989
 20
-6865.553
 30
-2631.000
 70
    32
  0
VERTEX
  8
W80LXLIFT
 62
3
 10
2095.685
 20
-6857.066
 30
-2631.000
 70
    32
  0
VERTEX
  8
W80LXLIFT
 62
3
 10
2109.966
 20
-6850.665
 30
-2631.000
 70
    32
  0
VERTEX
  8
W80LXLIFT
 62
3
 10
2116.852
 20
-6857.988
 30
-2631.000
 70
    32
  0
VERTEX
  8
W80LXLIFT
 62
3
 10
2124.295
 20
-6858.429
 30
-2631.000
 70
    32
  0
VERTEX
  8
W80LXLIFT
 62
3
 10
2125.776
 20
-6880.987
 30
-2631.000
 70
    32
  0
VERTEX
  8
W80LXLIFT
 62
3
 10
2146.400
 20
-6913.181
 30
-2631.000
 70
    32
  0
VERTEX
  8
W80LXLIFT
 62
3
 10
2153.733
 20
-6917.659
 30
-2631.000
 70
    32
  0
VERTEX
  8
W80LXLIFT
 62
3
 10
2158.443
 20
-6923.273
 30
-2631.000
 70
    32
  0
VERTEX
  8
W80LXLIFT
 62
3
 10
2159.666
 20
-6931.055
 30
-2631.000
 70
    32
  0
VERTEX
  8
W80LXLIFT
 62
3
 10
2165.425
 20
-6934.279
 30
-2631.000
 70
    32
  0
VERTEX
  8
W80LXLIFT
 62
3
 10
2160.430
 20
-6943.554
 30
-2631.000
 70
    32
  0
VERTEX
  8
W80LXLIFT
 62
3
 10
2151.645
 20
-6940.316
 30
-2631.000
 70
    32
  0
VERTEX
  8
W80LXLIFT
 62
3
 10
2131.944
 20
-6936.515
 30
-2631.000
 70
    32
  0
VERTEX
  8
W80LXLIFT
 62
3
 10
2126.057
 20
-6924.897
 30
-2631.000
 70
    32
  0
SEQEND
  8
W80LXLIFT
  0
LINE
  8
W80LXLIFT
 62
3
 10
2126.057
 20
-6924.897
 30
-2631.000
 11
2131.944
 21
-6936.515
 31
-2631.000
  0
POLYLINE
  8
W80LXLIFT
 62
3
 66
     1
 70
     9
  0
VERTEX
  8
W80LXLIFT
 62
3
 10
2136.920
 20
-6934.397
 30
-2621.000
 70
    32
  0
VERTEX
  8
W80LXLIFT
 62
3
 10
2148.464
 20
-6938.444
 30
-2621.000
 70
    32
  0
VERTEX
  8
W80LXLIFT
 62
3
 10
2163.741
 20
-6952.345
 30
-2621.000
 70
    32
  0
VERTEX
  8
W80LXLIFT
 62
3
 10
2170.639
 20
-6949.952
 30
-2621.000
 70
    32
  0
VERTEX
  8
W80LXLIFT
 62
3
 10
2175.322
 20
-6944.668
 30
-2621.000
 70
    32
  0
VERTEX
  8
W80LXLIFT
 62
3
 10
2165.665
 20
-6932.825
 30
-2621.000
 70
    32
  0
VERTEX
  8
W80LXLIFT
 62
3
 10
2165.454
 20
-6919.901
 30
-2621.000
 70
    32
  0
VERTEX
  8
W80LXLIFT
 62
3
 10
2158.602
 20
-6918.719
 30
-2621.000
 70
    32
  0
VERTEX
  8
W80LXLIFT
 62
3
 10
2151.914
 20
-6907.813
 30
-2621.000
 70
    32
  0
VERTEX
  8
W80LXLIFT
 62
3
 10
2132.760
 20
-6896.950
 30
-2621.000
 70
    32
  0
VERTEX
  8
W80LXLIFT
 62
3
 10
2125.581
 20
-6885.357
 30
-2621.000
 70
    32
  0
VERTEX
  8
W80LXLIFT
 62
3
 10
2122.743
 20
-6875.727
 30
-2621.000
 70
    32
  0
VERTEX
  8
W80LXLIFT
 62
3
 10
2107.073
 20
-6857.566
 30
-2621.000
 70
    32
  0
VERTEX
  8
W80LXLIFT
 62
3
 10
2093.825
 20
-6849.730
 30
-2621.000
 70
    32
  0
VERTEX
  8
W80LXLIFT
 62
3
 10
2084.166
 20
-6841.362
 30
-2621.000
 70
    32
  0
VERTEX
  8
W80LXLIFT
 62
3
 10
2076.551
 20
-6848.784
 30
-2621.000
 70
    32
  0
VERTEX
  8
W80LXLIFT
 62
3
 10
2080.328
 20
-6856.139
 30
-2621.000
 70
    32
  0
VERTEX
  8
W80LXLIFT
 62
3
 10
2081.000
 20
-6864.319
 30
-2621.000
 70
    32
  0
VERTEX
  8
W80LXLIFT
 62
3
 10
2105.222
 20
-6887.879
 30
-2621.000
 70
    32
  0
VERTEX
  8
W80LXLIFT
 62
3
 10
2108.754
 20
-6897.047
 30
-2621.000
 70
    32
  0
VERTEX
  8
W80LXLIFT
 62
3
 10
2108.813
 20
-6906.120
 30
-2621.000
 70
    32
  0
VERTEX
  8
W80LXLIFT
 62
3
 10
2114.172
 20
-6907.845
 30
-2621.000
 70
    32
  0
VERTEX
  8
W80LXLIFT
 62
3
 10
2123.064
 20
-6913.507
 30
-2621.000
 70
    32
  0
VERTEX
  8
W80LXLIFT
 62
3
 10
2122.666
 20
-6919.285
 30
-2621.000
 70
    32
  0
VERTEX
  8
W80LXLIFT
 62
3
 10
2136.920
 20
-6934.397
 30
-2621.000
 70
    32
  0
SEQEND
  8
W80LXLIFT
  0
LINE
  8
W80LXLIFT
 62
3
 10
2136.920
 20
-6934.397
 30
-2621.000
 11
2122.666
 21
-6919.285
 31
-2621.000
  0
POLYLINE
  8
W80LXLIFT
 62
3
 66
     1
 70
     9
  0
VERTEX
  8
W80LXLIFT
 62
3
 10
2088.482
 20
-6952.135
 30
-2628.000
 70
    32
  0
VERTEX
  8
W80LXLIFT
 62
3
 10
2113.072
 20
-6972.430
 30
-2635.000
 70
    32
  0
VERTEX
  8
W80LXLIFT
 62
3
 10
2119.223
 20
-6984.407
 30
-2635.000
 70
    32
  0
VERTEX
  8
W80LXLIFT
 62
3
 10
2136.805
 20
-7013.671
 30
-2638.000
 70
    32
  0
VERTEX
  8
W80LXLIFT
 62
3
 10
2144.518
 20
-7023.417
 30
-2638.000
 70
    32
  0
VERTEX
  8
W80LXLIFT
 62
3
 10
2140.558
 20
-7033.339
 30
-2638.000
 70
    32
  0
VERTEX
  8
W80LXLIFT
 62
3
 10
2146.451
 20
-7042.065
 30
-2638.000
 70
    32
  0
VERTEX
  8
W80LXLIFT
 62
3
 10
2132.200
 20
-7054.660
 30
-2638.000
 70
    32
  0
VERTEX
  8
W80LXLIFT
 62
3
 10
2123.612
 20
-7054.985
 30
-2638.000
 70
    32
  0
VERTEX
  8
W80LXLIFT
 62
3
 10
2105.502
 20
-7039.961
 30
-2638.000
 70
    32
  0
VERTEX
  8
W80LXLIFT
 62
3
 10
2094.592
 20
-7020.224
 30
-2638.000
 70
    32
  0
VERTEX
  8
W80LXLIFT
 62
3
 10
2098.844
 20
-6990.812
 30
-2635.000
 70
    32
  0
VERTEX
  8
W80LXLIFT
 62
3
 10
2096.740
 20
-6982.154
 30
-2635.000
 70
    32
  0
VERTEX
  8
W80LXLIFT
 62
3
 10
2083.286
 20
-6963.035
 30
-2628.000
 70
    32
  0
VERTEX
  8
W80LXLIFT
 62
3
 10
2088.482
 20
-6952.135
 30
-2628.000
 70
    32
  0
SEQEND
  8
W80LXLIFT
  0
POLYLINE
  8
W80LXLIFT
 62
3
 66
     1
 70
     9
  0
VERTEX
  8
W80LXLIFT
 62
3
 10
2088.482
 20
-6952.135
 30
-2616.000
 70
    32
  0
VERTEX
  8
W80LXLIFT
 62
3
 10
2113.072
 20
-6972.430
 30
-2622.000
 70
    32
  0
VERTEX
  8
W80LXLIFT
 62
3
 10
2119.223
 20
-6984.407
 30
-2622.000
 70
    32
  0
VERTEX
  8
W80LXLIFT
 62
3
 10
2136.805
 20
-7013.671
 30
-2627.000
 70
    32
  0
VERTEX
  8
W80LXLIFT
 62
3
 10
2144.518
 20
-7023.417
 30
-2627.000
 70
    32
  0
VERTEX
  8
W80LXLIFT
 62
3
 10
2140.558
 20
-7033.339
 30
-2627.000
 70
    32
  0
VERTEX
  8
W80LXLIFT
 62
3
 10
2146.451
 20
-7042.065
 30
-2627.000
 70
    32
  0
VERTEX
  8
W80LXLIFT
 62
3
 10
2132.200
 20
-7054.660
 30
-2627.000
 70
    32
  0
VERTEX
  8
W80LXLIFT
 62
3
 10
2123.612
 20
-7054.985
 30
-2627.000
 70
    32
  0
VERTEX
  8
W80LXLIFT
 62
3
 10
2105.502
 20
-7039.961
 30
-2627.000
 70
    32
  0
VERTEX
  8
W80LXLIFT
 62
3
 10
2094.592
 20
-7020.224
 30
-2627.000
 70
    32
  0
VERTEX
  8
W80LXLIFT
 62
3
 10
2098.844
 20
-6990.812
 30
-2622.000
 70
    32
  0
VERTEX
  8
W80LXLIFT
 62
3
 10
2096.740
 20
-6982.154
 30
-2622.000
 70
    32
  0
VERTEX
  8
W80LXLIFT
 62
3
 10
2083.286
 20
-6963.035
 30
-2616.000
 70
    32
  0
VERTEX
  8
W80LXLIFT
 62
3
 10
2088.482
 20
-6952.135
 30
-2616.000
 70
    32
  0
SEQEND
  8
W80LXLIFT
  0
LINE
  8
W80LXLIFT
 62
3
 10
2083.286
 20
-6963.035
 30
-2616.000
 11
2088.482
 21
-6952.135
 31
-2616.000
  0
LINE
  8
W80LXLIFT
 62
3
 10
2083.286
 20
-6963.035
 30
-2628.000
 11
2088.482
 21
-6952.135
 31
-2628.000
  0
POLYLINE
  8
W80LXLIFT
 62
3
 66
     1
 70
     9
  0
VERTEX
  8
W80LXLIFT
 62
3
 10
2030.557
 20
-6719.070
 30
-2570.931
 70
    32
  0
VERTEX
  8
W80LXLIFT
 62
3
 10
2039.797
 20
-6720.067
 30
-2571.062
 70
    32
  0
VERTEX
  8
W80LXLIFT
 62
3
 10
2044.524
 20
-6714.229
 30
-2571.205
 70
    32
  0
VERTEX
  8
W80LXLIFT
 62
3
 10
2046.874
 20
-6715.584
 30
-2571.225
 70
    32
  0
VERTEX
  8
W80LXLIFT
 62
3
 10
2047.729
 20
-6716.077
 30
-2571.232
 70
    32
  0
VERTEX
  8
W80LXLIFT
 62
3
 10
2056.123
 20
-6720.917
 30
-2570.584
 70
    32
  0
VERTEX
  8
W80LXLIFT
 62
3
 10
2072.185
 20
-6723.151
 30
-2569.713
 70
    32
  0
VERTEX
  8
W80LXLIFT
 62
3
 10
2078.331
 20
-6728.683
 30
-2569.133
 70
    32
  0
VERTEX
  8
W80LXLIFT
 62
3
 10
2084.303
 20
-6729.258
 30
-2568.823
 70
    32
  0
VERTEX
  8
W80LXLIFT
 62
3
 10
2082.082
 20
-6736.680
 30
-2568.536
 70
    32
  0
VERTEX
  8
W80LXLIFT
 62
3
 10
2080.709
 20
-6741.266
 30
-2568.031
 70
    32
  0
VERTEX
  8
W80LXLIFT
 62
3
 10
2080.466
 20
-6742.079
 30
-2567.942
 70
    32
  0
VERTEX
  8
W80LXLIFT
 62
3
 10
2079.070
 20
-6746.742
 30
-2567.737
 70
    32
  0
VERTEX
  8
W80LXLIFT
 62
3
 10
2078.910
 20
-6747.278
 30
-2567.713
 70
    32
  0
VERTEX
  8
W80LXLIFT
 62
3
 10
2082.943
 20
-6751.223
 30
-2567.405
 70
    32
  0
VERTEX
  8
W80LXLIFT
 62
3
 10
2095.387
 20
-6763.394
 30
-2566.945
 70
    32
  0
VERTEX
  8
W80LXLIFT
 62
3
 10
2084.273
 20
-6776.593
 30
-2566.572
 70
    32
  0
VERTEX
  8
W80LXLIFT
 62
3
 10
2078.364
 20
-6788.481
 30
-2566.215
 70
    32
  0
VERTEX
  8
W80LXLIFT
 62
3
 10
2078.888
 20
-6790.191
 30
-2566.156
 70
    32
  0
VERTEX
  8
W80LXLIFT
 62
3
 10
2079.834
 20
-6793.277
 30
-2566.051
 70
    32
  0
VERTEX
  8
W80LXLIFT
 62
3
 10
2079.028
 20
-6796.402
 30
-2565.953
 70
    32
  0
VERTEX
  8
W80LXLIFT
 62
3
 10
2078.906
 20
-6796.875
 30
-2565.972
 70
    32
  0
VERTEX
  8
W80LXLIFT
 62
3
 10
2078.504
 20
-6798.434
 30
-2566.032
 70
    32
  0
VERTEX
  8
W80LXLIFT
 62
3
 10
2086.626
 20
-6819.491
 30
-2566.696
 70
    32
  0
VERTEX
  8
W80LXLIFT
 62
3
 10
2088.117
 20
-6823.355
 30
-2566.679
 70
    32
  0
VERTEX
  8
W80LXLIFT
 62
3
 10
2091.483
 20
-6832.082
 30
-2566.640
 70
    32
  0
VERTEX
  8
W80LXLIFT
 62
3
 10
2095.784
 20
-6843.226
 30
-2566.590
 70
    32
  0
VERTEX
  8
W80LXLIFT
 62
3
 10
2097.180
 20
-6846.842
 30
-2566.431
 70
    32
  0
VERTEX
  8
W80LXLIFT
 62
3
 10
2085.480
 20
-6856.268
 30
-2566.189
 70
    32
  0
VERTEX
  8
W80LXLIFT
 62
3
 10
2083.341
 20
-6856.050
 30
-2566.222
 70
    32
  0
VERTEX
  8
W80LXLIFT
 62
3
 10
2077.919
 20
-6855.497
 30
-2566.131
 70
    32
  0
VERTEX
  8
W80LXLIFT
 62
3
 10
2071.946
 20
-6854.887
 30
-2566.031
 70
    32
  0
VERTEX
  8
W80LXLIFT
 62
3
 10
2071.877
 20
-6854.892
 30
-2566.030
 70
    32
  0
VERTEX
  8
W80LXLIFT
 62
3
 10
2069.134
 20
-6855.070
 30
-2566.025
 70
    32
  0
VERTEX
  8
W80LXLIFT
 62
3
 10
2063.968
 20
-6856.499
 30
-2566.013
 70
    32
  0
VERTEX
  8
W80LXLIFT
 62
3
 10
2052.770
 20
-6859.598
 30
-2565.987
 70
    32
  0
VERTEX
  8
W80LXLIFT
 62
3
 10
2042.441
 20
-6862.456
 30
-2565.991
 70
    32
  0
VERTEX
  8
W80LXLIFT
 62
3
 10
2032.317
 20
-6866.746
 30
-2565.999
 70
    32
  0
VERTEX
  8
W80LXLIFT
 62
3
 10
2019.477
 20
-6864.187
 30
-2565.991
 70
    32
  0
VERTEX
  8
W80LXLIFT
 62
3
 10
2011.121
 20
-6858.694
 30
-2565.977
 70
    32
  0
VERTEX
  8
W80LXLIFT
 62
3
 10
2016.823
 20
-6850.962
 30
-2565.974
 70
    32
  0
VERTEX
  8
W80LXLIFT
 62
3
 10
2016.965
 20
-6841.534
 30
-2566.011
 70
    32
  0
VERTEX
  8
W80LXLIFT
 62
3
 10
2013.367
 20
-6833.372
 30
-2566.038
 70
    32
  0
VERTEX
  8
W80LXLIFT
 62
3
 10
2008.986
 20
-6823.435
 30
-2566.541
 70
    32
  0
VERTEX
  8
W80LXLIFT
 62
3
 10
2013.002
 20
-6819.170
 30
-2566.534
 70
    32
  0
VERTEX
  8
W80LXLIFT
 62
3
 10
2017.905
 20
-6813.964
 30
-2566.525
 70
    32
  0
VERTEX
  8
W80LXLIFT
 62
3
 10
2030.796
 20
-6806.472
 30
-2566.293
 70
    32
  0
VERTEX
  8
W80LXLIFT
 62
3
 10
2035.722
 20
-6804.292
 30
-2566.181
 70
    32
  0
VERTEX
  8
W80LXLIFT
 62
3
 10
2037.343
 20
-6803.575
 30
-2566.186
 70
    32
  0
VERTEX
  8
W80LXLIFT
 62
3
 10
2046.964
 20
-6799.318
 30
-2566.215
 70
    32
  0
VERTEX
  8
W80LXLIFT
 62
3
 10
2049.247
 20
-6798.308
 30
-2566.267
 70
    32
  0
VERTEX
  8
W80LXLIFT
 62
3
 10
2048.930
 20
-6796.134
 30
-2566.286
 70
    32
  0
VERTEX
  8
W80LXLIFT
 62
3
 10
2048.563
 20
-6793.619
 30
-2566.200
 70
    32
  0
VERTEX
  8
W80LXLIFT
 62
3
 10
2048.434
 20
-6792.736
 30
-2566.229
 70
    32
  0
VERTEX
  8
W80LXLIFT
 62
3
 10
2047.922
 20
-6789.220
 30
-2566.346
 70
    32
  0
VERTEX
  8
W80LXLIFT
 62
3
 10
2047.599
 20
-6787.006
 30
-2566.469
 70
    32
  0
VERTEX
  8
W80LXLIFT
 62
3
 10
2040.351
 20
-6773.505
 30
-2567.354
 70
    32
  0
VERTEX
  8
W80LXLIFT
 62
3
 10
2039.211
 20
-6769.118
 30
-2567.610
 70
    32
  0
VERTEX
  8
W80LXLIFT
 62
3
 10
2037.295
 20
-6761.745
 30
-2568.041
 70
    32
  0
VERTEX
  8
W80LXLIFT
 62
3
 10
2037.266
 20
-6761.631
 30
-2568.047
 70
    32
  0
VERTEX
  8
W80LXLIFT
 62
3
 10
2035.232
 20
-6753.805
 30
-2569.173
 70
    32
  0
VERTEX
  8
W80LXLIFT
 62
3
 10
2039.096
 20
-6747.968
 30
-2569.687
 70
    32
  0
VERTEX
  8
W80LXLIFT
 62
3
 10
2038.373
 20
-6745.572
 30
-2570.038
 70
    32
  0
VERTEX
  8
W80LXLIFT
 62
3
 10
2038.074
 20
-6744.579
 30
-2570.183
 70
    32
  0
VERTEX
  8
W80LXLIFT
 62
3
 10
2035.248
 20
-6735.205
 30
-2570.810
 70
    32
  0
VERTEX
  8
W80LXLIFT
 62
3
 10
2035.102
 20
-6734.721
 30
-2570.813
 70
    32
  0
VERTEX
  8
W80LXLIFT
 62
3
 10
2034.372
 20
-6732.301
 30
-2570.831
 70
    32
  0
VERTEX
  8
W80LXLIFT
 62
3
 10
2024.916
 20
-6729.106
 30
-2570.724
 70
    32
  0
VERTEX
  8
W80LXLIFT
 62
3
 10
2024.772
 20
-6729.058
 30
-2570.728
 70
    32
  0
VERTEX
  8
W80LXLIFT
 62
3
 10
2023.539
 20
-6728.641
 30
-2570.764
 70
    32
  0
SEQEND
  8
W80LXLIFT
  0
LINE
  8
W80LXLIFT
 62
3
 10
2011.121
 20
-6858.694
 30
-2565.977
 11
2016.823
 21
-6850.962
 31
-2565.974
  0
POLYLINE
  8
W80LXLIFT
 62
3
 66
     1
 70
     9
  0
VERTEX
  8
W80LXLIFT
 62
3
 10
2056.724
 20
-6932.847
 30
-2616.000
 70
    32
  0
VERTEX
  8
W80LXLIFT
 62
3
 10
2065.757
 20
-6942.557
 30
-2616.000
 70
    32
  0
VERTEX
  8
W80LXLIFT
 62
3
 10
2077.444
 20
-6955.157
 30
-2616.000
 70
    32
  0
VERTEX
  8
W80LXLIFT
 62
3
 10
2083.286
 20
-6963.035
 30
-2616.000
 70
    32
  0
VERTEX
  8
W80LXLIFT
 62
3
 10
2086.755
 20
-6965.319
 30
-2616.000
 70
    32
  0
VERTEX
  8
W80LXLIFT
 62
3
 10
2092.100
 20
-6970.820
 30
-2616.000
 70
    32
  0
VERTEX
  8
W80LXLIFT
 62
3
 10
2095.009
 20
-6977.475
 30
-2616.000
 70
    32
  0
VERTEX
  8
W80LXLIFT
 62
3
 10
2095.312
 20
-6981.021
 30
-2616.000
 70
    32
  0
VERTEX
  8
W80LXLIFT
 62
3
 10
2094.500
 20
-6985.171
 30
-2616.000
 70
    32
  0
VERTEX
  8
W80LXLIFT
 62
3
 10
2091.918
 20
-6987.656
 30
-2616.000
 70
    32
  0
VERTEX
  8
W80LXLIFT
 62
3
 10
2084.843
 20
-6989.903
 30
-2616.000
 70
    32
  0
VERTEX
  8
W80LXLIFT
 62
3
 10
2090.309
 20
-6994.275
 30
-2616.000
 70
    32
  0
VERTEX
  8
W80LXLIFT
 62
3
 10
2083.638
 20
-7000.899
 30
-2616.000
 70
    32
  0
VERTEX
  8
W80LXLIFT
 62
3
 10
2090.289
 20
-7012.255
 30
-2616.000
 70
    32
  0
VERTEX
  8
W80LXLIFT
 62
3
 10
2093.715
 20
-7015.329
 30
-2616.000
 70
    32
  0
VERTEX
  8
W80LXLIFT
 62
3
 10
2099.710
 20
-7016.382
 30
-2616.000
 70
    32
  0
VERTEX
  8
W80LXLIFT
 62
3
 10
2104.212
 20
-7022.490
 30
-2616.000
 70
    32
  0
VERTEX
  8
W80LXLIFT
 62
3
 10
2109.620
 20
-7030.782
 30
-2616.000
 70
    32
  0
VERTEX
  8
W80LXLIFT
 62
3
 10
2111.613
 20
-7032.560
 30
-2616.000
 70
    32
  0
VERTEX
  8
W80LXLIFT
 62
3
 10
2117.688
 20
-7046.970
 30
-2616.000
 70
    32
  0
VERTEX
  8
W80LXLIFT
 62
3
 10
2122.453
 20
-7053.141
 30
-2616.000
 70
    32
  0
VERTEX
  8
W80LXLIFT
 62
3
 10
2126.513
 20
-7055.596
 30
-2616.000
 70
    32
  0
VERTEX
  8
W80LXLIFT
 62
3
 10
2129.687
 20
-7054.407
 30
-2616.000
 70
    32
  0
VERTEX
  8
W80LXLIFT
 62
3
 10
2133.910
 20
-7055.211
 30
-2616.000
 70
    32
  0
VERTEX
  8
W80LXLIFT
 62
3
 10
2133.922
 20
-7055.012
 30
-2616.000
 70
    32
  0
VERTEX
  8
W80LXLIFT
 62
3
 10
2141.430
 20
-7050.009
 30
-2616.000
 70
    32
  0
VERTEX
  8
W80LXLIFT
 62
3
 10
2143.330
 20
-7049.297
 30
-2616.000
 70
    32
  0
VERTEX
  8
W80LXLIFT
 62
3
 10
2146.911
 20
-7044.694
 30
-2616.000
 70
    32
  0
VERTEX
  8
W80LXLIFT
 62
3
 10
2141.853
 20
-7035.817
 30
-2616.000
 70
    32
  0
VERTEX
  8
W80LXLIFT
 62
3
 10
2150.351
 20
-7026.226
 30
-2616.000
 70
    32
  0
VERTEX
  8
W80LXLIFT
 62
3
 10
2138.076
 20
-7005.267
 30
-2616.000
 70
    32
  0
VERTEX
  8
W80LXLIFT
 62
3
 10
2137.287
 20
-7001.054
 30
-2616.000
 70
    32
  0
VERTEX
  8
W80LXLIFT
 62
3
 10
2130.208
 20
-6992.565
 30
-2616.000
 70
    32
  0
VERTEX
  8
W80LXLIFT
 62
3
 10
2131.922
 20
-6990.104
 30
-2616.000
 70
    32
  0
VERTEX
  8
W80LXLIFT
 62
3
 10
2119.870
 20
-6976.928
 30
-2616.000
 70
    32
  0
VERTEX
  8
W80LXLIFT
 62
3
 10
2112.279
 20
-6969.599
 30
-2616.000
 70
    32
  0
VERTEX
  8
W80LXLIFT
 62
3
 10
2100.205
 20
-6962.545
 30
-2616.000
 70
    32
  0
VERTEX
  8
W80LXLIFT
 62
3
 10
2096.814
 20
-6955.162
 30
-2616.000
 70
    32
  0
VERTEX
  8
W80LXLIFT
 62
3
 10
2088.482
 20
-6952.135
 30
-2616.000
 70
    32
  0
VERTEX
  8
W80LXLIFT
 62
3
 10
2079.879
 20
-6943.598
 30
-2616.000
 70
    32
  0
VERTEX
  8
W80LXLIFT
 62
3
 10
2078.406
 20
-6939.760
 30
-2616.000
 70
    32
  0
VERTEX
  8
W80LXLIFT
 62
3
 10
2080.721
 20
-6936.498
 30
-2616.000
 70
    32
  0
SEQEND
  8
W80LXLIFT
  0
POLYLINE
  8
W80LXLIFT
 62
3
 66
     1
 70
     9
  0
VERTEX
  8
W80LXLIFT
 62
3
 10
2173.051
 20
-7126.535
 30
-2578.000
 70
    32
  0
VERTEX
  8
W80LXLIFT
 62
3
 10
2177.634
 20
-7131.456
 30
-2578.000
 70
    32
  0
VERTEX
  8
W80LXLIFT
 62
3
 10
2189.646
 20
-7154.128
 30
-2578.000
 70
    32
  0
VERTEX
  8
W80LXLIFT
 62
3
 10
2192.709
 20
-7164.192
 30
-2578.000
 70
    32
  0
VERTEX
  8
W80LXLIFT
 62
3
 10
2197.216
 20
-7168.799
 30
-2578.000
 70
    32
  0
VERTEX
  8
W80LXLIFT
 62
3
 10
2204.604
 20
-7181.438
 30
-2578.000
 70
    32
  0
VERTEX
  8
W80LXLIFT
 62
3
 10
2207.966
 20
-7184.073
 30
-2578.000
 70
    32
  0
VERTEX
  8
W80LXLIFT
 62
3
 10
2211.088
 20
-7189.197
 30
-2578.000
 70
    32
  0
VERTEX
  8
W80LXLIFT
 62
3
 10
2219.345
 20
-7201.932
 30
-2578.000
 70
    32
  0
VERTEX
  8
W80LXLIFT
 62
3
 10
2221.044
 20
-7206.182
 30
-2578.000
 70
    32
  0
VERTEX
  8
W80LXLIFT
 62
3
 10
2229.991
 20
-7221.851
 30
-2578.000
 70
    32
  0
VERTEX
  8
W80LXLIFT
 62
3
 10
2238.880
 20
-7232.852
 30
-2578.000
 70
    32
  0
VERTEX
  8
W80LXLIFT
 62
3
 10
2250.519
 20
-7247.256
 30
-2578.000
 70
    32
  0
VERTEX
  8
W80LXLIFT
 62
3
 10
2258.952
 20
-7241.778
 30
-2578.000
 70
    32
  0
VERTEX
  8
W80LXLIFT
 62
3
 10
2248.738
 20
-7225.536
 30
-2578.000
 70
    32
  0
VERTEX
  8
W80LXLIFT
 62
3
 10
2233.137
 20
-7200.729
 30
-2578.000
 70
    32
  0
VERTEX
  8
W80LXLIFT
 62
3
 10
2231.794
 20
-7195.286
 30
-2578.000
 70
    32
  0
VERTEX
  8
W80LXLIFT
 62
3
 10
2221.336
 20
-7182.953
 30
-2578.000
 70
    32
  0
VERTEX
  8
W80LXLIFT
 62
3
 10
2210.545
 20
-7167.561
 30
-2578.000
 70
    32
  0
VERTEX
  8
W80LXLIFT
 62
3
 10
2202.840
 20
-7155.066
 30
-2578.000
 70
    32
  0
VERTEX
  8
W80LXLIFT
 62
3
 10
2199.905
 20
-7144.570
 30
-2578.000
 70
    32
  0
VERTEX
  8
W80LXLIFT
 62
3
 10
2192.673
 20
-7132.017
 30
-2578.000
 70
    32
  0
VERTEX
  8
W80LXLIFT
 62
3
 10
2192.367
 20
-7127.623
 30
-2578.000
 70
    32
  0
VERTEX
  8
W80LXLIFT
 62
3
 10
2173.051
 20
-7126.535
 30
-2578.000
 70
    32
  0
SEQEND
  8
W80LXLIFT
  0
POLYLINE
  8
W80LXLIFT
 62
3
 66
     1
 70
     8
  0
VERTEX
  8
W80LXLIFT
 62
3
 10
2207.847
 20
-7098.283
 30
-2634.000
 70
    32
  0
VERTEX
  8
W80LXLIFT
 62
3
 10
2208.386
 20
-7095.944
 30
-2634.000
 70
    32
  0
VERTEX
  8
W80LXLIFT
 62
3
 10
2218.441
 20
-7086.663
 30
-2634.000
 70
    32
  0
VERTEX
  8
W80LXLIFT
 62
3
 10
2217.984
 20
-7082.491
 30
-2634.000
 70
    32
  0
VERTEX
  8
W80LXLIFT
 62
3
 10
2213.232
 20
-7077.315
 30
-2634.000
 70
    32
  0
SEQEND
  8
W80LXLIFT
  0
LINE
  8
W80LXLIFT
 62
3
 10
2165.682
 20
-7123.902
 30
-2636.567
 11
2178.780
 21
-7144.015
 31
-2635.797
  0
LINE
  8
W80LXLIFT
 62
3
 10
2235.107
 20
-7185.547
 30
-2633.114
 11
2248.924
 21
-7209.428
 31
-2632.447
  0
POLYLINE
  8
W80LXLIFT
 62
3
 66
     1
 70
     9
  0
VERTEX
  8
W80LXLIFT
 62
3
 10
2161.147
 20
-7131.700
 30
-2647.000
 70
    32
  0
VERTEX
  8
W80LXLIFT
 62
3
 10
2162.425
 20
-7122.905
 30
-2647.000
 70
    32
  0
VERTEX
  8
W80LXLIFT
 62
3
 10
2154.210
 20
-7114.458
 30
-2647.000
 70
    32
  0
VERTEX
  8
W80LXLIFT
 62
3
 10
2160.244
 20
-7106.064
 30
-2647.000
 70
    32
  0
VERTEX
  8
W80LXLIFT
 62
3
 10
2167.596
 20
-7096.953
 30
-2647.000
 70
    32
  0
VERTEX
  8
W80LXLIFT
 62
3
 10
2168.557
 20
-7093.411
 30
-2647.000
 70
    32
  0
VERTEX
  8
W80LXLIFT
 62
3
 10
2164.526
 20
-7080.833
 30
-2647.000
 70
    32
  0
VERTEX
  8
W80LXLIFT
 62
3
 10
2157.647
 20
-7071.254
 30
-2647.000
 70
    32
  0
VERTEX
  8
W80LXLIFT
 62
3
 10
2151.748
 20
-7062.536
 30
-2647.000
 70
    32
  0
VERTEX
  8
W80LXLIFT
 62
3
 10
2159.772
 20
-7057.546
 30
-2647.000
 70
    32
  0
VERTEX
  8
W80LXLIFT
 62
3
 10
2162.681
 20
-7056.812
 30
-2647.000
 70
    32
  0
VERTEX
  8
W80LXLIFT
 62
3
 10
2166.293
 20
-7062.660
 30
-2647.000
 70
    32
  0
VERTEX
  8
W80LXLIFT
 62
3
 10
2172.394
 20
-7071.344
 30
-2647.000
 70
    32
  0
VERTEX
  8
W80LXLIFT
 62
3
 10
2175.376
 20
-7073.112
 30
-2647.000
 70
    32
  0
VERTEX
  8
W80LXLIFT
 62
3
 10
2176.713
 20
-7074.781
 30
-2647.000
 70
    32
  0
VERTEX
  8
W80LXLIFT
 62
3
 10
2181.327
 20
-7080.005
 30
-2647.000
 70
    32
  0
VERTEX
  8
W80LXLIFT
 62
3
 10
2192.706
 20
-7080.093
 30
-2647.000
 70
    32
  0
VERTEX
  8
W80LXLIFT
 62
3
 10
2195.421
 20
-7087.775
 30
-2647.000
 70
    32
  0
VERTEX
  8
W80LXLIFT
 62
3
 10
2202.960
 20
-7098.312
 30
-2647.000
 70
    32
  0
VERTEX
  8
W80LXLIFT
 62
3
 10
2210.448
 20
-7093.352
 30
-2647.000
 70
    32
  0
VERTEX
  8
W80LXLIFT
 62
3
 10
2222.831
 20
-7106.663
 30
-2647.000
 70
    32
  0
VERTEX
  8
W80LXLIFT
 62
3
 10
2230.187
 20
-7120.887
 30
-2647.000
 70
    32
  0
VERTEX
  8
W80LXLIFT
 62
3
 10
2231.969
 20
-7129.251
 30
-2647.000
 70
    32
  0
VERTEX
  8
W80LXLIFT
 62
3
 10
2225.736
 20
-7132.846
 30
-2647.000
 70
    32
  0
VERTEX
  8
W80LXLIFT
 62
3
 10
2224.845
 20
-7141.361
 30
-2647.000
 70
    32
  0
VERTEX
  8
W80LXLIFT
 62
3
 10
2233.243
 20
-7156.043
 30
-2647.000
 70
    32
  0
VERTEX
  8
W80LXLIFT
 62
3
 10
2239.148
 20
-7166.001
 30
-2647.000
 70
    32
  0
VERTEX
  8
W80LXLIFT
 62
3
 10
2236.392
 20
-7178.698
 30
-2647.000
 70
    32
  0
VERTEX
  8
W80LXLIFT
 62
3
 10
2237.232
 20
-7181.638
 30
-2647.000
 70
    32
  0
VERTEX
  8
W80LXLIFT
 62
3
 10
2237.232
 20
-7181.638
 30
-2646.604
 70
    32
  0
VERTEX
  8
W80LXLIFT
 62
3
 10
2246.525
 20
-7204.576
 30
-2646.282
 70
    32
  0
VERTEX
  8
W80LXLIFT
 62
3
 10
2246.525
 20
-7204.576
 30
-2647.000
 70
    32
  0
VERTEX
  8
W80LXLIFT
 62
3
 10
2251.821
 20
-7215.363
 30
-2647.000
 70
    32
  0
VERTEX
  8
W80LXLIFT
 62
3
 10
2261.982
 20
-7223.903
 30
-2647.000
 70
    32
  0
VERTEX
  8
W80LXLIFT
 62
3
 10
2247.286
 20
-7234.957
 30
-2647.000
 70
    32
  0
VERTEX
  8
W80LXLIFT
 62
3
 10
2240.551
 20
-7229.528
 30
-2647.000
 70
    32
  0
VERTEX
  8
W80LXLIFT
 62
3
 10
2233.656
 20
-7225.983
 30
-2647.000
 70
    32
  0
VERTEX
  8
W80LXLIFT
 62
3
 10
2226.863
 20
-7211.612
 30
-2647.000
 70
    32
  0
VERTEX
  8
W80LXLIFT
 62
3
 10
2217.692
 20
-7199.872
 30
-2647.000
 70
    32
  0
VERTEX
  8
W80LXLIFT
 62
3
 10
2213.264
 20
-7184.109
 30
-2647.000
 70
    32
  0
VERTEX
  8
W80LXLIFT
 62
3
 10
2204.419
 20
-7172.466
 30
-2647.000
 70
    32
  0
VERTEX
  8
W80LXLIFT
 62
3
 10
2193.321
 20
-7162.255
 30
-2647.000
 70
    32
  0
VERTEX
  8
W80LXLIFT
 62
3
 10
2192.324
 20
-7156.790
 30
-2647.000
 70
    32
  0
VERTEX
  8
W80LXLIFT
 62
3
 10
2179.361
 20
-7146.791
 30
-2647.000
 70
    32
  0
VERTEX
  8
W80LXLIFT
 62
3
 10
2161.147
 20
-7131.700
 30
-2647.000
 70
    32
  0
VERTEX
  8
W80LXLIFT
 62
3
 10
2179.361
 20
-7146.791
 30
-2647.000
 70
    32
  0
SEQEND
  8
W80LXLIFT
  0
POLYLINE
  8
W80LXLIFT
 62
3
 66
     1
 70
     8
  0
VERTEX
  8
W80LXLIFT
 62
3
 10
2280.350
 20
-7125.831
 30
-2632.000
 70
    32
  0
VERTEX
  8
W80LXLIFT
 62
3
 10
2280.811
 20
-7131.334
 30
-2632.000
 70
    32
  0
VERTEX
  8
W80LXLIFT
 62
3
 10
2286.363
 20
-7145.759
 30
-2632.000
 70
    32
  0
SEQEND
  8
W80LXLIFT
  0
POLYLINE
  8
W80LXLIFT
 62
3
 66
     1
 70
     9
  0
VERTEX
  8
W80LXLIFT
 62
3
 10
2313.196
 20
-7196.971
 30
-2644.330
 70
    32
  0
VERTEX
  8
W80LXLIFT
 62
3
 10
2316.873
 20
-7198.234
 30
-2644.308
 70
    32
  0
VERTEX
  8
W80LXLIFT
 62
3
 10
2318.892
 20
-7198.928
 30
-2644.455
 70
    32
  0
VERTEX
  8
W80LXLIFT
 62
3
 10
2319.377
 20
-7199.126
 30
-2644.491
 70
    32
  0
VERTEX
  8
W80LXLIFT
 62
3
 10
2325.783
 20
-7201.743
 30
-2644.524
 70
    32
  0
VERTEX
  8
W80LXLIFT
 62
3
 10
2328.516
 20
-7202.860
 30
-2644.537
 70
    32
  0
VERTEX
  8
W80LXLIFT
 62
3
 10
2332.198
 20
-7198.864
 30
-2644.622
 70
    32
  0
VERTEX
  8
W80LXLIFT
 62
3
 10
2334.656
 20
-7196.196
 30
-2644.679
 70
    32
  0
VERTEX
  8
W80LXLIFT
 62
3
 10
2334.529
 20
-7194.765
 30
-2644.695
 70
    32
  0
VERTEX
  8
W80LXLIFT
 62
3
 10
2335.784
 20
-7193.472
 30
-2644.723
 70
    32
  0
VERTEX
  8
W80LXLIFT
 62
3
 10
2334.375
 20
-7184.732
 30
-2644.815
 70
    32
  0
VERTEX
  8
W80LXLIFT
 62
3
 10
2333.434
 20
-7182.082
 30
-2644.837
 70
    32
  0
VERTEX
  8
W80LXLIFT
 62
3
 10
2329.777
 20
-7171.777
 30
-2644.292
 70
    32
  0
VERTEX
  8
W80LXLIFT
 62
3
 10
2328.113
 20
-7167.089
 30
-2644.309
 70
    32
  0
VERTEX
  8
W80LXLIFT
 62
3
 10
2327.904
 20
-7166.500
 30
-2644.256
 70
    32
  0
VERTEX
  8
W80LXLIFT
 62
3
 10
2327.309
 20
-7164.882
 30
-2644.110
 70
    32
  0
VERTEX
  8
W80LXLIFT
 62
3
 10
2326.917
 20
-7164.075
 30
-2644.036
 70
    32
  0
VERTEX
  8
W80LXLIFT
 62
3
 10
2326.401
 20
-7163.012
 30
-2643.928
 70
    32
  0
VERTEX
  8
W80LXLIFT
 62
3
 10
2325.948
 20
-7162.079
 30
-2643.640
 70
    32
  0
VERTEX
  8
W80LXLIFT
 62
3
 10
2323.059
 20
-7156.126
 30
-2643.437
 70
    32
  0
VERTEX
  8
W80LXLIFT
 62
3
 10
2321.101
 20
-7152.092
 30
-2643.333
 70
    32
  0
VERTEX
  8
W80LXLIFT
 62
3
 10
2320.405
 20
-7149.551
 30
-2643.270
 70
    32
  0
VERTEX
  8
W80LXLIFT
 62
3
 10
2319.216
 20
-7145.205
 30
-2643.149
 70
    32
  0
VERTEX
  8
W80LXLIFT
 62
3
 10
2317.418
 20
-7138.637
 30
-2642.917
 70
    32
  0
VERTEX
  8
W80LXLIFT
 62
3
 10
2313.544
 20
-7124.486
 30
-2642.524
 70
    32
  0
VERTEX
  8
W80LXLIFT
 62
3
 10
2310.004
 20
-7116.340
 30
-2642.293
 70
    32
  0
VERTEX
  8
W80LXLIFT
 62
3
 10
2309.089
 20
-7114.235
 30
-2642.223
 70
    32
  0
VERTEX
  8
W80LXLIFT
 62
3
 10
2298.232
 20
-7118.824
 30
-2642.285
 70
    32
  0
VERTEX
  8
W80LXLIFT
 62
3
 10
2300.863
 20
-7128.603
 30
-2642.602
 70
    32
  0
VERTEX
  8
W80LXLIFT
 62
3
 10
2301.911
 20
-7132.501
 30
-2642.710
 70
    32
  0
VERTEX
  8
W80LXLIFT
 62
3
 10
2302.103
 20
-7139.771
 30
-2642.908
 70
    32
  0
VERTEX
  8
W80LXLIFT
 62
3
 10
2302.132
 20
-7140.860
 30
-2642.946
 70
    32
  0
VERTEX
  8
W80LXLIFT
 62
3
 10
2301.050
 20
-7142.081
 30
-2642.984
 70
    32
  0
VERTEX
  8
W80LXLIFT
 62
3
 10
2293.506
 20
-7150.589
 30
-2643.175
 70
    32
  0
VERTEX
  8
W80LXLIFT
 62
3
 10
2291.403
 20
-7152.961
 30
-2643.219
 70
    32
  0
VERTEX
  8
W80LXLIFT
 62
3
 10
2294.368
 20
-7156.278
 30
-2643.329
 70
    32
  0
VERTEX
  8
W80LXLIFT
 62
3
 10
2297.061
 20
-7159.290
 30
-2643.421
 70
    32
  0
VERTEX
  8
W80LXLIFT
 62
3
 10
2297.897
 20
-7160.718
 30
-2643.462
 70
    32
  0
VERTEX
  8
W80LXLIFT
 62
3
 10
2298.290
 20
-7161.388
 30
-2643.480
 70
    32
  0
VERTEX
  8
W80LXLIFT
 62
3
 10
2298.672
 20
-7162.040
 30
-2643.502
 70
    32
  0
VERTEX
  8
W80LXLIFT
 62
3
 10
2298.734
 20
-7162.145
 30
-2643.535
 70
    32
  0
VERTEX
  8
W80LXLIFT
 62
3
 10
2302.428
 20
-7168.451
 30
-2644.182
 70
    32
  0
VERTEX
  8
W80LXLIFT
 62
3
 10
2301.917
 20
-7170.426
 30
-2644.366
 70
    32
  0
VERTEX
  8
W80LXLIFT
 62
3
 10
2301.704
 20
-7171.248
 30
-2644.436
 70
    32
  0
VERTEX
  8
W80LXLIFT
 62
3
 10
2299.960
 20
-7177.991
 30
-2644.432
 70
    32
  0
VERTEX
  8
W80LXLIFT
 62
3
 10
2302.989
 20
-7182.425
 30
-2644.408
 70
    32
  0
VERTEX
  8
W80LXLIFT
 62
3
 10
2302.989
 20
-7182.425
 30
-2644.408
 70
    32
  0
VERTEX
  8
W80LXLIFT
 62
3
 10
2313.196
 20
-7196.971
 30
-2644.330
 70
    32
  0
SEQEND
  8
W80LXLIFT
  0
LINE
  8
W80LXLIFT
 62
3
 10
2302.989
 20
-7182.425
 30
-2644.408
 11
2313.196
 21
-7196.971
 31
-2644.330
  0
LINE
  8
W80LXLIFT
 62
3
 10
2259.804
 20
-7144.333
 30
-2588.588
 11
2265.560
 21
-7160.650
 31
-2588.849
  0
POLYLINE
  8
W80LXLIFT
 62
3
 66
     1
 70
     9
  0
VERTEX
  8
W80LXLIFT
 62
3
 10
2062.905
 20
-6917.489
 30
-2592.000
 70
    32
  0
VERTEX
  8
W80LXLIFT
 62
3
 10
2047.908
 20
-6908.578
 30
-2592.000
 70
    32
  0
VERTEX
  8
W80LXLIFT
 62
3
 10
2040.501
 20
-6901.614
 30
-2592.000
 70
    32
  0
VERTEX
  8
W80LXLIFT
 62
3
 10
2039.040
 20
-6894.954
 30
-2592.000
 70
    32
  0
VERTEX
  8
W80LXLIFT
 62
3
 10
2036.479
 20
-6889.487
 30
-2592.000
 70
    32
  0
VERTEX
  8
W80LXLIFT
 62
3
 10
2040.566
 20
-6884.128
 30
-2592.000
 70
    32
  0
VERTEX
  8
W80LXLIFT
 62
3
 10
2045.978
 20
-6881.538
 30
-2592.000
 70
    32
  0
VERTEX
  8
W80LXLIFT
 62
3
 10
2053.793
 20
-6878.976
 30
-2592.000
 70
    32
  0
VERTEX
  8
W80LXLIFT
 62
3
 10
2060.605
 20
-6890.149
 30
-2592.000
 70
    32
  0
VERTEX
  8
W80LXLIFT
 62
3
 10
2066.803
 20
-6892.840
 30
-2592.000
 70
    32
  0
VERTEX
  8
W80LXLIFT
 62
3
 10
2073.045
 20
-6900.237
 30
-2592.000
 70
    32
  0
VERTEX
  8
W80LXLIFT
 62
3
 10
2075.459
 20
-6906.835
 30
-2592.000
 70
    32
  0
VERTEX
  8
W80LXLIFT
 62
3
 10
2083.602
 20
-6908.404
 30
-2592.000
 70
    32
  0
VERTEX
  8
W80LXLIFT
 62
3
 10
2090.329
 20
-6911.192
 30
-2592.000
 70
    32
  0
VERTEX
  8
W80LXLIFT
 62
3
 10
2097.829
 20
-6933.311
 30
-2592.000
 70
    32
  0
VERTEX
  8
W80LXLIFT
 62
3
 10
2100.128
 20
-6935.557
 30
-2592.000
 70
    32
  0
VERTEX
  8
W80LXLIFT
 62
3
 10
2103.855
 20
-6942.062
 30
-2592.000
 70
    32
  0
VERTEX
  8
W80LXLIFT
 62
3
 10
2104.031
 20
-6950.239
 30
-2592.000
 70
    32
  0
VERTEX
  8
W80LXLIFT
 62
3
 10
2129.826
 20
-6977.735
 30
-2592.000
 70
    32
  0
VERTEX
  8
W80LXLIFT
 62
3
 10
2129.720
 20
-6983.248
 30
-2592.000
 70
    32
  0
VERTEX
  8
W80LXLIFT
 62
3
 10
2131.255
 20
-6992.813
 30
-2592.000
 70
    32
  0
VERTEX
  8
W80LXLIFT
 62
3
 10
2125.906
 20
-6999.303
 30
-2592.000
 70
    32
  0
VERTEX
  8
W80LXLIFT
 62
3
 10
2124.819
 20
-7004.808
 30
-2592.000
 70
    32
  0
VERTEX
  8
W80LXLIFT
 62
3
 10
2147.755
 20
-7024.672
 30
-2592.000
 70
    32
  0
VERTEX
  8
W80LXLIFT
 62
3
 10
2145.523
 20
-7027.991
 30
-2592.000
 70
    32
  0
VERTEX
  8
W80LXLIFT
 62
3
 10
2149.460
 20
-7034.883
 30
-2592.000
 70
    32
  0
VERTEX
  8
W80LXLIFT
 62
3
 10
2142.057
 20
-7044.161
 30
-2592.000
 70
    32
  0
VERTEX
  8
W80LXLIFT
 62
3
 10
2129.106
 20
-7052.050
 30
-2592.000
 70
    32
  0
VERTEX
  8
W80LXLIFT
 62
3
 10
2116.720
 20
-7036.828
 30
-2592.000
 70
    32
  0
VERTEX
  8
W80LXLIFT
 62
3
 10
2111.002
 20
-7031.178
 30
-2592.000
 70
    32
  0
VERTEX
  8
W80LXLIFT
 62
3
 10
2103.079
 20
-7028.655
 30
-2592.000
 70
    32
  0
VERTEX
  8
W80LXLIFT
 62
3
 10
2099.063
 20
-7024.114
 30
-2592.000
 70
    32
  0
VERTEX
  8
W80LXLIFT
 62
3
 10
2098.411
 20
-7019.752
 30
-2592.000
 70
    32
  0
VERTEX
  8
W80LXLIFT
 62
3
 10
2094.103
 20
-7009.653
 30
-2592.000
 70
    32
  0
VERTEX
  8
W80LXLIFT
 62
3
 10
2091.252
 20
-7005.991
 30
-2592.000
 70
    32
  0
VERTEX
  8
W80LXLIFT
 62
3
 10
2081.889
 20
-6992.572
 30
-2592.000
 70
    32
  0
VERTEX
  8
W80LXLIFT
 62
3
 10
2077.673
 20
-6985.320
 30
-2592.000
 70
    32
  0
VERTEX
  8
W80LXLIFT
 62
3
 10
2079.098
 20
-6982.182
 30
-2592.000
 70
    32
  0
VERTEX
  8
W80LXLIFT
 62
3
 10
2078.632
 20
-6977.517
 30
-2592.000
 70
    32
  0
VERTEX
  8
W80LXLIFT
 62
3
 10
2072.751
 20
-6972.794
 30
-2592.000
 70
    32
  0
VERTEX
  8
W80LXLIFT
 62
3
 10
2067.033
 20
-6976.366
 30
-2592.000
 70
    32
  0
VERTEX
  8
W80LXLIFT
 62
3
 10
2058.527
 20
-6961.406
 30
-2592.000
 70
    32
  0
VERTEX
  8
W80LXLIFT
 62
3
 10
2061.715
 20
-6954.421
 30
-2592.000
 70
    32
  0
VERTEX
  8
W80LXLIFT
 62
3
 10
2053.029
 20
-6943.003
 30
-2592.000
 70
    32
  0
VERTEX
  8
W80LXLIFT
 62
3
 10
2065.555
 20
-6931.591
 30
-2592.000
 70
    32
  0
SEQEND
  8
W80LXLIFT
  0
POLYLINE
  8
W80LXLIFT
 62
3
 66
     1
 70
     9
  0
VERTEX
  8
W80LXLIFT
 62
3
 10
2249.393
 20
-7105.604
 30
-2571.000
 70
    32
  0
VERTEX
  8
W80LXLIFT
 62
3
 10
2260.037
 20
-7101.433
 30
-2571.000
 70
    32
  0
VERTEX
  8
W80LXLIFT
 62
3
 10
2254.947
 20
-7082.202
 30
-2571.000
 70
    32
  0
VERTEX
  8
W80LXLIFT
 62
3
 10
2255.178
 20
-7073.166
 30
-2571.000
 70
    32
  0
VERTEX
  8
W80LXLIFT
 62
3
 10
2249.856
 20
-7062.739
 30
-2571.000
 70
    32
  0
VERTEX
  8
W80LXLIFT
 62
3
 10
2242.220
 20
-7049.996
 30
-2571.000
 70
    32
  0
VERTEX
  8
W80LXLIFT
 62
3
 10
2235.278
 20
-7040.959
 30
-2571.000
 70
    32
  0
VERTEX
  8
W80LXLIFT
 62
3
 10
2217.692
 20
-7049.764
 30
-2571.000
 70
    32
  0
VERTEX
  8
W80LXLIFT
 62
3
 10
2225.791
 20
-7061.581
 30
-2571.000
 70
    32
  0
VERTEX
  8
W80LXLIFT
 62
3
 10
2229.262
 20
-7067.142
 30
-2571.000
 70
    32
  0
VERTEX
  8
W80LXLIFT
 62
3
 10
2229.956
 20
-7073.397
 30
-2571.000
 70
    32
  0
VERTEX
  8
W80LXLIFT
 62
3
 10
2238.286
 20
-7087.531
 30
-2571.000
 70
    32
  0
VERTEX
  8
W80LXLIFT
 62
3
 10
2242.914
 20
-7092.629
 30
-2571.000
 70
    32
  0
SEQEND
  8
W80LXLIFT
  0
POLYLINE
  8
W80LXLIFT
 62
3
 66
     1
 70
     9
  0
VERTEX
  8
W80LXLIFT
 62
3
 10
1962.448
 20
-5993.778
 30
-2567.052
 70
    32
  0
VERTEX
  8
W80LXLIFT
 62
3
 10
1962.911
 20
-5984.982
 30
-2566.477
 70
    32
  0
VERTEX
  8
W80LXLIFT
 62
3
 10
1959.711
 20
-5977.068
 30
-2566.058
 70
    32
  0
VERTEX
  8
W80LXLIFT
 62
3
 10
1960.974
 20
-5974.441
 30
-2566.113
 70
    32
  0
VERTEX
  8
W80LXLIFT
 62
3
 10
1949.157
 20
-5960.355
 30
-2565.648
 70
    32
  0
VERTEX
  8
W80LXLIFT
 62
3
 10
1944.700
 20
-5948.621
 30
-2565.915
 70
    32
  0
VERTEX
  8
W80LXLIFT
 62
3
 10
1942.582
 20
-5937.479
 30
-2565.470
 70
    32
  0
VERTEX
  8
W80LXLIFT
 62
3
 10
1944.698
 20
-5932.743
 30
-2565.714
 70
    32
  0
VERTEX
  8
W80LXLIFT
 62
3
 10
1943.465
 20
-5923.417
 30
-2565.261
 70
    32
  0
VERTEX
  8
W80LXLIFT
 62
3
 10
1943.161
 20
-5912.557
 30
-2564.849
 70
    32
  0
VERTEX
  8
W80LXLIFT
 62
3
 10
1940.454
 20
-5902.434
 30
-2565.793
 70
    32
  0
VERTEX
  8
W80LXLIFT
 62
3
 10
1938.414
 20
-5894.952
 30
-2565.596
 70
    32
  0
VERTEX
  8
W80LXLIFT
 62
3
 10
1934.436
 20
-5885.889
 30
-2566.095
 70
    32
  0
VERTEX
  8
W80LXLIFT
 62
3
 10
1937.967
 20
-5883.762
 30
-2566.020
 70
    32
  0
VERTEX
  8
W80LXLIFT
 62
3
 10
1944.947
 20
-5880.268
 30
-2564.945
 70
    32
  0
VERTEX
  8
W80LXLIFT
 62
3
 10
1948.782
 20
-5881.495
 30
-2565.126
 70
    32
  0
VERTEX
  8
W80LXLIFT
 62
3
 10
1953.932
 20
-5897.402
 30
-2565.676
 70
    32
  0
VERTEX
  8
W80LXLIFT
 62
3
 10
1955.495
 20
-5904.915
 30
-2565.453
 70
    32
  0
VERTEX
  8
W80LXLIFT
 62
3
 10
1958.743
 20
-5911.985
 30
-2564.778
 70
    32
  0
VERTEX
  8
W80LXLIFT
 62
3
 10
1958.527
 20
-5938.585
 30
-2565.264
 70
    32
  0
VERTEX
  8
W80LXLIFT
 62
3
 10
1963.893
 20
-5950.438
 30
-2565.445
 70
    32
  0
VERTEX
  8
W80LXLIFT
 62
3
 10
1971.201
 20
-5962.980
 30
-2565.936
 70
    32
  0
VERTEX
  8
W80LXLIFT
 62
3
 10
1978.837
 20
-5969.373
 30
-2566.376
 70
    32
  0
VERTEX
  8
W80LXLIFT
 62
3
 10
1986.879
 20
-5971.192
 30
-2568.244
 70
    32
  0
VERTEX
  8
W80LXLIFT
 62
3
 10
1990.193
 20
-5975.223
 30
-2568.420
 70
    32
  0
VERTEX
  8
W80LXLIFT
 62
3
 10
1990.092
 20
-5977.341
 30
-2568.488
 70
    32
  0
VERTEX
  8
W80LXLIFT
 62
3
 10
1991.293
 20
-5981.556
 30
-2566.899
 70
    32
  0
VERTEX
  8
W80LXLIFT
 62
3
 10
1988.280
 20
-5989.660
 30
-2567.865
 70
    32
  0
VERTEX
  8
W80LXLIFT
 62
3
 10
1989.784
 20
-5996.397
 30
-2567.470
 70
    32
  0
VERTEX
  8
W80LXLIFT
 62
3
 10
1980.374
 20
-6003.163
 30
-2567.016
 70
    32
  0
VERTEX
  8
W80LXLIFT
 62
3
 10
1975.656
 20
-5997.382
 30
-2568.127
 70
    32
  0
VERTEX
  8
W80LXLIFT
 62
3
 10
1972.411
 20
-6000.091
 30
-2566.580
 70
    32
  0
SEQEND
  8
W80LXLIFT
  0
POINT
  8
W80LXLIFT
 62
3
 10
1962.540
 20
-5963.780
 30
-2566.060
  0
POLYLINE
  8
W80LXLIFT
 62
3
 66
     1
 70
     9
  0
VERTEX
  8
W80LXLIFT
 62
3
 10
1962.540
 20
-5961.570
 30
-2566.060
 70
    32
  0
VERTEX
  8
W80LXLIFT
 62
3
 10
1964.289
 20
-5964.750
 30
-2566.060
 70
    32
  0
VERTEX
  8
W80LXLIFT
 62
3
 10
1960.790
 20
-5964.748
 30
-2566.060
 70
    32
  0
SEQEND
  8
W80LXLIFT
  0
POINT
  8
W80LXLIFT
 62
3
 10
1972.980
 20
-5990.850
 30
-2567.520
  0
POLYLINE
  8
W80LXLIFT
 62
3
 66
     1
 70
     9
  0
VERTEX
  8
W80LXLIFT
 62
3
 10
1972.980
 20
-5988.640
 30
-2567.520
 70
    32
  0
VERTEX
  8
W80LXLIFT
 62
3
 10
1974.729
 20
-5991.820
 30
-2567.520
 70
    32
  0
VERTEX
  8
W80LXLIFT
 62
3
 10
1971.230
 20
-5991.818
 30
-2567.520
 70
    32
  0
SEQEND
  8
W80LXLIFT
  0
POLYLINE
  8
W80LXLIFT
 62
3
 66
     1
 70
     9
  0
VERTEX
  8
W80LXLIFT
 62
3
 10
1961.987
 20
-5991.239
 30
-2566.892
 70
    32
  0
VERTEX
  8
W80LXLIFT
 62
3
 10
1961.965
 20
-5991.231
 30
-2566.892
 70
    32
  0
VERTEX
  8
W80LXLIFT
 62
3
 10
1954.677
 20
-5979.790
 30
-2567.489
 70
    32
  0
VERTEX
  8
W80LXLIFT
 62
3
 10
1956.906
 20
-5976.945
 30
-2568.029
 70
    32
  0
VERTEX
  8
W80LXLIFT
 62
3
 10
1952.182
 20
-5972.948
 30
-2568.249
 70
    32
  0
VERTEX
  8
W80LXLIFT
 62
3
 10
1959.787
 20
-5964.303
 30
-2568.423
 70
    32
  0
VERTEX
  8
W80LXLIFT
 62
3
 10
1959.787
 20
-5964.303
 30
-2568.423
 70
    32
  0
VERTEX
  8
W80LXLIFT
 62
3
 10
1967.593
 20
-5970.812
 30
-2568.410
 70
    32
  0
VERTEX
  8
W80LXLIFT
 62
3
 10
1976.530
 20
-5968.674
 30
-2567.929
 70
    32
  0
VERTEX
  8
W80LXLIFT
 62
3
 10
1987.107
 20
-5972.807
 30
-2568.143
 70
    32
  0
VERTEX
  8
W80LXLIFT
 62
3
 10
1990.489
 20
-5981.777
 30
-2568.163
 70
    32
  0
VERTEX
  8
W80LXLIFT
 62
3
 10
1987.160
 20
-5987.624
 30
-2568.476
 70
    32
  0
VERTEX
  8
W80LXLIFT
 62
3
 10
1985.205
 20
-5991.892
 30
-2568.538
 70
    32
  0
VERTEX
  8
W80LXLIFT
 62
3
 10
1978.081
 20
-5993.922
 30
-2567.309
 70
    32
  0
VERTEX
  8
W80LXLIFT
 62
3
 10
1973.348
 20
-5999.437
 30
-2567.826
 70
    32
  0
SEQEND
  8
W80LXLIFT
  0
POLYLINE
  8
W80LXLIFT
 62
3
 66
     1
 70
     9
  0
VERTEX
  8
W80LXLIFT
 62
3
 10
2280.350
 20
-7125.831
 30
-2632.000
 70
    32
  0
VERTEX
  8
W80LXLIFT
 62
3
 10
2279.788
 20
-7119.132
 30
-2632.000
 70
    32
  0
VERTEX
  8
W80LXLIFT
 62
3
 10
2282.655
 20
-7108.826
 30
-2632.000
 70
    32
  0
VERTEX
  8
W80LXLIFT
 62
3
 10
2280.342
 20
-7101.163
 30
-2632.000
 70
    32
  0
VERTEX
  8
W80LXLIFT
 62
3
 10
2298.291
 20
-7095.372
 30
-2632.000
 70
    32
  0
VERTEX
  8
W80LXLIFT
 62
3
 10
2304.053
 20
-7114.524
 30
-2632.000
 70
    32
  0
VERTEX
  8
W80LXLIFT
 62
3
 10
2305.722
 20
-7127.153
 30
-2632.000
 70
    32
  0
VERTEX
  8
W80LXLIFT
 62
3
 10
2311.325
 20
-7138.615
 30
-2632.000
 70
    32
  0
VERTEX
  8
W80LXLIFT
 62
3
 10
2313.421
 20
-7149.479
 30
-2632.000
 70
    32
  0
VERTEX
  8
W80LXLIFT
 62
3
 10
2313.527
 20
-7160.505
 30
-2632.000
 70
    32
  0
VERTEX
  8
W80LXLIFT
 62
3
 10
2318.958
 20
-7181.042
 30
-2632.000
 70
    32
  0
VERTEX
  8
W80LXLIFT
 62
3
 10
2320.713
 20
-7191.807
 30
-2632.000
 70
    32
  0
VERTEX
  8
W80LXLIFT
 62
3
 10
2324.023
 20
-7201.244
 30
-2632.000
 70
    32
  0
VERTEX
  8
W80LXLIFT
 62
3
 10
2330.123
 20
-7211.868
 30
-2632.000
 70
    32
  0
VERTEX
  8
W80LXLIFT
 62
3
 10
2336.617
 20
-7219.104
 30
-2632.000
 70
    32
  0
VERTEX
  8
W80LXLIFT
 62
3
 10
2348.391
 20
-7222.544
 30
-2632.000
 70
    32
  0
VERTEX
  8
W80LXLIFT
 62
3
 10
2354.242
 20
-7228.176
 30
-2632.000
 70
    32
  0
VERTEX
  8
W80LXLIFT
 62
3
 10
2347.600
 20
-7235.930
 30
-2632.000
 70
    32
  0
VERTEX
  8
W80LXLIFT
 62
3
 10
2337.958
 20
-7242.956
 30
-2632.000
 70
    32
  0
VERTEX
  8
W80LXLIFT
 62
3
 10
2328.183
 20
-7236.572
 30
-2632.000
 70
    32
  0
VERTEX
  8
W80LXLIFT
 62
3
 10
2316.846
 20
-7223.490
 30
-2632.000
 70
    32
  0
VERTEX
  8
W80LXLIFT
 62
3
 10
2309.177
 20
-7217.405
 30
-2632.000
 70
    32
  0
VERTEX
  8
W80LXLIFT
 62
3
 10
2299.053
 20
-7218.524
 30
-2632.000
 70
    32
  0
VERTEX
  8
W80LXLIFT
 62
3
 10
2291.106
 20
-7204.094
 30
-2632.000
 70
    32
  0
VERTEX
  8
W80LXLIFT
 62
3
 10
2288.284
 20
-7200.099
 30
-2632.000
 70
    32
  0
VERTEX
  8
W80LXLIFT
 62
3
 10
2283.539
 20
-7198.002
 30
-2632.000
 70
    32
  0
VERTEX
  8
W80LXLIFT
 62
3
 10
2280.540
 20
-7186.703
 30
-2632.000
 70
    32
  0
VERTEX
  8
W80LXLIFT
 62
3
 10
2284.294
 20
-7180.813
 30
-2632.000
 70
    32
  0
VERTEX
  8
W80LXLIFT
 62
3
 10
2284.809
 20
-7176.907
 30
-2632.000
 70
    32
  0
VERTEX
  8
W80LXLIFT
 62
3
 10
2280.105
 20
-7167.312
 30
-2632.000
 70
    32
  0
VERTEX
  8
W80LXLIFT
 62
3
 10
2281.050
 20
-7162.952
 30
-2632.000
 70
    32
  0
VERTEX
  8
W80LXLIFT
 62
3
 10
2278.571
 20
-7157.065
 30
-2632.000
 70
    32
  0
VERTEX
  8
W80LXLIFT
 62
3
 10
2285.846
 20
-7151.158
 30
-2632.000
 70
    32
  0
VERTEX
  8
W80LXLIFT
 62
3
 10
2286.363
 20
-7145.759
 30
-2632.000
 70
    32
  0
VERTEX
  8
W80LXLIFT
 62
3
 10
2280.811
 20
-7131.334
 30
-2632.000
 70
    32
  0
SEQEND
  8
W80LXLIFT
  0
POLYLINE
  8
W80LXLIFT
 62
3
 66
     1
 70
     9
  0
VERTEX
  8
W80LXLIFT
 62
3
 10
2259.804
 20
-7144.333
 30
-2588.588
 70
    32
  0
VERTEX
  8
W80LXLIFT
 62
3
 10
2284.627
 20
-7138.797
 30
-2586.023
 70
    32
  0
VERTEX
  8
W80LXLIFT
 62
3
 10
2295.192
 20
-7144.833
 30
-2588.063
 70
    32
  0
VERTEX
  8
W80LXLIFT
 62
3
 10
2298.982
 20
-7154.594
 30
-2589.592
 70
    32
  0
VERTEX
  8
W80LXLIFT
 62
3
 10
2303.357
 20
-7158.055
 30
-2590.538
 70
    32
  0
VERTEX
  8
W80LXLIFT
 62
3
 10
2308.665
 20
-7162.254
 30
-2590.582
 70
    32
  0
VERTEX
  8
W80LXLIFT
 62
3
 10
2305.564
 20
-7175.297
 30
-2590.247
 70
    32
  0
VERTEX
  8
W80LXLIFT
 62
3
 10
2304.969
 20
-7179.013
 30
-2590.158
 70
    32
  0
VERTEX
  8
W80LXLIFT
 62
3
 10
2308.276
 20
-7191.390
 30
-2589.991
 70
    32
  0
VERTEX
  8
W80LXLIFT
 62
3
 10
2312.384
 20
-7203.228
 30
-2589.853
 70
    32
  0
VERTEX
  8
W80LXLIFT
 62
3
 10
2312.149
 20
-7204.748
 30
-2589.817
 70
    32
  0
VERTEX
  8
W80LXLIFT
 62
3
 10
2311.844
 20
-7206.718
 30
-2589.835
 70
    32
  0
VERTEX
  8
W80LXLIFT
 62
3
 10
2315.368
 20
-7215.016
 30
-2589.922
 70
    32
  0
VERTEX
  8
W80LXLIFT
 62
3
 10
2305.332
 20
-7219.278
 30
-2589.933
 70
    32
  0
VERTEX
  8
W80LXLIFT
 62
3
 10
2299.623
 20
-7208.284
 30
-2589.814
 70
    32
  0
VERTEX
  8
W80LXLIFT
 62
3
 10
2289.157
 20
-7188.128
 30
-2589.596
 70
    32
  0
VERTEX
  8
W80LXLIFT
 62
3
 10
2284.462
 20
-7179.085
 30
-2589.664
 70
    32
  0
VERTEX
  8
W80LXLIFT
 62
3
 10
2282.003
 20
-7176.687
 30
-2589.653
 70
    32
  0
VERTEX
  8
W80LXLIFT
 62
3
 10
2265.560
 20
-7160.650
 30
-2588.849
 70
    32
  0
VERTEX
  8
W80LXLIFT
 62
3
 10
2259.804
 20
-7144.333
 30
-2588.588
 70
    32
  0
SEQEND
  8
W80LXLIFT
  0
TEXT
  8
W80LXLIFT
 62
3
 10
1970.791
 20
-5956.453
 30
-2566.060
 40
1.969
  1
-2566.06
 50
22.054
 41
 1.0 
  0
TEXT
  8
W80LXLIFT
 62
3
 10
1971.900
 20
-5959.189
 30
-2566.060
 40
1.969
  1
ST-358T
 50
22.054
 41
 1.0 
  0
TEXT
  8
W80LXLIFT
 62
3
 10
1979.396
 20
-5985.184
 30
-2567.520
 40
1.969
  1
ST-358S
 50
23.850
 41
 1.0 
  0
TEXT
  8
W80LXLIFT
 62
3
 10
1980.590
 20
-5987.884
 30
-2567.520
 40
1.969
  1
-2567.52
 50
23.850
 41
 1.0 
  0
POLYLINE
  8
W80LXLIFT
 62
6
 66
     1
 70
     9
  0
VERTEX
  8
W80LXLIFT
 62
6
 10
2626.411
 20
-7911.633
 30
-2673.664
 70
    32
  0
VERTEX
  8
W80LXLIFT
 62
6
 10
2636.881
 20
-7910.508
 30
-2673.658
 70
    32
  0
VERTEX
  8
W80LXLIFT
 62
6
 10
2648.786
 20
-7908.917
 30
-2673.884
 70
    32
  0
VERTEX
  8
W80LXLIFT
 62
6
 10
2649.336
 20
-7920.051
 30
-2673.642
 70
    32
  0
VERTEX
  8
W80LXLIFT
 62
6
 10
2647.868
 20
-7926.376
 30
-2674.291
 70
    32
  0
VERTEX
  8
W80LXLIFT
 62
6
 10
2662.079
 20
-7937.968
 30
-2673.590
 70
    32
  0
VERTEX
  8
W80LXLIFT
 62
6
 10
2654.812
 20
-7945.466
 30
-2674.183
 70
    32
  0
VERTEX
  8
W80LXLIFT
 62
6
 10
2648.700
 20
-7950.652
 30
-2675.649
 70
    32
  0
VERTEX
  8
W80LXLIFT
 62
6
 10
2639.406
 20
-7942.180
 30
-2675.060
 70
    32
  0
VERTEX
  8
W80LXLIFT
 62
6
 10
2628.256
 20
-7931.836
 30
-2673.694
 70
    32
  0
VERTEX
  8
W80LXLIFT
 62
6
 10
2618.815
 20
-7923.875
 30
-2675.189
 70
    32
  0
VERTEX
  8
W80LXLIFT
 62
6
 10
2619.366
 20
-7917.846
 30
-2674.681
 70
    32
  0
VERTEX
  8
W80LXLIFT
 62
6
 10
2620.346
 20
-7911.080
 30
-2674.172
 70
    32
  0
SEQEND
  8
W80LXLIFT
  0
POLYLINE
  8
W80LXLIFT
 62
2
 66
     1
 70
     9
  0
VERTEX
  8
W80LXLIFT
 62
2
 10
2561.627
 20
-7901.791
 30
-2619.476
 70
    32
  0
VERTEX
  8
W80LXLIFT
 62
2
 10
2558.937
 20
-7899.519
 30
-2619.427
 70
    32
  0
VERTEX
  8
W80LXLIFT
 62
2
 10
2556.367
 20
-7895.010
 30
-2620.567
 70
    32
  0
VERTEX
  8
W80LXLIFT
 62
2
 10
2549.993
 20
-7890.975
 30
-2620.892
 70
    32
  0
VERTEX
  8
W80LXLIFT
 62
2
 10
2545.179
 20
-7893.312
 30
-2620.742
 70
    32
  0
VERTEX
  8
W80LXLIFT
 62
2
 10
2540.243
 20
-7896.533
 30
-2620.575
 70
    32
  0
VERTEX
  8
W80LXLIFT
 62
2
 10
2534.907
 20
-7892.660
 30
-2621.405
 70
    32
  0
VERTEX
  8
W80LXLIFT
 62
2
 10
2526.635
 20
-7895.070
 30
-2619.631
 70
    32
  0
VERTEX
  8
W80LXLIFT
 62
2
 10
2523.521
 20
-7892.928
 30
-2620.945
 70
    32
  0
VERTEX
  8
W80LXLIFT
 62
2
 10
2516.530
 20
-7889.047
 30
-2619.607
 70
    32
  0
VERTEX
  8
W80LXLIFT
 62
2
 10
2515.360
 20
-7887.513
 30
-2619.275
 70
    32
  0
VERTEX
  8
W80LXLIFT
 62
2
 10
2510.205
 20
-7887.548
 30
-2619.166
 70
    32
  0
VERTEX
  8
W80LXLIFT
 62
2
 10
2502.519
 20
-7882.059
 30
-2623.884
 70
    32
  0
VERTEX
  8
W80LXLIFT
 62
2
 10
2496.197
 20
-7873.654
 30
-2618.562
 70
    32
  0
VERTEX
  8
W80LXLIFT
 62
2
 10
2495.720
 20
-7867.332
 30
-2620.499
 70
    32
  0
VERTEX
  8
W80LXLIFT
 62
2
 10
2485.622
 20
-7862.955
 30
-2618.660
 70
    32
  0
VERTEX
  8
W80LXLIFT
 62
2
 10
2486.115
 20
-7857.493
 30
-2620.096
 70
    32
  0
VERTEX
  8
W80LXLIFT
 62
2
 10
2487.603
 20
-7854.191
 30
-2620.105
 70
    32
  0
VERTEX
  8
W80LXLIFT
 62
2
 10
2490.021
 20
-7850.431
 30
-2619.761
 70
    32
  0
VERTEX
  8
W80LXLIFT
 62
2
 10
2498.665
 20
-7855.357
 30
-2618.092
 70
    32
  0
VERTEX
  8
W80LXLIFT
 62
2
 10
2502.872
 20
-7852.223
 30
-2618.980
 70
    32
  0
VERTEX
  8
W80LXLIFT
 62
2
 10
2509.198
 20
-7854.313
 30
-2618.958
 70
    32
  0
VERTEX
  8
W80LXLIFT
 62
2
 10
2513.496
 20
-7854.105
 30
-2618.955
 70
    32
  0
VERTEX
  8
W80LXLIFT
 62
2
 10
2521.978
 20
-7865.269
 30
-2618.482
 70
    32
  0
VERTEX
  8
W80LXLIFT
 62
2
 10
2528.409
 20
-7866.658
 30
-2619.401
 70
    32
  0
VERTEX
  8
W80LXLIFT
 62
2
 10
2536.513
 20
-7870.731
 30
-2619.905
 70
    32
  0
VERTEX
  8
W80LXLIFT
 62
2
 10
2544.550
 20
-7874.373
 30
-2620.289
 70
    32
  0
VERTEX
  8
W80LXLIFT
 62
2
 10
2553.688
 20
-7880.353
 30
-2620.397
 70
    32
  0
VERTEX
  8
W80LXLIFT
 62
2
 10
2561.118
 20
-7884.010
 30
-2619.583
 70
    32
  0
VERTEX
  8
W80LXLIFT
 62
2
 10
2565.275
 20
-7877.981
 30
-2618.629
 70
    32
  0
VERTEX
  8
W80LXLIFT
 62
2
 10
2569.870
 20
-7878.421
 30
-2622.365
 70
    32
  0
VERTEX
  8
W80LXLIFT
 62
2
 10
2574.208
 20
-7880.048
 30
-2622.788
 70
    32
  0
VERTEX
  8
W80LXLIFT
 62
2
 10
2576.548
 20
-7881.332
 30
-2622.289
 70
    32
  0
VERTEX
  8
W80LXLIFT
 62
2
 10
2585.194
 20
-7886.516
 30
-2622.591
 70
    32
  0
VERTEX
  8
W80LXLIFT
 62
2
 10
2588.215
 20
-7891.583
 30
-2622.548
 70
    32
  0
VERTEX
  8
W80LXLIFT
 62
2
 10
2590.752
 20
-7900.899
 30
-2623.194
 70
    32
  0
VERTEX
  8
W80LXLIFT
 62
2
 10
2592.064
 20
-7903.340
 30
-2622.591
 70
    32
  0
VERTEX
  8
W80LXLIFT
 62
2
 10
2594.731
 20
-7907.367
 30
-2622.184
 70
    32
  0
VERTEX
  8
W80LXLIFT
 62
2
 10
2586.745
 20
-7914.617
 30
-2621.000
 70
    32
  0
VERTEX
  8
W80LXLIFT
 62
2
 10
2576.513
 20
-7908.303
 30
-2621.699
 70
    32
  0
VERTEX
  8
W80LXLIFT
 62
2
 10
2566.362
 20
-7910.294
 30
-2618.459
 70
    32
  0
SEQEND
  8
W80LXLIFT
  0
POLYLINE
  8
W80LXLIFT
 62
2
 66
     1
 70
     9
  0
VERTEX
  8
W80LXLIFT
 62
2
 10
2556.086
 20
-7890.730
 30
-2630.814
 70
    32
  0
VERTEX
  8
W80LXLIFT
 62
2
 10
2550.865
 20
-7888.766
 30
-2631.881
 70
    32
  0
VERTEX
  8
W80LXLIFT
 62
2
 10
2543.347
 20
-7888.806
 30
-2633.790
 70
    32
  0
VERTEX
  8
W80LXLIFT
 62
2
 10
2530.461
 20
-7891.567
 30
-2636.500
 70
    32
  0
VERTEX
  8
W80LXLIFT
 62
2
 10
2522.199
 20
-7888.919
 30
-2636.961
 70
    32
  0
VERTEX
  8
W80LXLIFT
 62
2
 10
2514.371
 20
-7886.972
 30
-2638.151
 70
    32
  0
VERTEX
  8
W80LXLIFT
 62
2
 10
2510.775
 20
-7884.392
 30
-2638.819
 70
    32
  0
VERTEX
  8
W80LXLIFT
 62
2
 10
2504.897
 20
-7880.975
 30
-2639.215
 70
    32
  0
VERTEX
  8
W80LXLIFT
 62
2
 10
2503.549
 20
-7871.998
 30
-2639.566
 70
    32
  0
VERTEX
  8
W80LXLIFT
 62
2
 10
2506.068
 20
-7864.068
 30
-2639.477
 70
    32
  0
VERTEX
  8
W80LXLIFT
 62
2
 10
2507.662
 20
-7859.460
 30
-2638.892
 70
    32
  0
VERTEX
  8
W80LXLIFT
 62
2
 10
2512.059
 20
-7856.216
 30
-2638.730
 70
    32
  0
VERTEX
  8
W80LXLIFT
 62
2
 10
2520.588
 20
-7863.756
 30
-2639.189
 70
    32
  0
VERTEX
  8
W80LXLIFT
 62
2
 10
2529.943
 20
-7867.543
 30
-2639.184
 70
    32
  0
VERTEX
  8
W80LXLIFT
 62
2
 10
2538.544
 20
-7870.981
 30
-2638.302
 70
    32
  0
VERTEX
  8
W80LXLIFT
 62
2
 10
2545.243
 20
-7875.418
 30
-2636.701
 70
    32
  0
VERTEX
  8
W80LXLIFT
 62
2
 10
2552.753
 20
-7877.162
 30
-2633.516
 70
    32
  0
VERTEX
  8
W80LXLIFT
 62
2
 10
2559.041
 20
-7878.554
 30
-2630.988
 70
    32
  0
SEQEND
  8
W80LXLIFT
  0
ENDSEC
  0
EOF
