999
********************************
999
*   DXF File - Entities Only   *
999
*        3D Data Format        *
999
*     Output from ENVISAGE     *
999
*     28-Dec-2007 13:38:58     *
999
********************************
  0
SECTION 
  2
HEADER
  9
$ACADVER
  1
AC1009
  9
$EXTMIN
 10
-290000.000
 20
-250000.000
 30
-4000.000
  9
$EXTMAX
 10
5000000.000
 20
600000.000
 30
6000.000
  0
ENDSEC
  0
SECTION
  2
ENTITIES
  0
POLYLINE
  8
W80RARAMP
 62
2
 66
     1
 70
     9
  0
VERTEX
  8
W80RARAMP
 62
2
 10
2078.741
 20
-6939.288
 30
-2615.292
 70
    32
  0
VERTEX
  8
W80RARAMP
 62
2
 10
2079.879
 20
-6943.598
 30
-2618.445
 70
    32
  0
VERTEX
  8
W80RARAMP
 62
2
 10
2088.482
 20
-6952.135
 30
-2627.903
 70
    32
  0
VERTEX
  8
W80RARAMP
 62
2
 10
2089.080
 20
-6952.628
 30
-2628.500
 70
    32
  0
VERTEX
  8
W80RARAMP
 62
2
 10
2094.580
 20
-6957.168
 30
-2629.999
 70
    32
  0
VERTEX
  8
W80RARAMP
 62
2
 10
2113.047
 20
-6972.409
 30
-2634.491
 70
    32
  0
VERTEX
  8
W80RARAMP
 62
2
 10
2096.740
 20
-6982.154
 30
-2634.273
 70
    32
  0
VERTEX
  8
W80RARAMP
 62
2
 10
2093.444
 20
-6977.470
 30
-2633.154
 70
    32
  0
VERTEX
  8
W80RARAMP
 62
2
 10
2083.286
 20
-6963.035
 30
-2629.398
 70
    32
  0
VERTEX
  8
W80RARAMP
 62
2
 10
2080.778
 20
-6959.654
 30
-2628.500
 70
    32
  0
VERTEX
  8
W80RARAMP
 62
2
 10
2077.444
 20
-6955.157
 30
-2624.124
 70
    32
  0
VERTEX
  8
W80RARAMP
 62
2
 10
2077.030
 20
-6954.711
 30
-2623.648
 70
    32
  0
VERTEX
  8
W80RARAMP
 62
2
 10
2056.724
 20
-6932.847
 30
-2618.387
 70
    32
  0
SEQEND
  8
W80RARAMP
  0
POLYLINE
  8
W80RARAMP
 62
2
 66
     1
 70
     9
  0
VERTEX
  8
W80RARAMP
 62
2
 10
2025.143
 20
-6916.469
 30
-2620.641
 70
    32
  0
VERTEX
  8
W80RARAMP
 62
2
 10
2042.557
 20
-6920.142
 30
-2622.037
 70
    32
  0
VERTEX
  8
W80RARAMP
 62
2
 10
2051.442
 20
-6922.016
 30
-2622.752
 70
    32
  0
VERTEX
  8
W80RARAMP
 62
2
 10
2055.370
 20
-6922.845
 30
-2623.059
 70
    32
  0
VERTEX
  8
W80RARAMP
 62
2
 10
2059.192
 20
-6922.638
 30
-2623.349
 70
    32
  0
VERTEX
  8
W80RARAMP
 62
2
 10
2076.317
 20
-6921.713
 30
-2624.777
 70
    32
  0
VERTEX
  8
W80RARAMP
 62
2
 10
2089.250
 20
-6921.014
 30
-2625.866
 70
    32
  0
VERTEX
  8
W80RARAMP
 62
2
 10
2099.703
 20
-6919.386
 30
-2626.690
 70
    32
  0
VERTEX
  8
W80RARAMP
 62
2
 10
2115.374
 20
-6916.946
 30
-2628.024
 70
    32
  0
VERTEX
  8
W80RARAMP
 62
2
 10
2115.381
 20
-6916.937
 30
-2628.025
 70
    32
  0
VERTEX
  8
W80RARAMP
 62
2
 10
2120.030
 20
-6911.575
 30
-2629.000
 70
    32
  0
VERTEX
  8
W80RARAMP
 62
2
 10
2136.920
 20
-6934.397
 30
-2629.000
 70
    32
  0
VERTEX
  8
W80RARAMP
 62
2
 10
2124.981
 20
-6936.115
 30
-2628.394
 70
    32
  0
VERTEX
  8
W80RARAMP
 62
2
 10
2097.485
 20
-6935.593
 30
-2626.442
 70
    32
  0
VERTEX
  8
W80RARAMP
 62
2
 10
2081.176
 20
-6934.697
 30
-2625.207
 70
    32
  0
VERTEX
  8
W80RARAMP
 62
2
 10
2050.374
 20
-6932.092
 30
-2622.752
 70
    32
  0
VERTEX
  8
W80RARAMP
 62
2
 10
2024.837
 20
-6929.824
 30
-2620.720
 70
    32
  0
SEQEND
  8
W80RARAMP
  0
POLYLINE
  8
W80RARAMP
 62
2
 66
     1
 70
     9
  0
VERTEX
  8
W80RARAMP
 62
2
 10
2025.143
 20
-6916.469
 30
-2620.641
 70
    32
  0
VERTEX
  8
W80RARAMP
 62
2
 10
2054.603
 20
-6922.357
 30
-2626.025
 70
    32
  0
VERTEX
  8
W80RARAMP
 62
2
 10
2059.162
 20
-6922.466
 30
-2626.874
 70
    32
  0
VERTEX
  8
W80RARAMP
 62
2
 10
2064.496
 20
-6922.594
 30
-2627.812
 70
    32
  0
VERTEX
  8
W80RARAMP
 62
2
 10
2089.645
 20
-6923.198
 30
-2632.403
 70
    32
  0
VERTEX
  8
W80RARAMP
 62
2
 10
2107.419
 20
-6923.625
 30
-2635.739
 70
    32
  0
VERTEX
  8
W80RARAMP
 62
2
 10
2122.913
 20
-6924.223
 30
-2638.835
 70
    32
  0
VERTEX
  8
W80RARAMP
 62
2
 10
2125.455
 20
-6924.768
 30
-2639.382
 70
    32
  0
VERTEX
  8
W80RARAMP
 62
2
 10
2126.057
 20
-6924.897
 30
-2639.457
 70
    32
  0
VERTEX
  8
W80RARAMP
 62
2
 10
2128.156
 20
-6920.400
 30
-2640.000
 70
    32
  0
VERTEX
  8
W80RARAMP
 62
2
 10
2134.525
 20
-6935.788
 30
-2640.000
 70
    32
  0
VERTEX
  8
W80RARAMP
 62
2
 10
2121.292
 20
-6936.163
 30
-2638.165
 70
    32
  0
VERTEX
  8
W80RARAMP
 62
2
 10
2094.856
 20
-6935.950
 30
-2633.457
 70
    32
  0
VERTEX
  8
W80RARAMP
 62
2
 10
2090.610
 20
-6935.916
 30
-2632.661
 70
    32
  0
VERTEX
  8
W80RARAMP
 62
2
 10
2063.834
 20
-6933.491
 30
-2627.812
 70
    32
  0
VERTEX
  8
W80RARAMP
 62
2
 10
2056.724
 20
-6932.847
 30
-2626.557
 70
    32
  0
VERTEX
  8
W80RARAMP
 62
2
 10
2024.837
 20
-6929.824
 30
-2620.720
 70
    32
  0
SEQEND
  8
W80RARAMP
  0
POLYLINE
  8
W80RARAMP
 62
2
 66
     1
 70
     9
  0
VERTEX
  8
W80RARAMP
 62
2
 10
2024.837
 20
-6929.824
 30
-2620.720
 70
    32
  0
VERTEX
  8
W80RARAMP
 62
2
 10
2136.920
 20
-6934.397
 30
-2621.000
 70
    32
  0
VERTEX
  8
W80RARAMP
 62
2
 10
2122.666
 20
-6919.285
 30
-2621.000
 70
    32
  0
VERTEX
  8
W80RARAMP
 62
2
 10
2118.323
 20
-6922.913
 30
-2621.000
 70
    32
  0
VERTEX
  8
W80RARAMP
 62
2
 10
2025.204
 20
-6916.378
 30
-2620.642
 70
    32
  0
SEQEND
  8
W80RARAMP
  0
POLYLINE
  8
W80RARAMP
 62
2
 66
     1
 70
     9
  0
VERTEX
  8
W80RARAMP
 62
2
 10
2280.350
 20
-7125.831
 30
-2632.000
 70
    32
  0
VERTEX
  8
W80RARAMP
 62
2
 10
2276.535
 20
-7128.551
 30
-2632.300
 70
    32
  0
VERTEX
  8
W80RARAMP
 62
2
 10
2273.617
 20
-7127.361
 30
-2632.500
 70
    32
  0
VERTEX
  8
W80RARAMP
 62
2
 10
2269.003
 20
-7123.055
 30
-2633.000
 70
    32
  0
VERTEX
  8
W80RARAMP
 62
2
 10
2258.843
 20
-7113.576
 30
-2634.000
 70
    32
  0
VERTEX
  8
W80RARAMP
 62
2
 10
2259.059
 20
-7105.538
 30
-2634.000
 70
    32
  0
VERTEX
  8
W80RARAMP
 62
2
 10
2252.634
 20
-7099.317
 30
-2634.000
 70
    32
  0
VERTEX
  8
W80RARAMP
 62
2
 10
2246.248
 20
-7098.651
 30
-2634.000
 70
    32
  0
VERTEX
  8
W80RARAMP
 62
2
 10
2242.504
 20
-7097.703
 30
-2634.000
 70
    32
  0
VERTEX
  8
W80RARAMP
 62
2
 10
2231.301
 20
-7090.232
 30
-2634.000
 70
    32
  0
VERTEX
  8
W80RARAMP
 62
2
 10
2219.842
 20
-7082.587
 30
-2634.000
 70
    32
  0
VERTEX
  8
W80RARAMP
 62
2
 10
2213.311
 20
-7077.400
 30
-2634.000
 70
    32
  0
VERTEX
  8
W80RARAMP
 62
2
 10
2207.847
 20
-7098.283
 30
-2634.000
 70
    32
  0
VERTEX
  8
W80RARAMP
 62
2
 10
2210.999
 20
-7095.017
 30
-2634.000
 70
    32
  0
VERTEX
  8
W80RARAMP
 62
2
 10
2222.192
 20
-7098.911
 30
-2634.000
 70
    32
  0
VERTEX
  8
W80RARAMP
 62
2
 10
2234.818
 20
-7108.810
 30
-2634.000
 70
    32
  0
VERTEX
  8
W80RARAMP
 62
2
 10
2246.286
 20
-7121.138
 30
-2634.000
 70
    32
  0
VERTEX
  8
W80RARAMP
 62
2
 10
2258.377
 20
-7134.136
 30
-2633.000
 70
    32
  0
VERTEX
  8
W80RARAMP
 62
2
 10
2265.936
 20
-7141.675
 30
-2632.500
 70
    32
  0
VERTEX
  8
W80RARAMP
 62
2
 10
2270.003
 20
-7142.208
 30
-2632.400
 70
    32
  0
VERTEX
  8
W80RARAMP
 62
2
 10
2278.917
 20
-7145.177
 30
-2632.300
 70
    32
  0
VERTEX
  8
W80RARAMP
 62
2
 10
2282.576
 20
-7143.560
 30
-2632.100
 70
    32
  0
VERTEX
  8
W80RARAMP
 62
2
 10
2286.363
 20
-7145.759
 30
-2632.000
 70
    32
  0
SEQEND
  8
W80RARAMP
  0
POLYLINE
  8
W80RARAMP
 62
2
 66
     1
 70
     9
  0
VERTEX
  8
W80RARAMP
 62
2
 10
2256.312
 20
-7184.670
 30
-2661.000
 70
    32
  0
VERTEX
  8
W80RARAMP
 62
2
 10
2265.091
 20
-7189.292
 30
-2660.000
 70
    32
  0
VERTEX
  8
W80RARAMP
 62
2
 10
2318.948
 20
-7185.864
 30
-2657.000
 70
    32
  0
VERTEX
  8
W80RARAMP
 62
2
 10
2324.593
 20
-7198.187
 30
-2657.000
 70
    32
  0
VERTEX
  8
W80RARAMP
 62
2
 10
2259.660
 20
-7201.162
 30
-2660.000
 70
    32
  0
VERTEX
  8
W80RARAMP
 62
2
 10
2253.693
 20
-7207.024
 30
-2661.000
 70
    32
  0
SEQEND
  8
W80RARAMP
  0
POLYLINE
  8
W80RARAMP
 62
2
 66
     1
 70
     9
  0
VERTEX
  8
W80RARAMP
 62
2
 10
2246.525
 20
-7204.576
 30
-2646.282
 70
    32
  0
VERTEX
  8
W80RARAMP
 62
2
 10
2257.366
 20
-7202.843
 30
-2645.973
 70
    32
  0
VERTEX
  8
W80RARAMP
 62
2
 10
2268.190
 20
-7206.246
 30
-2645.653
 70
    32
  0
VERTEX
  8
W80RARAMP
 62
2
 10
2272.140
 20
-7203.066
 30
-2645.541
 70
    32
  0
VERTEX
  8
W80RARAMP
 62
2
 10
2290.438
 20
-7203.326
 30
-2645.049
 70
    32
  0
VERTEX
  8
W80RARAMP
 62
2
 10
2294.863
 20
-7199.635
 30
-2644.884
 70
    32
  0
VERTEX
  8
W80RARAMP
 62
2
 10
2305.211
 20
-7198.131
 30
-2644.500
 70
    32
  0
VERTEX
  8
W80RARAMP
 62
2
 10
2313.196
 20
-7196.971
 30
-2644.330
 70
    32
  0
VERTEX
  8
W80RARAMP
 62
2
 10
2302.989
 20
-7182.425
 30
-2644.408
 70
    32
  0
VERTEX
  8
W80RARAMP
 62
2
 10
2300.719
 20
-7184.171
 30
-2644.417
 70
    32
  0
VERTEX
  8
W80RARAMP
 62
2
 10
2291.359
 20
-7186.391
 30
-2644.920
 70
    32
  0
VERTEX
  8
W80RARAMP
 62
2
 10
2279.593
 20
-7188.820
 30
-2645.302
 70
    32
  0
VERTEX
  8
W80RARAMP
 62
2
 10
2268.964
 20
-7190.648
 30
-2645.591
 70
    32
  0
VERTEX
  8
W80RARAMP
 62
2
 10
2256.602
 20
-7190.817
 30
-2646.008
 70
    32
  0
VERTEX
  8
W80RARAMP
 62
2
 10
2247.934
 20
-7188.829
 30
-2646.259
 70
    32
  0
VERTEX
  8
W80RARAMP
 62
2
 10
2237.232
 20
-7181.638
 30
-2646.604
 70
    32
  0
SEQEND
  8
W80RARAMP
  0
POLYLINE
  8
W80RARAMP
 62
2
 66
     1
 70
     9
  0
VERTEX
  8
W80RARAMP
 62
2
 10
2235.107
 20
-7185.547
 30
-2633.114
 70
    32
  0
VERTEX
  8
W80RARAMP
 62
2
 10
2244.395
 20
-7189.517
 30
-2632.151
 70
    32
  0
VERTEX
  8
W80RARAMP
 62
2
 10
2252.023
 20
-7189.728
 30
-2632.206
 70
    32
  0
VERTEX
  8
W80RARAMP
 62
2
 10
2264.417
 20
-7189.046
 30
-2632.319
 70
    32
  0
VERTEX
  8
W80RARAMP
 62
2
 10
2272.427
 20
-7188.606
 30
-2632.319
 70
    32
  0
VERTEX
  8
W80RARAMP
 62
2
 10
2280.540
 20
-7186.703
 30
-2632.000
 70
    32
  0
VERTEX
  8
W80RARAMP
 62
2
 10
2283.539
 20
-7198.002
 30
-2632.000
 70
    32
  0
VERTEX
  8
W80RARAMP
 62
2
 10
2271.888
 20
-7201.057
 30
-2632.326
 70
    32
  0
VERTEX
  8
W80RARAMP
 62
2
 10
2266.924
 20
-7201.769
 30
-2632.326
 70
    32
  0
VERTEX
  8
W80RARAMP
 62
2
 10
2254.705
 20
-7203.520
 30
-2632.162
 70
    32
  0
VERTEX
  8
W80RARAMP
 62
2
 10
2248.924
 20
-7209.428
 30
-2632.447
 70
    32
  0
SEQEND
  8
W80RARAMP
  0
POLYLINE
  8
W80RARAMP
 62
2
 66
     1
 70
     9
  0
VERTEX
  8
W80RARAMP
 62
2
 10
2114.521
 20
-7154.098
 30
-2658.646
 70
    32
  0
VERTEX
  8
W80RARAMP
 62
2
 10
2167.435
 20
-7133.853
 30
-2660.916
 70
    32
  0
VERTEX
  8
W80RARAMP
 62
2
 10
2175.179
 20
-7146.894
 30
-2660.955
 70
    32
  0
VERTEX
  8
W80RARAMP
 62
2
 10
2119.424
 20
-7166.546
 30
-2659.211
 70
    32
  0
SEQEND
  8
W80RARAMP
  0
POLYLINE
  8
W80RARAMP
 62
2
 66
     1
 70
     9
  0
VERTEX
  8
W80RARAMP
 62
2
 10
2114.521
 20
-7154.098
 30
-2658.646
 70
    32
  0
VERTEX
  8
W80RARAMP
 62
2
 10
2162.482
 20
-7139.778
 30
-2672.000
 70
    32
  0
VERTEX
  8
W80RARAMP
 62
2
 10
2172.515
 20
-7146.778
 30
-2672.000
 70
    32
  0
VERTEX
  8
W80RARAMP
 62
2
 10
2119.424
 20
-7166.546
 30
-2659.211
 70
    32
  0
SEQEND
  8
W80RARAMP
  0
POLYLINE
  8
W80RARAMP
 62
2
 66
     1
 70
     9
  0
VERTEX
  8
W80RARAMP
 62
2
 10
2119.437
 20
-7166.541
 30
-2659.208
 70
    32
  0
VERTEX
  8
W80RARAMP
 62
2
 10
2173.759
 20
-7146.846
 30
-2683.000
 70
    32
  0
VERTEX
  8
W80RARAMP
 62
2
 10
2163.085
 20
-7139.348
 30
-2683.000
 70
    32
  0
VERTEX
  8
W80RARAMP
 62
2
 10
2114.521
 20
-7154.098
 30
-2658.646
 70
    32
  0
SEQEND
  8
W80RARAMP
  0
TEXT
  8
W80RARAMP
 62
2
 10
2245.960
 20
-7010.482
 30
-2569.622
 40
4.101
  1
80A
 41
 1.0 
  0
TEXT
  8
W80RARAMP
 62
2
 10
2005.603
 20
-7123.547
 30
-2559.200
 40
2.362
  1
S
 41
 1.0 
  0
TEXT
  8
W80RARAMP
 62
2
 10
2290.432
 20
-7236.224
 30
-2712.120
 40
2.362
  1
S
 41
 1.0 
  0
POLYLINE
  8
W80RARAMP
 62
2
 66
     1
 70
     9
  0
VERTEX
  8
W80RARAMP
 62
2
 10
2114.521
 20
-7154.098
 30
-2658.646
 70
    32
  0
VERTEX
  8
W80RARAMP
 62
2
 10
2078.502
 20
-7170.189
 30
-2660.856
 70
    32
  0
VERTEX
  8
W80RARAMP
 62
2
 10
2083.392
 20
-7179.683
 30
-2662.502
 70
    32
  0
VERTEX
  8
W80RARAMP
 62
2
 10
2119.424
 20
-7166.546
 30
-2659.211
 70
    32
  0
VERTEX
  8
W80RARAMP
 62
2
 10
2179.361
 20
-7146.791
 30
-2647.000
 70
    32
  0
VERTEX
  8
W80RARAMP
 62
2
 10
2161.281
 20
-7131.846
 30
-2647.000
 70
    32
  0
SEQEND
  8
W80RARAMP
  0
POLYLINE
  8
W80RARAMP
 62
2
 66
     1
 70
     9
  0
VERTEX
  8
W80RARAMP
 62
2
 10
2043.734
 20
-7137.519
 30
-2559.200
 70
    32
  0
VERTEX
  8
W80RARAMP
 62
2
 10
2063.169
 20
-7136.505
 30
-2559.294
 70
    32
  0
VERTEX
  8
W80RARAMP
 62
2
 10
2068.781
 20
-7133.094
 30
-2559.876
 70
    32
  0
VERTEX
  8
W80RARAMP
 62
2
 10
2080.166
 20
-7129.750
 30
-2561.642
 70
    32
  0
VERTEX
  8
W80RARAMP
 62
2
 10
2111.150
 20
-7115.608
 30
-2565.988
 70
    32
  0
VERTEX
  8
W80RARAMP
 62
2
 10
2111.150
 20
-7115.608
 30
-2565.878
 70
    32
  0
VERTEX
  8
W80RARAMP
 62
2
 10
2116.478
 20
-7117.359
 30
-2565.801
 70
    32
  0
VERTEX
  8
W80RARAMP
 62
2
 10
2122.128
 20
-7122.313
 30
-2565.684
 70
    32
  0
VERTEX
  8
W80RARAMP
 62
2
 10
2122.209
 20
-7122.242
 30
-2565.684
 70
    32
  0
VERTEX
  8
W80RARAMP
 62
2
 10
2123.794
 20
-7120.866
 30
-2565.638
 70
    32
  0
VERTEX
  8
W80RARAMP
 62
2
 10
2125.273
 20
-7120.865
 30
-2565.575
 70
    32
  0
VERTEX
  8
W80RARAMP
 62
2
 10
2140.610
 20
-7120.856
 30
-2567.162
 70
    32
  0
VERTEX
  8
W80RARAMP
 62
2
 10
2142.817
 20
-7120.858
 30
-2567.390
 70
    32
  0
VERTEX
  8
W80RARAMP
 62
2
 10
2144.676
 20
-7120.861
 30
-2568.188
 70
    32
  0
VERTEX
  8
W80RARAMP
 62
2
 10
2153.718
 20
-7120.872
 30
-2569.200
 70
    32
  0
VERTEX
  8
W80RARAMP
 62
2
 10
2165.099
 20
-7120.887
 30
-2573.706
 70
    32
  0
VERTEX
  8
W80RARAMP
 62
2
 10
2191.768
 20
-7126.300
 30
-2574.311
 70
    32
  0
VERTEX
  8
W80RARAMP
 62
2
 10
2196.057
 20
-7124.094
 30
-2574.096
 70
    32
  0
VERTEX
  8
W80RARAMP
 62
2
 10
2200.177
 20
-7124.521
 30
-2574.495
 70
    32
  0
VERTEX
  8
W80RARAMP
 62
2
 10
2209.306
 20
-7129.594
 30
-2575.328
 70
    32
  0
VERTEX
  8
W80RARAMP
 62
2
 10
2218.565
 20
-7134.739
 30
-2576.555
 70
    32
  0
VERTEX
  8
W80RARAMP
 62
2
 10
2226.804
 20
-7140.339
 30
-2577.717
 70
    32
  0
VERTEX
  8
W80RARAMP
 62
2
 10
2237.400
 20
-7147.540
 30
-2582.440
 70
    32
  0
VERTEX
  8
W80RARAMP
 62
2
 10
2254.027
 20
-7155.166
 30
-2588.186
 70
    32
  0
VERTEX
  8
W80RARAMP
 62
2
 10
2265.560
 20
-7160.650
 30
-2588.849
 70
    32
  0
VERTEX
  8
W80RARAMP
 62
2
 10
2259.804
 20
-7144.333
 30
-2588.588
 70
    32
  0
VERTEX
  8
W80RARAMP
 62
2
 10
2249.906
 20
-7139.580
 30
-2586.886
 70
    32
  0
VERTEX
  8
W80RARAMP
 62
2
 10
2240.068
 20
-7134.653
 30
-2581.140
 70
    32
  0
VERTEX
  8
W80RARAMP
 62
2
 10
2240.065
 20
-7134.652
 30
-2581.139
 70
    32
  0
VERTEX
  8
W80RARAMP
 62
2
 10
2226.897
 20
-7124.019
 30
-2576.605
 70
    32
  0
VERTEX
  8
W80RARAMP
 62
2
 10
2212.748
 20
-7112.595
 30
-2575.238
 70
    32
  0
VERTEX
  8
W80RARAMP
 62
2
 10
2209.035
 20
-7111.815
 30
-2574.927
 70
    32
  0
VERTEX
  8
W80RARAMP
 62
2
 10
2207.439
 20
-7109.226
 30
-2574.745
 70
    32
  0
VERTEX
  8
W80RARAMP
 62
2
 10
2200.764
 20
-7109.551
 30
-2574.169
 70
    32
  0
VERTEX
  8
W80RARAMP
 62
2
 10
2182.397
 20
-7109.089
 30
-2572.342
 70
    32
  0
VERTEX
  8
W80RARAMP
 62
2
 10
2169.082
 20
-7108.754
 30
-2570.783
 70
    32
  0
VERTEX
  8
W80RARAMP
 62
2
 10
2168.621
 20
-7108.743
 30
-2570.732
 70
    32
  0
VERTEX
  8
W80RARAMP
 62
2
 10
2145.947
 20
-7108.173
 30
-2568.188
 70
    32
  0
VERTEX
  8
W80RARAMP
 62
2
 10
2134.327
 20
-7107.833
 30
-2565.395
 70
    32
  0
VERTEX
  8
W80RARAMP
 62
2
 10
2127.138
 20
-7107.574
 30
-2565.706
 70
    32
  0
VERTEX
  8
W80RARAMP
 62
2
 10
2125.356
 20
-7106.340
 30
-2565.802
 70
    32
  0
VERTEX
  8
W80RARAMP
 62
2
 10
2124.217
 20
-7104.448
 30
-2565.868
 70
    32
  0
VERTEX
  8
W80RARAMP
 62
2
 10
2125.057
 20
-7102.247
 30
-2565.879
 70
    32
  0
VERTEX
  8
W80RARAMP
 62
2
 10
2153.481
 20
-7084.201
 30
-2569.622
 70
    32
  0
VERTEX
  8
W80RARAMP
 62
2
 10
2147.934
 20
-7075.877
 30
-2570.414
 70
    32
  0
VERTEX
  8
W80RARAMP
 62
2
 10
2116.501
 20
-7095.835
 30
-2568.308
 70
    32
  0
VERTEX
  8
W80RARAMP
 62
2
 10
2112.996
 20
-7091.806
 30
-2568.660
 70
    32
  0
VERTEX
  8
W80RARAMP
 62
2
 10
2112.691
 20
-7082.403
 30
-2569.827
 70
    32
  0
VERTEX
  8
W80RARAMP
 62
2
 10
2105.702
 20
-7060.448
 30
-2572.950
 70
    32
  0
VERTEX
  8
W80RARAMP
 62
2
 10
2092.023
 20
-7038.008
 30
-2577.105
 70
    32
  0
VERTEX
  8
W80RARAMP
 62
2
 10
2086.838
 20
-7033.934
 30
-2578.107
 70
    32
  0
VERTEX
  8
W80RARAMP
 62
2
 10
2082.253
 20
-7035.666
 30
-2578.550
 70
    32
  0
VERTEX
  8
W80RARAMP
 62
2
 10
2076.443
 20
-7030.240
 30
-2580.087
 70
    32
  0
VERTEX
  8
W80RARAMP
 62
2
 10
2073.976
 20
-7031.658
 30
-2580.367
 70
    32
  0
VERTEX
  8
W80RARAMP
 62
2
 10
2065.380
 20
-7028.351
 30
-2582.347
 70
    32
  0
VERTEX
  8
W80RARAMP
 62
2
 10
2016.406
 20
-6998.530
 30
-2594.697
 70
    32
  0
VERTEX
  8
W80RARAMP
 62
2
 10
2016.802
 20
-6995.494
 30
-2595.833
 70
    32
  0
VERTEX
  8
W80RARAMP
 62
2
 10
2036.353
 20
-6994.494
 30
-2593.045
 70
    32
  0
VERTEX
  8
W80RARAMP
 62
2
 10
2053.039
 20
-7001.784
 30
-2592.458
 70
    32
  0
VERTEX
  8
W80RARAMP
 62
2
 10
2070.037
 20
-7004.385
 30
-2593.204
 70
    32
  0
VERTEX
  8
W80RARAMP
 62
2
 10
2082.495
 20
-7006.535
 30
-2592.571
 70
    32
  0
VERTEX
  8
W80RARAMP
 62
2
 10
2090.418
 20
-7010.595
 30
-2592.151
 70
    32
  0
VERTEX
  8
W80RARAMP
 62
2
 10
2091.252
 20
-7005.991
 30
-2592.125
 70
    32
  0
VERTEX
  8
W80RARAMP
 62
2
 10
2081.889
 20
-6992.572
 30
-2592.000
 70
    32
  0
VERTEX
  8
W80RARAMP
 62
2
 10
2076.962
 20
-6994.041
 30
-2592.869
 70
    32
  0
VERTEX
  8
W80RARAMP
 62
2
 10
2072.930
 20
-6993.825
 30
-2593.073
 70
    32
  0
VERTEX
  8
W80RARAMP
 62
2
 10
2063.098
 20
-6989.447
 30
-2592.741
 70
    32
  0
VERTEX
  8
W80RARAMP
 62
2
 10
2048.779
 20
-6983.295
 30
-2592.408
 70
    32
  0
VERTEX
  8
W80RARAMP
 62
2
 10
2038.949
 20
-6981.111
 30
-2593.126
 70
    32
  0
VERTEX
  8
W80RARAMP
 62
2
 10
2030.390
 20
-6983.142
 30
-2593.971
 70
    32
  0
VERTEX
  8
W80RARAMP
 62
2
 10
2029.482
 20
-6982.534
 30
-2594.075
 70
    32
  0
VERTEX
  8
W80RARAMP
 62
2
 10
2028.063
 20
-6978.583
 30
-2594.302
 70
    32
  0
VERTEX
  8
W80RARAMP
 62
2
 10
2024.969
 20
-6979.510
 30
-2594.663
 70
    32
  0
VERTEX
  8
W80RARAMP
 62
2
 10
2022.491
 20
-6977.849
 30
-2594.952
 70
    32
  0
VERTEX
  8
W80RARAMP
 62
2
 10
2013.734
 20
-6983.218
 30
-2596.065
 70
    32
  0
VERTEX
  8
W80RARAMP
 62
2
 10
2004.478
 20
-6986.436
 30
-2597.455
 70
    32
  0
VERTEX
  8
W80RARAMP
 62
2
 10
1997.799
 20
-6983.409
 30
-2600.260
 70
    32
  0
VERTEX
  8
W80RARAMP
 62
2
 10
1987.998
 20
-6988.475
 30
-2601.560
 70
    32
  0
VERTEX
  8
W80RARAMP
 62
2
 10
1979.947
 20
-6983.097
 30
-2603.635
 70
    32
  0
VERTEX
  8
W80RARAMP
 62
2
 10
1970.806
 20
-6973.698
 30
-2606.693
 70
    32
  0
VERTEX
  8
W80RARAMP
 62
2
 10
1968.785
 20
-6967.148
 30
-2608.675
 70
    32
  0
VERTEX
  8
W80RARAMP
 62
2
 10
1968.294
 20
-6957.337
 30
-2610.472
 70
    32
  0
VERTEX
  8
W80RARAMP
 62
2
 10
1971.390
 20
-6949.626
 30
-2612.642
 70
    32
  0
VERTEX
  8
W80RARAMP
 62
2
 10
1979.966
 20
-6942.258
 30
-2614.952
 70
    32
  0
VERTEX
  8
W80RARAMP
 62
2
 10
1987.080
 20
-6937.207
 30
-2616.314
 70
    32
  0
VERTEX
  8
W80RARAMP
 62
2
 10
1998.001
 20
-6929.453
 30
-2618.548
 70
    32
  0
VERTEX
  8
W80RARAMP
 62
2
 10
2004.085
 20
-6928.785
 30
-2620.039
 70
    32
  0
VERTEX
  8
W80RARAMP
 62
2
 10
2010.371
 20
-6928.456
 30
-2620.230
 70
    32
  0
VERTEX
  8
W80RARAMP
 62
2
 10
2024.837
 20
-6929.824
 30
-2620.720
 70
    32
  0
VERTEX
  8
W80RARAMP
 62
2
 10
2056.724
 20
-6932.847
 30
-2618.387
 70
    32
  0
VERTEX
  8
W80RARAMP
 62
2
 10
2077.444
 20
-6955.157
 30
-2616.672
 70
    32
  0
VERTEX
  8
W80RARAMP
 62
2
 10
2083.286
 20
-6963.035
 30
-2616.453
 70
    32
  0
VERTEX
  8
W80RARAMP
 62
2
 10
2085.246
 20
-6964.326
 30
-2616.424
 70
    32
  0
VERTEX
  8
W80RARAMP
 62
2
 10
2086.755
 20
-6965.319
 30
-2616.354
 70
    32
  0
VERTEX
  8
W80RARAMP
 62
2
 10
2092.100
 20
-6970.820
 30
-2616.053
 70
    32
  0
VERTEX
  8
W80RARAMP
 62
2
 10
2100.205
 20
-6962.545
 30
-2616.036
 70
    32
  0
VERTEX
  8
W80RARAMP
 62
2
 10
2096.814
 20
-6955.162
 30
-2616.329
 70
    32
  0
VERTEX
  8
W80RARAMP
 62
2
 10
2088.482
 20
-6952.135
 30
-2616.652
 70
    32
  0
VERTEX
  8
W80RARAMP
 62
2
 10
2081.530
 20
-6945.236
 30
-2617.036
 70
    32
  0
VERTEX
  8
W80RARAMP
 62
2
 10
2079.879
 20
-6943.598
 30
-2617.079
 70
    32
  0
VERTEX
  8
W80RARAMP
 62
2
 10
2078.741
 20
-6939.288
 30
-2615.292
 70
    32
  0
VERTEX
  8
W80RARAMP
 62
2
 10
2081.916
 20
-6939.877
 30
-2614.899
 70
    32
  0
VERTEX
  8
W80RARAMP
 62
2
 10
2087.811
 20
-6939.572
 30
-2614.155
 70
    32
  0
VERTEX
  8
W80RARAMP
 62
2
 10
2090.610
 20
-6935.916
 30
-2613.767
 70
    32
  0
VERTEX
  8
W80RARAMP
 62
2
 10
2112.583
 20
-6933.621
 30
-2611.145
 70
    32
  0
VERTEX
  8
W80RARAMP
 62
2
 10
2140.328
 20
-6930.643
 30
-2611.009
 70
    32
  0
VERTEX
  8
W80RARAMP
 62
2
 10
2117.568
 20
-6912.837
 30
-2611.000
 70
    32
  0
VERTEX
  8
W80RARAMP
 62
2
 10
2114.828
 20
-6915.965
 30
-2611.019
 70
    32
  0
VERTEX
  8
W80RARAMP
 62
2
 10
2087.217
 20
-6920.541
 30
-2614.117
 70
    32
  0
VERTEX
  8
W80RARAMP
 62
2
 10
2068.499
 20
-6921.583
 30
-2616.610
 70
    32
  0
VERTEX
  8
W80RARAMP
 62
2
 10
2059.195
 20
-6922.101
 30
-2618.025
 70
    32
  0
VERTEX
  8
W80RARAMP
 62
2
 10
2054.603
 20
-6922.357
 30
-2618.765
 70
    32
  0
VERTEX
  8
W80RARAMP
 62
2
 10
2025.204
 20
-6916.378
 30
-2620.642
 70
    32
  0
VERTEX
  8
W80RARAMP
 62
2
 10
2025.143
 20
-6916.469
 30
-2620.641
 70
    32
  0
VERTEX
  8
W80RARAMP
 62
2
 10
2014.423
 20
-6908.180
 30
-2620.282
 70
    32
  0
VERTEX
  8
W80RARAMP
 62
2
 10
2002.631
 20
-6915.087
 30
-2619.766
 70
    32
  0
VERTEX
  8
W80RARAMP
 62
2
 10
1997.425
 20
-6915.087
 30
-2619.204
 70
    32
  0
VERTEX
  8
W80RARAMP
 62
2
 10
1984.940
 20
-6923.523
 30
-2617.102
 70
    32
  0
VERTEX
  8
W80RARAMP
 62
2
 10
1970.017
 20
-6933.151
 30
-2614.534
 70
    32
  0
VERTEX
  8
W80RARAMP
 62
2
 10
1957.270
 20
-6949.004
 30
-2611.742
 70
    32
  0
VERTEX
  8
W80RARAMP
 62
2
 10
1951.449
 20
-6973.715
 30
-2609.285
 70
    32
  0
VERTEX
  8
W80RARAMP
 62
2
 10
1945.918
 20
-6975.634
 30
-2610.497
 70
    32
  0
VERTEX
  8
W80RARAMP
 62
2
 10
1936.287
 20
-6973.828
 30
-2613.109
 70
    32
  0
VERTEX
  8
W80RARAMP
 62
2
 10
1923.282
 20
-6976.255
 30
-2616.350
 70
    32
  0
VERTEX
  8
W80RARAMP
 62
2
 10
1913.600
 20
-6980.448
 30
-2619.027
 70
    32
  0
VERTEX
  8
W80RARAMP
 62
2
 10
1907.588
 20
-6985.753
 30
-2621.002
 70
    32
  0
VERTEX
  8
W80RARAMP
 62
2
 10
1888.677
 20
-6997.074
 30
-2626.362
 70
    32
  0
VERTEX
  8
W80RARAMP
 62
2
 10
1882.222
 20
-7006.274
 30
-2627.998
 70
    32
  0
VERTEX
  8
W80RARAMP
 62
2
 10
1876.687
 20
-7020.124
 30
-2630.661
 70
    32
  0
VERTEX
  8
W80RARAMP
 62
2
 10
1869.570
 20
-7031.715
 30
-2632.236
 70
    32
  0
VERTEX
  8
W80RARAMP
 62
2
 10
1872.239
 20
-7043.431
 30
-2634.261
 70
    32
  0
VERTEX
  8
W80RARAMP
 62
2
 10
1872.788
 20
-7052.276
 30
-2635.619
 70
    32
  0
VERTEX
  8
W80RARAMP
 62
2
 10
1873.006
 20
-7057.552
 30
-2636.206
 70
    32
  0
VERTEX
  8
W80RARAMP
 62
2
 10
1870.410
 20
-7058.852
 30
-2636.309
 70
    32
  0
VERTEX
  8
W80RARAMP
 62
2
 10
1873.110
 20
-7073.776
 30
-2637.998
 70
    32
  0
VERTEX
  8
W80RARAMP
 62
2
 10
1876.379
 20
-7075.336
 30
-2638.221
 70
    32
  0
VERTEX
  8
W80RARAMP
 62
2
 10
1892.003
 20
-7070.344
 30
-2638.800
 70
    32
  0
VERTEX
  8
W80RARAMP
 62
2
 10
1899.818
 20
-7074.026
 30
-2640.175
 70
    32
  0
VERTEX
  8
W80RARAMP
 62
2
 10
1965.652
 20
-7132.097
 30
-2652.331
 70
    32
  0
VERTEX
  8
W80RARAMP
 62
2
 10
1964.454
 20
-7137.136
 30
-2652.633
 70
    32
  0
VERTEX
  8
W80RARAMP
 62
2
 10
1971.973
 20
-7137.686
 30
-2653.451
 70
    32
  0
VERTEX
  8
W80RARAMP
 62
2
 10
2011.999
 20
-7172.585
 30
-2660.226
 70
    32
  0
VERTEX
  8
W80RARAMP
 62
2
 10
2042.282
 20
-7195.506
 30
-2663.783
 70
    32
  0
VERTEX
  8
W80RARAMP
 62
2
 10
2058.803
 20
-7208.838
 30
-2663.816
 70
    32
  0
VERTEX
  8
W80RARAMP
 62
2
 10
2060.072
 20
-7224.579
 30
-2663.833
 70
    32
  0
VERTEX
  8
W80RARAMP
 62
2
 10
2065.383
 20
-7230.367
 30
-2663.845
 70
    32
  0
VERTEX
  8
W80RARAMP
 62
2
 10
2087.130
 20
-7229.452
 30
-2663.882
 70
    32
  0
VERTEX
  8
W80RARAMP
 62
2
 10
2151.756
 20
-7275.348
 30
-2677.570
 70
    32
  0
VERTEX
  8
W80RARAMP
 62
2
 10
2154.694
 20
-7283.414
 30
-2678.828
 70
    32
  0
VERTEX
  8
W80RARAMP
 62
2
 10
2161.316
 20
-7284.581
 30
-2679.848
 70
    32
  0
VERTEX
  8
W80RARAMP
 62
2
 10
2214.701
 20
-7330.308
 30
-2691.774
 70
    32
  0
VERTEX
  8
W80RARAMP
 62
2
 10
2233.935
 20
-7339.521
 30
-2695.125
 70
    32
  0
VERTEX
  8
W80RARAMP
 62
2
 10
2240.758
 20
-7341.292
 30
-2696.297
 70
    32
  0
VERTEX
  8
W80RARAMP
 62
2
 10
2265.095
 20
-7340.669
 30
-2700.361
 70
    32
  0
VERTEX
  8
W80RARAMP
 62
2
 10
2290.765
 20
-7335.281
 30
-2704.666
 70
    32
  0
VERTEX
  8
W80RARAMP
 62
2
 10
2291.806
 20
-7330.312
 30
-2705.070
 70
    32
  0
VERTEX
  8
W80RARAMP
 62
2
 10
2306.665
 20
-7316.989
 30
-2706.813
 70
    32
  0
VERTEX
  8
W80RARAMP
 62
2
 10
2313.023
 20
-7303.514
 30
-2708.245
 70
    32
  0
VERTEX
  8
W80RARAMP
 62
2
 10
2314.618
 20
-7291.144
 30
-2708.993
 70
    32
  0
VERTEX
  8
W80RARAMP
 62
2
 10
2312.026
 20
-7267.826
 30
-2710.355
 70
    32
  0
VERTEX
  8
W80RARAMP
 62
2
 10
2300.473
 20
-7242.762
 30
-2712.089
 70
    32
  0
VERTEX
  8
W80RARAMP
 62
2
 10
2284.092
 20
-7240.624
 30
-2712.145
 70
    32
  0
VERTEX
  8
W80RARAMP
 62
2
 10
2299.479
 20
-7259.842
 30
-2711.029
 70
    32
  0
VERTEX
  8
W80RARAMP
 62
2
 10
2303.464
 20
-7270.031
 30
-2710.336
 70
    32
  0
VERTEX
  8
W80RARAMP
 62
2
 10
2305.369
 20
-7281.906
 30
-2709.464
 70
    32
  0
VERTEX
  8
W80RARAMP
 62
2
 10
2305.084
 20
-7289.933
 30
-2709.018
 70
    32
  0
VERTEX
  8
W80RARAMP
 62
2
 10
2300.094
 20
-7306.638
 30
-2707.301
 70
    32
  0
VERTEX
  8
W80RARAMP
 62
2
 10
2292.401
 20
-7315.397
 30
-2706.153
 70
    32
  0
VERTEX
  8
W80RARAMP
 62
2
 10
2280.022
 20
-7324.223
 30
-2704.043
 70
    32
  0
VERTEX
  8
W80RARAMP
 62
2
 10
2269.945
 20
-7329.699
 30
-2701.818
 70
    32
  0
VERTEX
  8
W80RARAMP
 62
2
 10
2257.862
 20
-7331.548
 30
-2699.065
 70
    32
  0
VERTEX
  8
W80RARAMP
 62
2
 10
2235.357
 20
-7327.613
 30
-2694.723
 70
    32
  0
VERTEX
  8
W80RARAMP
 62
2
 10
2218.963
 20
-7320.873
 30
-2691.567
 70
    32
  0
VERTEX
  8
W80RARAMP
 62
2
 10
2156.621
 20
-7268.306
 30
-2677.450
 70
    32
  0
VERTEX
  8
W80RARAMP
 62
2
 10
2093.197
 20
-7221.502
 30
-2663.882
 70
    32
  0
VERTEX
  8
W80RARAMP
 62
2
 10
2076.119
 20
-7208.722
 30
-2663.832
 70
    32
  0
VERTEX
  8
W80RARAMP
 62
2
 10
2072.121
 20
-7193.849
 30
-2663.869
 70
    32
  0
VERTEX
  8
W80RARAMP
 62
2
 10
2072.050
 20
-7193.585
 30
-2663.869
 70
    32
  0
VERTEX
  8
W80RARAMP
 62
2
 10
2071.732
 20
-7192.402
 30
-2663.833
 70
    32
  0
VERTEX
  8
W80RARAMP
 62
2
 10
2075.888
 20
-7183.027
 30
-2663.131
 70
    32
  0
VERTEX
  8
W80RARAMP
 62
2
 10
2083.392
 20
-7179.683
 30
-2662.502
 70
    32
  0
VERTEX
  8
W80RARAMP
 62
2
 10
2094.821
 20
-7174.847
 30
-2656.513
 70
    32
  0
VERTEX
  8
W80RARAMP
 62
2
 10
2113.885
 20
-7166.804
 30
-2651.761
 70
    32
  0
VERTEX
  8
W80RARAMP
 62
2
 10
2142.199
 20
-7154.857
 30
-2644.597
 70
    32
  0
VERTEX
  8
W80RARAMP
 62
2
 10
2163.284
 20
-7145.647
 30
-2639.231
 70
    32
  0
VERTEX
  8
W80RARAMP
 62
2
 10
2171.985
 20
-7147.221
 30
-2637.549
 70
    32
  0
VERTEX
  8
W80RARAMP
 62
2
 10
2178.780
 20
-7144.015
 30
-2635.797
 70
    32
  0
VERTEX
  8
W80RARAMP
 62
2
 10
2165.682
 20
-7123.902
 30
-2636.567
 70
    32
  0
VERTEX
  8
W80RARAMP
 62
2
 10
2158.505
 20
-7130.918
 30
-2638.779
 70
    32
  0
VERTEX
  8
W80RARAMP
 62
2
 10
2150.916
 20
-7135.675
 30
-2640.853
 70
    32
  0
VERTEX
  8
W80RARAMP
 62
2
 10
2146.112
 20
-7138.027
 30
-2642.101
 70
    32
  0
VERTEX
  8
W80RARAMP
 62
2
 10
2134.819
 20
-7143.555
 30
-2644.998
 70
    32
  0
VERTEX
  8
W80RARAMP
 62
2
 10
2090.803
 20
-7165.401
 30
-2656.320
 70
    32
  0
VERTEX
  8
W80RARAMP
 62
2
 10
2072.871
 20
-7172.381
 30
-2662.932
 70
    32
  0
VERTEX
  8
W80RARAMP
 62
2
 10
2057.021
 20
-7178.673
 30
-2663.869
 70
    32
  0
VERTEX
  8
W80RARAMP
 62
2
 10
2056.840
 20
-7178.745
 30
-2663.869
 70
    32
  0
VERTEX
  8
W80RARAMP
 62
2
 10
2056.126
 20
-7178.813
 30
-2663.869
 70
    32
  0
VERTEX
  8
W80RARAMP
 62
2
 10
2038.715
 20
-7180.481
 30
-2663.570
 70
    32
  0
VERTEX
  8
W80RARAMP
 62
2
 10
2015.041
 20
-7162.346
 30
-2659.776
 70
    32
  0
VERTEX
  8
W80RARAMP
 62
2
 10
1884.826
 20
-7047.464
 30
-2635.392
 70
    32
  0
VERTEX
  8
W80RARAMP
 62
2
 10
1883.501
 20
-7043.255
 30
-2634.727
 70
    32
  0
VERTEX
  8
W80RARAMP
 62
2
 10
1885.630
 20
-7027.575
 30
-2631.648
 70
    32
  0
VERTEX
  8
W80RARAMP
 62
2
 10
1896.070
 20
-7005.449
 30
-2626.607
 70
    32
  0
VERTEX
  8
W80RARAMP
 62
2
 10
1911.963
 20
-6994.382
 30
-2620.966
 70
    32
  0
VERTEX
  8
W80RARAMP
 62
2
 10
1928.970
 20
-6987.443
 30
-2615.858
 70
    32
  0
VERTEX
  8
W80RARAMP
 62
2
 10
1956.671
 20
-6987.874
 30
-2607.812
 70
    32
  0
VERTEX
  8
W80RARAMP
 62
2
 10
1971.564
 20
-6992.436
 30
-2604.523
 70
    32
  0
VERTEX
  8
W80RARAMP
 62
2
 10
1982.110
 20
-6998.101
 30
-2601.838
 70
    32
  0
VERTEX
  8
W80RARAMP
 62
2
 10
2004.512
 20
-7005.957
 30
-2596.512
 70
    32
  0
VERTEX
  8
W80RARAMP
 62
2
 10
2046.387
 20
-7030.689
 30
-2585.650
 70
    32
  0
VERTEX
  8
W80RARAMP
 62
2
 10
2075.157
 20
-7042.923
 30
-2578.857
 70
    32
  0
VERTEX
  8
W80RARAMP
 62
2
 10
2090.018
 20
-7055.753
 30
-2575.283
 70
    32
  0
VERTEX
  8
W80RARAMP
 62
2
 10
2100.811
 20
-7079.772
 30
-2570.413
 70
    32
  0
VERTEX
  8
W80RARAMP
 62
2
 10
2101.584
 20
-7093.350
 30
-2568.058
 70
    32
  0
VERTEX
  8
W80RARAMP
 62
2
 10
2095.552
 20
-7106.935
 30
-2565.700
 70
    32
  0
VERTEX
  8
W80RARAMP
 62
2
 10
2090.601
 20
-7109.729
 30
-2564.670
 70
    32
  0
VERTEX
  8
W80RARAMP
 62
2
 10
2083.124
 20
-7117.304
 30
-2563.021
 70
    32
  0
VERTEX
  8
W80RARAMP
 62
2
 10
2055.184
 20
-7125.782
 30
-2558.623
 70
    32
  0
VERTEX
  8
W80RARAMP
 62
2
 10
2037.010
 20
-7122.913
 30
-2559.200
 70
    32
  0
VERTEX
  8
W80RARAMP
 62
2
 10
2012.391
 20
-7111.877
 30
-2559.200
 70
    32
  0
VERTEX
  8
W80RARAMP
 62
2
 10
2018.714
 20
-7130.328
 30
-2559.200
 70
    32
  0
SEQEND
  8
W80RARAMP
  0
POLYLINE
  8
W80RARAMP
 62
2
 66
     1
 70
     9
  0
VERTEX
  8
W80RARAMP
 62
2
 10
2158.794
 20
-7308.205
 30
-2710.578
 70
    32
  0
VERTEX
  8
W80RARAMP
 62
2
 10
2142.015
 20
-7335.710
 30
-2704.956
 70
    32
  0
VERTEX
  8
W80RARAMP
 62
2
 10
2138.708
 20
-7341.132
 30
-2702.921
 70
    32
  0
VERTEX
  8
W80RARAMP
 62
2
 10
2137.993
 20
-7342.304
 30
-2702.731
 70
    32
  0
VERTEX
  8
W80RARAMP
 62
2
 10
2137.041
 20
-7353.183
 30
-2701.238
 70
    32
  0
VERTEX
  8
W80RARAMP
 62
2
 10
2134.282
 20
-7358.193
 30
-2700.440
 70
    32
  0
VERTEX
  8
W80RARAMP
 62
2
 10
2134.123
 20
-7360.979
 30
-2700.062
 70
    32
  0
VERTEX
  8
W80RARAMP
 62
2
 10
2134.013
 20
-7362.915
 30
-2699.581
 70
    32
  0
VERTEX
  8
W80RARAMP
 62
2
 10
2134.599
 20
-7365.044
 30
-2699.037
 70
    32
  0
VERTEX
  8
W80RARAMP
 62
2
 10
2134.974
 20
-7366.406
 30
-2698.928
 70
    32
  0
VERTEX
  8
W80RARAMP
 62
2
 10
2135.433
 20
-7368.073
 30
-2698.452
 70
    32
  0
VERTEX
  8
W80RARAMP
 62
2
 10
2135.332
 20
-7375.317
 30
-2696.536
 70
    32
  0
VERTEX
  8
W80RARAMP
 62
2
 10
2135.312
 20
-7376.790
 30
-2696.213
 70
    32
  0
VERTEX
  8
W80RARAMP
 62
2
 10
2135.296
 20
-7377.954
 30
-2695.959
 70
    32
  0
VERTEX
  8
W80RARAMP
 62
2
 10
2135.370
 20
-7378.288
 30
-2695.883
 70
    32
  0
VERTEX
  8
W80RARAMP
 62
2
 10
2136.459
 20
-7383.209
 30
-2694.767
 70
    32
  0
VERTEX
  8
W80RARAMP
 62
2
 10
2139.636
 20
-7397.556
 30
-2691.512
 70
    32
  0
VERTEX
  8
W80RARAMP
 62
2
 10
2140.991
 20
-7403.678
 30
-2690.029
 70
    32
  0
VERTEX
  8
W80RARAMP
 62
2
 10
2142.779
 20
-7404.846
 30
-2689.650
 70
    32
  0
VERTEX
  8
W80RARAMP
 62
2
 10
2143.648
 20
-7405.414
 30
-2689.533
 70
    32
  0
VERTEX
  8
W80RARAMP
 62
2
 10
2146.716
 20
-7412.322
 30
-2688.408
 70
    32
  0
VERTEX
  8
W80RARAMP
 62
2
 10
2146.899
 20
-7412.734
 30
-2688.343
 70
    32
  0
VERTEX
  8
W80RARAMP
 62
2
 10
2152.973
 20
-7430.511
 30
-2685.577
 70
    32
  0
VERTEX
  8
W80RARAMP
 62
2
 10
2153.026
 20
-7430.667
 30
-2685.541
 70
    32
  0
VERTEX
  8
W80RARAMP
 62
2
 10
2154.917
 20
-7436.203
 30
-2684.271
 70
    32
  0
VERTEX
  8
W80RARAMP
 62
2
 10
2156.893
 20
-7441.986
 30
-2682.945
 70
    32
  0
VERTEX
  8
W80RARAMP
 62
2
 10
2158.011
 20
-7445.259
 30
-2682.207
 70
    32
  0
VERTEX
  8
W80RARAMP
 62
2
 10
2157.973
 20
-7447.961
 30
-2681.650
 70
    32
  0
VERTEX
  8
W80RARAMP
 62
2
 10
2157.972
 20
-7448.045
 30
-2681.626
 70
    32
  0
VERTEX
  8
W80RARAMP
 62
2
 10
2157.970
 20
-7448.187
 30
-2681.584
 70
    32
  0
VERTEX
  8
W80RARAMP
 62
2
 10
2158.445
 20
-7450.095
 30
-2680.991
 70
    32
  0
VERTEX
  8
W80RARAMP
 62
2
 10
2159.824
 20
-7455.634
 30
-2679.204
 70
    32
  0
VERTEX
  8
W80RARAMP
 62
2
 10
2160.433
 20
-7458.082
 30
-2680.028
 70
    32
  0
VERTEX
  8
W80RARAMP
 62
2
 10
2160.672
 20
-7459.043
 30
-2680.330
 70
    32
  0
VERTEX
  8
W80RARAMP
 62
2
 10
2164.384
 20
-7473.959
 30
-2677.834
 70
    32
  0
VERTEX
  8
W80RARAMP
 62
2
 10
2164.401
 20
-7479.304
 30
-2676.990
 70
    32
  0
VERTEX
  8
W80RARAMP
 62
2
 10
2164.404
 20
-7480.404
 30
-2676.822
 70
    32
  0
VERTEX
  8
W80RARAMP
 62
2
 10
2171.463
 20
-7493.533
 30
-2674.483
 70
    32
  0
VERTEX
  8
W80RARAMP
 62
2
 10
2181.975
 20
-7531.490
 30
-2668.180
 70
    32
  0
VERTEX
  8
W80RARAMP
 62
2
 10
2181.947
 20
-7546.490
 30
-2665.883
 70
    32
  0
VERTEX
  8
W80RARAMP
 62
2
 10
2186.552
 20
-7566.439
 30
-2662.614
 70
    32
  0
VERTEX
  8
W80RARAMP
 62
2
 10
2190.960
 20
-7572.493
 30
-2662.300
 70
    32
  0
VERTEX
  8
W80RARAMP
 62
2
 10
2191.470
 20
-7574.831
 30
-2662.037
 70
    32
  0
VERTEX
  8
W80RARAMP
 62
2
 10
2194.623
 20
-7586.908
 30
-2660.202
 70
    32
  0
VERTEX
  8
W80RARAMP
 62
2
 10
2195.535
 20
-7595.615
 30
-2658.592
 70
    32
  0
VERTEX
  8
W80RARAMP
 62
2
 10
2198.090
 20
-7603.766
 30
-2657.030
 70
    32
  0
VERTEX
  8
W80RARAMP
 62
2
 10
2201.507
 20
-7610.783
 30
-2655.645
 70
    32
  0
VERTEX
  8
W80RARAMP
 62
2
 10
2203.600
 20
-7619.933
 30
-2653.917
 70
    32
  0
VERTEX
  8
W80RARAMP
 62
2
 10
2207.792
 20
-7629.995
 30
-2651.955
 70
    32
  0
VERTEX
  8
W80RARAMP
 62
2
 10
2211.906
 20
-7648.213
 30
-2648.503
 70
    32
  0
VERTEX
  8
W80RARAMP
 62
2
 10
2209.766
 20
-7655.424
 30
-2647.821
 70
    32
  0
VERTEX
  8
W80RARAMP
 62
2
 10
2208.622
 20
-7659.278
 30
-2647.478
 70
    32
  0
VERTEX
  8
W80RARAMP
 62
2
 10
2205.691
 20
-7669.154
 30
-2645.747
 70
    32
  0
VERTEX
  8
W80RARAMP
 62
2
 10
2205.501
 20
-7675.069
 30
-2644.733
 70
    32
  0
VERTEX
  8
W80RARAMP
 62
2
 10
2204.154
 20
-7717.055
 30
-2637.628
 70
    32
  0
VERTEX
  8
W80RARAMP
 62
2
 10
2201.206
 20
-7738.815
 30
-2633.935
 70
    32
  0
VERTEX
  8
W80RARAMP
 62
2
 10
2199.825
 20
-7749.011
 30
-2632.557
 70
    32
  0
VERTEX
  8
W80RARAMP
 62
2
 10
2199.833
 20
-7749.190
 30
-2632.533
 70
    32
  0
VERTEX
  8
W80RARAMP
 62
2
 10
2199.951
 20
-7751.880
 30
-2632.150
 70
    32
  0
VERTEX
  8
W80RARAMP
 62
2
 10
2200.089
 20
-7755.011
 30
-2631.849
 70
    32
  0
VERTEX
  8
W80RARAMP
 62
2
 10
2199.877
 20
-7761.109
 30
-2631.187
 70
    32
  0
VERTEX
  8
W80RARAMP
 62
2
 10
2199.355
 20
-7776.138
 30
-2629.585
 70
    32
  0
VERTEX
  8
W80RARAMP
 62
2
 10
2201.810
 20
-7780.457
 30
-2629.100
 70
    32
  0
VERTEX
  8
W80RARAMP
 62
2
 10
2204.686
 20
-7800.835
 30
-2626.894
 70
    32
  0
VERTEX
  8
W80RARAMP
 62
2
 10
2204.965
 20
-7802.809
 30
-2626.788
 70
    32
  0
VERTEX
  8
W80RARAMP
 62
2
 10
2207.712
 20
-7813.930
 30
-2626.188
 70
    32
  0
VERTEX
  8
W80RARAMP
 62
2
 10
2208.636
 20
-7824.980
 30
-2625.600
 70
    32
  0
VERTEX
  8
W80RARAMP
 62
2
 10
2209.040
 20
-7829.804
 30
-2625.336
 70
    32
  0
VERTEX
  8
W80RARAMP
 62
2
 10
2218.561
 20
-7828.407
 30
-2625.349
 70
    32
  0
VERTEX
  8
W80RARAMP
 62
2
 10
2217.411
 20
-7808.902
 30
-2626.411
 70
    32
  0
VERTEX
  8
W80RARAMP
 62
2
 10
2217.176
 20
-7804.912
 30
-2626.623
 70
    32
  0
VERTEX
  8
W80RARAMP
 62
2
 10
2216.191
 20
-7799.783
 30
-2626.899
 70
    32
  0
VERTEX
  8
W80RARAMP
 62
2
 10
2213.780
 20
-7787.230
 30
-2628.264
 70
    32
  0
VERTEX
  8
W80RARAMP
 62
2
 10
2212.981
 20
-7782.958
 30
-2628.728
 70
    32
  0
VERTEX
  8
W80RARAMP
 62
2
 10
2209.637
 20
-7765.065
 30
-2630.695
 70
    32
  0
VERTEX
  8
W80RARAMP
 62
2
 10
2209.603
 20
-7756.820
 30
-2631.748
 70
    32
  0
VERTEX
  8
W80RARAMP
 62
2
 10
2210.649
 20
-7752.055
 30
-2632.126
 70
    32
  0
VERTEX
  8
W80RARAMP
 62
2
 10
2212.526
 20
-7743.501
 30
-2633.343
 70
    32
  0
VERTEX
  8
W80RARAMP
 62
2
 10
2212.566
 20
-7742.597
 30
-2633.472
 70
    32
  0
VERTEX
  8
W80RARAMP
 62
2
 10
2212.724
 20
-7739.063
 30
-2633.948
 70
    32
  0
VERTEX
  8
W80RARAMP
 62
2
 10
2213.256
 20
-7727.097
 30
-2635.974
 70
    32
  0
VERTEX
  8
W80RARAMP
 62
2
 10
2214.708
 20
-7718.403
 30
-2637.451
 70
    32
  0
VERTEX
  8
W80RARAMP
 62
2
 10
2217.664
 20
-7700.698
 30
-2640.521
 70
    32
  0
VERTEX
  8
W80RARAMP
 62
2
 10
2215.643
 20
-7690.194
 30
-2642.289
 70
    32
  0
VERTEX
  8
W80RARAMP
 62
2
 10
2215.707
 20
-7676.958
 30
-2644.554
 70
    32
  0
VERTEX
  8
W80RARAMP
 62
2
 10
2218.625
 20
-7666.628
 30
-2646.362
 70
    32
  0
VERTEX
  8
W80RARAMP
 62
2
 10
2224.753
 20
-7660.854
 30
-2647.436
 70
    32
  0
VERTEX
  8
W80RARAMP
 62
2
 10
2224.697
 20
-7660.515
 30
-2647.493
 70
    32
  0
VERTEX
  8
W80RARAMP
 62
2
 10
2225.598
 20
-7659.538
 30
-2647.585
 70
    32
  0
VERTEX
  8
W80RARAMP
 62
2
 10
2225.598
 20
-7659.538
 30
-2646.016
 70
    32
  0
VERTEX
  8
W80RARAMP
 62
2
 10
2220.171
 20
-7632.997
 30
-2651.009
 70
    32
  0
VERTEX
  8
W80RARAMP
 62
2
 10
2216.906
 20
-7627.017
 30
-2652.200
 70
    32
  0
VERTEX
  8
W80RARAMP
 62
2
 10
2209.583
 20
-7596.760
 30
-2657.929
 70
    32
  0
VERTEX
  8
W80RARAMP
 62
2
 10
2209.404
 20
-7591.777
 30
-2657.341
 70
    32
  0
VERTEX
  8
W80RARAMP
 62
2
 10
2218.490
 20
-7584.232
 30
-2657.341
 70
    32
  0
VERTEX
  8
W80RARAMP
 62
2
 10
2223.307
 20
-7584.119
 30
-2657.341
 70
    32
  0
VERTEX
  8
W80RARAMP
 62
2
 10
2225.677
 20
-7569.253
 30
-2657.341
 70
    32
  0
VERTEX
  8
W80RARAMP
 62
2
 10
2220.772
 20
-7567.903
 30
-2657.711
 70
    32
  0
VERTEX
  8
W80RARAMP
 62
2
 10
2217.602
 20
-7563.455
 30
-2658.812
 70
    32
  0
VERTEX
  8
W80RARAMP
 62
2
 10
2207.751
 20
-7558.186
 30
-2662.892
 70
    32
  0
VERTEX
  8
W80RARAMP
 62
2
 10
2203.174
 20
-7556.267
 30
-2663.399
 70
    32
  0
VERTEX
  8
W80RARAMP
 62
2
 10
2197.258
 20
-7551.972
 30
-2664.332
 70
    32
  0
VERTEX
  8
W80RARAMP
 62
2
 10
2194.450
 20
-7530.385
 30
-2667.769
 70
    32
  0
VERTEX
  8
W80RARAMP
 62
2
 10
2194.262
 20
-7528.937
 30
-2668.004
 70
    32
  0
VERTEX
  8
W80RARAMP
 62
2
 10
2184.236
 20
-7490.869
 30
-2674.396
 70
    32
  0
VERTEX
  8
W80RARAMP
 62
2
 10
2171.951
 20
-7455.451
 30
-2680.457
 70
    32
  0
VERTEX
  8
W80RARAMP
 62
2
 10
2171.660
 20
-7454.613
 30
-2680.186
 70
    32
  0
VERTEX
  8
W80RARAMP
 62
2
 10
2171.210
 20
-7452.973
 30
-2679.667
 70
    32
  0
VERTEX
  8
W80RARAMP
 62
2
 10
2170.991
 20
-7452.178
 30
-2679.396
 70
    32
  0
VERTEX
  8
W80RARAMP
 62
2
 10
2170.984
 20
-7452.152
 30
-2679.405
 70
    32
  0
VERTEX
  8
W80RARAMP
 62
2
 10
2170.492
 20
-7450.358
 30
-2679.987
 70
    32
  0
VERTEX
  8
W80RARAMP
 62
2
 10
2169.475
 20
-7446.653
 30
-2681.146
 70
    32
  0
VERTEX
  8
W80RARAMP
 62
2
 10
2169.033
 20
-7445.043
 30
-2681.650
 70
    32
  0
VERTEX
  8
W80RARAMP
 62
2
 10
2169.003
 20
-7444.935
 30
-2681.674
 70
    32
  0
VERTEX
  8
W80RARAMP
 62
2
 10
2167.894
 20
-7440.896
 30
-2682.570
 70
    32
  0
VERTEX
  8
W80RARAMP
 62
2
 10
2165.308
 20
-7431.475
 30
-2684.659
 70
    32
  0
VERTEX
  8
W80RARAMP
 62
2
 10
2164.191
 20
-7427.406
 30
-2685.577
 70
    32
  0
VERTEX
  8
W80RARAMP
 62
2
 10
2164.133
 20
-7427.196
 30
-2685.585
 70
    32
  0
VERTEX
  8
W80RARAMP
 62
2
 10
2162.530
 20
-7421.358
 30
-2686.470
 70
    32
  0
VERTEX
  8
W80RARAMP
 62
2
 10
2161.732
 20
-7418.451
 30
-2686.924
 70
    32
  0
VERTEX
  8
W80RARAMP
 62
2
 10
2159.093
 20
-7402.517
 30
-2689.344
 70
    32
  0
VERTEX
  8
W80RARAMP
 62
2
 10
2160.393
 20
-7399.925
 30
-2689.670
 70
    32
  0
VERTEX
  8
W80RARAMP
 62
2
 10
2170.466
 20
-7379.847
 30
-2693.624
 70
    32
  0
VERTEX
  8
W80RARAMP
 62
2
 10
2172.094
 20
-7376.601
 30
-2693.818
 70
    32
  0
VERTEX
  8
W80RARAMP
 62
2
 10
2174.243
 20
-7370.717
 30
-2694.292
 70
    32
  0
VERTEX
  8
W80RARAMP
 62
2
 10
2168.319
 20
-7367.599
 30
-2695.610
 70
    32
  0
VERTEX
  8
W80RARAMP
 62
2
 10
2162.958
 20
-7372.696
 30
-2695.728
 70
    32
  0
VERTEX
  8
W80RARAMP
 62
2
 10
2159.096
 20
-7376.367
 30
-2695.132
 70
    32
  0
VERTEX
  8
W80RARAMP
 62
2
 10
2151.816
 20
-7376.665
 30
-2695.520
 70
    32
  0
VERTEX
  8
W80RARAMP
 62
2
 10
2148.701
 20
-7372.736
 30
-2696.613
 70
    32
  0
VERTEX
  8
W80RARAMP
 62
2
 10
2148.696
 20
-7370.355
 30
-2697.157
 70
    32
  0
VERTEX
  8
W80RARAMP
 62
2
 10
2148.695
 20
-7370.029
 30
-2697.228
 70
    32
  0
VERTEX
  8
W80RARAMP
 62
2
 10
2148.683
 20
-7364.420
 30
-2698.458
 70
    32
  0
VERTEX
  8
W80RARAMP
 62
2
 10
2148.682
 20
-7364.198
 30
-2698.506
 70
    32
  0
VERTEX
  8
W80RARAMP
 62
2
 10
2148.679
 20
-7362.611
 30
-2698.928
 70
    32
  0
VERTEX
  8
W80RARAMP
 62
2
 10
2148.666
 20
-7356.935
 30
-2700.768
 70
    32
  0
VERTEX
  8
W80RARAMP
 62
2
 10
2149.347
 20
-7352.048
 30
-2701.974
 70
    32
  0
VERTEX
  8
W80RARAMP
 62
2
 10
2150.193
 20
-7345.976
 30
-2702.822
 70
    32
  0
VERTEX
  8
W80RARAMP
 62
2
 10
2150.422
 20
-7345.607
 30
-2702.882
 70
    32
  0
VERTEX
  8
W80RARAMP
 62
2
 10
2160.549
 20
-7329.259
 30
-2709.036
 70
    32
  0
VERTEX
  8
W80RARAMP
 62
2
 10
2167.951
 20
-7317.310
 30
-2711.500
 70
    32
  0
SEQEND
  8
W80RARAMP
  0
POLYLINE
  8
W80RARAMP
 62
2
 66
     1
 70
     9
  0
VERTEX
  8
W80RARAMP
 62
2
 10
2173.280
 20
-7108.881
 30
-2564.194
 70
    32
  0
VERTEX
  8
W80RARAMP
 62
2
 10
2181.123
 20
-7108.734
 30
-2564.194
 70
    32
  0
VERTEX
  8
W80RARAMP
 62
2
 10
2201.135
 20
-7098.742
 30
-2564.194
 70
    32
  0
VERTEX
  8
W80RARAMP
 62
2
 10
2210.120
 20
-7092.310
 30
-2563.420
 70
    32
  0
VERTEX
  8
W80RARAMP
 62
2
 10
2218.260
 20
-7086.930
 30
-2563.040
 70
    32
  0
VERTEX
  8
W80RARAMP
 62
2
 10
2229.956
 20
-7073.397
 30
-2560.780
 70
    32
  0
VERTEX
  8
W80RARAMP
 62
2
 10
2232.041
 20
-7076.935
 30
-2560.780
 70
    32
  0
VERTEX
  8
W80RARAMP
 62
2
 10
2238.154
 20
-7086.931
 30
-2560.780
 70
    32
  0
VERTEX
  8
W80RARAMP
 62
2
 10
2233.595
 20
-7079.571
 30
-2560.780
 70
    32
  0
VERTEX
  8
W80RARAMP
 62
2
 10
2238.154
 20
-7086.931
 30
-2560.786
 70
    32
  0
VERTEX
  8
W80RARAMP
 62
2
 10
2238.154
 20
-7086.931
 30
-2562.046
 70
    32
  0
VERTEX
  8
W80RARAMP
 62
2
 10
2206.266
 20
-7108.219
 30
-2564.194
 70
    32
  0
VERTEX
  8
W80RARAMP
 62
2
 10
2187.354
 20
-7118.212
 30
-2564.194
 70
    32
  0
VERTEX
  8
W80RARAMP
 62
2
 10
2188.160
 20
-7126.146
 30
-2564.194
 70
    32
  0
VERTEX
  8
W80RARAMP
 62
2
 10
2181.783
 20
-7113.950
 30
-2564.194
 70
    32
  0
SEQEND
  8
W80RARAMP
  0
LINE
  8
W80RARAMP
 62
1
 10
2182.519
 20
-7115.358
 30
-2564.194
 11
2234.168
 21
-7080.686
 31
-2571.000
  0
POLYLINE
  8
W80RARAMP
 62
1
 66
     1
 70
     9
  0
VERTEX
  8
W80RARAMP
 62
1
 10
2179.454
 20
-7110.791
 30
-2564.194
 70
    32
  0
VERTEX
  8
W80RARAMP
 62
1
 10
2231.103
 20
-7076.119
 30
-2571.000
 70
    32
  0
VERTEX
  8
W80RARAMP
 62
1
 10
2237.234
 20
-7085.252
 30
-2571.000
 70
    32
  0
VERTEX
  8
W80RARAMP
 62
1
 10
2185.584
 20
-7119.924
 30
-2564.194
 70
    32
  0
SEQEND
  8
W80RARAMP
  0
POLYLINE
  8
W80RARAMP
 62
4
 66
     1
 70
     9
  0
VERTEX
  8
W80RARAMP
 62
4
 10
2136.664
 20
-7118.076
 30
-2565.877
 70
    32
  0
VERTEX
  8
W80RARAMP
 62
4
 10
2178.411
 20
-7118.190
 30
-2553.554
 70
    32
  0
VERTEX
  8
W80RARAMP
 62
4
 10
2203.743
 20
-7108.741
 30
-2546.489
 70
    32
  0
VERTEX
  8
W80RARAMP
 62
4
 10
2222.207
 20
-7097.948
 30
-2539.672
 70
    32
  0
VERTEX
  8
W80RARAMP
 62
4
 10
2217.298
 20
-7087.769
 30
-2539.433
 70
    32
  0
VERTEX
  8
W80RARAMP
 62
4
 10
2213.322
 20
-7085.597
 30
-2540.195
 70
    32
  0
VERTEX
  8
W80RARAMP
 62
4
 10
2208.130
 20
-7092.892
 30
-2542.781
 70
    32
  0
VERTEX
  8
W80RARAMP
 62
4
 10
2184.443
 20
-7106.452
 30
-2551.481
 70
    32
  0
VERTEX
  8
W80RARAMP
 62
4
 10
2173.793
 20
-7109.295
 30
-2555.601
 70
    32
  0
VERTEX
  8
W80RARAMP
 62
4
 10
2139.008
 20
-7107.224
 30
-2564.847
 70
    32
  0
SEQEND
  8
W80RARAMP
  0
POINT
  8
W80RARAMP
 62
13
 10
1917.596
 20
-6079.091
 30
-2563.612
  0
POINT
  8
W80RARAMP
 62
13
 10
1919.291
 20
-6073.949
 30
-2562.892
  0
POINT
  8
W80RARAMP
 62
13
 10
1928.895
 20
-6062.149
 30
-2561.232
  0
POINT
  8
W80RARAMP
 62
13
 10
1931.342
 20
-6057.126
 30
-2560.901
  0
POINT
  8
W80RARAMP
 62
13
 10
1943.303
 20
-6046.583
 30
-2560.351
  0
POINT
  8
W80RARAMP
 62
13
 10
1943.936
 20
-6046.292
 30
-2560.310
  0
POINT
  8
W80RARAMP
 62
13
 10
1950.819
 20
-6036.742
 30
-2561.807
  0
POINT
  8
W80RARAMP
 62
13
 10
1960.924
 20
-6016.912
 30
-2564.569
  0
POINT
  8
W80RARAMP
 62
13
 10
1965.634
 20
-6010.894
 30
-2565.931
  0
POINT
  8
W80RARAMP
 62
13
 10
1961.771
 20
-6005.910
 30
-2565.603
  0
POINT
  8
W80RARAMP
 62
13
 10
1956.195
 20
-6005.080
 30
-2565.396
  0
POINT
  8
W80RARAMP
 62
13
 10
1935.048
 20
-6038.719
 30
-2561.988
  0
POINT
  8
W80RARAMP
 62
13
 10
1928.338
 20
-6046.293
 30
-2561.763
  0
POINT
  8
W80RARAMP
 62
13
 10
1922.145
 20
-6052.290
 30
-2561.944
  0
POINT
  8
W80RARAMP
 62
13
 10
1913.759
 20
-6052.833
 30
-2563.354
  0
POINT
  8
W80RARAMP
 62
13
 10
1909.868
 20
-6049.518
 30
-2563.916
  0
ENDSEC
  0
EOF
