999
********************************
999
*   DXF File - Entities Only   *
999
*        3D Data Format        *
999
*     Output from ENVISAGE     *
999
*     28-Dec-2007 13:15:53     *
999
********************************
  0
SECTION 
  2
HEADER
  9
$ACADVER
  1
AC1009
  9
$EXTMIN
 10
-290000.000
 20
-250000.000
 30
-4000.000
  9
$EXTMAX
 10
5000000.000
 20
600000.000
 30
6000.000
  0
ENDSEC
  0
SECTION
  2
ENTITIES
  0
POLYLINE
  8
W69RA3RAMP
 62
12
 66
     1
 70
     9
  0
VERTEX
  8
W69RA3RAMP
 62
12
 10
1660.094
 20
-6615.874
 30
-1644.040
 70
    32
  0
VERTEX
  8
W69RA3RAMP
 62
12
 10
1660.969
 20
-6625.732
 30
-1643.909
 70
    32
  0
VERTEX
  8
W69RA3RAMP
 62
12
 10
1726.302
 20
-6619.271
 30
-1631.107
 70
    32
  0
VERTEX
  8
W69RA3RAMP
 62
12
 10
1769.634
 20
-6614.986
 30
-1624.413
 70
    32
  0
VERTEX
  8
W69RA3RAMP
 62
12
 10
1770.604
 20
-6614.814
 30
-1624.243
 70
    32
  0
VERTEX
  8
W69RA3RAMP
 62
12
 10
1770.708
 20
-6614.796
 30
-1624.243
 70
    32
  0
VERTEX
  8
W69RA3RAMP
 62
12
 10
1788.657
 20
-6611.618
 30
-1623.467
 70
    32
  0
VERTEX
  8
W69RA3RAMP
 62
12
 10
1813.793
 20
-6607.169
 30
-1626.877
 70
    32
  0
VERTEX
  8
W69RA3RAMP
 62
12
 10
1844.499
 20
-6606.032
 30
-1630.994
 70
    32
  0
VERTEX
  8
W69RA3RAMP
 62
12
 10
1858.992
 20
-6608.998
 30
-1633.020
 70
    32
  0
VERTEX
  8
W69RA3RAMP
 62
12
 10
1874.024
 20
-6612.522
 30
-1634.123
 70
    32
  0
VERTEX
  8
W69RA3RAMP
 62
12
 10
1879.866
 20
-6617.279
 30
-1634.565
 70
    32
  0
VERTEX
  8
W69RA3RAMP
 62
12
 10
1890.725
 20
-6626.119
 30
-1636.947
 70
    32
  0
VERTEX
  8
W69RA3RAMP
 62
12
 10
1939.799
 20
-6722.047
 30
-1655.749
 70
    32
  0
VERTEX
  8
W69RA3RAMP
 62
12
 10
1941.608
 20
-6732.370
 30
-1656.385
 70
    32
  0
VERTEX
  8
W69RA3RAMP
 62
12
 10
1944.515
 20
-6789.843
 30
-1659.872
 70
    32
  0
VERTEX
  8
W69RA3RAMP
 62
12
 10
1945.682
 20
-6812.908
 30
-1661.272
 70
    32
  0
VERTEX
  8
W69RA3RAMP
 62
12
 10
1957.306
 20
-6925.703
 30
-1668.318
 70
    32
  0
VERTEX
  8
W69RA3RAMP
 62
12
 10
1970.946
 20
-6917.969
 30
-1668.504
 70
    32
  0
VERTEX
  8
W69RA3RAMP
 62
12
 10
1956.917
 20
-6819.620
 30
-1663.808
 70
    32
  0
VERTEX
  8
W69RA3RAMP
 62
12
 10
1955.005
 20
-6800.556
 30
-1663.010
 70
    32
  0
VERTEX
  8
W69RA3RAMP
 62
12
 10
1956.604
 20
-6790.917
 30
-1662.603
 70
    32
  0
VERTEX
  8
W69RA3RAMP
 62
12
 10
1960.230
 20
-6783.396
 30
-1662.255
 70
    32
  0
VERTEX
  8
W69RA3RAMP
 62
12
 10
1970.939
 20
-6771.920
 30
-1661.601
 70
    32
  0
VERTEX
  8
W69RA3RAMP
 62
12
 10
1963.181
 20
-6758.738
 30
-1658.079
 70
    32
  0
VERTEX
  8
W69RA3RAMP
 62
12
 10
1956.725
 20
-6766.988
 30
-1657.643
 70
    32
  0
VERTEX
  8
W69RA3RAMP
 62
12
 10
1954.180
 20
-6765.236
 30
-1657.514
 70
    32
  0
VERTEX
  8
W69RA3RAMP
 62
12
 10
1952.520
 20
-6765.466
 30
-1657.444
 70
    32
  0
VERTEX
  8
W69RA3RAMP
 62
12
 10
1948.701
 20
-6717.493
 30
-1655.439
 70
    32
  0
VERTEX
  8
W69RA3RAMP
 62
12
 10
1890.620
 20
-6603.956
 30
-1634.011
 70
    32
  0
VERTEX
  8
W69RA3RAMP
 62
12
 10
1860.323
 20
-6544.732
 30
-1621.602
 70
    32
  0
VERTEX
  8
W69RA3RAMP
 62
12
 10
1858.794
 20
-6532.942
 30
-1621.126
 70
    32
  0
VERTEX
  8
W69RA3RAMP
 62
12
 10
1846.840
 20
-6529.725
 30
-1621.126
 70
    32
  0
VERTEX
  8
W69RA3RAMP
 62
12
 10
1849.522
 20
-6543.559
 30
-1621.126
 70
    32
  0
VERTEX
  8
W69RA3RAMP
 62
12
 10
1850.945
 20
-6547.273
 30
-1621.126
 70
    32
  0
VERTEX
  8
W69RA3RAMP
 62
12
 10
1860.188
 20
-6566.217
 30
-1626.292
 70
    32
  0
VERTEX
  8
W69RA3RAMP
 62
12
 10
1872.738
 20
-6590.572
 30
-1631.346
 70
    32
  0
VERTEX
  8
W69RA3RAMP
 62
12
 10
1869.706
 20
-6600.206
 30
-1632.918
 70
    32
  0
VERTEX
  8
W69RA3RAMP
 62
12
 10
1859.541
 20
-6598.287
 30
-1632.522
 70
    32
  0
VERTEX
  8
W69RA3RAMP
 62
12
 10
1846.032
 20
-6593.993
 30
-1629.990
 70
    32
  0
VERTEX
  8
W69RA3RAMP
 62
12
 10
1812.904
 20
-6596.371
 30
-1625.993
 70
    32
  0
VERTEX
  8
W69RA3RAMP
 62
12
 10
1786.488
 20
-6600.129
 30
-1623.351
 70
    32
  0
VERTEX
  8
W69RA3RAMP
 62
12
 10
1768.804
 20
-6605.020
 30
-1623.564
 70
    32
  0
VERTEX
  8
W69RA3RAMP
 62
12
 10
1759.612
 20
-6597.876
 30
-1624.408
 70
    32
  0
VERTEX
  8
W69RA3RAMP
 62
12
 10
1758.509
 20
-6597.861
 30
-1624.480
 70
    32
  0
VERTEX
  8
W69RA3RAMP
 62
12
 10
1751.669
 20
-6588.750
 30
-1624.950
 70
    32
  0
VERTEX
  8
W69RA3RAMP
 62
12
 10
1733.766
 20
-6570.039
 30
-1625.693
 70
    32
  0
VERTEX
  8
W69RA3RAMP
 62
12
 10
1731.425
 20
-6563.637
 30
-1625.763
 70
    32
  0
VERTEX
  8
W69RA3RAMP
 62
12
 10
1730.227
 20
-6552.550
 30
-1625.763
 70
    32
  0
VERTEX
  8
W69RA3RAMP
 62
12
 10
1730.793
 20
-6537.947
 30
-1625.763
 70
    32
  0
VERTEX
  8
W69RA3RAMP
 62
12
 10
1729.805
 20
-6528.075
 30
-1625.763
 70
    32
  0
VERTEX
  8
W69RA3RAMP
 62
12
 10
1719.874
 20
-6529.435
 30
-1625.763
 70
    32
  0
VERTEX
  8
W69RA3RAMP
 62
12
 10
1720.746
 20
-6539.557
 30
-1625.763
 70
    32
  0
VERTEX
  8
W69RA3RAMP
 62
12
 10
1719.883
 20
-6555.449
 30
-1625.763
 70
    32
  0
VERTEX
  8
W69RA3RAMP
 62
12
 10
1721.403
 20
-6567.881
 30
-1625.763
 70
    32
  0
VERTEX
  8
W69RA3RAMP
 62
12
 10
1725.469
 20
-6579.197
 30
-1625.783
 70
    32
  0
VERTEX
  8
W69RA3RAMP
 62
12
 10
1743.783
 20
-6594.901
 30
-1624.964
 70
    32
  0
VERTEX
  8
W69RA3RAMP
 62
12
 10
1750.282
 20
-6603.559
 30
-1624.631
 70
    32
  0
VERTEX
  8
W69RA3RAMP
 62
12
 10
1749.359
 20
-6604.615
 30
-1624.409
 70
    32
  0
VERTEX
  8
W69RA3RAMP
 62
12
 10
1749.227
 20
-6604.766
 30
-1624.441
 70
    32
  0
VERTEX
  8
W69RA3RAMP
 62
12
 10
1747.453
 20
-6606.797
 30
-1625.375
 70
    32
  0
VERTEX
  8
W69RA3RAMP
 62
12
 10
1724.318
 20
-6609.201
 30
-1629.949
 70
    32
  0
VERTEX
  8
W69RA3RAMP
 62
12
 10
1660.142
 20
-6615.869
 30
-1644.040
 70
    32
  0
SEQEND
  8
W69RA3RAMP
  0
POLYLINE
  8
W69RA3RAMP
 62
12
 66
     1
 70
     9
  0
VERTEX
  8
W69RA3RAMP
 62
12
 10
1836.523
 20
-6623.627
 30
0.000
 70
    32
  0
VERTEX
  8
W69RA3RAMP
 62
12
 10
1824.573
 20
-6647.678
 30
0.000
 70
    32
  0
VERTEX
  8
W69RA3RAMP
 62
12
 10
1817.837
 20
-6663.245
 30
0.000
 70
    32
  0
VERTEX
  8
W69RA3RAMP
 62
12
 10
1794.018
 20
-6685.480
 30
0.000
 70
    32
  0
VERTEX
  8
W69RA3RAMP
 62
12
 10
1799.004
 20
-6694.612
 30
0.000
 70
    32
  0
VERTEX
  8
W69RA3RAMP
 62
12
 10
1824.409
 20
-6675.280
 30
0.000
 70
    32
  0
VERTEX
  8
W69RA3RAMP
 62
12
 10
1829.869
 20
-6657.915
 30
0.000
 70
    32
  0
VERTEX
  8
W69RA3RAMP
 62
12
 10
1834.313
 20
-6651.600
 30
0.000
 70
    32
  0
VERTEX
  8
W69RA3RAMP
 62
12
 10
1842.003
 20
-6636.382
 30
0.000
 70
    32
  0
VERTEX
  8
W69RA3RAMP
 62
12
 10
1851.622
 20
-6614.998
 30
0.000
 70
    32
  0
VERTEX
  8
W69RA3RAMP
 62
12
 10
1857.892
 20
-6598.428
 30
0.000
 70
    32
  0
VERTEX
  8
W69RA3RAMP
 62
12
 10
1836.150
 20
-6589.855
 30
0.000
 70
    32
  0
SEQEND
  8
W69RA3RAMP
  0
POLYLINE
  8
W69RA3RAMP
 62
12
 66
     1
 70
     9
  0
VERTEX
  8
W69RA3RAMP
 62
12
 10
1622.813
 20
-6588.396
 30
-1612.131
 70
    32
  0
VERTEX
  8
W69RA3RAMP
 62
12
 10
1609.077
 20
-6576.192
 30
-1606.025
 70
    32
  0
VERTEX
  8
W69RA3RAMP
 62
12
 10
1600.230
 20
-6568.333
 30
-1603.129
 70
    32
  0
VERTEX
  8
W69RA3RAMP
 62
12
 10
1596.577
 20
-6566.536
 30
-1602.114
 70
    32
  0
VERTEX
  8
W69RA3RAMP
 62
12
 10
1592.524
 20
-6564.542
 30
-1604.595
 70
    32
  0
VERTEX
  8
W69RA3RAMP
 62
12
 10
1577.670
 20
-6557.233
 30
-1602.534
 70
    32
  0
VERTEX
  8
W69RA3RAMP
 62
12
 10
1573.895
 20
-6551.913
 30
-1602.368
 70
    32
  0
VERTEX
  8
W69RA3RAMP
 62
12
 10
1572.974
 20
-6544.515
 30
-1603.669
 70
    32
  0
VERTEX
  8
W69RA3RAMP
 62
12
 10
1574.090
 20
-6537.909
 30
-1604.442
 70
    32
  0
VERTEX
  8
W69RA3RAMP
 62
12
 10
1590.768
 20
-6525.795
 30
-1604.426
 70
    32
  0
VERTEX
  8
W69RA3RAMP
 62
12
 10
1591.017
 20
-6533.054
 30
-1604.489
 70
    32
  0
VERTEX
  8
W69RA3RAMP
 62
12
 10
1591.217
 20
-6538.873
 30
-1603.240
 70
    32
  0
VERTEX
  8
W69RA3RAMP
 62
12
 10
1591.236
 20
-6539.428
 30
-1603.146
 70
    32
  0
VERTEX
  8
W69RA3RAMP
 62
12
 10
1592.775
 20
-6541.749
 30
-1602.644
 70
    32
  0
VERTEX
  8
W69RA3RAMP
 62
12
 10
1595.801
 20
-6546.314
 30
-1603.344
 70
    32
  0
VERTEX
  8
W69RA3RAMP
 62
12
 10
1600.599
 20
-6553.552
 30
-1604.260
 70
    32
  0
VERTEX
  8
W69RA3RAMP
 62
12
 10
1601.818
 20
-6554.524
 30
-1604.422
 70
    32
  0
VERTEX
  8
W69RA3RAMP
 62
12
 10
1605.292
 20
-6557.296
 30
-1601.887
 70
    32
  0
VERTEX
  8
W69RA3RAMP
 62
12
 10
1615.015
 20
-6565.051
 30
-1605.196
 70
    32
  0
VERTEX
  8
W69RA3RAMP
 62
12
 10
1617.873
 20
-6567.057
 30
-1606.042
 70
    32
  0
VERTEX
  8
W69RA3RAMP
 62
12
 10
1630.439
 20
-6575.876
 30
-1611.485
 70
    32
  0
SEQEND
  8
W69RA3RAMP
  0
POLYLINE
  8
W69RA3RAMP
 62
12
 66
     1
 70
     9
  0
VERTEX
  8
W69RA3RAMP
 62
12
 10
1429.437
 20
-6363.168
 30
-1700.000
 70
    32
  0
VERTEX
  8
W69RA3RAMP
 62
12
 10
1433.037
 20
-6342.186
 30
-1700.000
 70
    32
  0
VERTEX
  8
W69RA3RAMP
 62
12
 10
1438.724
 20
-6328.496
 30
-1700.000
 70
    32
  0
VERTEX
  8
W69RA3RAMP
 62
12
 10
1444.362
 20
-6322.971
 30
-1700.000
 70
    32
  0
VERTEX
  8
W69RA3RAMP
 62
12
 10
1450.221
 20
-6335.767
 30
-1700.000
 70
    32
  0
VERTEX
  8
W69RA3RAMP
 62
12
 10
1443.453
 20
-6349.494
 30
-1700.000
 70
    32
  0
VERTEX
  8
W69RA3RAMP
 62
12
 10
1441.117
 20
-6363.736
 30
-1700.000
 70
    32
  0
VERTEX
  8
W69RA3RAMP
 62
12
 10
1439.423
 20
-6370.126
 30
-1700.000
 70
    32
  0
VERTEX
  8
W69RA3RAMP
 62
12
 10
1441.143
 20
-6374.066
 30
-1700.000
 70
    32
  0
VERTEX
  8
W69RA3RAMP
 62
12
 10
1449.165
 20
-6386.787
 30
-1700.000
 70
    32
  0
VERTEX
  8
W69RA3RAMP
 62
12
 10
1466.745
 20
-6398.933
 30
-1700.000
 70
    32
  0
VERTEX
  8
W69RA3RAMP
 62
12
 10
1476.254
 20
-6406.522
 30
-1700.000
 70
    32
  0
VERTEX
  8
W69RA3RAMP
 62
12
 10
1462.164
 20
-6408.503
 30
-1700.000
 70
    32
  0
VERTEX
  8
W69RA3RAMP
 62
12
 10
1448.285
 20
-6397.398
 30
-1700.000
 70
    32
  0
VERTEX
  8
W69RA3RAMP
 62
12
 10
1444.759
 20
-6396.602
 30
-1700.000
 70
    32
  0
VERTEX
  8
W69RA3RAMP
 62
12
 10
1443.028
 20
-6401.909
 30
-1700.000
 70
    32
  0
VERTEX
  8
W69RA3RAMP
 62
12
 10
1446.825
 20
-6412.860
 30
-1700.000
 70
    32
  0
VERTEX
  8
W69RA3RAMP
 62
12
 10
1448.575
 20
-6415.299
 30
-1700.000
 70
    32
  0
VERTEX
  8
W69RA3RAMP
 62
12
 10
1458.060
 20
-6426.971
 30
-1700.000
 70
    32
  0
VERTEX
  8
W69RA3RAMP
 62
12
 10
1480.522
 20
-6438.199
 30
-1700.000
 70
    32
  0
VERTEX
  8
W69RA3RAMP
 62
12
 10
1475.491
 20
-6449.202
 30
-1700.000
 70
    32
  0
VERTEX
  8
W69RA3RAMP
 62
12
 10
1455.830
 20
-6441.876
 30
-1700.000
 70
    32
  0
VERTEX
  8
W69RA3RAMP
 62
12
 10
1447.372
 20
-6435.751
 30
-1700.000
 70
    32
  0
VERTEX
  8
W69RA3RAMP
 62
12
 10
1443.946
 20
-6433.035
 30
-1700.000
 70
    32
  0
VERTEX
  8
W69RA3RAMP
 62
12
 10
1442.401
 20
-6429.339
 30
-1700.000
 70
    32
  0
VERTEX
  8
W69RA3RAMP
 62
12
 10
1440.613
 20
-6425.818
 30
-1700.000
 70
    32
  0
VERTEX
  8
W69RA3RAMP
 62
12
 10
1436.836
 20
-6422.615
 30
-1700.000
 70
    32
  0
VERTEX
  8
W69RA3RAMP
 62
12
 10
1434.787
 20
-6407.379
 30
-1700.000
 70
    32
  0
VERTEX
  8
W69RA3RAMP
 62
12
 10
1429.365
 20
-6410.469
 30
-1700.000
 70
    32
  0
VERTEX
  8
W69RA3RAMP
 62
12
 10
1428.837
 20
-6415.786
 30
-1700.000
 70
    32
  0
VERTEX
  8
W69RA3RAMP
 62
12
 10
1430.758
 20
-6426.627
 30
-1700.000
 70
    32
  0
VERTEX
  8
W69RA3RAMP
 62
12
 10
1429.267
 20
-6433.056
 30
-1700.000
 70
    32
  0
VERTEX
  8
W69RA3RAMP
 62
12
 10
1433.801
 20
-6450.701
 30
-1700.000
 70
    32
  0
VERTEX
  8
W69RA3RAMP
 62
12
 10
1433.244
 20
-6456.702
 30
-1700.000
 70
    32
  0
VERTEX
  8
W69RA3RAMP
 62
12
 10
1420.125
 20
-6461.273
 30
-1700.000
 70
    32
  0
VERTEX
  8
W69RA3RAMP
 62
12
 10
1415.681
 20
-6437.717
 30
-1700.000
 70
    32
  0
VERTEX
  8
W69RA3RAMP
 62
12
 10
1402.836
 20
-6436.764
 30
-1700.000
 70
    32
  0
VERTEX
  8
W69RA3RAMP
 62
12
 10
1394.867
 20
-6431.700
 30
-1700.000
 70
    32
  0
VERTEX
  8
W69RA3RAMP
 62
12
 10
1386.227
 20
-6423.035
 30
-1700.000
 70
    32
  0
VERTEX
  8
W69RA3RAMP
 62
12
 10
1400.449
 20
-6407.795
 30
-1700.000
 70
    32
  0
VERTEX
  8
W69RA3RAMP
 62
12
 10
1409.078
 20
-6396.113
 30
-1700.000
 70
    32
  0
VERTEX
  8
W69RA3RAMP
 62
12
 10
1419.860
 20
-6380.596
 30
-1700.000
 70
    32
  0
VERTEX
  8
W69RA3RAMP
 62
12
 10
1424.578
 20
-6371.016
 30
-1700.000
 70
    32
  0
SEQEND
  8
W69RA3RAMP
  0
POLYLINE
  8
W69RA3RAMP
 62
8
 66
     1
 70
     9
  0
VERTEX
  8
W69RA3RAMP
 62
8
 10
1323.708
 20
-6404.528
 30
-1646.010
 70
    32
  0
VERTEX
  8
W69RA3RAMP
 62
8
 10
1320.966
 20
-6417.755
 30
-1646.383
 70
    32
  0
VERTEX
  8
W69RA3RAMP
 62
8
 10
1320.869
 20
-6418.225
 30
-1646.458
 70
    32
  0
VERTEX
  8
W69RA3RAMP
 62
8
 10
1317.583
 20
-6429.514
 30
-1648.267
 70
    32
  0
VERTEX
  8
W69RA3RAMP
 62
8
 10
1318.475
 20
-6438.601
 30
-1649.677
 70
    32
  0
VERTEX
  8
W69RA3RAMP
 62
8
 10
1320.462
 20
-6449.261
 30
-1651.321
 70
    32
  0
VERTEX
  8
W69RA3RAMP
 62
8
 10
1323.984
 20
-6453.114
 30
-1651.879
 70
    32
  0
VERTEX
  8
W69RA3RAMP
 62
8
 10
1326.360
 20
-6455.715
 30
-1652.750
 70
    32
  0
VERTEX
  8
W69RA3RAMP
 62
8
 10
1341.007
 20
-6471.743
 30
-1656.713
 70
    32
  0
VERTEX
  8
W69RA3RAMP
 62
8
 10
1357.059
 20
-6484.868
 30
-1660.325
 70
    32
  0
VERTEX
  8
W69RA3RAMP
 62
8
 10
1359.558
 20
-6484.631
 30
-1660.513
 70
    32
  0
VERTEX
  8
W69RA3RAMP
 62
8
 10
1371.075
 20
-6483.539
 30
-1661.985
 70
    32
  0
VERTEX
  8
W69RA3RAMP
 62
8
 10
1352.584
 20
-6466.876
 30
-1656.961
 70
    32
  0
VERTEX
  8
W69RA3RAMP
 62
8
 10
1348.711
 20
-6463.386
 30
-1656.036
 70
    32
  0
VERTEX
  8
W69RA3RAMP
 62
8
 10
1339.270
 20
-6451.377
 30
-1653.206
 70
    32
  0
VERTEX
  8
W69RA3RAMP
 62
8
 10
1337.670
 20
-6449.750
 30
-1652.794
 70
    32
  0
VERTEX
  8
W69RA3RAMP
 62
8
 10
1332.333
 20
-6444.323
 30
-1650.930
 70
    32
  0
VERTEX
  8
W69RA3RAMP
 62
8
 10
1331.503
 20
-6438.031
 30
-1649.422
 70
    32
  0
VERTEX
  8
W69RA3RAMP
 62
8
 10
1330.898
 20
-6433.451
 30
-1648.713
 70
    32
  0
VERTEX
  8
W69RA3RAMP
 62
8
 10
1331.804
 20
-6420.080
 30
-1646.609
 70
    32
  0
VERTEX
  8
W69RA3RAMP
 62
8
 10
1331.913
 20
-6418.470
 30
-1646.561
 70
    32
  0
VERTEX
  8
W69RA3RAMP
 62
8
 10
1333.459
 20
-6409.973
 30
-1646.318
 70
    32
  0
VERTEX
  8
W69RA3RAMP
 62
8
 10
1336.909
 20
-6404.863
 30
-1646.208
 70
    32
  0
VERTEX
  8
W69RA3RAMP
 62
8
 10
1338.638
 20
-6403.401
 30
-1646.187
 70
    32
  0
VERTEX
  8
W69RA3RAMP
 62
8
 10
1355.073
 20
-6389.506
 30
-1645.235
 70
    32
  0
VERTEX
  8
W69RA3RAMP
 62
8
 10
1359.122
 20
-6389.864
 30
-1645.127
 70
    32
  0
VERTEX
  8
W69RA3RAMP
 62
8
 10
1340.853
 20
-6371.337
 30
-1645.048
 70
    32
  0
VERTEX
  8
W69RA3RAMP
 62
8
 10
1337.375
 20
-6379.663
 30
-1645.429
 70
    32
  0
VERTEX
  8
W69RA3RAMP
 62
8
 10
1336.713
 20
-6381.248
 30
-1645.469
 70
    32
  0
VERTEX
  8
W69RA3RAMP
 62
8
 10
1329.486
 20
-6394.153
 30
-1645.769
 70
    32
  0
VERTEX
  8
W69RA3RAMP
 62
8
 10
1328.883
 20
-6395.387
 30
-1645.799
 70
    32
  0
VERTEX
  8
W69RA3RAMP
 62
8
 10
1328.660
 20
-6395.834
 30
-1645.809
 70
    32
  0
VERTEX
  8
W69RA3RAMP
 62
8
 10
1323.081
 20
-6393.578
 30
-1645.660
 70
    32
  0
VERTEX
  8
W69RA3RAMP
 62
8
 10
1320.168
 20
-6398.830
 30
-1645.782
 70
    32
  0
VERTEX
  8
W69RA3RAMP
 62
8
 10
1323.708
 20
-6404.528
 30
-1646.010
 70
    32
  0
SEQEND
  8
W69RA3RAMP
  0
POLYLINE
  8
W69RA3RAMP
 62
7
 66
     1
 70
     9
  0
VERTEX
  8
W69RA3RAMP
 62
7
 10
1381.383
 20
-6653.679
 30
-1580.591
 70
    32
  0
VERTEX
  8
W69RA3RAMP
 62
7
 10
1384.470
 20
-6655.401
 30
-1581.146
 70
    32
  0
VERTEX
  8
W69RA3RAMP
 62
7
 10
1395.600
 20
-6661.608
 30
-1580.218
 70
    32
  0
VERTEX
  8
W69RA3RAMP
 62
7
 10
1394.336
 20
-6664.373
 30
-1580.195
 70
    32
  0
VERTEX
  8
W69RA3RAMP
 62
7
 10
1445.824
 20
-6694.391
 30
-1575.855
 70
    32
  0
VERTEX
  8
W69RA3RAMP
 62
7
 10
1483.069
 20
-6716.105
 30
-1572.821
 70
    32
  0
VERTEX
  8
W69RA3RAMP
 62
7
 10
1483.384
 20
-6715.889
 30
-1572.806
 70
    32
  0
VERTEX
  8
W69RA3RAMP
 62
7
 10
1487.502
 20
-6730.266
 30
-1572.192
 70
    32
  0
VERTEX
  8
W69RA3RAMP
 62
7
 10
1484.322
 20
-6728.411
 30
-1572.400
 70
    32
  0
VERTEX
  8
W69RA3RAMP
 62
7
 10
1407.286
 20
-6683.498
 30
-1578.675
 70
    32
  0
VERTEX
  8
W69RA3RAMP
 62
7
 10
1390.089
 20
-6673.472
 30
-1580.125
 70
    32
  0
VERTEX
  8
W69RA3RAMP
 62
7
 10
1387.613
 20
-6670.846
 30
-1580.377
 70
    32
  0
VERTEX
  8
W69RA3RAMP
 62
7
 10
1380.971
 20
-6666.470
 30
-1581.556
 70
    32
  0
VERTEX
  8
W69RA3RAMP
 62
7
 10
1381.146
 20
-6661.036
 30
-1581.146
 70
    32
  0
SEQEND
  8
W69RA3RAMP
  0
POLYLINE
  8
W69RA3RAMP
 62
3
 66
     1
 70
     9
  0
VERTEX
  8
W69RA3RAMP
 62
3
 10
1520.140
 20
-6866.516
 30
-1632.508
 70
    32
  0
VERTEX
  8
W69RA3RAMP
 62
3
 10
1477.169
 20
-6769.631
 30
-1632.890
 70
    32
  0
VERTEX
  8
W69RA3RAMP
 62
3
 10
1485.616
 20
-6765.896
 30
-1632.890
 70
    32
  0
VERTEX
  8
W69RA3RAMP
 62
3
 10
1520.279
 20
-6841.502
 30
-1632.890
 70
    32
  0
VERTEX
  8
W69RA3RAMP
 62
3
 10
1524.182
 20
-6842.113
 30
-1632.890
 70
    32
  0
VERTEX
  8
W69RA3RAMP
 62
3
 10
1530.659
 20
-6826.500
 30
-1632.890
 70
    32
  0
VERTEX
  8
W69RA3RAMP
 62
3
 10
1543.166
 20
-6791.697
 30
-1638.807
 70
    32
  0
VERTEX
  8
W69RA3RAMP
 62
3
 10
1549.971
 20
-6769.904
 30
-1642.460
 70
    32
  0
VERTEX
  8
W69RA3RAMP
 62
3
 10
1552.641
 20
-6769.904
 30
-1642.887
 70
    32
  0
VERTEX
  8
W69RA3RAMP
 62
3
 10
1555.070
 20
-6766.029
 30
-1643.619
 70
    32
  0
VERTEX
  8
W69RA3RAMP
 62
3
 10
1594.402
 20
-6727.110
 30
-1652.472
 70
    32
  0
VERTEX
  8
W69RA3RAMP
 62
3
 10
1597.583
 20
-6719.724
 30
-1653.759
 70
    32
  0
VERTEX
  8
W69RA3RAMP
 62
3
 10
1597.540
 20
-6709.027
 30
-1655.470
 70
    32
  0
VERTEX
  8
W69RA3RAMP
 62
3
 10
1596.983
 20
-6698.882
 30
-1657.096
 70
    32
  0
VERTEX
  8
W69RA3RAMP
 62
3
 10
1597.146
 20
-6678.898
 30
-1660.294
 70
    32
  0
VERTEX
  8
W69RA3RAMP
 62
3
 10
1595.433
 20
-6667.954
 30
-1662.066
 70
    32
  0
VERTEX
  8
W69RA3RAMP
 62
3
 10
1611.180
 20
-6664.019
 30
-1663.890
 70
    32
  0
VERTEX
  8
W69RA3RAMP
 62
3
 10
1612.631
 20
-6674.581
 30
-1662.184
 70
    32
  0
VERTEX
  8
W69RA3RAMP
 62
3
 10
1614.886
 20
-6709.108
 30
-1656.648
 70
    32
  0
VERTEX
  8
W69RA3RAMP
 62
3
 10
1609.726
 20
-6719.908
 30
-1654.733
 70
    32
  0
VERTEX
  8
W69RA3RAMP
 62
3
 10
1610.597
 20
-6724.918
 30
-1653.919
 70
    32
  0
VERTEX
  8
W69RA3RAMP
 62
3
 10
1563.937
 20
-6771.324
 30
-1643.390
 70
    32
  0
VERTEX
  8
W69RA3RAMP
 62
3
 10
1552.694
 20
-6794.751
 30
-1639.232
 70
    32
  0
VERTEX
  8
W69RA3RAMP
 62
3
 10
1540.424
 20
-6828.896
 30
-1633.427
 70
    32
  0
VERTEX
  8
W69RA3RAMP
 62
3
 10
1534.696
 20
-6851.387
 30
-1632.890
 70
    32
  0
VERTEX
  8
W69RA3RAMP
 62
3
 10
1536.922
 20
-6861.127
 30
-1633.361
 70
    32
  0
SEQEND
  8
W69RA3RAMP
  0
LINE
  8
W69RA3RAMP
 62
30
 10
1539.954
 20
-6800.308
 30
-1632.890
 11
1548.860
 21
-6804.432
 31
-1632.890
  0
POLYLINE
  8
W69RA3RAMP
 62
12
 66
     1
 70
     9
  0
VERTEX
  8
W69RA3RAMP
 62
12
 10
1379.046
 20
-6301.387
 30
-1672.183
 70
    32
  0
VERTEX
  8
W69RA3RAMP
 62
12
 10
1383.055
 20
-6302.953
 30
-1670.645
 70
    32
  0
VERTEX
  8
W69RA3RAMP
 62
12
 10
1383.569
 20
-6303.154
 30
-1670.716
 70
    32
  0
VERTEX
  8
W69RA3RAMP
 62
12
 10
1385.283
 20
-6305.674
 30
-1671.196
 70
    32
  0
VERTEX
  8
W69RA3RAMP
 62
12
 10
1386.791
 20
-6307.892
 30
-1671.425
 70
    32
  0
VERTEX
  8
W69RA3RAMP
 62
12
 10
1387.733
 20
-6309.278
 30
-1671.138
 70
    32
  0
VERTEX
  8
W69RA3RAMP
 62
12
 10
1391.071
 20
-6312.639
 30
-1670.307
 70
    32
  0
VERTEX
  8
W69RA3RAMP
 62
12
 10
1394.241
 20
-6315.832
 30
-1669.627
 70
    32
  0
VERTEX
  8
W69RA3RAMP
 62
12
 10
1395.986
 20
-6317.588
 30
-1669.442
 70
    32
  0
VERTEX
  8
W69RA3RAMP
 62
12
 10
1395.607
 20
-6319.094
 30
-1669.377
 70
    32
  0
VERTEX
  8
W69RA3RAMP
 62
12
 10
1393.716
 20
-6326.613
 30
-1669.131
 70
    32
  0
VERTEX
  8
W69RA3RAMP
 62
12
 10
1393.145
 20
-6328.885
 30
-1668.866
 70
    32
  0
VERTEX
  8
W69RA3RAMP
 62
12
 10
1393.329
 20
-6329.353
 30
-1668.835
 70
    32
  0
VERTEX
  8
W69RA3RAMP
 62
12
 10
1394.835
 20
-6333.184
 30
-1669.531
 70
    32
  0
VERTEX
  8
W69RA3RAMP
 62
12
 10
1395.717
 20
-6333.375
 30
-1669.390
 70
    32
  0
VERTEX
  8
W69RA3RAMP
 62
12
 10
1404.256
 20
-6335.224
 30
-1670.676
 70
    32
  0
VERTEX
  8
W69RA3RAMP
 62
12
 10
1404.803
 20
-6335.342
 30
-1670.723
 70
    32
  0
VERTEX
  8
W69RA3RAMP
 62
12
 10
1408.293
 20
-6343.886
 30
-1672.057
 70
    32
  0
VERTEX
  8
W69RA3RAMP
 62
12
 10
1411.908
 20
-6352.735
 30
-1673.361
 70
    32
  0
VERTEX
  8
W69RA3RAMP
 62
12
 10
1413.216
 20
-6355.936
 30
-1673.914
 70
    32
  0
VERTEX
  8
W69RA3RAMP
 62
12
 10
1414.839
 20
-6359.910
 30
-1674.493
 70
    32
  0
VERTEX
  8
W69RA3RAMP
 62
12
 10
1414.531
 20
-6361.383
 30
-1674.681
 70
    32
  0
VERTEX
  8
W69RA3RAMP
 62
12
 10
1413.655
 20
-6365.576
 30
-1674.674
 70
    32
  0
VERTEX
  8
W69RA3RAMP
 62
12
 10
1413.128
 20
-6368.101
 30
-1674.785
 70
    32
  0
VERTEX
  8
W69RA3RAMP
 62
12
 10
1412.696
 20
-6370.166
 30
-1674.785
 70
    32
  0
VERTEX
  8
W69RA3RAMP
 62
12
 10
1412.330
 20
-6371.919
 30
-1674.785
 70
    32
  0
VERTEX
  8
W69RA3RAMP
 62
12
 10
1411.661
 20
-6375.119
 30
-1674.785
 70
    32
  0
VERTEX
  8
W69RA3RAMP
 62
12
 10
1410.974
 20
-6378.409
 30
-1674.785
 70
    32
  0
VERTEX
  8
W69RA3RAMP
 62
12
 10
1410.437
 20
-6380.978
 30
-1674.785
 70
    32
  0
VERTEX
  8
W69RA3RAMP
 62
12
 10
1409.816
 20
-6383.952
 30
-1674.785
 70
    32
  0
VERTEX
  8
W69RA3RAMP
 62
12
 10
1408.731
 20
-6389.143
 30
-1674.785
 70
    32
  0
VERTEX
  8
W69RA3RAMP
 62
12
 10
1408.247
 20
-6391.461
 30
-1674.785
 70
    32
  0
VERTEX
  8
W69RA3RAMP
 62
12
 10
1407.872
 20
-6392.496
 30
-1674.785
 70
    32
  0
VERTEX
  8
W69RA3RAMP
 62
12
 10
1405.945
 20
-6397.817
 30
-1674.785
 70
    32
  0
VERTEX
  8
W69RA3RAMP
 62
12
 10
1404.705
 20
-6401.240
 30
-1674.785
 70
    32
  0
VERTEX
  8
W69RA3RAMP
 62
12
 10
1403.690
 20
-6404.044
 30
-1674.785
 70
    32
  0
VERTEX
  8
W69RA3RAMP
 62
12
 10
1403.074
 20
-6405.746
 30
-1674.785
 70
    32
  0
VERTEX
  8
W69RA3RAMP
 62
12
 10
1402.688
 20
-6406.811
 30
-1674.785
 70
    32
  0
VERTEX
  8
W69RA3RAMP
 62
12
 10
1401.922
 20
-6408.773
 30
-1674.785
 70
    32
  0
VERTEX
  8
W69RA3RAMP
 62
12
 10
1401.206
 20
-6410.609
 30
-1674.785
 70
    32
  0
VERTEX
  8
W69RA3RAMP
 62
12
 10
1400.523
 20
-6412.358
 30
-1674.785
 70
    32
  0
VERTEX
  8
W69RA3RAMP
 62
12
 10
1399.329
 20
-6415.417
 30
-1674.785
 70
    32
  0
VERTEX
  8
W69RA3RAMP
 62
12
 10
1397.779
 20
-6419.387
 30
-1674.785
 70
    32
  0
VERTEX
  8
W69RA3RAMP
 62
12
 10
1396.890
 20
-6421.665
 30
-1674.785
 70
    32
  0
VERTEX
  8
W69RA3RAMP
 62
12
 10
1396.384
 20
-6422.962
 30
-1674.785
 70
    32
  0
VERTEX
  8
W69RA3RAMP
 62
12
 10
1396.163
 20
-6423.528
 30
-1674.785
 70
    32
  0
VERTEX
  8
W69RA3RAMP
 62
12
 10
1400.537
 20
-6424.624
 30
-1674.785
 70
    32
  0
VERTEX
  8
W69RA3RAMP
 62
12
 10
1407.304
 20
-6426.319
 30
-1674.785
 70
    32
  0
VERTEX
  8
W69RA3RAMP
 62
12
 10
1407.501
 20
-6425.863
 30
-1674.785
 70
    32
  0
VERTEX
  8
W69RA3RAMP
 62
12
 10
1408.686
 20
-6423.123
 30
-1674.785
 70
    32
  0
VERTEX
  8
W69RA3RAMP
 62
12
 10
1410.149
 20
-6419.738
 30
-1674.785
 70
    32
  0
VERTEX
  8
W69RA3RAMP
 62
12
 10
1411.366
 20
-6416.924
 30
-1674.785
 70
    32
  0
VERTEX
  8
W69RA3RAMP
 62
12
 10
1412.266
 20
-6414.841
 30
-1674.785
 70
    32
  0
VERTEX
  8
W69RA3RAMP
 62
12
 10
1413.120
 20
-6412.866
 30
-1674.785
 70
    32
  0
VERTEX
  8
W69RA3RAMP
 62
12
 10
1414.269
 20
-6410.208
 30
-1674.785
 70
    32
  0
VERTEX
  8
W69RA3RAMP
 62
12
 10
1414.968
 20
-6408.592
 30
-1674.785
 70
    32
  0
VERTEX
  8
W69RA3RAMP
 62
12
 10
1415.037
 20
-6408.347
 30
-1674.785
 70
    32
  0
VERTEX
  8
W69RA3RAMP
 62
12
 10
1415.839
 20
-6405.510
 30
-1674.785
 70
    32
  0
VERTEX
  8
W69RA3RAMP
 62
12
 10
1417.052
 20
-6401.220
 30
-1674.785
 70
    32
  0
VERTEX
  8
W69RA3RAMP
 62
12
 10
1418.448
 20
-6396.279
 30
-1674.785
 70
    32
  0
VERTEX
  8
W69RA3RAMP
 62
12
 10
1418.922
 20
-6394.603
 30
-1674.785
 70
    32
  0
VERTEX
  8
W69RA3RAMP
 62
12
 10
1420.250
 20
-6389.906
 30
-1674.785
 70
    32
  0
VERTEX
  8
W69RA3RAMP
 62
12
 10
1421.687
 20
-6384.822
 30
-1674.785
 70
    32
  0
VERTEX
  8
W69RA3RAMP
 62
12
 10
1422.392
 20
-6384.628
 30
-1674.785
 70
    32
  0
VERTEX
  8
W69RA3RAMP
 62
12
 10
1425.544
 20
-6383.762
 30
-1674.785
 70
    32
  0
VERTEX
  8
W69RA3RAMP
 62
12
 10
1425.845
 20
-6384.226
 30
-1674.785
 70
    32
  0
VERTEX
  8
W69RA3RAMP
 62
12
 10
1429.178
 20
-6389.373
 30
-1674.785
 70
    32
  0
VERTEX
  8
W69RA3RAMP
 62
12
 10
1430.948
 20
-6392.105
 30
-1674.785
 70
    32
  0
VERTEX
  8
W69RA3RAMP
 62
12
 10
1432.094
 20
-6391.880
 30
-1674.785
 70
    32
  0
VERTEX
  8
W69RA3RAMP
 62
12
 10
1439.536
 20
-6390.420
 30
-1674.785
 70
    32
  0
VERTEX
  8
W69RA3RAMP
 62
12
 10
1443.332
 20
-6389.675
 30
-1674.785
 70
    32
  0
VERTEX
  8
W69RA3RAMP
 62
12
 10
1440.452
 20
-6383.339
 30
-1674.785
 70
    32
  0
VERTEX
  8
W69RA3RAMP
 62
12
 10
1439.067
 20
-6380.292
 30
-1674.785
 70
    32
  0
VERTEX
  8
W69RA3RAMP
 62
12
 10
1436.496
 20
-6374.637
 30
-1674.785
 70
    32
  0
VERTEX
  8
W69RA3RAMP
 62
12
 10
1436.199
 20
-6373.984
 30
-1674.785
 70
    32
  0
VERTEX
  8
W69RA3RAMP
 62
12
 10
1434.651
 20
-6370.672
 30
-1674.785
 70
    32
  0
VERTEX
  8
W69RA3RAMP
 62
12
 10
1430.786
 20
-6362.404
 30
-1674.731
 70
    32
  0
VERTEX
  8
W69RA3RAMP
 62
12
 10
1428.494
 20
-6357.501
 30
-1674.728
 70
    32
  0
VERTEX
  8
W69RA3RAMP
 62
12
 10
1426.869
 20
-6354.025
 30
-1674.206
 70
    32
  0
VERTEX
  8
W69RA3RAMP
 62
12
 10
1426.011
 20
-6352.190
 30
-1673.921
 70
    32
  0
VERTEX
  8
W69RA3RAMP
 62
12
 10
1424.403
 20
-6348.548
 30
-1673.360
 70
    32
  0
VERTEX
  8
W69RA3RAMP
 62
12
 10
1420.572
 20
-6339.874
 30
-1672.069
 70
    32
  0
VERTEX
  8
W69RA3RAMP
 62
12
 10
1417.109
 20
-6332.031
 30
-1670.945
 70
    32
  0
VERTEX
  8
W69RA3RAMP
 62
12
 10
1416.696
 20
-6329.977
 30
-1670.675
 70
    32
  0
VERTEX
  8
W69RA3RAMP
 62
12
 10
1414.737
 20
-6320.247
 30
-1669.415
 70
    32
  0
VERTEX
  8
W69RA3RAMP
 62
12
 10
1413.870
 20
-6315.939
 30
-1668.835
 70
    32
  0
VERTEX
  8
W69RA3RAMP
 62
12
 10
1413.475
 20
-6313.979
 30
-1668.974
 70
    32
  0
VERTEX
  8
W69RA3RAMP
 62
12
 10
1412.691
 20
-6310.083
 30
-1669.156
 70
    32
  0
VERTEX
  8
W69RA3RAMP
 62
12
 10
1406.455
 20
-6306.837
 30
-1669.516
 70
    32
  0
VERTEX
  8
W69RA3RAMP
 62
12
 10
1400.773
 20
-6303.881
 30
-1670.300
 70
    32
  0
VERTEX
  8
W69RA3RAMP
 62
12
 10
1400.693
 20
-6303.839
 30
-1670.313
 70
    32
  0
VERTEX
  8
W69RA3RAMP
 62
12
 10
1395.935
 20
-6298.682
 30
-1671.365
 70
    32
  0
VERTEX
  8
W69RA3RAMP
 62
12
 10
1393.132
 20
-6295.645
 30
-1670.724
 70
    32
  0
VERTEX
  8
W69RA3RAMP
 62
12
 10
1389.863
 20
-6292.102
 30
-1669.826
 70
    32
  0
VERTEX
  8
W69RA3RAMP
 62
12
 10
1388.244
 20
-6287.369
 30
-1673.356
 70
    32
  0
VERTEX
  8
W69RA3RAMP
 62
12
 10
1372.072
 20
-6298.890
 30
-1673.367
 70
    32
  0
SEQEND
  8
W69RA3RAMP
  0
LINE
  8
W69RA3RAMP
 62
4
 10
1974.578
 20
-7193.935
 30
-1647.396
 11
1979.403
 21
-7201.868
 31
-1648.087
  0
POLYLINE
  8
W69RA3RAMP
 62
4
 66
     1
 70
     8
  0
VERTEX
  8
W69RA3RAMP
 62
4
 10
1970.778
 20
-6968.519
 30
-1662.713
 70
    32
  0
VERTEX
  8
W69RA3RAMP
 62
4
 10
1975.520
 20
-6966.287
 30
-1663.302
 70
    32
  0
VERTEX
  8
W69RA3RAMP
 62
4
 10
1978.345
 20
-6968.188
 30
-1662.957
 70
    32
  0
VERTEX
  8
W69RA3RAMP
 62
4
 10
1985.122
 20
-6981.050
 30
-1661.826
 70
    32
  0
VERTEX
  8
W69RA3RAMP
 62
4
 10
1991.271
 20
-6986.015
 30
-1662.881
 70
    32
  0
VERTEX
  8
W69RA3RAMP
 62
4
 10
1996.181
 20
-6987.442
 30
-1662.303
 70
    32
  0
VERTEX
  8
W69RA3RAMP
 62
4
 10
2003.116
 20
-6991.467
 30
-1662.070
 70
    32
  0
VERTEX
  8
W69RA3RAMP
 62
4
 10
2006.439
 20
-6992.935
 30
-1662.226
 70
    32
  0
VERTEX
  8
W69RA3RAMP
 62
4
 10
2012.969
 20
-6996.645
 30
-1664.683
 70
    32
  0
VERTEX
  8
W69RA3RAMP
 62
4
 10
2029.265
 20
-7002.894
 30
-1662.856
 70
    32
  0
VERTEX
  8
W69RA3RAMP
 62
4
 10
2034.036
 20
-7005.548
 30
-1662.383
 70
    32
  0
VERTEX
  8
W69RA3RAMP
 62
4
 10
2046.604
 20
-7013.832
 30
-1663.234
 70
    32
  0
VERTEX
  8
W69RA3RAMP
 62
4
 10
2051.514
 20
-7019.339
 30
-1662.871
 70
    32
  0
VERTEX
  8
W69RA3RAMP
 62
4
 10
2059.096
 20
-7034.948
 30
-1662.665
 70
    32
  0
VERTEX
  8
W69RA3RAMP
 62
4
 10
2062.537
 20
-7045.912
 30
-1661.814
 70
    32
  0
VERTEX
  8
W69RA3RAMP
 62
4
 10
2064.651
 20
-7052.938
 30
-1661.595
 70
    32
  0
VERTEX
  8
W69RA3RAMP
 62
4
 10
2067.917
 20
-7065.036
 30
-1660.820
 70
    32
  0
VERTEX
  8
W69RA3RAMP
 62
4
 10
2065.639
 20
-7076.973
 30
-1661.647
 70
    32
  0
VERTEX
  8
W69RA3RAMP
 62
4
 10
2062.129
 20
-7086.032
 30
-1659.144
 70
    32
  0
VERTEX
  8
W69RA3RAMP
 62
4
 10
2058.253
 20
-7092.697
 30
-1659.259
 70
    32
  0
VERTEX
  8
W69RA3RAMP
 62
4
 10
2055.111
 20
-7093.783
 30
-1658.041
 70
    32
  0
VERTEX
  8
W69RA3RAMP
 62
4
 10
2049.432
 20
-7100.060
 30
-1657.025
 70
    32
  0
VERTEX
  8
W69RA3RAMP
 62
4
 10
2040.140
 20
-7108.966
 30
-1661.813
 70
    32
  0
VERTEX
  8
W69RA3RAMP
 62
4
 10
2039.196
 20
-7111.709
 30
-1661.478
 70
    32
  0
VERTEX
  8
W69RA3RAMP
 62
4
 10
2034.085
 20
-7120.678
 30
-1655.500
 70
    32
  0
VERTEX
  8
W69RA3RAMP
 62
4
 10
2027.023
 20
-7131.397
 30
-1653.218
 70
    32
  0
VERTEX
  8
W69RA3RAMP
 62
4
 10
2016.259
 20
-7146.422
 30
-1654.537
 70
    32
  0
VERTEX
  8
W69RA3RAMP
 62
4
 10
2007.051
 20
-7158.745
 30
-1654.000
 70
    32
  0
VERTEX
  8
W69RA3RAMP
 62
4
 10
1990.592
 20
-7179.512
 30
-1652.470
 70
    32
  0
VERTEX
  8
W69RA3RAMP
 62
4
 10
1990.516
 20
-7185.169
 30
-1653.526
 70
    32
  0
VERTEX
  8
W69RA3RAMP
 62
4
 10
1987.484
 20
-7190.232
 30
-1651.593
 70
    32
  0
VERTEX
  8
W69RA3RAMP
 62
4
 10
1979.403
 20
-7201.868
 30
-1648.087
 70
    32
  0
SEQEND
  8
W69RA3RAMP
  0
POLYLINE
  8
W69RA3RAMP
 62
4
 66
     1
 70
     8
  0
VERTEX
  8
W69RA3RAMP
 62
4
 10
1970.778
 20
-6968.519
 30
-1662.713
 70
    32
  0
VERTEX
  8
W69RA3RAMP
 62
4
 10
1976.097
 20
-6938.007
 30
-1668.309
 70
    32
  0
VERTEX
  8
W69RA3RAMP
 62
4
 10
1976.517
 20
-6942.271
 30
-1662.882
 70
    32
  0
VERTEX
  8
W69RA3RAMP
 62
4
 10
1976.835
 20
-6949.494
 30
-1664.276
 70
    32
  0
VERTEX
  8
W69RA3RAMP
 62
4
 10
1980.998
 20
-6953.152
 30
-1665.238
 70
    32
  0
VERTEX
  8
W69RA3RAMP
 62
4
 10
1981.733
 20
-6957.502
 30
-1663.847
 70
    32
  0
VERTEX
  8
W69RA3RAMP
 62
4
 10
1987.702
 20
-6965.464
 30
-1663.201
 70
    32
  0
VERTEX
  8
W69RA3RAMP
 62
4
 10
1995.765
 20
-6974.514
 30
-1664.217
 70
    32
  0
VERTEX
  8
W69RA3RAMP
 62
4
 10
1998.235
 20
-6976.283
 30
-1664.872
 70
    32
  0
VERTEX
  8
W69RA3RAMP
 62
4
 10
2008.959
 20
-6982.036
 30
-1664.253
 70
    32
  0
VERTEX
  8
W69RA3RAMP
 62
4
 10
2015.674
 20
-6986.089
 30
-1664.498
 70
    32
  0
VERTEX
  8
W69RA3RAMP
 62
4
 10
2029.172
 20
-6990.739
 30
-1663.483
 70
    32
  0
VERTEX
  8
W69RA3RAMP
 62
4
 10
2039.571
 20
-6993.636
 30
-1661.992
 70
    32
  0
VERTEX
  8
W69RA3RAMP
 62
4
 10
2047.875
 20
-6997.541
 30
-1661.454
 70
    32
  0
VERTEX
  8
W69RA3RAMP
 62
4
 10
2051.217
 20
-7001.554
 30
-1663.048
 70
    32
  0
VERTEX
  8
W69RA3RAMP
 62
4
 10
2063.906
 20
-7013.141
 30
-1662.554
 70
    32
  0
VERTEX
  8
W69RA3RAMP
 62
4
 10
2073.273
 20
-7030.727
 30
-1662.150
 70
    32
  0
VERTEX
  8
W69RA3RAMP
 62
4
 10
2079.124
 20
-7053.737
 30
-1661.290
 70
    32
  0
VERTEX
  8
W69RA3RAMP
 62
4
 10
2079.906
 20
-7064.123
 30
-1661.861
 70
    32
  0
VERTEX
  8
W69RA3RAMP
 62
4
 10
2079.106
 20
-7076.018
 30
-1660.795
 70
    32
  0
VERTEX
  8
W69RA3RAMP
 62
4
 10
2078.601
 20
-7076.851
 30
-1661.680
 70
    32
  0
VERTEX
  8
W69RA3RAMP
 62
4
 10
2073.313
 20
-7087.147
 30
-1659.302
 70
    32
  0
VERTEX
  8
W69RA3RAMP
 62
4
 10
2070.491
 20
-7088.057
 30
-1660.053
 70
    32
  0
VERTEX
  8
W69RA3RAMP
 62
4
 10
2067.088
 20
-7096.739
 30
-1658.031
 70
    32
  0
VERTEX
  8
W69RA3RAMP
 62
4
 10
2064.293
 20
-7100.474
 30
-1658.074
 70
    32
  0
VERTEX
  8
W69RA3RAMP
 62
4
 10
2058.993
 20
-7108.251
 30
-1657.087
 70
    32
  0
VERTEX
  8
W69RA3RAMP
 62
4
 10
2053.448
 20
-7113.230
 30
-1657.361
 70
    32
  0
VERTEX
  8
W69RA3RAMP
 62
4
 10
2051.100
 20
-7116.108
 30
-1656.871
 70
    32
  0
VERTEX
  8
W69RA3RAMP
 62
4
 10
2037.867
 20
-7135.344
 30
-1653.386
 70
    32
  0
VERTEX
  8
W69RA3RAMP
 62
4
 10
2025.118
 20
-7154.210
 30
-1655.275
 70
    32
  0
VERTEX
  8
W69RA3RAMP
 62
4
 10
2017.528
 20
-7166.445
 30
-1654.610
 70
    32
  0
VERTEX
  8
W69RA3RAMP
 62
4
 10
2013.622
 20
-7173.898
 30
-1653.484
 70
    32
  0
VERTEX
  8
W69RA3RAMP
 62
4
 10
2000.162
 20
-7191.534
 30
-1652.986
 70
    32
  0
VERTEX
  8
W69RA3RAMP
 62
4
 10
1997.729
 20
-7194.924
 30
-1652.219
 70
    32
  0
VERTEX
  8
W69RA3RAMP
 62
4
 10
1992.470
 20
-7201.676
 30
-1650.990
 70
    32
  0
VERTEX
  8
W69RA3RAMP
 62
4
 10
1990.045
 20
-7205.760
 30
-1647.894
 70
    32
  0
VERTEX
  8
W69RA3RAMP
 62
4
 10
1988.706
 20
-7210.702
 30
-1646.045
 70
    32
  0
VERTEX
  8
W69RA3RAMP
 62
4
 10
1986.995
 20
-7213.793
 30
-1647.333
 70
    32
  0
VERTEX
  8
W69RA3RAMP
 62
4
 10
1986.443
 20
-7216.823
 30
-1646.831
 70
    32
  0
VERTEX
  8
W69RA3RAMP
 62
4
 10
1984.656
 20
-7224.214
 30
-1651.635
 70
    32
  0
SEQEND
  8
W69RA3RAMP
  0
POLYLINE
  8
W69RA3RAMP
 62
4
 66
     1
 70
     8
  0
VERTEX
  8
W69RA3RAMP
 62
4
 10
1777.332
 20
-6757.062
 30
-1551.133
 70
    32
  0
VERTEX
  8
W69RA3RAMP
 62
4
 10
1777.175
 20
-6762.245
 30
-1550.189
 70
    32
  0
VERTEX
  8
W69RA3RAMP
 62
4
 10
1771.995
 20
-6765.410
 30
-1551.101
 70
    32
  0
VERTEX
  8
W69RA3RAMP
 62
4
 10
1763.296
 20
-6768.302
 30
-1552.548
 70
    32
  0
VERTEX
  8
W69RA3RAMP
 62
4
 10
1746.085
 20
-6778.637
 30
-1555.858
 70
    32
  0
VERTEX
  8
W69RA3RAMP
 62
4
 10
1739.928
 20
-6784.249
 30
-1557.368
 70
    32
  0
VERTEX
  8
W69RA3RAMP
 62
4
 10
1732.636
 20
-6791.036
 30
-1560.932
 70
    32
  0
VERTEX
  8
W69RA3RAMP
 62
4
 10
1727.882
 20
-6794.132
 30
-1558.810
 70
    32
  0
VERTEX
  8
W69RA3RAMP
 62
4
 10
1723.884
 20
-6799.145
 30
-1560.014
 70
    32
  0
VERTEX
  8
W69RA3RAMP
 62
4
 10
1714.777
 20
-6802.619
 30
-1559.463
 70
    32
  0
VERTEX
  8
W69RA3RAMP
 62
4
 10
1705.867
 20
-6804.328
 30
-1559.339
 70
    32
  0
VERTEX
  8
W69RA3RAMP
 62
4
 10
1702.502
 20
-6808.500
 30
-1560.381
 70
    32
  0
VERTEX
  8
W69RA3RAMP
 62
4
 10
1697.361
 20
-6811.543
 30
-1558.911
 70
    32
  0
VERTEX
  8
W69RA3RAMP
 62
4
 10
1686.633
 20
-6817.663
 30
-1557.004
 70
    32
  0
VERTEX
  8
W69RA3RAMP
 62
4
 10
1678.648
 20
-6822.341
 30
-1559.109
 70
    32
  0
VERTEX
  8
W69RA3RAMP
 62
4
 10
1659.198
 20
-6835.660
 30
-1552.742
 70
    32
  0
VERTEX
  8
W69RA3RAMP
 62
4
 10
1649.148
 20
-6843.799
 30
-1550.416
 70
    32
  0
VERTEX
  8
W69RA3RAMP
 62
4
 10
1641.530
 20
-6849.860
 30
-1547.615
 70
    32
  0
VERTEX
  8
W69RA3RAMP
 62
4
 10
1629.083
 20
-6860.365
 30
-1545.271
 70
    32
  0
VERTEX
  8
W69RA3RAMP
 62
4
 10
1622.862
 20
-6865.562
 30
-1543.175
 70
    32
  0
VERTEX
  8
W69RA3RAMP
 62
4
 10
1615.866
 20
-6873.430
 30
-1542.152
 70
    32
  0
VERTEX
  8
W69RA3RAMP
 62
4
 10
1608.909
 20
-6880.983
 30
-1539.029
 70
    32
  0
VERTEX
  8
W69RA3RAMP
 62
4
 10
1608.671
 20
-6881.584
 30
-1536.803
 70
    32
  0
VERTEX
  8
W69RA3RAMP
 62
4
 10
1609.715
 20
-6886.800
 30
-1536.716
 70
    32
  0
VERTEX
  8
W69RA3RAMP
 62
4
 10
1606.324
 20
-6893.063
 30
-1537.953
 70
    32
  0
VERTEX
  8
W69RA3RAMP
 62
4
 10
1606.517
 20
-6897.924
 30
-1537.191
 70
    32
  0
VERTEX
  8
W69RA3RAMP
 62
4
 10
1606.151
 20
-6903.203
 30
-1533.849
 70
    32
  0
VERTEX
  8
W69RA3RAMP
 62
4
 10
1605.615
 20
-6913.034
 30
-1534.018
 70
    32
  0
VERTEX
  8
W69RA3RAMP
 62
4
 10
1614.195
 20
-6945.440
 30
-1531.152
 70
    32
  0
VERTEX
  8
W69RA3RAMP
 62
4
 10
1623.592
 20
-6972.834
 30
-1527.474
 70
    32
  0
VERTEX
  8
W69RA3RAMP
 62
4
 10
1627.451
 20
-6986.880
 30
-1523.763
 70
    32
  0
VERTEX
  8
W69RA3RAMP
 62
4
 10
1629.038
 20
-6992.035
 30
-1524.467
 70
    32
  0
VERTEX
  8
W69RA3RAMP
 62
4
 10
1632.747
 20
-7004.274
 30
-1521.818
 70
    32
  0
VERTEX
  8
W69RA3RAMP
 62
4
 10
1637.098
 20
-7017.581
 30
-1517.750
 70
    32
  0
VERTEX
  8
W69RA3RAMP
 62
4
 10
1641.744
 20
-7029.115
 30
-1518.513
 70
    32
  0
VERTEX
  8
W69RA3RAMP
 62
4
 10
1648.716
 20
-7040.173
 30
-1521.573
 70
    32
  0
VERTEX
  8
W69RA3RAMP
 62
4
 10
1655.159
 20
-7049.047
 30
-1521.792
 70
    32
  0
VERTEX
  8
W69RA3RAMP
 62
4
 10
1663.775
 20
-7067.955
 30
-1526.449
 70
    32
  0
VERTEX
  8
W69RA3RAMP
 62
4
 10
1670.764
 20
-7084.428
 30
-1531.214
 70
    32
  0
VERTEX
  8
W69RA3RAMP
 62
4
 10
1677.948
 20
-7098.644
 30
-1535.817
 70
    32
  0
VERTEX
  8
W69RA3RAMP
 62
4
 10
1679.328
 20
-7102.250
 30
-1536.401
 70
    32
  0
VERTEX
  8
W69RA3RAMP
 62
4
 10
1681.989
 20
-7113.951
 30
-1535.032
 70
    32
  0
VERTEX
  8
W69RA3RAMP
 62
4
 10
1686.510
 20
-7134.039
 30
-1534.905
 70
    32
  0
VERTEX
  8
W69RA3RAMP
 62
4
 10
1692.217
 20
-7144.305
 30
-1533.801
 70
    32
  0
VERTEX
  8
W69RA3RAMP
 62
4
 10
1692.975
 20
-7149.375
 30
-1531.450
 70
    32
  0
VERTEX
  8
W69RA3RAMP
 62
4
 10
1696.521
 20
-7156.767
 30
-1531.107
 70
    32
  0
VERTEX
  8
W69RA3RAMP
 62
4
 10
1699.886
 20
-7156.278
 30
-1531.735
 70
    32
  0
VERTEX
  8
W69RA3RAMP
 62
4
 10
1705.632
 20
-7166.112
 30
-1532.781
 70
    32
  0
VERTEX
  8
W69RA3RAMP
 62
4
 10
1709.201
 20
-7167.424
 30
-1531.069
 70
    32
  0
VERTEX
  8
W69RA3RAMP
 62
4
 10
1714.409
 20
-7166.326
 30
-1530.781
 70
    32
  0
VERTEX
  8
W69RA3RAMP
 62
4
 10
1710.955
 20
-7153.002
 30
-1531.306
 70
    32
  0
VERTEX
  8
W69RA3RAMP
 62
4
 10
1712.931
 20
-7150.098
 30
-1530.902
 70
    32
  0
VERTEX
  8
W69RA3RAMP
 62
4
 10
1706.062
 20
-7132.229
 30
-1533.803
 70
    32
  0
VERTEX
  8
W69RA3RAMP
 62
4
 10
1702.585
 20
-7120.463
 30
-1532.938
 70
    32
  0
VERTEX
  8
W69RA3RAMP
 62
4
 10
1698.678
 20
-7108.765
 30
-1535.068
 70
    32
  0
VERTEX
  8
W69RA3RAMP
 62
4
 10
1693.596
 20
-7100.113
 30
-1535.568
 70
    32
  0
VERTEX
  8
W69RA3RAMP
 62
4
 10
1688.508
 20
-7093.259
 30
-1535.770
 70
    32
  0
VERTEX
  8
W69RA3RAMP
 62
4
 10
1680.376
 20
-7077.586
 30
-1531.856
 70
    32
  0
VERTEX
  8
W69RA3RAMP
 62
4
 10
1676.559
 20
-7069.093
 30
-1527.155
 70
    32
  0
VERTEX
  8
W69RA3RAMP
 62
4
 10
1665.345
 20
-7042.707
 30
-1521.136
 70
    32
  0
VERTEX
  8
W69RA3RAMP
 62
4
 10
1661.234
 20
-7035.116
 30
-1519.477
 70
    32
  0
VERTEX
  8
W69RA3RAMP
 62
4
 10
1651.105
 20
-7021.958
 30
-1517.031
 70
    32
  0
VERTEX
  8
W69RA3RAMP
 62
4
 10
1647.203
 20
-7012.607
 30
-1515.594
 70
    32
  0
VERTEX
  8
W69RA3RAMP
 62
4
 10
1644.594
 20
-6999.515
 30
-1519.065
 70
    32
  0
VERTEX
  8
W69RA3RAMP
 62
4
 10
1638.927
 20
-6983.576
 30
-1522.634
 70
    32
  0
VERTEX
  8
W69RA3RAMP
 62
4
 10
1629.521
 20
-6952.218
 30
-1531.416
 70
    32
  0
VERTEX
  8
W69RA3RAMP
 62
4
 10
1627.173
 20
-6943.748
 30
-1531.490
 70
    32
  0
VERTEX
  8
W69RA3RAMP
 62
4
 10
1624.074
 20
-6931.811
 30
-1532.693
 70
    32
  0
VERTEX
  8
W69RA3RAMP
 62
4
 10
1621.694
 20
-6921.224
 30
-1533.105
 70
    32
  0
VERTEX
  8
W69RA3RAMP
 62
4
 10
1617.141
 20
-6906.142
 30
-1534.417
 70
    32
  0
VERTEX
  8
W69RA3RAMP
 62
4
 10
1618.449
 20
-6899.047
 30
-1535.380
 70
    32
  0
VERTEX
  8
W69RA3RAMP
 62
4
 10
1618.560
 20
-6892.180
 30
-1537.661
 70
    32
  0
VERTEX
  8
W69RA3RAMP
 62
4
 10
1622.128
 20
-6883.083
 30
-1538.835
 70
    32
  0
VERTEX
  8
W69RA3RAMP
 62
4
 10
1622.534
 20
-6879.296
 30
-1540.501
 70
    32
  0
VERTEX
  8
W69RA3RAMP
 62
4
 10
1626.903
 20
-6873.545
 30
-1544.489
 70
    32
  0
VERTEX
  8
W69RA3RAMP
 62
4
 10
1630.494
 20
-6870.510
 30
-1544.118
 70
    32
  0
VERTEX
  8
W69RA3RAMP
 62
4
 10
1639.749
 20
-6864.526
 30
-1545.973
 70
    32
  0
VERTEX
  8
W69RA3RAMP
 62
4
 10
1648.585
 20
-6859.366
 30
-1547.641
 70
    32
  0
VERTEX
  8
W69RA3RAMP
 62
4
 10
1664.711
 20
-6844.100
 30
-1552.887
 70
    32
  0
VERTEX
  8
W69RA3RAMP
 62
4
 10
1683.564
 20
-6832.373
 30
-1558.401
 70
    32
  0
VERTEX
  8
W69RA3RAMP
 62
4
 10
1690.428
 20
-6826.382
 30
-1559.389
 70
    32
  0
VERTEX
  8
W69RA3RAMP
 62
4
 10
1698.094
 20
-6821.139
 30
-1560.354
 70
    32
  0
VERTEX
  8
W69RA3RAMP
 62
4
 10
1707.294
 20
-6816.035
 30
-1560.879
 70
    32
  0
VERTEX
  8
W69RA3RAMP
 62
4
 10
1707.883
 20
-6815.478
 30
-1560.401
 70
    32
  0
VERTEX
  8
W69RA3RAMP
 62
4
 10
1715.317
 20
-6812.582
 30
-1560.244
 70
    32
  0
VERTEX
  8
W69RA3RAMP
 62
4
 10
1716.820
 20
-6813.210
 30
-1560.889
 70
    32
  0
VERTEX
  8
W69RA3RAMP
 62
4
 10
1723.127
 20
-6810.822
 30
-1560.534
 70
    32
  0
VERTEX
  8
W69RA3RAMP
 62
4
 10
1725.042
 20
-6812.304
 30
-1562.488
 70
    32
  0
VERTEX
  8
W69RA3RAMP
 62
4
 10
1729.851
 20
-6828.581
 30
-1565.235
 70
    32
  0
VERTEX
  8
W69RA3RAMP
 62
4
 10
1729.453
 20
-6841.306
 30
-1567.691
 70
    32
  0
VERTEX
  8
W69RA3RAMP
 62
4
 10
1731.783
 20
-6857.069
 30
-1570.787
 70
    32
  0
VERTEX
  8
W69RA3RAMP
 62
4
 10
1728.634
 20
-6874.686
 30
-1574.449
 70
    32
  0
VERTEX
  8
W69RA3RAMP
 62
4
 10
1707.216
 20
-6895.354
 30
-1581.524
 70
    32
  0
VERTEX
  8
W69RA3RAMP
 62
4
 10
1696.164
 20
-6908.584
 30
-1584.502
 70
    32
  0
VERTEX
  8
W69RA3RAMP
 62
4
 10
1691.450
 20
-6920.374
 30
-1586.789
 70
    32
  0
VERTEX
  8
W69RA3RAMP
 62
4
 10
1683.085
 20
-6935.565
 30
-1590.310
 70
    32
  0
VERTEX
  8
W69RA3RAMP
 62
4
 10
1681.421
 20
-6943.678
 30
-1591.757
 70
    32
  0
VERTEX
  8
W69RA3RAMP
 62
4
 10
1681.442
 20
-6943.774
 30
-1591.373
 70
    32
  0
VERTEX
  8
W69RA3RAMP
 62
4
 10
1679.241
 20
-6966.433
 30
-1593.746
 70
    32
  0
VERTEX
  8
W69RA3RAMP
 62
4
 10
1679.435
 20
-6973.324
 30
-1594.548
 70
    32
  0
VERTEX
  8
W69RA3RAMP
 62
4
 10
1678.625
 20
-6978.451
 30
-1593.743
 70
    32
  0
VERTEX
  8
W69RA3RAMP
 62
4
 10
1677.582
 20
-6983.422
 30
-1592.954
 70
    32
  0
VERTEX
  8
W69RA3RAMP
 62
4
 10
1673.306
 20
-6997.359
 30
-1590.698
 70
    32
  0
VERTEX
  8
W69RA3RAMP
 62
4
 10
1674.707
 20
-7000.730
 30
-1591.304
 70
    32
  0
VERTEX
  8
W69RA3RAMP
 62
4
 10
1675.120
 20
-7005.584
 30
-1591.543
 70
    32
  0
VERTEX
  8
W69RA3RAMP
 62
4
 10
1679.841
 20
-7012.230
 30
-1591.964
 70
    32
  0
VERTEX
  8
W69RA3RAMP
 62
4
 10
1681.636
 20
-7019.955
 30
-1590.800
 70
    32
  0
VERTEX
  8
W69RA3RAMP
 62
4
 10
1684.827
 20
-7023.390
 30
-1590.155
 70
    32
  0
VERTEX
  8
W69RA3RAMP
 62
4
 10
1692.308
 20
-7037.959
 30
-1587.852
 70
    32
  0
VERTEX
  8
W69RA3RAMP
 62
4
 10
1698.983
 20
-7049.106
 30
-1586.122
 70
    32
  0
VERTEX
  8
W69RA3RAMP
 62
4
 10
1701.303
 20
-7049.016
 30
-1585.944
 70
    32
  0
VERTEX
  8
W69RA3RAMP
 62
4
 10
1711.587
 20
-7063.019
 30
-1583.549
 70
    32
  0
VERTEX
  8
W69RA3RAMP
 62
4
 10
1713.571
 20
-7071.565
 30
-1582.436
 70
    32
  0
VERTEX
  8
W69RA3RAMP
 62
4
 10
1714.034
 20
-7081.856
 30
-1580.489
 70
    32
  0
VERTEX
  8
W69RA3RAMP
 62
4
 10
1712.763
 20
-7093.075
 30
-1578.961
 70
    32
  0
VERTEX
  8
W69RA3RAMP
 62
4
 10
1710.384
 20
-7099.906
 30
-1577.627
 70
    32
  0
VERTEX
  8
W69RA3RAMP
 62
4
 10
1708.211
 20
-7103.808
 30
-1576.912
 70
    32
  0
VERTEX
  8
W69RA3RAMP
 62
4
 10
1698.221
 20
-7113.764
 30
-1574.545
 70
    32
  0
VERTEX
  8
W69RA3RAMP
 62
4
 10
1694.672
 20
-7115.656
 30
-1574.138
 70
    32
  0
VERTEX
  8
W69RA3RAMP
 62
4
 10
1681.863
 20
-7123.246
 30
-1571.680
 70
    32
  0
VERTEX
  8
W69RA3RAMP
 62
4
 10
1671.175
 20
-7125.358
 30
-1571.673
 70
    32
  0
VERTEX
  8
W69RA3RAMP
 62
4
 10
1661.364
 20
-7125.063
 30
-1570.767
 70
    32
  0
VERTEX
  8
W69RA3RAMP
 62
4
 10
1650.582
 20
-7123.764
 30
-1570.255
 70
    32
  0
VERTEX
  8
W69RA3RAMP
 62
4
 10
1647.848
 20
-7123.250
 30
-1579.255
 70
    32
  0
VERTEX
  8
W69RA3RAMP
 62
4
 10
1637.972
 20
-7121.531
 30
-1580.255
 70
    32
  0
VERTEX
  8
W69RA3RAMP
 62
4
 10
1639.606
 20
-7132.409
 30
-1580.224
 70
    32
  0
VERTEX
  8
W69RA3RAMP
 62
4
 10
1648.365
 20
-7134.368
 30
-1579.204
 70
    32
  0
VERTEX
  8
W69RA3RAMP
 62
4
 10
1650.388
 20
-7134.803
 30
-1570.182
 70
    32
  0
VERTEX
  8
W69RA3RAMP
 62
4
 10
1662.818
 20
-7137.600
 30
-1571.162
 70
    32
  0
VERTEX
  8
W69RA3RAMP
 62
4
 10
1669.934
 20
-7137.599
 30
-1571.680
 70
    32
  0
VERTEX
  8
W69RA3RAMP
 62
4
 10
1687.838
 20
-7132.739
 30
-1571.680
 70
    32
  0
VERTEX
  8
W69RA3RAMP
 62
4
 10
1694.553
 20
-7127.872
 30
-1573.543
 70
    32
  0
VERTEX
  8
W69RA3RAMP
 62
4
 10
1699.870
 20
-7125.725
 30
-1574.624
 70
    32
  0
VERTEX
  8
W69RA3RAMP
 62
4
 10
1709.684
 20
-7117.841
 30
-1575.612
 70
    32
  0
VERTEX
  8
W69RA3RAMP
 62
4
 10
1717.347
 20
-7110.108
 30
-1577.437
 70
    32
  0
VERTEX
  8
W69RA3RAMP
 62
4
 10
1723.921
 20
-7099.774
 30
-1578.572
 70
    32
  0
VERTEX
  8
W69RA3RAMP
 62
4
 10
1723.537
 20
-7091.421
 30
-1579.223
 70
    32
  0
VERTEX
  8
W69RA3RAMP
 62
4
 10
1724.499
 20
-7083.136
 30
-1580.351
 70
    32
  0
VERTEX
  8
W69RA3RAMP
 62
4
 10
1727.646
 20
-7080.714
 30
-1581.091
 70
    32
  0
VERTEX
  8
W69RA3RAMP
 62
4
 10
1731.545
 20
-7081.884
 30
-1581.209
 70
    32
  0
VERTEX
  8
W69RA3RAMP
 62
4
 10
1737.589
 20
-7086.984
 30
-1580.232
 70
    32
  0
VERTEX
  8
W69RA3RAMP
 62
4
 10
1739.951
 20
-7090.259
 30
-1576.328
 70
    32
  0
VERTEX
  8
W69RA3RAMP
 62
4
 10
1750.275
 20
-7108.844
 30
-1572.683
 70
    32
  0
VERTEX
  8
W69RA3RAMP
 62
4
 10
1751.676
 20
-7113.933
 30
-1572.273
 70
    32
  0
VERTEX
  8
W69RA3RAMP
 62
4
 10
1753.125
 20
-7121.699
 30
-1572.855
 70
    32
  0
VERTEX
  8
W69RA3RAMP
 62
4
 10
1755.871
 20
-7138.436
 30
-1570.258
 70
    32
  0
VERTEX
  8
W69RA3RAMP
 62
4
 10
1758.302
 20
-7141.641
 30
-1569.671
 70
    32
  0
VERTEX
  8
W69RA3RAMP
 62
4
 10
1761.996
 20
-7149.929
 30
-1568.275
 70
    32
  0
VERTEX
  8
W69RA3RAMP
 62
4
 10
1762.003
 20
-7149.824
 30
-1569.382
 70
    32
  0
VERTEX
  8
W69RA3RAMP
 62
4
 10
1770.710
 20
-7157.660
 30
-1570.609
 70
    32
  0
VERTEX
  8
W69RA3RAMP
 62
4
 10
1776.000
 20
-7157.567
 30
-1570.111
 70
    32
  0
VERTEX
  8
W69RA3RAMP
 62
4
 10
1781.037
 20
-7161.346
 30
-1569.813
 70
    32
  0
VERTEX
  8
W69RA3RAMP
 62
4
 10
1787.123
 20
-7163.116
 30
-1569.485
 70
    32
  0
VERTEX
  8
W69RA3RAMP
 62
4
 10
1794.080
 20
-7171.628
 30
-1568.604
 70
    32
  0
VERTEX
  8
W69RA3RAMP
 62
4
 10
1800.532
 20
-7180.123
 30
-1568.198
 70
    32
  0
VERTEX
  8
W69RA3RAMP
 62
4
 10
1810.546
 20
-7177.015
 30
-1568.149
 70
    32
  0
VERTEX
  8
W69RA3RAMP
 62
4
 10
1806.589
 20
-7169.510
 30
-1568.480
 70
    32
  0
VERTEX
  8
W69RA3RAMP
 62
4
 10
1808.481
 20
-7159.906
 30
-1568.791
 70
    32
  0
VERTEX
  8
W69RA3RAMP
 62
4
 10
1807.465
 20
-7153.156
 30
-1569.048
 70
    32
  0
VERTEX
  8
W69RA3RAMP
 62
4
 10
1799.798
 20
-7142.902
 30
-1569.073
 70
    32
  0
VERTEX
  8
W69RA3RAMP
 62
4
 10
1785.860
 20
-7148.253
 30
-1569.718
 70
    32
  0
VERTEX
  8
W69RA3RAMP
 62
4
 10
1780.541
 20
-7148.065
 30
-1569.989
 70
    32
  0
VERTEX
  8
W69RA3RAMP
 62
4
 10
1769.891
 20
-7140.572
 30
-1569.174
 70
    32
  0
VERTEX
  8
W69RA3RAMP
 62
4
 10
1768.953
 20
-7138.214
 30
-1569.672
 70
    32
  0
VERTEX
  8
W69RA3RAMP
 62
4
 10
1764.512
 20
-7119.059
 30
-1572.705
 70
    32
  0
VERTEX
  8
W69RA3RAMP
 62
4
 10
1769.774
 20
-7112.682
 30
-1572.270
 70
    32
  0
VERTEX
  8
W69RA3RAMP
 62
4
 10
1758.319
 20
-7100.760
 30
-1573.258
 70
    32
  0
VERTEX
  8
W69RA3RAMP
 62
4
 10
1753.623
 20
-7087.840
 30
-1575.598
 70
    32
  0
VERTEX
  8
W69RA3RAMP
 62
4
 10
1745.172
 20
-7079.598
 30
-1580.232
 70
    32
  0
VERTEX
  8
W69RA3RAMP
 62
4
 10
1736.426
 20
-7072.009
 30
-1581.784
 70
    32
  0
VERTEX
  8
W69RA3RAMP
 62
4
 10
1724.535
 20
-7061.042
 30
-1582.717
 70
    32
  0
VERTEX
  8
W69RA3RAMP
 62
4
 10
1701.650
 20
-7032.895
 30
-1587.711
 70
    32
  0
VERTEX
  8
W69RA3RAMP
 62
4
 10
1694.106
 20
-7019.076
 30
-1590.223
 70
    32
  0
VERTEX
  8
W69RA3RAMP
 62
4
 10
1687.866
 20
-7001.150
 30
-1591.619
 70
    32
  0
VERTEX
  8
W69RA3RAMP
 62
4
 10
1686.005
 20
-6993.234
 30
-1591.916
 70
    32
  0
VERTEX
  8
W69RA3RAMP
 62
4
 10
1688.794
 20
-6984.763
 30
-1593.521
 70
    32
  0
VERTEX
  8
W69RA3RAMP
 62
4
 10
1688.886
 20
-6981.088
 30
-1593.676
 70
    32
  0
VERTEX
  8
W69RA3RAMP
 62
4
 10
1690.572
 20
-6977.264
 30
-1594.311
 70
    32
  0
VERTEX
  8
W69RA3RAMP
 62
4
 10
1694.472
 20
-6978.153
 30
-1594.303
 70
    32
  0
VERTEX
  8
W69RA3RAMP
 62
4
 10
1709.633
 20
-7005.690
 30
-1601.931
 70
    32
  0
VERTEX
  8
W69RA3RAMP
 62
4
 10
1718.517
 20
-7025.916
 30
-1602.829
 70
    32
  0
VERTEX
  8
W69RA3RAMP
 62
4
 10
1730.680
 20
-7021.749
 30
-1605.418
 70
    32
  0
VERTEX
  8
W69RA3RAMP
 62
4
 10
1745.806
 20
-7042.703
 30
-1610.310
 70
    32
  0
VERTEX
  8
W69RA3RAMP
 62
4
 10
1749.417
 20
-7052.390
 30
-1611.453
 70
    32
  0
VERTEX
  8
W69RA3RAMP
 62
4
 10
1769.775
 20
-7085.368
 30
-1613.106
 70
    32
  0
VERTEX
  8
W69RA3RAMP
 62
4
 10
1779.336
 20
-7107.393
 30
-1613.637
 70
    32
  0
VERTEX
  8
W69RA3RAMP
 62
4
 10
1780.991
 20
-7117.650
 30
-1613.900
 70
    32
  0
VERTEX
  8
W69RA3RAMP
 62
4
 10
1778.604
 20
-7151.012
 30
-1616.932
 70
    32
  0
VERTEX
  8
W69RA3RAMP
 62
4
 10
1771.477
 20
-7160.729
 30
-1618.332
 70
    32
  0
VERTEX
  8
W69RA3RAMP
 62
4
 10
1762.365
 20
-7168.896
 30
-1619.732
 70
    32
  0
VERTEX
  8
W69RA3RAMP
 62
4
 10
1754.181
 20
-7172.583
 30
-1619.492
 70
    32
  0
VERTEX
  8
W69RA3RAMP
 62
4
 10
1733.480
 20
-7176.593
 30
-1616.612
 70
    32
  0
VERTEX
  8
W69RA3RAMP
 62
4
 10
1683.389
 20
-7159.856
 30
-1616.612
 70
    32
  0
VERTEX
  8
W69RA3RAMP
 62
4
 10
1673.249
 20
-7153.666
 30
-1616.612
 70
    32
  0
VERTEX
  8
W69RA3RAMP
 62
4
 10
1670.425
 20
-7163.622
 30
-1616.612
 70
    32
  0
VERTEX
  8
W69RA3RAMP
 62
4
 10
1680.516
 20
-7169.985
 30
-1616.612
 70
    32
  0
VERTEX
  8
W69RA3RAMP
 62
4
 10
1716.151
 20
-7182.836
 30
-1616.612
 70
    32
  0
VERTEX
  8
W69RA3RAMP
 62
4
 10
1722.957
 20
-7186.422
 30
-1616.612
 70
    32
  0
VERTEX
  8
W69RA3RAMP
 62
4
 10
1733.004
 20
-7188.660
 30
-1616.965
 70
    32
  0
VERTEX
  8
W69RA3RAMP
 62
4
 10
1746.797
 20
-7187.575
 30
-1618.603
 70
    32
  0
VERTEX
  8
W69RA3RAMP
 62
4
 10
1773.295
 20
-7176.251
 30
-1619.342
 70
    32
  0
VERTEX
  8
W69RA3RAMP
 62
4
 10
1784.035
 20
-7165.384
 30
-1617.908
 70
    32
  0
VERTEX
  8
W69RA3RAMP
 62
4
 10
1786.346
 20
-7160.228
 30
-1617.392
 70
    32
  0
VERTEX
  8
W69RA3RAMP
 62
4
 10
1788.021
 20
-7159.611
 30
-1617.260
 70
    32
  0
VERTEX
  8
W69RA3RAMP
 62
4
 10
1788.650
 20
-7158.102
 30
-1617.212
 70
    32
  0
VERTEX
  8
W69RA3RAMP
 62
4
 10
1793.345
 20
-7154.963
 30
-1616.998
 70
    32
  0
VERTEX
  8
W69RA3RAMP
 62
4
 10
1801.343
 20
-7161.541
 30
-1617.649
 70
    32
  0
VERTEX
  8
W69RA3RAMP
 62
4
 10
1805.937
 20
-7164.841
 30
-1617.983
 70
    32
  0
VERTEX
  8
W69RA3RAMP
 62
4
 10
1813.273
 20
-7166.327
 30
-1618.193
 70
    32
  0
VERTEX
  8
W69RA3RAMP
 62
4
 10
1829.693
 20
-7173.268
 30
-1618.971
 70
    32
  0
VERTEX
  8
W69RA3RAMP
 62
4
 10
1833.705
 20
-7174.964
 30
-1619.531
 70
    32
  0
VERTEX
  8
W69RA3RAMP
 62
4
 10
1840.643
 20
-7177.590
 30
-1620.505
 70
    32
  0
VERTEX
  8
W69RA3RAMP
 62
4
 10
1847.349
 20
-7179.881
 30
-1623.272
 70
    32
  0
VERTEX
  8
W69RA3RAMP
 62
4
 10
1847.482
 20
-7179.896
 30
-1623.325
 70
    32
  0
VERTEX
  8
W69RA3RAMP
 62
4
 10
1847.680
 20
-7179.919
 30
-1623.861
 70
    32
  0
VERTEX
  8
W69RA3RAMP
 62
4
 10
1854.521
 20
-7180.714
 30
-1625.042
 70
    32
  0
VERTEX
  8
W69RA3RAMP
 62
4
 10
1856.737
 20
-7180.971
 30
-1625.402
 70
    32
  0
VERTEX
  8
W69RA3RAMP
 62
4
 10
1880.403
 20
-7181.973
 30
-1629.241
 70
    32
  0
VERTEX
  8
W69RA3RAMP
 62
4
 10
1883.666
 20
-7182.111
 30
-1629.815
 70
    32
  0
VERTEX
  8
W69RA3RAMP
 62
4
 10
1906.319
 20
-7179.425
 30
-1633.780
 70
    32
  0
VERTEX
  8
W69RA3RAMP
 62
4
 10
1916.611
 20
-7178.819
 30
-1635.585
 70
    32
  0
VERTEX
  8
W69RA3RAMP
 62
4
 10
1930.829
 20
-7177.983
 30
-1637.813
 70
    32
  0
VERTEX
  8
W69RA3RAMP
 62
4
 10
1937.084
 20
-7180.744
 30
-1638.938
 70
    32
  0
VERTEX
  8
W69RA3RAMP
 62
4
 10
1945.428
 20
-7184.427
 30
-1640.603
 70
    32
  0
VERTEX
  8
W69RA3RAMP
 62
4
 10
1948.780
 20
-7185.906
 30
-1641.568
 70
    32
  0
VERTEX
  8
W69RA3RAMP
 62
4
 10
1958.257
 20
-7191.944
 30
-1644.638
 70
    32
  0
VERTEX
  8
W69RA3RAMP
 62
4
 10
1960.171
 20
-7193.163
 30
-1645.267
 70
    32
  0
VERTEX
  8
W69RA3RAMP
 62
4
 10
1965.607
 20
-7200.344
 30
-1647.753
 70
    32
  0
VERTEX
  8
W69RA3RAMP
 62
4
 10
1966.654
 20
-7201.727
 30
-1648.054
 70
    32
  0
VERTEX
  8
W69RA3RAMP
 62
4
 10
1969.228
 20
-7208.571
 30
-1649.349
 70
    32
  0
VERTEX
  8
W69RA3RAMP
 62
4
 10
1969.630
 20
-7209.639
 30
-1649.486
 70
    32
  0
VERTEX
  8
W69RA3RAMP
 62
4
 10
1971.947
 20
-7216.077
 30
-1650.307
 70
    32
  0
VERTEX
  8
W69RA3RAMP
 62
4
 10
1972.877
 20
-7218.662
 30
-1650.878
 70
    32
  0
VERTEX
  8
W69RA3RAMP
 62
4
 10
1972.579
 20
-7225.696
 30
-1652.490
 70
    32
  0
VERTEX
  8
W69RA3RAMP
 62
4
 10
1972.290
 20
-7232.527
 30
-1654.072
 70
    32
  0
VERTEX
  8
W69RA3RAMP
 62
4
 10
1971.475
 20
-7234.114
 30
-1654.455
 70
    32
  0
VERTEX
  8
W69RA3RAMP
 62
4
 10
1968.066
 20
-7240.751
 30
-1655.335
 70
    32
  0
VERTEX
  8
W69RA3RAMP
 62
4
 10
1967.542
 20
-7241.629
 30
-1655.456
 70
    32
  0
VERTEX
  8
W69RA3RAMP
 62
4
 10
1963.453
 20
-7248.480
 30
-1656.967
 70
    32
  0
VERTEX
  8
W69RA3RAMP
 62
4
 10
1961.115
 20
-7250.281
 30
-1657.498
 70
    32
  0
VERTEX
  8
W69RA3RAMP
 62
4
 10
1952.488
 20
-7256.929
 30
-1660.476
 70
    32
  0
VERTEX
  8
W69RA3RAMP
 62
4
 10
1950.759
 20
-7258.140
 30
-1661.054
 70
    32
  0
VERTEX
  8
W69RA3RAMP
 62
4
 10
1944.760
 20
-7262.343
 30
-1662.971
 70
    32
  0
VERTEX
  8
W69RA3RAMP
 62
4
 10
1933.819
 20
-7265.602
 30
-1665.813
 70
    32
  0
VERTEX
  8
W69RA3RAMP
 62
4
 10
1924.862
 20
-7268.271
 30
-1667.630
 70
    32
  0
VERTEX
  8
W69RA3RAMP
 62
4
 10
1923.915
 20
-7268.553
 30
-1667.761
 70
    32
  0
VERTEX
  8
W69RA3RAMP
 62
4
 10
1919.367
 20
-7269.166
 30
-1668.361
 70
    32
  0
VERTEX
  8
W69RA3RAMP
 62
4
 10
1912.807
 20
-7270.050
 30
-1670.118
 70
    32
  0
VERTEX
  8
W69RA3RAMP
 62
4
 10
1911.311
 20
-7269.571
 30
-1670.568
 70
    32
  0
VERTEX
  8
W69RA3RAMP
 62
4
 10
1904.979
 20
-7267.545
 30
-1671.271
 70
    32
  0
VERTEX
  8
W69RA3RAMP
 62
4
 10
1903.422
 20
-7267.047
 30
-1671.629
 70
    32
  0
VERTEX
  8
W69RA3RAMP
 62
4
 10
1901.734
 20
-7263.799
 30
-1672.429
 70
    32
  0
VERTEX
  8
W69RA3RAMP
 62
4
 10
1900.723
 20
-7262.643
 30
-1672.788
 70
    32
  0
VERTEX
  8
W69RA3RAMP
 62
4
 10
1894.225
 20
-7255.206
 30
-1674.165
 70
    32
  0
VERTEX
  8
W69RA3RAMP
 62
4
 10
1877.198
 20
-7235.722
 30
-1678.211
 70
    32
  0
VERTEX
  8
W69RA3RAMP
 62
4
 10
1876.190
 20
-7234.569
 30
-1678.211
 70
    32
  0
VERTEX
  8
W69RA3RAMP
 62
4
 10
1870.777
 20
-7227.828
 30
-1678.211
 70
    32
  0
VERTEX
  8
W69RA3RAMP
 62
4
 10
1869.266
 20
-7225.945
 30
-1678.211
 70
    32
  0
VERTEX
  8
W69RA3RAMP
 62
4
 10
1861.794
 20
-7232.303
 30
-1678.211
 70
    32
  0
VERTEX
  8
W69RA3RAMP
 62
4
 10
1866.709
 20
-7238.434
 30
-1678.211
 70
    32
  0
VERTEX
  8
W69RA3RAMP
 62
4
 10
1868.779
 20
-7241.016
 30
-1678.211
 70
    32
  0
VERTEX
  8
W69RA3RAMP
 62
4
 10
1869.545
 20
-7241.987
 30
-1678.211
 70
    32
  0
VERTEX
  8
W69RA3RAMP
 62
4
 10
1876.175
 20
-7250.395
 30
-1676.536
 70
    32
  0
VERTEX
  8
W69RA3RAMP
 62
4
 10
1885.718
 20
-7262.499
 30
-1674.406
 70
    32
  0
VERTEX
  8
W69RA3RAMP
 62
4
 10
1893.117
 20
-7271.994
 30
-1672.745
 70
    32
  0
VERTEX
  8
W69RA3RAMP
 62
4
 10
1893.561
 20
-7272.563
 30
-1672.578
 70
    32
  0
VERTEX
  8
W69RA3RAMP
 62
4
 10
1894.206
 20
-7274.196
 30
-1672.212
 70
    32
  0
VERTEX
  8
W69RA3RAMP
 62
4
 10
1897.185
 20
-7281.732
 30
-1671.715
 70
    32
  0
VERTEX
  8
W69RA3RAMP
 62
4
 10
1898.502
 20
-7281.670
 30
-1671.581
 70
    32
  0
VERTEX
  8
W69RA3RAMP
 62
4
 10
1908.351
 20
-7280.540
 30
-1670.595
 70
    32
  0
VERTEX
  8
W69RA3RAMP
 62
4
 10
1911.531
 20
-7280.175
 30
-1669.738
 70
    32
  0
VERTEX
  8
W69RA3RAMP
 62
4
 10
1925.870
 20
-7278.530
 30
-1667.856
 70
    32
  0
VERTEX
  8
W69RA3RAMP
 62
4
 10
1926.960
 20
-7278.472
 30
-1667.715
 70
    32
  0
VERTEX
  8
W69RA3RAMP
 62
4
 10
1934.902
 20
-7278.051
 30
-1666.195
 70
    32
  0
VERTEX
  8
W69RA3RAMP
 62
4
 10
1945.234
 20
-7273.620
 30
-1664.035
 70
    32
  0
VERTEX
  8
W69RA3RAMP
 62
4
 10
1950.653
 20
-7270.003
 30
-1662.841
 70
    32
  0
VERTEX
  8
W69RA3RAMP
 62
4
 10
1956.345
 20
-7266.203
 30
-1661.050
 70
    32
  0
VERTEX
  8
W69RA3RAMP
 62
4
 10
1957.804
 20
-7265.229
 30
-1660.570
 70
    32
  0
VERTEX
  8
W69RA3RAMP
 62
4
 10
1960.951
 20
-7262.659
 30
-1659.461
 70
    32
  0
VERTEX
  8
W69RA3RAMP
 62
4
 10
1964.989
 20
-7259.362
 30
-1658.514
 70
    32
  0
VERTEX
  8
W69RA3RAMP
 62
4
 10
1969.842
 20
-7255.874
 30
-1657.452
 70
    32
  0
VERTEX
  8
W69RA3RAMP
 62
4
 10
1976.244
 20
-7246.861
 30
-1655.356
 70
    32
  0
VERTEX
  8
W69RA3RAMP
 62
4
 10
1976.660
 20
-7246.275
 30
-1655.270
 70
    32
  0
VERTEX
  8
W69RA3RAMP
 62
4
 10
1981.936
 20
-7233.759
 30
-1653.691
 70
    32
  0
VERTEX
  8
W69RA3RAMP
 62
4
 10
1983.052
 20
-7229.855
 30
-1653.235
 70
    32
  0
VERTEX
  8
W69RA3RAMP
 62
4
 10
1983.951
 20
-7226.708
 30
-1652.491
 70
    32
  0
VERTEX
  8
W69RA3RAMP
 62
4
 10
1984.631
 20
-7224.330
 30
-1651.934
 70
    32
  0
VERTEX
  8
W69RA3RAMP
 62
4
 10
1984.584
 20
-7223.853
 30
-1651.826
 70
    32
  0
SEQEND
  8
W69RA3RAMP
  0
POLYLINE
  8
W69RA3RAMP
 62
4
 66
     1
 70
     8
  0
VERTEX
  8
W69RA3RAMP
 62
4
 10
1974.578
 20
-7193.935
 30
-1647.396
 70
    32
  0
VERTEX
  8
W69RA3RAMP
 62
4
 10
1968.383
 20
-7186.231
 30
-1645.690
 70
    32
  0
VERTEX
  8
W69RA3RAMP
 62
4
 10
1967.740
 20
-7185.431
 30
-1645.406
 70
    32
  0
VERTEX
  8
W69RA3RAMP
 62
4
 10
1965.550
 20
-7183.801
 30
-1644.641
 70
    32
  0
VERTEX
  8
W69RA3RAMP
 62
4
 10
1961.605
 20
-7180.866
 30
-1643.285
 70
    32
  0
VERTEX
  8
W69RA3RAMP
 62
4
 10
1951.631
 20
-7173.443
 30
-1641.141
 70
    32
  0
VERTEX
  8
W69RA3RAMP
 62
4
 10
1940.203
 20
-7169.224
 30
-1638.903
 70
    32
  0
VERTEX
  8
W69RA3RAMP
 62
4
 10
1937.802
 20
-7168.337
 30
-1638.479
 70
    32
  0
VERTEX
  8
W69RA3RAMP
 62
4
 10
1931.158
 20
-7166.449
 30
-1637.333
 70
    32
  0
VERTEX
  8
W69RA3RAMP
 62
4
 10
1923.246
 20
-7166.182
 30
-1636.059
 70
    32
  0
VERTEX
  8
W69RA3RAMP
 62
4
 10
1901.706
 20
-7169.123
 30
-1632.761
 70
    32
  0
VERTEX
  8
W69RA3RAMP
 62
4
 10
1893.817
 20
-7169.411
 30
-1631.517
 70
    32
  0
VERTEX
  8
W69RA3RAMP
 62
4
 10
1880.812
 20
-7169.885
 30
-1629.234
 70
    32
  0
VERTEX
  8
W69RA3RAMP
 62
4
 10
1871.435
 20
-7170.227
 30
-1627.717
 70
    32
  0
VERTEX
  8
W69RA3RAMP
 62
4
 10
1871.257
 20
-7170.231
 30
-1627.689
 70
    32
  0
VERTEX
  8
W69RA3RAMP
 62
4
 10
1858.685
 20
-7170.514
 30
-1625.552
 70
    32
  0
VERTEX
  8
W69RA3RAMP
 62
4
 10
1849.090
 20
-7167.634
 30
-1623.861
 70
    32
  0
VERTEX
  8
W69RA3RAMP
 62
4
 10
1848.587
 20
-7167.483
 30
-1623.861
 70
    32
  0
VERTEX
  8
W69RA3RAMP
 62
4
 10
1843.513
 20
-7165.959
 30
-1621.141
 70
    32
  0
VERTEX
  8
W69RA3RAMP
 62
4
 10
1829.242
 20
-7161.708
 30
-1619.116
 70
    32
  0
VERTEX
  8
W69RA3RAMP
 62
4
 10
1816.447
 20
-7155.869
 30
-1617.337
 70
    32
  0
VERTEX
  8
W69RA3RAMP
 62
4
 10
1804.051
 20
-7150.881
 30
-1616.771
 70
    32
  0
VERTEX
  8
W69RA3RAMP
 62
4
 10
1800.751
 20
-7145.456
 30
-1616.271
 70
    32
  0
VERTEX
  8
W69RA3RAMP
 62
4
 10
1799.027
 20
-7142.490
 30
-1616.061
 70
    32
  0
VERTEX
  8
W69RA3RAMP
 62
4
 10
1792.017
 20
-7134.358
 30
-1615.489
 70
    32
  0
VERTEX
  8
W69RA3RAMP
 62
4
 10
1791.422
 20
-7127.155
 30
-1614.726
 70
    32
  0
VERTEX
  8
W69RA3RAMP
 62
4
 10
1792.272
 20
-7112.514
 30
-1613.771
 70
    32
  0
VERTEX
  8
W69RA3RAMP
 62
4
 10
1779.184
 20
-7078.094
 30
-1612.546
 70
    32
  0
VERTEX
  8
W69RA3RAMP
 62
4
 10
1785.019
 20
-7073.856
 30
-1612.019
 70
    32
  0
VERTEX
  8
W69RA3RAMP
 62
4
 10
1794.230
 20
-7076.719
 30
-1611.800
 70
    32
  0
VERTEX
  8
W69RA3RAMP
 62
4
 10
1799.449
 20
-7075.631
 30
-1611.235
 70
    32
  0
VERTEX
  8
W69RA3RAMP
 62
4
 10
1817.220
 20
-7075.226
 30
-1610.702
 70
    32
  0
VERTEX
  8
W69RA3RAMP
 62
4
 10
1822.122
 20
-7071.961
 30
-1610.535
 70
    32
  0
VERTEX
  8
W69RA3RAMP
 62
4
 10
1849.804
 20
-7061.048
 30
-1610.250
 70
    32
  0
VERTEX
  8
W69RA3RAMP
 62
4
 10
1898.552
 20
-7045.113
 30
-1610.250
 70
    32
  0
VERTEX
  8
W69RA3RAMP
 62
4
 10
1899.336
 20
-7032.295
 30
-1610.250
 70
    32
  0
VERTEX
  8
W69RA3RAMP
 62
4
 10
1893.297
 20
-7036.026
 30
-1610.250
 70
    32
  0
VERTEX
  8
W69RA3RAMP
 62
4
 10
1846.006
 20
-7051.920
 30
-1610.250
 70
    32
  0
VERTEX
  8
W69RA3RAMP
 62
4
 10
1827.865
 20
-7060.072
 30
-1610.265
 70
    32
  0
VERTEX
  8
W69RA3RAMP
 62
4
 10
1812.215
 20
-7064.683
 30
-1610.812
 70
    32
  0
VERTEX
  8
W69RA3RAMP
 62
4
 10
1782.641
 20
-7064.578
 30
-1611.818
 70
    32
  0
VERTEX
  8
W69RA3RAMP
 62
4
 10
1777.978
 20
-7059.399
 30
-1612.007
 70
    32
  0
VERTEX
  8
W69RA3RAMP
 62
4
 10
1764.591
 20
-7050.246
 30
-1611.687
 70
    32
  0
VERTEX
  8
W69RA3RAMP
 62
4
 10
1759.312
 20
-7044.446
 30
-1611.287
 70
    32
  0
VERTEX
  8
W69RA3RAMP
 62
4
 10
1755.762
 20
-7034.407
 30
-1610.138
 70
    32
  0
VERTEX
  8
W69RA3RAMP
 62
4
 10
1714.219
 20
-6988.948
 30
-1600.113
 70
    32
  0
VERTEX
  8
W69RA3RAMP
 62
4
 10
1695.215
 20
-6950.451
 30
-1593.174
 70
    32
  0
VERTEX
  8
W69RA3RAMP
 62
4
 10
1695.759
 20
-6936.663
 30
-1589.863
 70
    32
  0
VERTEX
  8
W69RA3RAMP
 62
4
 10
1704.565
 20
-6917.343
 30
-1585.052
 70
    32
  0
VERTEX
  8
W69RA3RAMP
 62
4
 10
1721.168
 20
-6900.580
 30
-1579.726
 70
    32
  0
VERTEX
  8
W69RA3RAMP
 62
4
 10
1737.643
 20
-6895.541
 30
-1577.134
 70
    32
  0
VERTEX
  8
W69RA3RAMP
 62
4
 10
1737.360
 20
-6886.745
 30
-1576.358
 70
    32
  0
VERTEX
  8
W69RA3RAMP
 62
4
 10
1740.656
 20
-6865.276
 30
-1572.303
 70
    32
  0
VERTEX
  8
W69RA3RAMP
 62
4
 10
1739.785
 20
-6844.572
 30
-1568.430
 70
    32
  0
VERTEX
  8
W69RA3RAMP
 62
4
 10
1739.617
 20
-6840.567
 30
-1565.864
 70
    32
  0
VERTEX
  8
W69RA3RAMP
 62
4
 10
1742.826
 20
-6839.038
 30
-1564.996
 70
    32
  0
VERTEX
  8
W69RA3RAMP
 62
4
 10
1747.178
 20
-6836.963
 30
-1566.247
 70
    32
  0
VERTEX
  8
W69RA3RAMP
 62
4
 10
1742.910
 20
-6830.683
 30
-1563.519
 70
    32
  0
VERTEX
  8
W69RA3RAMP
 62
4
 10
1738.193
 20
-6818.811
 30
-1563.399
 70
    32
  0
VERTEX
  8
W69RA3RAMP
 62
4
 10
1740.091
 20
-6800.659
 30
-1559.972
 70
    32
  0
VERTEX
  8
W69RA3RAMP
 62
4
 10
1749.226
 20
-6788.232
 30
-1556.780
 70
    32
  0
VERTEX
  8
W69RA3RAMP
 62
4
 10
1756.131
 20
-6782.590
 30
-1554.845
 70
    32
  0
VERTEX
  8
W69RA3RAMP
 62
4
 10
1764.509
 20
-6778.021
 30
-1553.095
 70
    32
  0
VERTEX
  8
W69RA3RAMP
 62
4
 10
1798.172
 20
-6777.850
 30
-1547.123
 70
    32
  0
VERTEX
  8
W69RA3RAMP
 62
4
 10
1810.604
 20
-6785.018
 30
-1545.465
 70
    32
  0
VERTEX
  8
W69RA3RAMP
 62
4
 10
1822.192
 20
-6787.078
 30
-1544.141
 70
    32
  0
VERTEX
  8
W69RA3RAMP
 62
4
 10
1826.182
 20
-6790.600
 30
-1543.558
 70
    32
  0
VERTEX
  8
W69RA3RAMP
 62
4
 10
1845.292
 20
-6785.842
 30
-1541.028
 70
    32
  0
VERTEX
  8
W69RA3RAMP
 62
4
 10
1853.931
 20
-6781.178
 30
-1539.966
 70
    32
  0
VERTEX
  8
W69RA3RAMP
 62
4
 10
1873.755
 20
-6753.349
 30
-1535.352
 70
    32
  0
VERTEX
  8
W69RA3RAMP
 62
4
 10
1875.799
 20
-6743.521
 30
-1534.169
 70
    32
  0
VERTEX
  8
W69RA3RAMP
 62
4
 10
1884.192
 20
-6741.102
 30
-1531.166
 70
    32
  0
VERTEX
  8
W69RA3RAMP
 62
4
 10
1895.966
 20
-6751.556
 30
-1528.592
 70
    32
  0
VERTEX
  8
W69RA3RAMP
 62
4
 10
1915.859
 20
-6769.219
 30
-1527.657
 70
    32
  0
VERTEX
  8
W69RA3RAMP
 62
4
 10
1936.780
 20
-6777.476
 30
-1527.229
 70
    32
  0
VERTEX
  8
W69RA3RAMP
 62
4
 10
1953.037
 20
-6777.443
 30
-1527.211
 70
    32
  0
VERTEX
  8
W69RA3RAMP
 62
4
 10
1966.502
 20
-6777.415
 30
-1525.200
 70
    32
  0
VERTEX
  8
W69RA3RAMP
 62
4
 10
1994.204
 20
-6777.872
 30
-1524.370
 70
    32
  0
VERTEX
  8
W69RA3RAMP
 62
4
 10
1999.340
 20
-6779.716
 30
-1516.908
 70
    32
  0
VERTEX
  8
W69RA3RAMP
 62
4
 10
2018.518
 20
-6786.602
 30
-1515.597
 70
    32
  0
VERTEX
  8
W69RA3RAMP
 62
4
 10
2022.649
 20
-6783.401
 30
-1515.429
 70
    32
  0
VERTEX
  8
W69RA3RAMP
 62
4
 10
2027.066
 20
-6783.559
 30
-1515.400
 70
    32
  0
VERTEX
  8
W69RA3RAMP
 62
4
 10
2029.181
 20
-6770.231
 30
-1515.397
 70
    32
  0
VERTEX
  8
W69RA3RAMP
 62
4
 10
2001.631
 20
-6767.749
 30
-1516.692
 70
    32
  0
VERTEX
  8
W69RA3RAMP
 62
4
 10
1995.608
 20
-6767.708
 30
-1524.832
 70
    32
  0
VERTEX
  8
W69RA3RAMP
 62
4
 10
1971.287
 20
-6766.568
 30
-1525.100
 70
    32
  0
VERTEX
  8
W69RA3RAMP
 62
4
 10
1957.191
 20
-6767.387
 30
-1526.576
 70
    32
  0
VERTEX
  8
W69RA3RAMP
 62
4
 10
1942.219
 20
-6765.884
 30
-1527.242
 70
    32
  0
VERTEX
  8
W69RA3RAMP
 62
4
 10
1930.097
 20
-6762.538
 30
-1527.331
 70
    32
  0
VERTEX
  8
W69RA3RAMP
 62
4
 10
1912.378
 20
-6752.077
 30
-1528.133
 70
    32
  0
VERTEX
  8
W69RA3RAMP
 62
4
 10
1888.601
 20
-6727.836
 30
-1529.384
 70
    32
  0
VERTEX
  8
W69RA3RAMP
 62
4
 10
1881.198
 20
-6717.560
 30
-1531.044
 70
    32
  0
VERTEX
  8
W69RA3RAMP
 62
4
 10
1871.175
 20
-6696.789
 30
-1529.083
 70
    32
  0
VERTEX
  8
W69RA3RAMP
 62
4
 10
1852.866
 20
-6677.283
 30
-1527.687
 70
    32
  0
VERTEX
  8
W69RA3RAMP
 62
4
 10
1846.831
 20
-6673.905
 30
-1527.350
 70
    32
  0
VERTEX
  8
W69RA3RAMP
 62
4
 10
1845.826
 20
-6669.659
 30
-1527.024
 70
    32
  0
VERTEX
  8
W69RA3RAMP
 62
4
 10
1863.043
 20
-6652.545
 30
-1524.636
 70
    32
  0
VERTEX
  8
W69RA3RAMP
 62
4
 10
1867.328
 20
-6641.284
 30
-1524.035
 70
    32
  0
VERTEX
  8
W69RA3RAMP
 62
4
 10
1862.437
 20
-6630.015
 30
-1524.261
 70
    32
  0
VERTEX
  8
W69RA3RAMP
 62
4
 10
1852.787
 20
-6587.660
 30
-1533.267
 70
    32
  0
VERTEX
  8
W69RA3RAMP
 62
4
 10
1843.772
 20
-6568.975
 30
-1537.167
 70
    32
  0
VERTEX
  8
W69RA3RAMP
 62
4
 10
1837.561
 20
-6548.861
 30
-1540.919
 70
    32
  0
VERTEX
  8
W69RA3RAMP
 62
4
 10
1831.926
 20
-6541.033
 30
-1542.570
 70
    32
  0
VERTEX
  8
W69RA3RAMP
 62
4
 10
1817.987
 20
-6528.595
 30
-1545.272
 70
    32
  0
VERTEX
  8
W69RA3RAMP
 62
4
 10
1817.473
 20
-6554.890
 30
-1541.092
 70
    32
  0
VERTEX
  8
W69RA3RAMP
 62
4
 10
1834.534
 20
-6585.736
 30
-1534.742
 70
    32
  0
VERTEX
  8
W69RA3RAMP
 62
4
 10
1845.123
 20
-6612.833
 30
-1529.163
 70
    32
  0
VERTEX
  8
W69RA3RAMP
 62
4
 10
1849.415
 20
-6638.082
 30
-1524.805
 70
    32
  0
VERTEX
  8
W69RA3RAMP
 62
4
 10
1848.037
 20
-6644.664
 30
-1524.172
 70
    32
  0
VERTEX
  8
W69RA3RAMP
 62
4
 10
1845.660
 20
-6656.015
 30
-1525.678
 70
    32
  0
VERTEX
  8
W69RA3RAMP
 62
4
 10
1841.202
 20
-6662.173
 30
-1526.031
 70
    32
  0
VERTEX
  8
W69RA3RAMP
 62
4
 10
1831.354
 20
-6667.604
 30
-1526.176
 70
    32
  0
VERTEX
  8
W69RA3RAMP
 62
4
 10
1802.792
 20
-6675.472
 30
-1526.262
 70
    32
  0
VERTEX
  8
W69RA3RAMP
 62
4
 10
1806.364
 20
-6686.093
 30
-1526.937
 70
    32
  0
VERTEX
  8
W69RA3RAMP
 62
4
 10
1814.755
 20
-6684.018
 30
-1526.899
 70
    32
  0
VERTEX
  8
W69RA3RAMP
 62
4
 10
1833.811
 20
-6683.449
 30
-1527.151
 70
    32
  0
VERTEX
  8
W69RA3RAMP
 62
4
 10
1854.760
 20
-6694.944
 30
-1528.219
 70
    32
  0
VERTEX
  8
W69RA3RAMP
 62
4
 10
1864.064
 20
-6706.972
 30
-1529.527
 70
    32
  0
VERTEX
  8
W69RA3RAMP
 62
4
 10
1869.138
 20
-6721.225
 30
-1531.488
 70
    32
  0
VERTEX
  8
W69RA3RAMP
 62
4
 10
1860.815
 20
-6748.886
 30
-1535.452
 70
    32
  0
VERTEX
  8
W69RA3RAMP
 62
4
 10
1849.913
 20
-6764.378
 30
-1538.916
 70
    32
  0
VERTEX
  8
W69RA3RAMP
 62
4
 10
1835.419
 20
-6775.856
 30
-1542.237
 70
    32
  0
VERTEX
  8
W69RA3RAMP
 62
4
 10
1811.305
 20
-6773.207
 30
-1546.058
 70
    32
  0
VERTEX
  8
W69RA3RAMP
 62
4
 10
1802.107
 20
-6766.506
 30
-1547.786
 70
    32
  0
VERTEX
  8
W69RA3RAMP
 62
4
 10
1790.249
 20
-6752.422
 30
-1550.397
 70
    32
  0
VERTEX
  8
W69RA3RAMP
 62
4
 10
1783.746
 20
-6738.256
 30
-1553.150
 70
    32
  0
VERTEX
  8
W69RA3RAMP
 62
4
 10
1790.347
 20
-6669.523
 30
-1564.874
 70
    32
  0
VERTEX
  8
W69RA3RAMP
 62
4
 10
1793.155
 20
-6643.577
 30
-1560.392
 70
    32
  0
VERTEX
  8
W69RA3RAMP
 62
4
 10
1797.165
 20
-6633.612
 30
-1560.392
 70
    32
  0
VERTEX
  8
W69RA3RAMP
 62
4
 10
1799.778
 20
-6611.299
 30
-1560.392
 70
    32
  0
VERTEX
  8
W69RA3RAMP
 62
4
 10
1805.948
 20
-6607.959
 30
-1560.392
 70
    32
  0
VERTEX
  8
W69RA3RAMP
 62
4
 10
1808.722
 20
-6601.663
 30
-1560.392
 70
    32
  0
VERTEX
  8
W69RA3RAMP
 62
4
 10
1815.894
 20
-6600.658
 30
-1560.392
 70
    32
  0
VERTEX
  8
W69RA3RAMP
 62
4
 10
1817.065
 20
-6580.720
 30
-1560.392
 70
    32
  0
VERTEX
  8
W69RA3RAMP
 62
4
 10
1813.908
 20
-6543.949
 30
-1560.392
 70
    32
  0
VERTEX
  8
W69RA3RAMP
 62
4
 10
1807.304
 20
-6535.565
 30
-1560.392
 70
    32
  0
VERTEX
  8
W69RA3RAMP
 62
4
 10
1799.000
 20
-6529.106
 30
-1560.392
 70
    32
  0
VERTEX
  8
W69RA3RAMP
 62
4
 10
1791.714
 20
-6537.525
 30
-1560.392
 70
    32
  0
VERTEX
  8
W69RA3RAMP
 62
4
 10
1795.846
 20
-6548.141
 30
-1560.392
 70
    32
  0
VERTEX
  8
W69RA3RAMP
 62
4
 10
1798.010
 20
-6564.574
 30
-1560.392
 70
    32
  0
VERTEX
  8
W69RA3RAMP
 62
4
 10
1797.371
 20
-6573.861
 30
-1560.392
 70
    32
  0
VERTEX
  8
W69RA3RAMP
 62
4
 10
1782.428
 20
-6649.760
 30
-1560.392
 70
    32
  0
VERTEX
  8
W69RA3RAMP
 62
4
 10
1778.686
 20
-6648.878
 30
-1560.330
 70
    32
  0
VERTEX
  8
W69RA3RAMP
 62
4
 10
1768.411
 20
-6633.226
 30
-1557.873
 70
    32
  0
VERTEX
  8
W69RA3RAMP
 62
4
 10
1756.267
 20
-6632.504
 30
-1558.177
 70
    32
  0
VERTEX
  8
W69RA3RAMP
 62
4
 10
1767.136
 20
-6650.375
 30
-1560.943
 70
    32
  0
VERTEX
  8
W69RA3RAMP
 62
4
 10
1773.745
 20
-6667.316
 30
-1563.698
 70
    32
  0
VERTEX
  8
W69RA3RAMP
 62
4
 10
1779.055
 20
-6680.927
 30
-1561.788
 70
    32
  0
VERTEX
  8
W69RA3RAMP
 62
4
 10
1774.899
 20
-6719.323
 30
-1555.368
 70
    32
  0
VERTEX
  8
W69RA3RAMP
 62
4
 10
1765.695
 20
-6723.214
 30
-1555.767
 70
    32
  0
VERTEX
  8
W69RA3RAMP
 62
4
 10
1760.635
 20
-6715.162
 30
-1557.647
 70
    32
  0
VERTEX
  8
W69RA3RAMP
 62
4
 10
1746.291
 20
-6701.063
 30
-1562.541
 70
    32
  0
VERTEX
  8
W69RA3RAMP
 62
4
 10
1729.746
 20
-6686.711
 30
-1566.682
 70
    32
  0
VERTEX
  8
W69RA3RAMP
 62
4
 10
1723.072
 20
-6672.035
 30
-1568.656
 70
    32
  0
VERTEX
  8
W69RA3RAMP
 62
4
 10
1702.622
 20
-6648.030
 30
-1573.155
 70
    32
  0
VERTEX
  8
W69RA3RAMP
 62
4
 10
1691.203
 20
-6657.758
 30
-1574.817
 70
    32
  0
VERTEX
  8
W69RA3RAMP
 62
4
 10
1694.492
 20
-6663.194
 30
-1574.035
 70
    32
  0
VERTEX
  8
W69RA3RAMP
 62
4
 10
1712.783
 20
-6675.405
 30
-1570.352
 70
    32
  0
VERTEX
  8
W69RA3RAMP
 62
4
 10
1716.858
 20
-6688.340
 30
-1569.137
 70
    32
  0
VERTEX
  8
W69RA3RAMP
 62
4
 10
1693.099
 20
-6679.781
 30
-1573.946
 70
    32
  0
VERTEX
  8
W69RA3RAMP
 62
4
 10
1682.520
 20
-6679.451
 30
-1575.989
 70
    32
  0
VERTEX
  8
W69RA3RAMP
 62
4
 10
1680.813
 20
-6686.652
 30
-1576.369
 70
    32
  0
VERTEX
  8
W69RA3RAMP
 62
4
 10
1600.188
 20
-6733.511
 30
-1592.867
 70
    32
  0
VERTEX
  8
W69RA3RAMP
 62
4
 10
1590.852
 20
-6737.078
 30
-1594.557
 70
    32
  0
VERTEX
  8
W69RA3RAMP
 62
4
 10
1586.924
 20
-6731.713
 30
-1594.913
 70
    32
  0
VERTEX
  8
W69RA3RAMP
 62
4
 10
1586.974
 20
-6722.850
 30
-1595.174
 70
    32
  0
VERTEX
  8
W69RA3RAMP
 62
4
 10
1590.483
 20
-6708.399
 30
-1594.293
 70
    32
  0
VERTEX
  8
W69RA3RAMP
 62
4
 10
1576.877
 20
-6710.758
 30
-1595.232
 70
    32
  0
VERTEX
  8
W69RA3RAMP
 62
4
 10
1573.037
 20
-6710.734
 30
-1595.457
 70
    32
  0
VERTEX
  8
W69RA3RAMP
 62
4
 10
1537.924
 20
-6664.686
 30
-1596.641
 70
    32
  0
VERTEX
  8
W69RA3RAMP
 62
4
 10
1529.248
 20
-6670.808
 30
-1596.630
 70
    32
  0
VERTEX
  8
W69RA3RAMP
 62
4
 10
1568.803
 20
-6724.875
 30
-1596.151
 70
    32
  0
VERTEX
  8
W69RA3RAMP
 62
4
 10
1572.271
 20
-6737.829
 30
-1596.477
 70
    32
  0
VERTEX
  8
W69RA3RAMP
 62
4
 10
1568.943
 20
-6745.168
 30
-1596.966
 70
    32
  0
VERTEX
  8
W69RA3RAMP
 62
4
 10
1558.159
 20
-6750.781
 30
-1598.558
 70
    32
  0
VERTEX
  8
W69RA3RAMP
 62
4
 10
1558.218
 20
-6756.341
 30
-1598.912
 70
    32
  0
VERTEX
  8
W69RA3RAMP
 62
4
 10
1533.279
 20
-6771.619
 30
-1602.796
 70
    32
  0
VERTEX
  8
W69RA3RAMP
 62
4
 10
1516.741
 20
-6767.002
 30
-1604.274
 70
    32
  0
VERTEX
  8
W69RA3RAMP
 62
4
 10
1509.307
 20
-6786.465
 30
-1606.532
 70
    32
  0
VERTEX
  8
W69RA3RAMP
 62
4
 10
1452.091
 20
-6829.732
 30
-1616.309
 70
    32
  0
VERTEX
  8
W69RA3RAMP
 62
4
 10
1442.183
 20
-6834.640
 30
-1617.700
 70
    32
  0
VERTEX
  8
W69RA3RAMP
 62
4
 10
1428.311
 20
-6848.026
 30
-1620.302
 70
    32
  0
VERTEX
  8
W69RA3RAMP
 62
4
 10
1424.659
 20
-6851.551
 30
-1619.897
 70
    32
  0
VERTEX
  8
W69RA3RAMP
 62
4
 10
1418.769
 20
-6853.829
 30
-1619.419
 70
    32
  0
VERTEX
  8
W69RA3RAMP
 62
4
 10
1414.600
 20
-6853.180
 30
-1618.817
 70
    32
  0
VERTEX
  8
W69RA3RAMP
 62
4
 10
1339.343
 20
-6799.119
 30
-1601.758
 70
    32
  0
VERTEX
  8
W69RA3RAMP
 62
4
 10
1323.527
 20
-6787.758
 30
-1599.346
 70
    32
  0
VERTEX
  8
W69RA3RAMP
 62
4
 10
1320.109
 20
-6784.004
 30
-1598.766
 70
    32
  0
VERTEX
  8
W69RA3RAMP
 62
4
 10
1310.738
 20
-6764.438
 30
-1596.247
 70
    32
  0
VERTEX
  8
W69RA3RAMP
 62
4
 10
1310.094
 20
-6760.562
 30
-1595.424
 70
    32
  0
VERTEX
  8
W69RA3RAMP
 62
4
 10
1313.500
 20
-6747.089
 30
-1593.568
 70
    32
  0
VERTEX
  8
W69RA3RAMP
 62
4
 10
1347.059
 20
-6688.251
 30
-1585.203
 70
    32
  0
VERTEX
  8
W69RA3RAMP
 62
4
 10
1361.167
 20
-6673.477
 30
-1582.747
 70
    32
  0
VERTEX
  8
W69RA3RAMP
 62
4
 10
1364.331
 20
-6673.057
 30
-1582.581
 70
    32
  0
VERTEX
  8
W69RA3RAMP
 62
4
 10
1365.798
 20
-6678.426
 30
-1583.093
 70
    32
  0
VERTEX
  8
W69RA3RAMP
 62
4
 10
1377.501
 20
-6676.274
 30
-1582.480
 70
    32
  0
VERTEX
  8
W69RA3RAMP
 62
4
 10
1377.961
 20
-6670.763
 30
-1581.974
 70
    32
  0
VERTEX
  8
W69RA3RAMP
 62
4
 10
1380.971
 20
-6666.470
 30
-1581.556
 70
    32
  0
VERTEX
  8
W69RA3RAMP
 62
4
 10
1381.383
 20
-6653.679
 30
-1580.591
 70
    32
  0
VERTEX
  8
W69RA3RAMP
 62
4
 10
1378.016
 20
-6647.715
 30
-1579.784
 70
    32
  0
VERTEX
  8
W69RA3RAMP
 62
4
 10
1367.728
 20
-6638.087
 30
-1578.112
 70
    32
  0
VERTEX
  8
W69RA3RAMP
 62
4
 10
1358.670
 20
-6598.440
 30
-1571.756
 70
    32
  0
VERTEX
  8
W69RA3RAMP
 62
4
 10
1352.987
 20
-6589.269
 30
-1570.173
 70
    32
  0
VERTEX
  8
W69RA3RAMP
 62
4
 10
1354.389
 20
-6575.183
 30
-1567.813
 70
    32
  0
VERTEX
  8
W69RA3RAMP
 62
4
 10
1357.497
 20
-6562.046
 30
-1566.733
 70
    32
  0
VERTEX
  8
W69RA3RAMP
 62
4
 10
1362.040
 20
-6555.624
 30
-1566.475
 70
    32
  0
VERTEX
  8
W69RA3RAMP
 62
4
 10
1370.887
 20
-6549.202
 30
-1566.148
 70
    32
  0
VERTEX
  8
W69RA3RAMP
 62
4
 10
1387.690
 20
-6488.271
 30
-1566.193
 70
    32
  0
VERTEX
  8
W69RA3RAMP
 62
4
 10
1386.969
 20
-6479.536
 30
-1566.279
 70
    32
  0
VERTEX
  8
W69RA3RAMP
 62
4
 10
1389.181
 20
-6475.384
 30
-1566.408
 70
    32
  0
VERTEX
  8
W69RA3RAMP
 62
4
 10
1391.111
 20
-6464.287
 30
-1566.865
 70
    32
  0
VERTEX
  8
W69RA3RAMP
 62
4
 10
1394.602
 20
-6460.434
 30
-1567.070
 70
    32
  0
VERTEX
  8
W69RA3RAMP
 62
4
 10
1395.162
 20
-6452.418
 30
-1567.316
 70
    32
  0
VERTEX
  8
W69RA3RAMP
 62
4
 10
1403.897
 20
-6444.469
 30
-1568.488
 70
    32
  0
VERTEX
  8
W69RA3RAMP
 62
4
 10
1404.630
 20
-6437.540
 30
-1569.305
 70
    32
  0
VERTEX
  8
W69RA3RAMP
 62
4
 10
1401.287
 20
-6433.364
 30
-1569.461
 70
    32
  0
VERTEX
  8
W69RA3RAMP
 62
4
 10
1423.949
 20
-6375.287
 30
-1577.012
 70
    32
  0
VERTEX
  8
W69RA3RAMP
 62
4
 10
1425.334
 20
-6372.823
 30
-1576.638
 70
    32
  0
VERTEX
  8
W69RA3RAMP
 62
4
 10
1472.207
 20
-6331.920
 30
-1568.437
 70
    32
  0
VERTEX
  8
W69RA3RAMP
 62
4
 10
1484.436
 20
-6318.777
 30
-1566.643
 70
    32
  0
VERTEX
  8
W69RA3RAMP
 62
4
 10
1483.771
 20
-6312.813
 30
-1566.084
 70
    32
  0
VERTEX
  8
W69RA3RAMP
 62
4
 10
1489.614
 20
-6309.001
 30
-1565.423
 70
    32
  0
VERTEX
  8
W69RA3RAMP
 62
4
 10
1491.752
 20
-6290.948
 30
-1563.346
 70
    32
  0
VERTEX
  8
W69RA3RAMP
 62
4
 10
1489.607
 20
-6281.567
 30
-1562.414
 70
    32
  0
VERTEX
  8
W69RA3RAMP
 62
4
 10
1488.385
 20
-6276.222
 30
-1563.261
 70
    32
  0
VERTEX
  8
W69RA3RAMP
 62
4
 10
1466.974
 20
-6249.898
 30
-1571.714
 70
    32
  0
VERTEX
  8
W69RA3RAMP
 62
4
 10
1462.379
 20
-6258.798
 30
-1571.617
 70
    32
  0
VERTEX
  8
W69RA3RAMP
 62
4
 10
1471.188
 20
-6275.208
 30
-1575.170
 70
    32
  0
VERTEX
  8
W69RA3RAMP
 62
4
 10
1476.863
 20
-6289.202
 30
-1575.170
 70
    32
  0
VERTEX
  8
W69RA3RAMP
 62
4
 10
1475.686
 20
-6304.723
 30
-1575.170
 70
    32
  0
VERTEX
  8
W69RA3RAMP
 62
4
 10
1451.819
 20
-6330.508
 30
-1575.170
 70
    32
  0
VERTEX
  8
W69RA3RAMP
 62
4
 10
1426.999
 20
-6349.146
 30
-1576.340
 70
    32
  0
VERTEX
  8
W69RA3RAMP
 62
4
 10
1430.060
 20
-6325.075
 30
-1587.150
 70
    32
  0
VERTEX
  8
W69RA3RAMP
 62
4
 10
1436.274
 20
-6308.413
 30
-1590.970
 70
    32
  0
VERTEX
  8
W69RA3RAMP
 62
4
 10
1451.546
 20
-6291.877
 30
-1594.653
 70
    32
  0
VERTEX
  8
W69RA3RAMP
 62
4
 10
1438.892
 20
-6283.968
 30
-1594.267
 70
    32
  0
VERTEX
  8
W69RA3RAMP
 62
4
 10
1428.402
 20
-6299.116
 30
-1591.781
 70
    32
  0
VERTEX
  8
W69RA3RAMP
 62
4
 10
1420.224
 20
-6323.150
 30
-1587.017
 70
    32
  0
VERTEX
  8
W69RA3RAMP
 62
4
 10
1414.586
 20
-6364.887
 30
-1575.170
 70
    32
  0
VERTEX
  8
W69RA3RAMP
 62
4
 10
1399.311
 20
-6408.817
 30
-1575.170
 70
    32
  0
VERTEX
  8
W69RA3RAMP
 62
4
 10
1387.855
 20
-6456.567
 30
-1575.170
 70
    32
  0
VERTEX
  8
W69RA3RAMP
 62
4
 10
1375.444
 20
-6494.766
 30
-1575.170
 70
    32
  0
VERTEX
  8
W69RA3RAMP
 62
4
 10
1371.593
 20
-6519.376
 30
-1567.153
 70
    32
  0
VERTEX
  8
W69RA3RAMP
 62
4
 10
1361.640
 20
-6540.063
 30
-1567.616
 70
    32
  0
VERTEX
  8
W69RA3RAMP
 62
4
 10
1345.303
 20
-6556.500
 30
-1568.202
 70
    32
  0
VERTEX
  8
W69RA3RAMP
 62
4
 10
1340.760
 20
-6566.717
 30
-1568.252
 70
    32
  0
VERTEX
  8
W69RA3RAMP
 62
4
 10
1342.434
 20
-6573.431
 30
-1568.809
 70
    32
  0
VERTEX
  8
W69RA3RAMP
 62
4
 10
1341.572
 20
-6590.818
 30
-1571.740
 70
    32
  0
VERTEX
  8
W69RA3RAMP
 62
4
 10
1348.873
 20
-6600.456
 30
-1573.388
 70
    32
  0
VERTEX
  8
W69RA3RAMP
 62
4
 10
1356.818
 20
-6635.234
 30
-1579.144
 70
    32
  0
VERTEX
  8
W69RA3RAMP
 62
4
 10
1356.155
 20
-6643.138
 30
-1580.442
 70
    32
  0
VERTEX
  8
W69RA3RAMP
 62
4
 10
1358.946
 20
-6653.351
 30
-1582.042
 70
    32
  0
VERTEX
  8
W69RA3RAMP
 62
4
 10
1344.210
 20
-6673.002
 30
-1585.134
 70
    32
  0
VERTEX
  8
W69RA3RAMP
 62
4
 10
1304.960
 20
-6742.224
 30
-1594.473
 70
    32
  0
VERTEX
  8
W69RA3RAMP
 62
4
 10
1298.495
 20
-6743.767
 30
-1594.707
 70
    32
  0
VERTEX
  8
W69RA3RAMP
 62
4
 10
1298.771
 20
-6756.133
 30
-1596.218
 70
    32
  0
VERTEX
  8
W69RA3RAMP
 62
4
 10
1297.482
 20
-6759.824
 30
-1596.626
 70
    32
  0
VERTEX
  8
W69RA3RAMP
 62
4
 10
1298.402
 20
-6765.268
 30
-1597.136
 70
    32
  0
VERTEX
  8
W69RA3RAMP
 62
4
 10
1306.017
 20
-6783.775
 30
-1599.165
 70
    32
  0
VERTEX
  8
W69RA3RAMP
 62
4
 10
1317.196
 20
-6795.523
 30
-1601.024
 70
    32
  0
VERTEX
  8
W69RA3RAMP
 62
4
 10
1333.131
 20
-6806.970
 30
-1603.084
 70
    32
  0
VERTEX
  8
W69RA3RAMP
 62
4
 10
1412.352
 20
-6864.404
 30
-1620.709
 70
    32
  0
VERTEX
  8
W69RA3RAMP
 62
4
 10
1418.159
 20
-6877.781
 30
-1622.446
 70
    32
  0
VERTEX
  8
W69RA3RAMP
 62
4
 10
1423.141
 20
-6895.698
 30
-1624.991
 70
    32
  0
VERTEX
  8
W69RA3RAMP
 62
4
 10
1429.423
 20
-6904.795
 30
-1625.975
 70
    32
  0
VERTEX
  8
W69RA3RAMP
 62
4
 10
1440.129
 20
-6914.412
 30
-1627.505
 70
    32
  0
VERTEX
  8
W69RA3RAMP
 62
4
 10
1444.819
 20
-6926.761
 30
-1628.538
 70
    32
  0
VERTEX
  8
W69RA3RAMP
 62
4
 10
1450.746
 20
-6932.791
 30
-1629.267
 70
    32
  0
VERTEX
  8
W69RA3RAMP
 62
4
 10
1459.638
 20
-6936.650
 30
-1630.009
 70
    32
  0
VERTEX
  8
W69RA3RAMP
 62
4
 10
1476.450
 20
-6937.100
 30
-1631.226
 70
    32
  0
VERTEX
  8
W69RA3RAMP
 62
4
 10
1488.947
 20
-6941.220
 30
-1632.302
 70
    32
  0
VERTEX
  8
W69RA3RAMP
 62
4
 10
1506.702
 20
-6945.083
 30
-1633.936
 70
    32
  0
VERTEX
  8
W69RA3RAMP
 62
4
 10
1512.245
 20
-6944.849
 30
-1634.303
 70
    32
  0
VERTEX
  8
W69RA3RAMP
 62
4
 10
1535.076
 20
-6944.236
 30
-1632.361
 70
    32
  0
VERTEX
  8
W69RA3RAMP
 62
4
 10
1549.000
 20
-6941.142
 30
-1631.103
 70
    32
  0
VERTEX
  8
W69RA3RAMP
 62
4
 10
1562.478
 20
-6934.255
 30
-1629.799
 70
    32
  0
VERTEX
  8
W69RA3RAMP
 62
4
 10
1562.245
 20
-6922.932
 30
-1631.550
 70
    32
  0
VERTEX
  8
W69RA3RAMP
 62
4
 10
1556.629
 20
-6926.041
 30
-1630.208
 70
    32
  0
VERTEX
  8
W69RA3RAMP
 62
4
 10
1542.829
 20
-6932.480
 30
-1631.477
 70
    32
  0
VERTEX
  8
W69RA3RAMP
 62
4
 10
1536.025
 20
-6933.718
 30
-1632.087
 70
    32
  0
VERTEX
  8
W69RA3RAMP
 62
4
 10
1512.085
 20
-6934.095
 30
-1634.236
 70
    32
  0
VERTEX
  8
W69RA3RAMP
 62
4
 10
1497.387
 20
-6933.608
 30
-1632.650
 70
    32
  0
VERTEX
  8
W69RA3RAMP
 62
4
 10
1496.072
 20
-6926.856
 30
-1632.371
 70
    32
  0
VERTEX
  8
W69RA3RAMP
 62
4
 10
1503.608
 20
-6921.601
 30
-1632.723
 70
    32
  0
VERTEX
  8
W69RA3RAMP
 62
4
 10
1516.319
 20
-6909.214
 30
-1633.005
 70
    32
  0
VERTEX
  8
W69RA3RAMP
 62
4
 10
1528.979
 20
-6884.053
 30
-1633.389
 70
    32
  0
VERTEX
  8
W69RA3RAMP
 62
4
 10
1534.446
 20
-6883.422
 30
-1633.691
 70
    32
  0
VERTEX
  8
W69RA3RAMP
 62
4
 10
1536.922
 20
-6861.127
 30
-1633.361
 70
    32
  0
VERTEX
  8
W69RA3RAMP
 62
4
 10
1520.140
 20
-6866.516
 30
-1632.508
 70
    32
  0
VERTEX
  8
W69RA3RAMP
 62
4
 10
1517.126
 20
-6877.679
 30
-1632.571
 70
    32
  0
VERTEX
  8
W69RA3RAMP
 62
4
 10
1514.435
 20
-6881.949
 30
-1632.506
 70
    32
  0
VERTEX
  8
W69RA3RAMP
 62
4
 10
1505.287
 20
-6888.848
 30
-1632.102
 70
    32
  0
VERTEX
  8
W69RA3RAMP
 62
4
 10
1507.709
 20
-6892.461
 30
-1632.278
 70
    32
  0
VERTEX
  8
W69RA3RAMP
 62
4
 10
1506.633
 20
-6898.703
 30
-1632.351
 70
    32
  0
VERTEX
  8
W69RA3RAMP
 62
4
 10
1503.404
 20
-6905.601
 30
-1632.367
 70
    32
  0
VERTEX
  8
W69RA3RAMP
 62
4
 10
1483.017
 20
-6923.385
 30
-1631.538
 70
    32
  0
VERTEX
  8
W69RA3RAMP
 62
4
 10
1461.872
 20
-6919.248
 30
-1629.212
 70
    32
  0
VERTEX
  8
W69RA3RAMP
 62
4
 10
1457.667
 20
-6914.800
 30
-1628.697
 70
    32
  0
VERTEX
  8
W69RA3RAMP
 62
4
 10
1447.100
 20
-6892.488
 30
-1625.643
 70
    32
  0
VERTEX
  8
W69RA3RAMP
 62
4
 10
1435.088
 20
-6882.075
 30
-1624.139
 70
    32
  0
VERTEX
  8
W69RA3RAMP
 62
4
 10
1433.598
 20
-6876.046
 30
-1623.247
 70
    32
  0
VERTEX
  8
W69RA3RAMP
 62
4
 10
1435.872
 20
-6860.095
 30
-1622.080
 70
    32
  0
VERTEX
  8
W69RA3RAMP
 62
4
 10
1439.472
 20
-6854.255
 30
-1621.289
 70
    32
  0
VERTEX
  8
W69RA3RAMP
 62
4
 10
1452.663
 20
-6844.223
 30
-1619.086
 70
    32
  0
VERTEX
  8
W69RA3RAMP
 62
4
 10
1458.894
 20
-6837.125
 30
-1617.761
 70
    32
  0
VERTEX
  8
W69RA3RAMP
 62
4
 10
1500.021
 20
-6806.025
 30
-1610.377
 70
    32
  0
VERTEX
  8
W69RA3RAMP
 62
4
 10
1589.592
 20
-6753.553
 30
-1596.708
 70
    32
  0
VERTEX
  8
W69RA3RAMP
 62
4
 10
1638.571
 20
-6725.075
 30
-1586.639
 70
    32
  0
VERTEX
  8
W69RA3RAMP
 62
4
 10
1654.538
 20
-6713.488
 30
-1583.308
 70
    32
  0
VERTEX
  8
W69RA3RAMP
 62
4
 10
1693.161
 20
-6693.334
 30
-1575.363
 70
    32
  0
VERTEX
  8
W69RA3RAMP
 62
4
 10
1723.406
 20
-6701.559
 30
-1568.435
 70
    32
  0
VERTEX
  8
W69RA3RAMP
 62
4
 10
1739.631
 20
-6709.196
 30
-1563.631
 70
    32
  0
VERTEX
  8
W69RA3RAMP
 62
4
 10
1750.780
 20
-6718.274
 30
-1560.330
 70
    32
  0
VERTEX
  8
W69RA3RAMP
 62
4
 10
1763.417
 20
-6740.564
 30
-1555.064
 70
    32
  0
VERTEX
  8
W69RA3RAMP
 62
4
 10
1770.099
 20
-6749.519
 30
-1552.569
 70
    32
  0
VERTEX
  8
W69RA3RAMP
 62
4
 10
1777.332
 20
-6757.062
 30
-1551.133
 70
    32
  0
SEQEND
  8
W69RA3RAMP
  0
ENDSEC
  0
EOF
