999
********************************
999
*   DXF File - Entities Only   *
999
*        3D Data Format        *
999
*     Output from ENVISAGE     *
999
*     28-Dec-2007 13:33:56     *
999
********************************
  0
SECTION 
  2
HEADER
  9
$ACADVER
  1
AC1009
  9
$EXTMIN
 10
-290000.000
 20
-250000.000
 30
-4000.000
  9
$EXTMAX
 10
5000000.000
 20
600000.000
 30
6000.000
  0
ENDSEC
  0
SECTION
  2
ENTITIES
  0
LINE
  8
W71RB3RAMP
 62
1
 10
2152.278
 20
-8567.603
 30
0.000
 11
2152.581
 21
-8567.710
 31
0.000
  0
POLYLINE
  8
W71RB3RAMP
 62
6
 66
     1
 70
     9
  0
VERTEX
  8
W71RB3RAMP
 62
6
 10
2218.162
 20
-8608.881
 30
-1724.891
 70
    32
  0
VERTEX
  8
W71RB3RAMP
 62
6
 10
2259.518
 20
-8628.817
 30
-1738.580
 70
    32
  0
VERTEX
  8
W71RB3RAMP
 62
6
 10
2280.452
 20
-8631.280
 30
-1744.600
 70
    32
  0
VERTEX
  8
W71RB3RAMP
 62
6
 10
2301.534
 20
-8631.609
 30
-1744.600
 70
    32
  0
VERTEX
  8
W71RB3RAMP
 62
6
 10
2300.503
 20
-8641.504
 30
-1744.600
 70
    32
  0
VERTEX
  8
W71RB3RAMP
 62
6
 10
2294.871
 20
-8648.853
 30
-1744.600
 70
    32
  0
VERTEX
  8
W71RB3RAMP
 62
6
 10
2288.737
 20
-8642.923
 30
-1744.600
 70
    32
  0
VERTEX
  8
W71RB3RAMP
 62
6
 10
2285.189
 20
-8642.036
 30
-1744.600
 70
    32
  0
VERTEX
  8
W71RB3RAMP
 62
6
 10
2278.519
 20
-8642.268
 30
-1744.600
 70
    32
  0
VERTEX
  8
W71RB3RAMP
 62
6
 10
2273.259
 20
-8642.451
 30
-1743.169
 70
    32
  0
VERTEX
  8
W71RB3RAMP
 62
6
 10
2252.286
 20
-8637.844
 30
-1737.493
 70
    32
  0
VERTEX
  8
W71RB3RAMP
 62
6
 10
2212.170
 20
-8617.980
 30
-1724.904
 70
    32
  0
VERTEX
  8
W71RB3RAMP
 62
6
 10
2188.857
 20
-8599.255
 30
-1716.570
 70
    32
  0
VERTEX
  8
W71RB3RAMP
 62
6
 10
2196.038
 20
-8591.624
 30
-1718.068
 70
    32
  0
SEQEND
  8
W71RB3RAMP
  0
POLYLINE
  8
W71RB3RAMP
 62
6
 66
     1
 70
     9
  0
VERTEX
  8
W71RB3RAMP
 62
6
 10
2138.294
 20
-8540.571
 30
-1720.059
 70
    32
  0
VERTEX
  8
W71RB3RAMP
 62
6
 10
2173.451
 20
-8519.258
 30
-1717.500
 70
    32
  0
VERTEX
  8
W71RB3RAMP
 62
6
 10
2190.771
 20
-8495.302
 30
-1715.684
 70
    32
  0
VERTEX
  8
W71RB3RAMP
 62
6
 10
2195.514
 20
-8478.921
 30
-1714.577
 70
    32
  0
VERTEX
  8
W71RB3RAMP
 62
6
 10
2200.510
 20
-8505.072
 30
-1715.762
 70
    32
  0
VERTEX
  8
W71RB3RAMP
 62
6
 10
2190.810
 20
-8512.468
 30
-1716.485
 70
    32
  0
VERTEX
  8
W71RB3RAMP
 62
6
 10
2174.955
 20
-8530.272
 30
-1717.805
 70
    32
  0
VERTEX
  8
W71RB3RAMP
 62
6
 10
2145.304
 20
-8549.826
 30
-1719.361
 70
    32
  0
SEQEND
  8
W71RB3RAMP
  0
POLYLINE
  8
W71RB3RAMP
 62
6
 66
     1
 70
     9
  0
VERTEX
  8
W71RB3RAMP
 62
6
 10
2133.496
 20
-8574.429
 30
-1719.040
 70
    32
  0
VERTEX
  8
W71RB3RAMP
 62
6
 10
2127.410
 20
-8571.546
 30
-1719.410
 70
    32
  0
VERTEX
  8
W71RB3RAMP
 62
6
 10
2068.741
 20
-8542.190
 30
-1732.677
 70
    32
  0
VERTEX
  8
W71RB3RAMP
 62
6
 10
2070.803
 20
-8515.451
 30
-1730.818
 70
    32
  0
VERTEX
  8
W71RB3RAMP
 62
6
 10
2078.729
 20
-8527.992
 30
-1729.058
 70
    32
  0
VERTEX
  8
W71RB3RAMP
 62
6
 10
2093.312
 20
-8542.444
 30
-1726.055
 70
    32
  0
VERTEX
  8
W71RB3RAMP
 62
6
 10
2111.562
 20
-8552.764
 30
-1722.579
 70
    32
  0
VERTEX
  8
W71RB3RAMP
 62
6
 10
2121.372
 20
-8550.252
 30
-1721.284
 70
    32
  0
VERTEX
  8
W71RB3RAMP
 62
6
 10
2130.663
 20
-8541.744
 30
-1720.514
 70
    32
  0
VERTEX
  8
W71RB3RAMP
 62
6
 10
2133.538
 20
-8543.622
 30
-1720.410
 70
    32
  0
VERTEX
  8
W71RB3RAMP
 62
6
 10
2138.294
 20
-8540.571
 30
-1720.059
 70
    32
  0
VERTEX
  8
W71RB3RAMP
 62
6
 10
2138.540
 20
-8540.568
 30
-1720.045
 70
    32
  0
VERTEX
  8
W71RB3RAMP
 62
6
 10
2140.975
 20
-8537.990
 30
-1718.762
 70
    32
  0
VERTEX
  8
W71RB3RAMP
 62
6
 10
2141.992
 20
-8537.447
 30
-1718.630
 70
    32
  0
VERTEX
  8
W71RB3RAMP
 62
6
 10
2146.402
 20
-8535.093
 30
-1716.844
 70
    32
  0
VERTEX
  8
W71RB3RAMP
 62
6
 10
2159.975
 20
-8527.848
 30
-1711.091
 70
    32
  0
VERTEX
  8
W71RB3RAMP
 62
6
 10
2164.942
 20
-8524.078
 30
-1708.726
 70
    32
  0
VERTEX
  8
W71RB3RAMP
 62
6
 10
2171.587
 20
-8519.036
 30
-1706.559
 70
    32
  0
VERTEX
  8
W71RB3RAMP
 62
6
 10
2177.607
 20
-8514.451
 30
-1704.593
 70
    32
  0
VERTEX
  8
W71RB3RAMP
 62
6
 10
2178.251
 20
-8513.960
 30
-1704.387
 70
    32
  0
VERTEX
  8
W71RB3RAMP
 62
6
 10
2182.026
 20
-8509.259
 30
-1702.893
 70
    32
  0
VERTEX
  8
W71RB3RAMP
 62
6
 10
2184.036
 20
-8506.756
 30
-1702.733
 70
    32
  0
VERTEX
  8
W71RB3RAMP
 62
6
 10
2184.990
 20
-8505.569
 30
-1702.650
 70
    32
  0
VERTEX
  8
W71RB3RAMP
 62
6
 10
2184.221
 20
-8501.846
 30
-1702.556
 70
    32
  0
VERTEX
  8
W71RB3RAMP
 62
6
 10
2188.281
 20
-8493.650
 30
-1702.095
 70
    32
  0
VERTEX
  8
W71RB3RAMP
 62
6
 10
2193.701
 20
-8521.286
 30
-1702.747
 70
    32
  0
VERTEX
  8
W71RB3RAMP
 62
6
 10
2191.828
 20
-8520.937
 30
-1702.817
 70
    32
  0
VERTEX
  8
W71RB3RAMP
 62
6
 10
2186.142
 20
-8519.876
 30
-1703.771
 70
    32
  0
VERTEX
  8
W71RB3RAMP
 62
6
 10
2184.878
 20
-8521.009
 30
-1704.201
 70
    32
  0
VERTEX
  8
W71RB3RAMP
 62
6
 10
2179.139
 20
-8528.804
 30
-1706.576
 70
    32
  0
VERTEX
  8
W71RB3RAMP
 62
6
 10
2176.419
 20
-8529.881
 30
-1707.285
 70
    32
  0
VERTEX
  8
W71RB3RAMP
 62
6
 10
2171.053
 20
-8532.006
 30
-1708.726
 70
    32
  0
VERTEX
  8
W71RB3RAMP
 62
6
 10
2170.219
 20
-8532.336
 30
-1709.053
 70
    32
  0
VERTEX
  8
W71RB3RAMP
 62
6
 10
2163.554
 20
-8536.873
 30
-1712.105
 70
    32
  0
VERTEX
  8
W71RB3RAMP
 62
6
 10
2148.309
 20
-8547.252
 30
-1718.728
 70
    32
  0
VERTEX
  8
W71RB3RAMP
 62
6
 10
2145.429
 20
-8549.944
 30
-1719.359
 70
    32
  0
VERTEX
  8
W71RB3RAMP
 62
6
 10
2145.304
 20
-8549.826
 30
-1719.361
 70
    32
  0
VERTEX
  8
W71RB3RAMP
 62
6
 10
2136.020
 20
-8556.212
 30
-1719.854
 70
    32
  0
VERTEX
  8
W71RB3RAMP
 62
6
 10
2136.385
 20
-8561.951
 30
-1719.368
 70
    32
  0
VERTEX
  8
W71RB3RAMP
 62
6
 10
2136.385
 20
-8561.951
 30
-1719.368
 70
    32
  0
VERTEX
  8
W71RB3RAMP
 62
6
 10
2151.546
 20
-8567.340
 30
-1722.729
 70
    32
  0
VERTEX
  8
W71RB3RAMP
 62
6
 10
2156.419
 20
-8569.072
 30
-1723.541
 70
    32
  0
VERTEX
  8
W71RB3RAMP
 62
6
 10
2156.203
 20
-8569.286
 30
-1723.528
 70
    32
  0
VERTEX
  8
W71RB3RAMP
 62
6
 10
2164.379
 20
-8571.909
 30
-1724.868
 70
    32
  0
VERTEX
  8
W71RB3RAMP
 62
6
 10
2165.714
 20
-8572.944
 30
-1725.135
 70
    32
  0
VERTEX
  8
W71RB3RAMP
 62
6
 10
2177.268
 20
-8581.897
 30
-1727.512
 70
    32
  0
VERTEX
  8
W71RB3RAMP
 62
6
 10
2184.446
 20
-8586.913
 30
-1728.944
 70
    32
  0
VERTEX
  8
W71RB3RAMP
 62
6
 10
2205.629
 20
-8601.718
 30
-1733.193
 70
    32
  0
VERTEX
  8
W71RB3RAMP
 62
6
 10
2210.524
 20
-8604.516
 30
-1734.122
 70
    32
  0
VERTEX
  8
W71RB3RAMP
 62
6
 10
2218.162
 20
-8608.881
 30
-1735.577
 70
    32
  0
VERTEX
  8
W71RB3RAMP
 62
6
 10
2230.373
 20
-8614.872
 30
-1737.819
 70
    32
  0
VERTEX
  8
W71RB3RAMP
 62
6
 10
2246.989
 20
-8623.024
 30
-1740.929
 70
    32
  0
VERTEX
  8
W71RB3RAMP
 62
6
 10
2247.190
 20
-8623.122
 30
-1740.864
 70
    32
  0
VERTEX
  8
W71RB3RAMP
 62
6
 10
2252.149
 20
-8625.638
 30
-1739.266
 70
    32
  0
VERTEX
  8
W71RB3RAMP
 62
6
 10
2258.846
 20
-8629.035
 30
-1737.402
 70
    32
  0
VERTEX
  8
W71RB3RAMP
 62
6
 10
2260.483
 20
-8629.352
 30
-1736.975
 70
    32
  0
VERTEX
  8
W71RB3RAMP
 62
6
 10
2274.463
 20
-8632.056
 30
-1732.061
 70
    32
  0
VERTEX
  8
W71RB3RAMP
 62
6
 10
2280.350
 20
-8633.195
 30
-1729.938
 70
    32
  0
VERTEX
  8
W71RB3RAMP
 62
6
 10
2286.380
 20
-8634.361
 30
-1730.000
 70
    32
  0
VERTEX
  8
W71RB3RAMP
 62
6
 10
2295.933
 20
-8636.209
 30
-1730.000
 70
    32
  0
VERTEX
  8
W71RB3RAMP
 62
6
 10
2294.171
 20
-8641.531
 30
-1730.000
 70
    32
  0
VERTEX
  8
W71RB3RAMP
 62
6
 10
2293.768
 20
-8642.750
 30
-1730.027
 70
    32
  0
VERTEX
  8
W71RB3RAMP
 62
6
 10
2292.165
 20
-8647.364
 30
-1730.027
 70
    32
  0
VERTEX
  8
W71RB3RAMP
 62
6
 10
2285.342
 20
-8645.678
 30
-1730.146
 70
    32
  0
VERTEX
  8
W71RB3RAMP
 62
6
 10
2277.810
 20
-8644.114
 30
-1730.168
 70
    32
  0
VERTEX
  8
W71RB3RAMP
 62
6
 10
2275.222
 20
-8643.577
 30
-1731.076
 70
    32
  0
VERTEX
  8
W71RB3RAMP
 62
6
 10
2268.781
 20
-8641.935
 30
-1733.353
 70
    32
  0
VERTEX
  8
W71RB3RAMP
 62
6
 10
2258.104
 20
-8639.212
 30
-1737.013
 70
    32
  0
VERTEX
  8
W71RB3RAMP
 62
6
 10
2257.911
 20
-8639.163
 30
-1737.059
 70
    32
  0
VERTEX
  8
W71RB3RAMP
 62
6
 10
2252.286
 20
-8637.844
 30
-1738.406
 70
    32
  0
VERTEX
  8
W71RB3RAMP
 62
6
 10
2250.157
 20
-8636.790
 30
-1738.945
 70
    32
  0
VERTEX
  8
W71RB3RAMP
 62
6
 10
2242.619
 20
-8633.057
 30
-1741.069
 70
    32
  0
VERTEX
  8
W71RB3RAMP
 62
6
 10
2220.579
 20
-8622.144
 30
-1737.013
 70
    32
  0
VERTEX
  8
W71RB3RAMP
 62
6
 10
2212.170
 20
-8617.980
 30
-1735.486
 70
    32
  0
VERTEX
  8
W71RB3RAMP
 62
6
 10
2206.625
 20
-8615.937
 30
-1734.539
 70
    32
  0
VERTEX
  8
W71RB3RAMP
 62
6
 10
2204.498
 20
-8614.499
 30
-1734.120
 70
    32
  0
VERTEX
  8
W71RB3RAMP
 62
6
 10
2184.336
 20
-8600.865
 30
-1730.097
 70
    32
  0
VERTEX
  8
W71RB3RAMP
 62
6
 10
2182.519
 20
-8599.554
 30
-1729.727
 70
    32
  0
VERTEX
  8
W71RB3RAMP
 62
6
 10
2159.856
 20
-8583.201
 30
-1725.138
 70
    32
  0
VERTEX
  8
W71RB3RAMP
 62
6
 10
2159.802
 20
-8583.162
 30
-1725.122
 70
    32
  0
VERTEX
  8
W71RB3RAMP
 62
6
 10
2147.563
 20
-8577.426
 30
-1721.968
 70
    32
  0
VERTEX
  8
W71RB3RAMP
 62
6
 10
2146.290
 20
-8577.155
 30
-1721.678
 70
    32
  0
VERTEX
  8
W71RB3RAMP
 62
6
 10
2133.496
 20
-8574.429
 30
-1719.040
 70
    32
  0
SEQEND
  8
W71RB3RAMP
  0
POLYLINE
  8
W71RB3RAMP
 62
6
 66
     1
 70
     9
  0
VERTEX
  8
W71RB3RAMP
 62
6
 10
2207.681
 20
-8596.661
 30
-1715.016
 70
    32
  0
VERTEX
  8
W71RB3RAMP
 62
6
 10
2207.197
 20
-8601.855
 30
-1714.314
 70
    32
  0
VERTEX
  8
W71RB3RAMP
 62
6
 10
2272.777
 20
-8666.175
 30
-1697.609
 70
    32
  0
VERTEX
  8
W71RB3RAMP
 62
6
 10
2264.808
 20
-8674.175
 30
-1697.669
 70
    32
  0
VERTEX
  8
W71RB3RAMP
 62
6
 10
2199.340
 20
-8607.890
 30
-1714.140
 70
    32
  0
VERTEX
  8
W71RB3RAMP
 62
6
 10
2188.857
 20
-8599.255
 30
-1716.570
 70
    32
  0
VERTEX
  8
W71RB3RAMP
 62
6
 10
2168.640
 20
-8589.539
 30
-1717.483
 70
    32
  0
VERTEX
  8
W71RB3RAMP
 62
6
 10
2159.802
 20
-8583.162
 30
-1717.905
 70
    32
  0
VERTEX
  8
W71RB3RAMP
 62
6
 10
2147.563
 20
-8577.426
 30
-1718.438
 70
    32
  0
VERTEX
  8
W71RB3RAMP
 62
6
 10
2133.496
 20
-8574.429
 30
-1719.040
 70
    32
  0
VERTEX
  8
W71RB3RAMP
 62
6
 10
2136.385
 20
-8561.951
 30
-1719.368
 70
    32
  0
VERTEX
  8
W71RB3RAMP
 62
6
 10
2164.379
 20
-8571.909
 30
-1718.030
 70
    32
  0
VERTEX
  8
W71RB3RAMP
 62
6
 10
2178.369
 20
-8582.264
 30
-1717.291
 70
    32
  0
VERTEX
  8
W71RB3RAMP
 62
6
 10
2187.288
 20
-8587.503
 30
-1718.068
 70
    32
  0
VERTEX
  8
W71RB3RAMP
 62
6
 10
2193.419
 20
-8588.095
 30
-1716.514
 70
    32
  0
VERTEX
  8
W71RB3RAMP
 62
6
 10
2205.938
 20
-8584.585
 30
-1715.436
 70
    32
  0
VERTEX
  8
W71RB3RAMP
 62
6
 10
2214.202
 20
-8585.778
 30
-1714.849
 70
    32
  0
VERTEX
  8
W71RB3RAMP
 62
6
 10
2230.853
 20
-8580.650
 30
-1713.561
 70
    32
  0
VERTEX
  8
W71RB3RAMP
 62
6
 10
2239.414
 20
-8592.262
 30
-1713.228
 70
    32
  0
VERTEX
  8
W71RB3RAMP
 62
6
 10
2213.956
 20
-8595.362
 30
-1714.567
 70
    32
  0
SEQEND
  8
W71RB3RAMP
  0
TEXT
  8
W71RB3RAMP
 62
6
 10
2296.762
 20
-8582.904
 30
-1697.609
 40
4.101
  1
71B3
 41
 1.0 
  0
POLYLINE
  8
W71RB3RAMP
 62
12
 66
     1
 70
     9
  0
VERTEX
  8
W71RB3RAMP
 62
12
 10
2008.068
 20
-7814.297
 30
-1663.825
 70
    32
  0
VERTEX
  8
W71RB3RAMP
 62
12
 10
2008.404
 20
-7813.909
 30
-1663.825
 70
    32
  0
VERTEX
  8
W71RB3RAMP
 62
12
 10
2011.235
 20
-7810.641
 30
-1664.113
 70
    32
  0
VERTEX
  8
W71RB3RAMP
 62
12
 10
2016.440
 20
-7809.133
 30
-1664.738
 70
    32
  0
VERTEX
  8
W71RB3RAMP
 62
12
 10
2026.625
 20
-7806.183
 30
-1666.433
 70
    32
  0
VERTEX
  8
W71RB3RAMP
 62
12
 10
2030.996
 20
-7804.917
 30
-1667.288
 70
    32
  0
VERTEX
  8
W71RB3RAMP
 62
12
 10
2033.496
 20
-7804.193
 30
-1667.709
 70
    32
  0
VERTEX
  8
W71RB3RAMP
 62
12
 10
2036.923
 20
-7803.548
 30
-1668.274
 70
    32
  0
VERTEX
  8
W71RB3RAMP
 62
12
 10
2043.059
 20
-7802.392
 30
-1669.281
 70
    32
  0
VERTEX
  8
W71RB3RAMP
 62
12
 10
2048.923
 20
-7801.287
 30
-1670.273
 70
    32
  0
VERTEX
  8
W71RB3RAMP
 62
12
 10
2054.700
 20
-7800.199
 30
-1671.160
 70
    32
  0
VERTEX
  8
W71RB3RAMP
 62
12
 10
2059.831
 20
-7799.233
 30
-1672.001
 70
    32
  0
VERTEX
  8
W71RB3RAMP
 62
12
 10
2060.938
 20
-7799.024
 30
-1672.200
 70
    32
  0
VERTEX
  8
W71RB3RAMP
 62
12
 10
2065.292
 20
-7797.950
 30
-1672.992
 70
    32
  0
VERTEX
  8
W71RB3RAMP
 62
12
 10
2070.150
 20
-7796.751
 30
-1673.802
 70
    32
  0
VERTEX
  8
W71RB3RAMP
 62
12
 10
2074.840
 20
-7795.594
 30
-1674.579
 70
    32
  0
VERTEX
  8
W71RB3RAMP
 62
12
 10
2078.284
 20
-7794.744
 30
-1675.181
 70
    32
  0
VERTEX
  8
W71RB3RAMP
 62
12
 10
2079.591
 20
-7794.593
 30
-1675.405
 70
    32
  0
VERTEX
  8
W71RB3RAMP
 62
12
 10
2080.946
 20
-7794.437
 30
-1675.706
 70
    32
  0
VERTEX
  8
W71RB3RAMP
 62
12
 10
2083.854
 20
-7794.979
 30
-1676.322
 70
    32
  0
VERTEX
  8
W71RB3RAMP
 62
12
 10
2087.825
 20
-7795.718
 30
-1676.983
 70
    32
  0
VERTEX
  8
W71RB3RAMP
 62
12
 10
2092.661
 20
-7796.619
 30
-1677.850
 70
    32
  0
VERTEX
  8
W71RB3RAMP
 62
12
 10
2092.806
 20
-7796.646
 30
-1677.886
 70
    32
  0
VERTEX
  8
W71RB3RAMP
 62
12
 10
2098.807
 20
-7798.974
 30
-1679.479
 70
    32
  0
VERTEX
  8
W71RB3RAMP
 62
12
 10
2100.075
 20
-7799.467
 30
-1679.720
 70
    32
  0
VERTEX
  8
W71RB3RAMP
 62
12
 10
2101.270
 20
-7799.930
 30
-1680.303
 70
    32
  0
VERTEX
  8
W71RB3RAMP
 62
12
 10
2104.025
 20
-7800.999
 30
-1680.792
 70
    32
  0
VERTEX
  8
W71RB3RAMP
 62
12
 10
2104.363
 20
-7801.166
 30
-1680.855
 70
    32
  0
VERTEX
  8
W71RB3RAMP
 62
12
 10
2107.952
 20
-7802.939
 30
-1681.650
 70
    32
  0
VERTEX
  8
W71RB3RAMP
 62
12
 10
2111.634
 20
-7804.759
 30
-1682.501
 70
    32
  0
VERTEX
  8
W71RB3RAMP
 62
12
 10
2112.541
 20
-7805.601
 30
-1682.768
 70
    32
  0
VERTEX
  8
W71RB3RAMP
 62
12
 10
2114.961
 20
-7807.850
 30
-1683.551
 70
    32
  0
VERTEX
  8
W71RB3RAMP
 62
12
 10
2121.559
 20
-7813.981
 30
-1684.287
 70
    32
  0
VERTEX
  8
W71RB3RAMP
 62
12
 10
2121.764
 20
-7814.851
 30
-1684.349
 70
    32
  0
VERTEX
  8
W71RB3RAMP
 62
12
 10
2123.574
 20
-7822.542
 30
-1684.837
 70
    32
  0
VERTEX
  8
W71RB3RAMP
 62
12
 10
2124.644
 20
-7827.085
 30
-1685.149
 70
    32
  0
VERTEX
  8
W71RB3RAMP
 62
12
 10
2124.809
 20
-7827.787
 30
-1685.222
 70
    32
  0
VERTEX
  8
W71RB3RAMP
 62
12
 10
2125.307
 20
-7833.052
 30
-1685.714
 70
    32
  0
VERTEX
  8
W71RB3RAMP
 62
12
 10
2125.542
 20
-7835.537
 30
-1686.008
 70
    32
  0
VERTEX
  8
W71RB3RAMP
 62
12
 10
2129.533
 20
-7838.194
 30
-1686.667
 70
    32
  0
VERTEX
  8
W71RB3RAMP
 62
12
 10
2131.638
 20
-7839.595
 30
-1686.827
 70
    32
  0
VERTEX
  8
W71RB3RAMP
 62
12
 10
2133.746
 20
-7840.998
 30
-1686.984
 70
    32
  0
VERTEX
  8
W71RB3RAMP
 62
12
 10
2134.786
 20
-7843.825
 30
-1687.226
 70
    32
  0
VERTEX
  8
W71RB3RAMP
 62
12
 10
2137.049
 20
-7849.975
 30
-1687.702
 70
    32
  0
VERTEX
  8
W71RB3RAMP
 62
12
 10
2137.246
 20
-7850.968
 30
-1687.774
 70
    32
  0
VERTEX
  8
W71RB3RAMP
 62
12
 10
2138.915
 20
-7859.376
 30
-1688.423
 70
    32
  0
VERTEX
  8
W71RB3RAMP
 62
12
 10
2139.414
 20
-7861.888
 30
-1688.630
 70
    32
  0
VERTEX
  8
W71RB3RAMP
 62
12
 10
2139.778
 20
-7863.723
 30
-1688.633
 70
    32
  0
VERTEX
  8
W71RB3RAMP
 62
12
 10
2141.237
 20
-7871.073
 30
-1688.774
 70
    32
  0
VERTEX
  8
W71RB3RAMP
 62
12
 10
2142.109
 20
-7875.467
 30
-1688.777
 70
    32
  0
VERTEX
  8
W71RB3RAMP
 62
12
 10
2142.459
 20
-7877.229
 30
-1688.777
 70
    32
  0
VERTEX
  8
W71RB3RAMP
 62
12
 10
2142.822
 20
-7879.059
 30
-1688.777
 70
    32
  0
VERTEX
  8
W71RB3RAMP
 62
12
 10
2143.735
 20
-7883.657
 30
-1688.777
 70
    32
  0
VERTEX
  8
W71RB3RAMP
 62
12
 10
2144.890
 20
-7889.473
 30
-1688.777
 70
    32
  0
VERTEX
  8
W71RB3RAMP
 62
12
 10
2145.451
 20
-7892.303
 30
-1688.777
 70
    32
  0
VERTEX
  8
W71RB3RAMP
 62
12
 10
2145.986
 20
-7894.997
 30
-1688.777
 70
    32
  0
VERTEX
  8
W71RB3RAMP
 62
12
 10
2147.003
 20
-7900.120
 30
-1688.777
 70
    32
  0
VERTEX
  8
W71RB3RAMP
 62
12
 10
2147.594
 20
-7903.096
 30
-1688.777
 70
    32
  0
VERTEX
  8
W71RB3RAMP
 62
12
 10
2147.939
 20
-7904.835
 30
-1688.777
 70
    32
  0
VERTEX
  8
W71RB3RAMP
 62
12
 10
2148.025
 20
-7905.268
 30
-1688.777
 70
    32
  0
VERTEX
  8
W71RB3RAMP
 62
12
 10
2156.407
 20
-7907.443
 30
-1688.777
 70
    32
  0
VERTEX
  8
W71RB3RAMP
 62
12
 10
2157.986
 20
-7907.853
 30
-1688.777
 70
    32
  0
VERTEX
  8
W71RB3RAMP
 62
12
 10
2163.894
 20
-7909.386
 30
-1688.777
 70
    32
  0
VERTEX
  8
W71RB3RAMP
 62
12
 10
2163.461
 20
-7904.478
 30
-1688.777
 70
    32
  0
VERTEX
  8
W71RB3RAMP
 62
12
 10
2163.265
 20
-7902.252
 30
-1688.777
 70
    32
  0
VERTEX
  8
W71RB3RAMP
 62
12
 10
2162.961
 20
-7898.802
 30
-1688.777
 70
    32
  0
VERTEX
  8
W71RB3RAMP
 62
12
 10
2162.793
 20
-7896.885
 30
-1688.777
 70
    32
  0
VERTEX
  8
W71RB3RAMP
 62
12
 10
2162.554
 20
-7894.174
 30
-1688.777
 70
    32
  0
VERTEX
  8
W71RB3RAMP
 62
12
 10
2162.077
 20
-7888.763
 30
-1688.777
 70
    32
  0
VERTEX
  8
W71RB3RAMP
 62
12
 10
2161.967
 20
-7887.509
 30
-1688.777
 70
    32
  0
VERTEX
  8
W71RB3RAMP
 62
12
 10
2161.423
 20
-7883.180
 30
-1688.777
 70
    32
  0
VERTEX
  8
W71RB3RAMP
 62
12
 10
2161.176
 20
-7881.218
 30
-1688.777
 70
    32
  0
VERTEX
  8
W71RB3RAMP
 62
12
 10
2161.009
 20
-7879.887
 30
-1688.777
 70
    32
  0
VERTEX
  8
W71RB3RAMP
 62
12
 10
2160.542
 20
-7876.170
 30
-1688.777
 70
    32
  0
VERTEX
  8
W71RB3RAMP
 62
12
 10
2159.919
 20
-7871.212
 30
-1688.777
 70
    32
  0
VERTEX
  8
W71RB3RAMP
 62
12
 10
2159.747
 20
-7869.843
 30
-1688.777
 70
    32
  0
VERTEX
  8
W71RB3RAMP
 62
12
 10
2159.526
 20
-7869.482
 30
-1688.777
 70
    32
  0
VERTEX
  8
W71RB3RAMP
 62
12
 10
2155.621
 20
-7863.090
 30
-1688.777
 70
    32
  0
VERTEX
  8
W71RB3RAMP
 62
12
 10
2152.337
 20
-7857.715
 30
-1688.803
 70
    32
  0
VERTEX
  8
W71RB3RAMP
 62
12
 10
2151.884
 20
-7856.974
 30
-1688.729
 70
    32
  0
VERTEX
  8
W71RB3RAMP
 62
12
 10
2151.117
 20
-7854.979
 30
-1688.546
 70
    32
  0
VERTEX
  8
W71RB3RAMP
 62
12
 10
2147.792
 20
-7846.332
 30
-1687.767
 70
    32
  0
VERTEX
  8
W71RB3RAMP
 62
12
 10
2144.897
 20
-7838.803
 30
-1687.110
 70
    32
  0
VERTEX
  8
W71RB3RAMP
 62
12
 10
2143.751
 20
-7835.823
 30
-1686.818
 70
    32
  0
VERTEX
  8
W71RB3RAMP
 62
12
 10
2143.279
 20
-7834.595
 30
-1686.710
 70
    32
  0
VERTEX
  8
W71RB3RAMP
 62
12
 10
2142.275
 20
-7827.656
 30
-1686.142
 70
    32
  0
VERTEX
  8
W71RB3RAMP
 62
12
 10
2141.367
 20
-7821.379
 30
-1685.733
 70
    32
  0
VERTEX
  8
W71RB3RAMP
 62
12
 10
2141.451
 20
-7820.952
 30
-1685.711
 70
    32
  0
VERTEX
  8
W71RB3RAMP
 62
12
 10
2142.234
 20
-7816.997
 30
-1685.506
 70
    32
  0
VERTEX
  8
W71RB3RAMP
 62
12
 10
2137.828
 20
-7811.388
 30
-1685.032
 70
    32
  0
VERTEX
  8
W71RB3RAMP
 62
12
 10
2136.358
 20
-7809.517
 30
-1684.837
 70
    32
  0
VERTEX
  8
W71RB3RAMP
 62
12
 10
2134.397
 20
-7807.020
 30
-1684.578
 70
    32
  0
VERTEX
  8
W71RB3RAMP
 62
12
 10
2131.490
 20
-7803.319
 30
-1684.216
 70
    32
  0
VERTEX
  8
W71RB3RAMP
 62
12
 10
2126.908
 20
-7799.662
 30
-1683.764
 70
    32
  0
VERTEX
  8
W71RB3RAMP
 62
12
 10
2125.034
 20
-7798.235
 30
-1683.583
 70
    32
  0
VERTEX
  8
W71RB3RAMP
 62
12
 10
2122.693
 20
-7796.451
 30
-1682.956
 70
    32
  0
VERTEX
  8
W71RB3RAMP
 62
12
 10
2119.867
 20
-7794.299
 30
-1682.256
 70
    32
  0
VERTEX
  8
W71RB3RAMP
 62
12
 10
2116.574
 20
-7793.268
 30
-1681.635
 70
    32
  0
VERTEX
  8
W71RB3RAMP
 62
12
 10
2111.117
 20
-7791.559
 30
-1680.747
 70
    32
  0
VERTEX
  8
W71RB3RAMP
 62
12
 10
2108.216
 20
-7790.650
 30
-1680.332
 70
    32
  0
VERTEX
  8
W71RB3RAMP
 62
12
 10
2107.954
 20
-7790.430
 30
-1680.283
 70
    32
  0
VERTEX
  8
W71RB3RAMP
 62
12
 10
2105.561
 20
-7788.422
 30
-1679.736
 70
    32
  0
VERTEX
  8
W71RB3RAMP
 62
12
 10
2103.923
 20
-7787.048
 30
-1679.508
 70
    32
  0
VERTEX
  8
W71RB3RAMP
 62
12
 10
2098.698
 20
-7782.664
 30
-1678.364
 70
    32
  0
VERTEX
  8
W71RB3RAMP
 62
12
 10
2096.147
 20
-7780.524
 30
-1677.998
 70
    32
  0
VERTEX
  8
W71RB3RAMP
 62
12
 10
2088.918
 20
-7782.776
 30
-1677.031
 70
    32
  0
VERTEX
  8
W71RB3RAMP
 62
12
 10
2088.501
 20
-7782.840
 30
-1676.975
 70
    32
  0
VERTEX
  8
W71RB3RAMP
 62
12
 10
2083.870
 20
-7783.545
 30
-1677.303
 70
    32
  0
VERTEX
  8
W71RB3RAMP
 62
12
 10
2082.651
 20
-7783.730
 30
-1677.145
 70
    32
  0
VERTEX
  8
W71RB3RAMP
 62
12
 10
2078.026
 20
-7784.435
 30
-1675.405
 70
    32
  0
VERTEX
  8
W71RB3RAMP
 62
12
 10
2077.556
 20
-7784.506
 30
-1675.329
 70
    32
  0
VERTEX
  8
W71RB3RAMP
 62
12
 10
2071.017
 20
-7786.137
 30
-1674.248
 70
    32
  0
VERTEX
  8
W71RB3RAMP
 62
12
 10
2068.170
 20
-7786.847
 30
-1673.801
 70
    32
  0
VERTEX
  8
W71RB3RAMP
 62
12
 10
2065.167
 20
-7787.596
 30
-1673.338
 70
    32
  0
VERTEX
  8
W71RB3RAMP
 62
12
 10
2058.551
 20
-7789.247
 30
-1672.235
 70
    32
  0
VERTEX
  8
W71RB3RAMP
 62
12
 10
2057.129
 20
-7789.519
 30
-1672.001
 70
    32
  0
VERTEX
  8
W71RB3RAMP
 62
12
 10
2054.470
 20
-7790.028
 30
-1671.523
 70
    32
  0
VERTEX
  8
W71RB3RAMP
 62
12
 10
2046.971
 20
-7791.464
 30
-1670.284
 70
    32
  0
VERTEX
  8
W71RB3RAMP
 62
12
 10
2038.086
 20
-7793.165
 30
-1668.829
 70
    32
  0
VERTEX
  8
W71RB3RAMP
 62
12
 10
2034.471
 20
-7793.857
 30
-1668.264
 70
    32
  0
VERTEX
  8
W71RB3RAMP
 62
12
 10
2030.406
 20
-7794.635
 30
-1667.677
 70
    32
  0
VERTEX
  8
W71RB3RAMP
 62
12
 10
2028.520
 20
-7794.996
 30
-1667.374
 70
    32
  0
VERTEX
  8
W71RB3RAMP
 62
12
 10
2022.156
 20
-7794.817
 30
-1666.433
 70
    32
  0
VERTEX
  8
W71RB3RAMP
 62
12
 10
2020.435
 20
-7794.768
 30
-1666.179
 70
    32
  0
VERTEX
  8
W71RB3RAMP
 62
12
 10
2015.806
 20
-7796.713
 30
-1665.373
 70
    32
  0
VERTEX
  8
W71RB3RAMP
 62
12
 10
2007.398
 20
-7800.246
 30
-1663.908
 70
    32
  0
VERTEX
  8
W71RB3RAMP
 62
12
 10
2007.475
 20
-7801.860
 30
-1663.825
 70
    32
  0
VERTEX
  8
W71RB3RAMP
 62
12
 10
2008.068
 20
-7814.297
 30
-1663.825
 70
    32
  0
VERTEX
  8
W71RB3RAMP
 62
12
 10
2008.068
 20
-7814.297
 30
-1663.825
 70
    32
  0
SEQEND
  8
W71RB3RAMP
  0
LINE
  8
W71RB3RAMP
 62
3
 10
2107.246
 20
-8052.335
 30
-1656.000
 11
2103.673
 21
-8049.851
 31
-1665.000
  0
LINE
  8
W71RB3RAMP
 62
3
 10
2110.305
 20
-8046.393
 30
-1656.000
 11
2105.719
 21
-8043.578
 31
-1665.000
  0
POLYLINE
  8
W71RB3RAMP
 62
2
 66
     1
 70
     9
  0
VERTEX
  8
W71RB3RAMP
 62
2
 10
1912.298
 20
-8535.545
 30
-1808.496
 70
    32
  0
VERTEX
  8
W71RB3RAMP
 62
2
 10
2022.635
 20
-8578.133
 30
-1787.871
 70
    32
  0
VERTEX
  8
W71RB3RAMP
 62
2
 10
2037.166
 20
-8583.776
 30
-1785.065
 70
    32
  0
VERTEX
  8
W71RB3RAMP
 62
2
 10
2094.773
 20
-8606.145
 30
-1773.764
 70
    32
  0
VERTEX
  8
W71RB3RAMP
 62
2
 10
2090.326
 20
-8615.146
 30
-1773.875
 70
    32
  0
VERTEX
  8
W71RB3RAMP
 62
2
 10
2032.938
 20
-8592.861
 30
-1786.993
 70
    32
  0
VERTEX
  8
W71RB3RAMP
 62
2
 10
1912.993
 20
-8546.937
 30
-1808.461
 70
    32
  0
SEQEND
  8
W71RB3RAMP
  0
POLYLINE
  8
W71RB3RAMP
 62
12
 66
     1
 70
     9
  0
VERTEX
  8
W71RB3RAMP
 62
12
 10
2297.166
 20
-8109.121
 30
-1808.641
 70
    32
  0
VERTEX
  8
W71RB3RAMP
 62
12
 10
2315.507
 20
-8128.035
 30
-1810.000
 70
    32
  0
VERTEX
  8
W71RB3RAMP
 62
12
 10
2323.973
 20
-8135.592
 30
-1810.000
 70
    32
  0
VERTEX
  8
W71RB3RAMP
 62
12
 10
2387.690
 20
-8203.088
 30
-1810.000
 70
    32
  0
VERTEX
  8
W71RB3RAMP
 62
12
 10
2383.057
 20
-8218.762
 30
-1810.000
 70
    32
  0
VERTEX
  8
W71RB3RAMP
 62
12
 10
2386.500
 20
-8226.700
 30
-1810.000
 70
    32
  0
VERTEX
  8
W71RB3RAMP
 62
12
 10
2401.405
 20
-8221.978
 30
-1810.000
 70
    32
  0
VERTEX
  8
W71RB3RAMP
 62
12
 10
2406.201
 20
-8222.535
 30
-1810.000
 70
    32
  0
VERTEX
  8
W71RB3RAMP
 62
12
 10
2411.730
 20
-8215.933
 30
-1810.000
 70
    32
  0
VERTEX
  8
W71RB3RAMP
 62
12
 10
2407.069
 20
-8208.963
 30
-1810.000
 70
    32
  0
VERTEX
  8
W71RB3RAMP
 62
12
 10
2400.786
 20
-8203.849
 30
-1810.000
 70
    32
  0
VERTEX
  8
W71RB3RAMP
 62
12
 10
2330.518
 20
-8129.414
 30
-1810.000
 70
    32
  0
VERTEX
  8
W71RB3RAMP
 62
12
 10
2324.331
 20
-8123.179
 30
-1810.000
 70
    32
  0
VERTEX
  8
W71RB3RAMP
 62
12
 10
2314.379
 20
-8108.721
 30
-1810.000
 70
    32
  0
VERTEX
  8
W71RB3RAMP
 62
12
 10
2310.248
 20
-8095.499
 30
-1808.629
 70
    32
  0
VERTEX
  8
W71RB3RAMP
 62
12
 10
2306.281
 20
-8099.784
 30
-1808.632
 70
    32
  0
VERTEX
  8
W71RB3RAMP
 62
12
 10
2300.708
 20
-8102.038
 30
-1808.644
 70
    32
  0
SEQEND
  8
W71RB3RAMP
  0
LINE
  8
W71RB3RAMP
 62
3
 10
2115.664
 20
-8043.350
 30
-1656.000
 11
2113.419
 21
-8038.675
 31
-1665.000
  0
LINE
  8
W71RB3RAMP
 62
3
 10
2110.037
 20
-8056.068
 30
-1656.000
 11
2107.004
 21
-8056.019
 31
-1665.000
  0
POLYLINE
  8
W71RB3RAMP
 62
3
 66
     1
 70
     9
  0
VERTEX
  8
W71RB3RAMP
 62
3
 10
2125.327
 20
-8053.038
 30
-1656.000
 70
    32
  0
VERTEX
  8
W71RB3RAMP
 62
3
 10
2115.740
 20
-8043.308
 30
-1656.000
 70
    32
  0
VERTEX
  8
W71RB3RAMP
 62
3
 10
2110.305
 20
-8046.393
 30
-1656.000
 70
    32
  0
VERTEX
  8
W71RB3RAMP
 62
3
 10
2107.246
 20
-8052.335
 30
-1656.000
 70
    32
  0
VERTEX
  8
W71RB3RAMP
 62
3
 10
2109.792
 20
-8055.882
 30
-1656.000
 70
    32
  0
VERTEX
  8
W71RB3RAMP
 62
3
 10
2117.293
 20
-8061.572
 30
-1656.000
 70
    32
  0
SEQEND
  8
W71RB3RAMP
  0
POLYLINE
  8
W71RB3RAMP
 62
3
 66
     1
 70
     8
  0
VERTEX
  8
W71RB3RAMP
 62
3
 10
2113.654
 20
-8038.525
 30
-1665.000
 70
    32
  0
VERTEX
  8
W71RB3RAMP
 62
3
 10
2105.719
 20
-8043.578
 30
-1665.000
 70
    32
  0
VERTEX
  8
W71RB3RAMP
 62
3
 10
2103.673
 20
-8049.851
 30
-1665.000
 70
    32
  0
VERTEX
  8
W71RB3RAMP
 62
3
 10
2106.932
 20
-8055.957
 30
-1665.000
 70
    32
  0
VERTEX
  8
W71RB3RAMP
 62
3
 10
2117.357
 20
-8065.025
 30
-1665.000
 70
    32
  0
SEQEND
  8
W71RB3RAMP
  0
LINE
  8
W71RB3RAMP
 62
3
 10
2117.212
 20
-8061.511
 30
-1656.000
 11
2117.153
 21
-8064.848
 31
-1665.000
  0
LINE
  8
W71RB3RAMP
 62
3
 10
2125.327
 20
-8053.038
 30
-1656.000
 11
2128.772
 21
-8054.686
 31
-1665.000
  0
POLYLINE
  8
W71RB3RAMP
 62
3
 66
     1
 70
     9
  0
VERTEX
  8
W71RB3RAMP
 62
3
 10
2047.615
 20
-8587.504
 30
-1735.951
 70
    32
  0
VERTEX
  8
W71RB3RAMP
 62
3
 10
2055.990
 20
-8578.196
 30
-1735.119
 70
    32
  0
VERTEX
  8
W71RB3RAMP
 62
3
 10
2060.188
 20
-8523.137
 30
-1731.344
 70
    32
  0
VERTEX
  8
W71RB3RAMP
 62
3
 10
2064.145
 20
-8471.231
 30
-1725.295
 70
    32
  0
VERTEX
  8
W71RB3RAMP
 62
3
 10
2050.508
 20
-8465.132
 30
-1724.315
 70
    32
  0
VERTEX
  8
W71RB3RAMP
 62
3
 10
2050.619
 20
-8454.261
 30
-1723.055
 70
    32
  0
VERTEX
  8
W71RB3RAMP
 62
3
 10
2066.549
 20
-8439.692
 30
-1721.354
 70
    32
  0
VERTEX
  8
W71RB3RAMP
 62
3
 10
2070.319
 20
-8390.231
 30
-1715.460
 70
    32
  0
VERTEX
  8
W71RB3RAMP
 62
3
 10
2090.191
 20
-8129.565
 30
-1690.118
 70
    32
  0
VERTEX
  8
W71RB3RAMP
 62
3
 10
2089.075
 20
-8113.995
 30
-1688.915
 70
    32
  0
VERTEX
  8
W71RB3RAMP
 62
3
 10
2087.217
 20
-8107.804
 30
-1688.077
 70
    32
  0
VERTEX
  8
W71RB3RAMP
 62
3
 10
2083.966
 20
-8100.118
 30
-1687.142
 70
    32
  0
VERTEX
  8
W71RB3RAMP
 62
3
 10
2078.568
 20
-8097.262
 30
-1685.700
 70
    32
  0
VERTEX
  8
W71RB3RAMP
 62
3
 10
2061.625
 20
-8098.444
 30
-1685.700
 70
    32
  0
VERTEX
  8
W71RB3RAMP
 62
3
 10
2055.497
 20
-8102.666
 30
-1684.500
 70
    32
  0
VERTEX
  8
W71RB3RAMP
 62
3
 10
2056.013
 20
-8107.430
 30
-1684.500
 70
    32
  0
VERTEX
  8
W71RB3RAMP
 62
3
 10
2050.964
 20
-8110.618
 30
-1684.500
 70
    32
  0
VERTEX
  8
W71RB3RAMP
 62
3
 10
2042.114
 20
-8112.852
 30
-1684.500
 70
    32
  0
VERTEX
  8
W71RB3RAMP
 62
3
 10
2033.802
 20
-8115.586
 30
-1684.500
 70
    32
  0
VERTEX
  8
W71RB3RAMP
 62
3
 10
2030.101
 20
-8106.183
 30
-1684.500
 70
    32
  0
VERTEX
  8
W71RB3RAMP
 62
3
 10
2028.262
 20
-8096.197
 30
-1684.500
 70
    32
  0
VERTEX
  8
W71RB3RAMP
 62
3
 10
2034.884
 20
-8094.578
 30
-1684.500
 70
    32
  0
VERTEX
  8
W71RB3RAMP
 62
3
 10
2046.436
 20
-8090.829
 30
-1684.500
 70
    32
  0
VERTEX
  8
W71RB3RAMP
 62
3
 10
2050.738
 20
-8085.855
 30
-1684.500
 70
    32
  0
VERTEX
  8
W71RB3RAMP
 62
3
 10
2059.365
 20
-8087.695
 30
-1685.700
 70
    32
  0
VERTEX
  8
W71RB3RAMP
 62
3
 10
2074.171
 20
-8088.312
 30
-1685.700
 70
    32
  0
VERTEX
  8
W71RB3RAMP
 62
3
 10
2075.628
 20
-8082.433
 30
-1685.739
 70
    32
  0
VERTEX
  8
W71RB3RAMP
 62
3
 10
2015.409
 20
-8024.077
 30
-1662.895
 70
    32
  0
VERTEX
  8
W71RB3RAMP
 62
3
 10
2013.261
 20
-8025.158
 30
-1662.654
 70
    32
  0
VERTEX
  8
W71RB3RAMP
 62
3
 10
2012.349
 20
-8003.626
 30
-1662.120
 70
    32
  0
VERTEX
  8
W71RB3RAMP
 62
3
 10
2021.029
 20
-8009.953
 30
-1662.120
 70
    32
  0
VERTEX
  8
W71RB3RAMP
 62
3
 10
2021.217
 20
-8015.780
 30
-1662.456
 70
    32
  0
VERTEX
  8
W71RB3RAMP
 62
3
 10
2031.172
 20
-8025.496
 30
-1666.190
 70
    32
  0
VERTEX
  8
W71RB3RAMP
 62
3
 10
2043.795
 20
-8026.906
 30
-1670.000
 70
    32
  0
VERTEX
  8
W71RB3RAMP
 62
3
 10
2061.573
 20
-8025.860
 30
-1670.000
 70
    32
  0
VERTEX
  8
W71RB3RAMP
 62
3
 10
2070.644
 20
-8025.226
 30
-1668.200
 70
    32
  0
VERTEX
  8
W71RB3RAMP
 62
3
 10
2082.694
 20
-8025.971
 30
-1667.200
 70
    32
  0
VERTEX
  8
W71RB3RAMP
 62
3
 10
2087.279
 20
-8028.537
 30
-1667.200
 70
    32
  0
VERTEX
  8
W71RB3RAMP
 62
3
 10
2096.611
 20
-8031.048
 30
-1667.200
 70
    32
  0
VERTEX
  8
W71RB3RAMP
 62
3
 10
2103.343
 20
-8032.642
 30
-1667.200
 70
    32
  0
VERTEX
  8
W71RB3RAMP
 62
3
 10
2111.667
 20
-8036.834
 30
-1665.000
 70
    32
  0
VERTEX
  8
W71RB3RAMP
 62
3
 10
2117.157
 20
-8041.506
 30
-1665.000
 70
    32
  0
VERTEX
  8
W71RB3RAMP
 62
3
 10
2120.253
 20
-8045.140
 30
-1665.000
 70
    32
  0
VERTEX
  8
W71RB3RAMP
 62
3
 10
2128.772
 20
-8054.686
 30
-1665.000
 70
    32
  0
VERTEX
  8
W71RB3RAMP
 62
3
 10
2119.772
 20
-8063.497
 30
-1665.000
 70
    32
  0
VERTEX
  8
W71RB3RAMP
 62
3
 10
2114.431
 20
-8066.875
 30
-1665.000
 70
    32
  0
VERTEX
  8
W71RB3RAMP
 62
3
 10
2104.753
 20
-8058.032
 30
-1665.000
 70
    32
  0
VERTEX
  8
W71RB3RAMP
 62
3
 10
2096.072
 20
-8043.799
 30
-1667.200
 70
    32
  0
VERTEX
  8
W71RB3RAMP
 62
3
 10
2090.047
 20
-8039.962
 30
-1667.200
 70
    32
  0
VERTEX
  8
W71RB3RAMP
 62
3
 10
2076.534
 20
-8036.610
 30
-1668.000
 70
    32
  0
VERTEX
  8
W71RB3RAMP
 62
3
 10
2062.602
 20
-8036.035
 30
-1670.000
 70
    32
  0
VERTEX
  8
W71RB3RAMP
 62
3
 10
2055.523
 20
-8035.346
 30
-1670.000
 70
    32
  0
VERTEX
  8
W71RB3RAMP
 62
3
 10
2049.661
 20
-8036.092
 30
-1670.000
 70
    32
  0
VERTEX
  8
W71RB3RAMP
 62
3
 10
2048.385
 20
-8039.119
 30
-1670.000
 70
    32
  0
VERTEX
  8
W71RB3RAMP
 62
3
 10
2052.654
 20
-8046.336
 30
-1674.224
 70
    32
  0
VERTEX
  8
W71RB3RAMP
 62
3
 10
2086.681
 20
-8079.218
 30
-1686.926
 70
    32
  0
VERTEX
  8
W71RB3RAMP
 62
3
 10
2097.072
 20
-8080.209
 30
-1688.972
 70
    32
  0
VERTEX
  8
W71RB3RAMP
 62
3
 10
2103.587
 20
-8087.449
 30
-1690.205
 70
    32
  0
VERTEX
  8
W71RB3RAMP
 62
3
 10
2113.704
 20
-8094.953
 30
-1692.107
 70
    32
  0
VERTEX
  8
W71RB3RAMP
 62
3
 10
2141.144
 20
-8095.971
 30
-1696.646
 70
    32
  0
VERTEX
  8
W71RB3RAMP
 62
3
 10
2165.358
 20
-8084.641
 30
-1701.665
 70
    32
  0
VERTEX
  8
W71RB3RAMP
 62
3
 10
2171.002
 20
-8078.825
 30
-1702.938
 70
    32
  0
VERTEX
  8
W71RB3RAMP
 62
3
 10
2179.944
 20
-8060.940
 30
-1708.302
 70
    32
  0
VERTEX
  8
W71RB3RAMP
 62
3
 10
2177.432
 20
-8048.325
 30
-1710.459
 70
    32
  0
VERTEX
  8
W71RB3RAMP
 62
3
 10
2168.618
 20
-8040.700
 30
-1711.708
 70
    32
  0
VERTEX
  8
W71RB3RAMP
 62
3
 10
2163.506
 20
-8039.426
 30
-1712.542
 70
    32
  0
VERTEX
  8
W71RB3RAMP
 62
3
 10
2156.200
 20
-8030.290
 30
-1714.147
 70
    32
  0
VERTEX
  8
W71RB3RAMP
 62
3
 10
2135.905
 20
-8021.021
 30
-1713.579
 70
    32
  0
VERTEX
  8
W71RB3RAMP
 62
3
 10
2122.785
 20
-8012.034
 30
-1713.309
 70
    32
  0
VERTEX
  8
W71RB3RAMP
 62
3
 10
2101.456
 20
-8006.015
 30
-1713.302
 70
    32
  0
VERTEX
  8
W71RB3RAMP
 62
3
 10
2083.170
 20
-7999.141
 30
-1713.049
 70
    32
  0
VERTEX
  8
W71RB3RAMP
 62
3
 10
2070.065
 20
-7995.999
 30
-1712.469
 70
    32
  0
VERTEX
  8
W71RB3RAMP
 62
3
 10
2080.818
 20
-7988.473
 30
-1712.626
 70
    32
  0
VERTEX
  8
W71RB3RAMP
 62
3
 10
2121.112
 20
-8001.635
 30
-1712.810
 70
    32
  0
VERTEX
  8
W71RB3RAMP
 62
3
 10
2133.575
 20
-8007.598
 30
-1712.937
 70
    32
  0
VERTEX
  8
W71RB3RAMP
 62
3
 10
2148.294
 20
-8007.704
 30
-1712.738
 70
    32
  0
VERTEX
  8
W71RB3RAMP
 62
3
 10
2150.328
 20
-8017.442
 30
-1713.199
 70
    32
  0
VERTEX
  8
W71RB3RAMP
 62
3
 10
2161.516
 20
-8019.734
 30
-1713.206
 70
    32
  0
VERTEX
  8
W71RB3RAMP
 62
3
 10
2168.262
 20
-8024.494
 30
-1712.666
 70
    32
  0
VERTEX
  8
W71RB3RAMP
 62
3
 10
2169.694
 20
-8019.076
 30
-1712.059
 70
    32
  0
VERTEX
  8
W71RB3RAMP
 62
3
 10
2169.322
 20
-8006.068
 30
-1710.614
 70
    32
  0
VERTEX
  8
W71RB3RAMP
 62
3
 10
2165.976
 20
-7993.143
 30
-1708.564
 70
    32
  0
VERTEX
  8
W71RB3RAMP
 62
3
 10
2169.795
 20
-7992.291
 30
-1708.316
 70
    32
  0
VERTEX
  8
W71RB3RAMP
 62
3
 10
2168.828
 20
-7970.247
 30
-1704.340
 70
    32
  0
VERTEX
  8
W71RB3RAMP
 62
3
 10
2167.053
 20
-7949.413
 30
-1707.683
 70
    32
  0
VERTEX
  8
W71RB3RAMP
 62
3
 10
2158.262
 20
-7931.606
 30
-1710.593
 70
    32
  0
VERTEX
  8
W71RB3RAMP
 62
3
 10
2142.973
 20
-7922.031
 30
-1712.235
 70
    32
  0
VERTEX
  8
W71RB3RAMP
 62
3
 10
2141.525
 20
-7913.645
 30
-1713.585
 70
    32
  0
VERTEX
  8
W71RB3RAMP
 62
3
 10
2147.162
 20
-7911.301
 30
-1713.919
 70
    32
  0
VERTEX
  8
W71RB3RAMP
 62
3
 10
2159.044
 20
-7914.075
 30
-1713.367
 70
    32
  0
VERTEX
  8
W71RB3RAMP
 62
3
 10
2163.708
 20
-7912.152
 30
-1713.515
 70
    32
  0
VERTEX
  8
W71RB3RAMP
 62
3
 10
2165.105
 20
-7886.730
 30
-1717.071
 70
    32
  0
VERTEX
  8
W71RB3RAMP
 62
3
 10
2175.898
 20
-7885.482
 30
-1717.249
 70
    32
  0
VERTEX
  8
W71RB3RAMP
 62
3
 10
2174.595
 20
-7931.406
 30
-1710.298
 70
    32
  0
VERTEX
  8
W71RB3RAMP
 62
3
 10
2179.178
 20
-7944.803
 30
-1708.194
 70
    32
  0
VERTEX
  8
W71RB3RAMP
 62
3
 10
2180.603
 20
-7969.711
 30
-1704.340
 70
    32
  0
VERTEX
  8
W71RB3RAMP
 62
3
 10
2181.195
 20
-7979.321
 30
-1705.716
 70
    32
  0
VERTEX
  8
W71RB3RAMP
 62
3
 10
2179.458
 20
-7980.279
 30
-1705.842
 70
    32
  0
VERTEX
  8
W71RB3RAMP
 62
3
 10
2181.375
 20
-8017.525
 30
-1711.639
 70
    32
  0
VERTEX
  8
W71RB3RAMP
 62
3
 10
2182.285
 20
-8034.386
 30
-1711.062
 70
    32
  0
VERTEX
  8
W71RB3RAMP
 62
3
 10
2189.279
 20
-8046.493
 30
-1710.612
 70
    32
  0
VERTEX
  8
W71RB3RAMP
 62
3
 10
2189.892
 20
-8051.728
 30
-1710.472
 70
    32
  0
VERTEX
  8
W71RB3RAMP
 62
3
 10
2190.763
 20
-8059.179
 30
-1709.050
 70
    32
  0
VERTEX
  8
W71RB3RAMP
 62
3
 10
2185.282
 20
-8080.767
 30
-1704.600
 70
    32
  0
VERTEX
  8
W71RB3RAMP
 62
3
 10
2179.215
 20
-8088.483
 30
-1702.234
 70
    32
  0
VERTEX
  8
W71RB3RAMP
 62
3
 10
2162.692
 20
-8104.811
 30
-1699.605
 70
    32
  0
VERTEX
  8
W71RB3RAMP
 62
3
 10
2144.811
 20
-8108.498
 30
-1697.139
 70
    32
  0
VERTEX
  8
W71RB3RAMP
 62
3
 10
2133.474
 20
-8111.820
 30
-1695.864
 70
    32
  0
VERTEX
  8
W71RB3RAMP
 62
3
 10
2114.617
 20
-8107.399
 30
-1692.373
 70
    32
  0
VERTEX
  8
W71RB3RAMP
 62
3
 10
2098.681
 20
-8099.878
 30
-1689.125
 70
    32
  0
VERTEX
  8
W71RB3RAMP
 62
3
 10
2096.263
 20
-8101.857
 30
-1688.927
 70
    32
  0
VERTEX
  8
W71RB3RAMP
 62
3
 10
2101.091
 20
-8110.786
 30
-1690.401
 70
    32
  0
VERTEX
  8
W71RB3RAMP
 62
3
 10
2108.054
 20
-8120.078
 30
-1691.477
 70
    32
  0
VERTEX
  8
W71RB3RAMP
 62
3
 10
2115.289
 20
-8141.188
 30
-1693.369
 70
    32
  0
VERTEX
  8
W71RB3RAMP
 62
3
 10
2119.468
 20
-8150.306
 30
-1694.108
 70
    32
  0
VERTEX
  8
W71RB3RAMP
 62
3
 10
2155.471
 20
-8228.875
 30
-1692.295
 70
    32
  0
VERTEX
  8
W71RB3RAMP
 62
3
 10
2163.809
 20
-8245.919
 30
-1691.865
 70
    32
  0
VERTEX
  8
W71RB3RAMP
 62
3
 10
2174.502
 20
-8264.008
 30
-1691.601
 70
    32
  0
VERTEX
  8
W71RB3RAMP
 62
3
 10
2157.714
 20
-8260.269
 30
-1691.628
 70
    32
  0
VERTEX
  8
W71RB3RAMP
 62
3
 10
2146.381
 20
-8233.041
 30
-1692.296
 70
    32
  0
VERTEX
  8
W71RB3RAMP
 62
3
 10
2110.700
 20
-8155.177
 30
-1694.109
 70
    32
  0
VERTEX
  8
W71RB3RAMP
 62
3
 10
2103.971
 20
-8140.492
 30
-1692.717
 70
    32
  0
VERTEX
  8
W71RB3RAMP
 62
3
 10
2099.519
 20
-8138.753
 30
-1692.099
 70
    32
  0
VERTEX
  8
W71RB3RAMP
 62
3
 10
2088.822
 20
-8279.083
 30
-1704.496
 70
    32
  0
VERTEX
  8
W71RB3RAMP
 62
3
 10
2093.220
 20
-8285.612
 30
-1705.098
 70
    32
  0
VERTEX
  8
W71RB3RAMP
 62
3
 10
2087.965
 20
-8290.325
 30
-1705.597
 70
    32
  0
VERTEX
  8
W71RB3RAMP
 62
3
 10
2079.155
 20
-8405.889
 30
-1717.198
 70
    32
  0
VERTEX
  8
W71RB3RAMP
 62
3
 10
2085.494
 20
-8410.271
 30
-1717.808
 70
    32
  0
VERTEX
  8
W71RB3RAMP
 62
3
 10
2078.495
 20
-8414.418
 30
-1718.269
 70
    32
  0
VERTEX
  8
W71RB3RAMP
 62
3
 10
2070.803
 20
-8515.451
 30
-1730.818
 70
    32
  0
VERTEX
  8
W71RB3RAMP
 62
3
 10
2068.741
 20
-8542.190
 30
-1732.677
 70
    32
  0
VERTEX
  8
W71RB3RAMP
 62
3
 10
2065.676
 20
-8585.225
 30
-1735.215
 70
    32
  0
VERTEX
  8
W71RB3RAMP
 62
3
 10
2059.145
 20
-8676.954
 30
-1745.306
 70
    32
  0
VERTEX
  8
W71RB3RAMP
 62
3
 10
2064.276
 20
-8687.097
 30
-1746.667
 70
    32
  0
VERTEX
  8
W71RB3RAMP
 62
3
 10
2073.853
 20
-8698.860
 30
-1748.735
 70
    32
  0
VERTEX
  8
W71RB3RAMP
 62
3
 10
2080.162
 20
-8699.091
 30
-1749.543
 70
    32
  0
VERTEX
  8
W71RB3RAMP
 62
3
 10
2082.954
 20
-8702.102
 30
-1750.178
 70
    32
  0
VERTEX
  8
W71RB3RAMP
 62
3
 10
2091.313
 20
-8705.979
 30
-1751.494
 70
    32
  0
VERTEX
  8
W71RB3RAMP
 62
3
 10
2112.018
 20
-8710.591
 30
-1754.206
 70
    32
  0
VERTEX
  8
W71RB3RAMP
 62
3
 10
2117.702
 20
-8710.864
 30
-1754.686
 70
    32
  0
VERTEX
  8
W71RB3RAMP
 62
3
 10
2132.422
 20
-8703.654
 30
-1756.534
 70
    32
  0
VERTEX
  8
W71RB3RAMP
 62
3
 10
2139.022
 20
-8698.602
 30
-1757.886
 70
    32
  0
VERTEX
  8
W71RB3RAMP
 62
3
 10
2143.759
 20
-8690.697
 30
-1758.940
 70
    32
  0
VERTEX
  8
W71RB3RAMP
 62
3
 10
2145.993
 20
-8676.182
 30
-1760.047
 70
    32
  0
VERTEX
  8
W71RB3RAMP
 62
3
 10
2144.227
 20
-8664.738
 30
-1760.765
 70
    32
  0
VERTEX
  8
W71RB3RAMP
 62
3
 10
2139.024
 20
-8651.570
 30
-1762.080
 70
    32
  0
VERTEX
  8
W71RB3RAMP
 62
3
 10
2132.758
 20
-8643.163
 30
-1764.237
 70
    32
  0
VERTEX
  8
W71RB3RAMP
 62
3
 10
2125.110
 20
-8628.653
 30
-1767.340
 70
    32
  0
VERTEX
  8
W71RB3RAMP
 62
3
 10
2090.326
 20
-8615.146
 30
-1773.875
 70
    32
  0
VERTEX
  8
W71RB3RAMP
 62
3
 10
2094.773
 20
-8606.145
 30
-1773.764
 70
    32
  0
VERTEX
  8
W71RB3RAMP
 62
3
 10
2129.993
 20
-8619.822
 30
-1767.592
 70
    32
  0
VERTEX
  8
W71RB3RAMP
 62
3
 10
2141.896
 20
-8633.125
 30
-1764.225
 70
    32
  0
VERTEX
  8
W71RB3RAMP
 62
3
 10
2147.613
 20
-8644.001
 30
-1762.107
 70
    32
  0
VERTEX
  8
W71RB3RAMP
 62
3
 10
2151.623
 20
-8644.172
 30
-1762.051
 70
    32
  0
VERTEX
  8
W71RB3RAMP
 62
3
 10
2174.175
 20
-8585.538
 30
-1766.454
 70
    32
  0
VERTEX
  8
W71RB3RAMP
 62
3
 10
2189.009
 20
-8549.216
 30
-1772.644
 70
    32
  0
VERTEX
  8
W71RB3RAMP
 62
3
 10
2196.524
 20
-8534.585
 30
-1775.754
 70
    32
  0
VERTEX
  8
W71RB3RAMP
 62
3
 10
2205.779
 20
-8538.372
 30
-1775.809
 70
    32
  0
VERTEX
  8
W71RB3RAMP
 62
3
 10
2200.271
 20
-8558.269
 30
-1769.332
 70
    32
  0
VERTEX
  8
W71RB3RAMP
 62
3
 10
2201.025
 20
-8570.120
 30
-1765.850
 70
    32
  0
VERTEX
  8
W71RB3RAMP
 62
3
 10
2203.428
 20
-8570.175
 30
-1766.000
 70
    32
  0
VERTEX
  8
W71RB3RAMP
 62
3
 10
2252.005
 20
-8548.067
 30
-1766.000
 70
    32
  0
VERTEX
  8
W71RB3RAMP
 62
3
 10
2289.704
 20
-8521.063
 30
-1766.000
 70
    32
  0
VERTEX
  8
W71RB3RAMP
 62
3
 10
2297.311
 20
-8527.914
 30
-1766.000
 70
    32
  0
VERTEX
  8
W71RB3RAMP
 62
3
 10
2279.937
 20
-8540.360
 30
-1766.000
 70
    32
  0
VERTEX
  8
W71RB3RAMP
 62
3
 10
2283.821
 20
-8543.056
 30
-1766.000
 70
    32
  0
VERTEX
  8
W71RB3RAMP
 62
3
 10
2289.780
 20
-8541.314
 30
-1766.000
 70
    32
  0
VERTEX
  8
W71RB3RAMP
 62
3
 10
2297.107
 20
-8534.690
 30
-1766.000
 70
    32
  0
VERTEX
  8
W71RB3RAMP
 62
3
 10
2300.956
 20
-8535.438
 30
-1766.000
 70
    32
  0
VERTEX
  8
W71RB3RAMP
 62
3
 10
2304.028
 20
-8541.618
 30
-1766.000
 70
    32
  0
VERTEX
  8
W71RB3RAMP
 62
3
 10
2304.744
 20
-8548.318
 30
-1766.000
 70
    32
  0
VERTEX
  8
W71RB3RAMP
 62
3
 10
2285.098
 20
-8553.253
 30
-1766.000
 70
    32
  0
VERTEX
  8
W71RB3RAMP
 62
3
 10
2257.239
 20
-8556.672
 30
-1766.000
 70
    32
  0
VERTEX
  8
W71RB3RAMP
 62
3
 10
2256.808
 20
-8556.868
 30
-1766.000
 70
    32
  0
VERTEX
  8
W71RB3RAMP
 62
3
 10
2190.725
 20
-8586.943
 30
-1765.313
 70
    32
  0
VERTEX
  8
W71RB3RAMP
 62
3
 10
2184.565
 20
-8592.312
 30
-1766.293
 70
    32
  0
VERTEX
  8
W71RB3RAMP
 62
3
 10
2162.443
 20
-8643.359
 30
-1762.192
 70
    32
  0
VERTEX
  8
W71RB3RAMP
 62
3
 10
2157.599
 20
-8667.440
 30
-1760.479
 70
    32
  0
VERTEX
  8
W71RB3RAMP
 62
3
 10
2157.321
 20
-8682.584
 30
-1759.661
 70
    32
  0
VERTEX
  8
W71RB3RAMP
 62
3
 10
2158.993
 20
-8689.557
 30
-1759.124
 70
    32
  0
VERTEX
  8
W71RB3RAMP
 62
3
 10
2143.383
 20
-8710.277
 30
-1757.045
 70
    32
  0
VERTEX
  8
W71RB3RAMP
 62
3
 10
2143.226
 20
-8718.379
 30
-1753.410
 70
    32
  0
VERTEX
  8
W71RB3RAMP
 62
3
 10
2142.989
 20
-8727.873
 30
-1752.869
 70
    32
  0
VERTEX
  8
W71RB3RAMP
 62
3
 10
2142.048
 20
-8735.310
 30
-1752.497
 70
    32
  0
VERTEX
  8
W71RB3RAMP
 62
3
 10
2140.264
 20
-8737.853
 30
-1752.733
 70
    32
  0
VERTEX
  8
W71RB3RAMP
 62
3
 10
2133.070
 20
-8737.176
 30
-1752.468
 70
    32
  0
VERTEX
  8
W71RB3RAMP
 62
3
 10
2130.346
 20
-8734.973
 30
-1752.183
 70
    32
  0
VERTEX
  8
W71RB3RAMP
 62
3
 10
2131.946
 20
-8727.023
 30
-1753.262
 70
    32
  0
VERTEX
  8
W71RB3RAMP
 62
3
 10
2131.763
 20
-8722.049
 30
-1752.767
 70
    32
  0
VERTEX
  8
W71RB3RAMP
 62
3
 10
2130.758
 20
-8717.748
 30
-1755.145
 70
    32
  0
VERTEX
  8
W71RB3RAMP
 62
3
 10
2110.707
 20
-8723.020
 30
-1753.835
 70
    32
  0
VERTEX
  8
W71RB3RAMP
 62
3
 10
2076.081
 20
-8713.685
 30
-1750.175
 70
    32
  0
VERTEX
  8
W71RB3RAMP
 62
3
 10
2065.673
 20
-8708.147
 30
-1748.817
 70
    32
  0
VERTEX
  8
W71RB3RAMP
 62
3
 10
2053.048
 20
-8691.542
 30
-1746.505
 70
    32
  0
VERTEX
  8
W71RB3RAMP
 62
3
 10
2049.271
 20
-8668.648
 30
-1744.124
 70
    32
  0
VERTEX
  8
W71RB3RAMP
 62
3
 10
2053.944
 20
-8602.436
 30
-1737.091
 70
    32
  0
VERTEX
  8
W71RB3RAMP
 62
3
 10
2049.876
 20
-8601.632
 30
-1737.121
 70
    32
  0
VERTEX
  8
W71RB3RAMP
 62
3
 10
2045.020
 20
-8603.700
 30
-1736.000
 70
    32
  0
VERTEX
  8
W71RB3RAMP
 62
3
 10
2031.113
 20
-8615.084
 30
-1736.000
 70
    32
  0
VERTEX
  8
W71RB3RAMP
 62
3
 10
2027.501
 20
-8620.324
 30
-1736.000
 70
    32
  0
VERTEX
  8
W71RB3RAMP
 62
3
 10
2026.721
 20
-8626.318
 30
-1736.000
 70
    32
  0
VERTEX
  8
W71RB3RAMP
 62
3
 10
2020.428
 20
-8632.003
 30
-1736.000
 70
    32
  0
VERTEX
  8
W71RB3RAMP
 62
3
 10
2013.176
 20
-8643.137
 30
-1736.000
 70
    32
  0
VERTEX
  8
W71RB3RAMP
 62
3
 10
2009.524
 20
-8652.608
 30
-1736.000
 70
    32
  0
VERTEX
  8
W71RB3RAMP
 62
3
 10
2003.842
 20
-8666.781
 30
-1736.000
 70
    32
  0
VERTEX
  8
W71RB3RAMP
 62
3
 10
1994.676
 20
-8662.543
 30
-1736.000
 70
    32
  0
VERTEX
  8
W71RB3RAMP
 62
3
 10
1998.656
 20
-8648.510
 30
-1736.000
 70
    32
  0
VERTEX
  8
W71RB3RAMP
 62
3
 10
2003.430
 20
-8638.594
 30
-1736.000
 70
    32
  0
VERTEX
  8
W71RB3RAMP
 62
3
 10
2008.153
 20
-8627.459
 30
-1736.000
 70
    32
  0
VERTEX
  8
W71RB3RAMP
 62
3
 10
2011.877
 20
-8619.673
 30
-1736.000
 70
    32
  0
VERTEX
  8
W71RB3RAMP
 62
3
 10
2010.347
 20
-8616.124
 30
-1736.000
 70
    32
  0
VERTEX
  8
W71RB3RAMP
 62
3
 10
2043.629
 20
-8591.345
 30
-1736.000
 70
    32
  0
SEQEND
  8
W71RB3RAMP
  0
ENDSEC
  0
EOF
