999
********************************
999
*   DXF File - Entities Only   *
999
*        3D Data Format        *
999
*     Output from ENVISAGE     *
999
*     28-Dec-2007 13:27:21     *
999
********************************
  0
SECTION 
  2
HEADER
  9
$ACADVER
  1
AC1009
  9
$EXTMIN
 10
-290000.000
 20
-250000.000
 30
-4000.000
  9
$EXTMAX
 10
5000000.000
 20
600000.000
 30
6000.000
  0
ENDSEC
  0
SECTION
  2
ENTITIES
  0
POLYLINE
  8
W72RA1RAMP
 62
4
 66
     1
 70
     9
  0
VERTEX
  8
W72RA1RAMP
 62
4
 10
1684.665
 20
-6763.996
 30
-1894.964
 70
    32
  0
VERTEX
  8
W72RA1RAMP
 62
4
 10
1690.137
 20
-6741.293
 30
-1894.242
 70
    32
  0
VERTEX
  8
W72RA1RAMP
 62
4
 10
1695.719
 20
-6705.015
 30
-1893.142
 70
    32
  0
VERTEX
  8
W72RA1RAMP
 62
4
 10
1698.067
 20
-6696.271
 30
-1892.870
 70
    32
  0
VERTEX
  8
W72RA1RAMP
 62
4
 10
1699.467
 20
-6683.585
 30
-1892.521
 70
    32
  0
VERTEX
  8
W72RA1RAMP
 62
4
 10
1699.863
 20
-6658.775
 30
-1891.862
 70
    32
  0
VERTEX
  8
W72RA1RAMP
 62
4
 10
1686.963
 20
-6659.653
 30
-1891.853
 70
    32
  0
VERTEX
  8
W72RA1RAMP
 62
4
 10
1684.877
 20
-6701.845
 30
-1893.088
 70
    32
  0
VERTEX
  8
W72RA1RAMP
 62
4
 10
1683.285
 20
-6713.025
 30
-1893.427
 70
    32
  0
VERTEX
  8
W72RA1RAMP
 62
4
 10
1678.078
 20
-6737.764
 30
-1894.184
 70
    32
  0
VERTEX
  8
W72RA1RAMP
 62
4
 10
1674.777
 20
-6762.544
 30
-1894.184
 70
    32
  0
SEQEND
  8
W72RA1RAMP
  0
POLYLINE
  8
W72RA1RAMP
 62
4
 66
     1
 70
     9
  0
VERTEX
  8
W72RA1RAMP
 62
4
 10
1714.989
 20
-7032.944
 30
-1829.899
 70
    32
  0
VERTEX
  8
W72RA1RAMP
 62
4
 10
1712.960
 20
-7036.489
 30
-1830.977
 70
    32
  0
VERTEX
  8
W72RA1RAMP
 62
4
 10
1706.977
 20
-7056.669
 30
-1836.692
 70
    32
  0
VERTEX
  8
W72RA1RAMP
 62
4
 10
1707.548
 20
-7078.286
 30
-1842.119
 70
    32
  0
VERTEX
  8
W72RA1RAMP
 62
4
 10
1710.702
 20
-7089.456
 30
-1844.461
 70
    32
  0
VERTEX
  8
W72RA1RAMP
 62
4
 10
1713.878
 20
-7095.267
 30
-1845.763
 70
    32
  0
VERTEX
  8
W72RA1RAMP
 62
4
 10
1723.249
 20
-7104.153
 30
-1847.700
 70
    32
  0
VERTEX
  8
W72RA1RAMP
 62
4
 10
1737.710
 20
-7110.107
 30
-1847.700
 70
    32
  0
VERTEX
  8
W72RA1RAMP
 62
4
 10
1753.725
 20
-7107.714
 30
-1847.700
 70
    32
  0
VERTEX
  8
W72RA1RAMP
 62
4
 10
1777.792
 20
-7097.305
 30
-1847.700
 70
    32
  0
VERTEX
  8
W72RA1RAMP
 62
4
 10
1785.997
 20
-7090.183
 30
-1847.700
 70
    32
  0
VERTEX
  8
W72RA1RAMP
 62
4
 10
1790.373
 20
-7109.357
 30
-1847.700
 70
    32
  0
VERTEX
  8
W72RA1RAMP
 62
4
 10
1783.809
 20
-7108.809
 30
-1847.700
 70
    32
  0
VERTEX
  8
W72RA1RAMP
 62
4
 10
1763.578
 20
-7115.613
 30
-1847.700
 70
    32
  0
VERTEX
  8
W72RA1RAMP
 62
4
 10
1746.171
 20
-7117.480
 30
-1847.700
 70
    32
  0
VERTEX
  8
W72RA1RAMP
 62
4
 10
1744.693
 20
-7118.541
 30
-1847.700
 70
    32
  0
VERTEX
  8
W72RA1RAMP
 62
4
 10
1744.749
 20
-7120.178
 30
-1847.700
 70
    32
  0
VERTEX
  8
W72RA1RAMP
 62
4
 10
1753.725
 20
-7128.531
 30
-1847.700
 70
    32
  0
VERTEX
  8
W72RA1RAMP
 62
4
 10
1785.997
 20
-7164.140
 30
-1847.700
 70
    32
  0
VERTEX
  8
W72RA1RAMP
 62
4
 10
1784.750
 20
-7179.353
 30
-1847.700
 70
    32
  0
VERTEX
  8
W72RA1RAMP
 62
4
 10
1731.930
 20
-7121.274
 30
-1847.700
 70
    32
  0
VERTEX
  8
W72RA1RAMP
 62
4
 10
1713.523
 20
-7112.931
 30
-1847.700
 70
    32
  0
VERTEX
  8
W72RA1RAMP
 62
4
 10
1703.260
 20
-7105.839
 30
-1846.996
 70
    32
  0
VERTEX
  8
W72RA1RAMP
 62
4
 10
1695.797
 20
-7082.912
 30
-1842.349
 70
    32
  0
VERTEX
  8
W72RA1RAMP
 62
4
 10
1692.418
 20
-7080.661
 30
-1841.714
 70
    32
  0
VERTEX
  8
W72RA1RAMP
 62
4
 10
1694.245
 20
-7068.814
 30
-1839.499
 70
    32
  0
VERTEX
  8
W72RA1RAMP
 62
4
 10
1691.511
 20
-7050.087
 30
-1836.098
 70
    32
  0
VERTEX
  8
W72RA1RAMP
 62
4
 10
1688.326
 20
-7046.088
 30
-1835.322
 70
    32
  0
SEQEND
  8
W72RA1RAMP
  0
POLYLINE
  8
W72RA1RAMP
 62
4
 66
     1
 70
     9
  0
VERTEX
  8
W72RA1RAMP
 62
4
 10
1859.460
 20
-6959.430
 30
-1905.867
 70
    32
  0
VERTEX
  8
W72RA1RAMP
 62
4
 10
1867.832
 20
-6971.813
 30
-1904.009
 70
    32
  0
VERTEX
  8
W72RA1RAMP
 62
4
 10
1866.816
 20
-6973.127
 30
-1903.961
 70
    32
  0
VERTEX
  8
W72RA1RAMP
 62
4
 10
1873.006
 20
-6989.137
 30
-1902.104
 70
    32
  0
VERTEX
  8
W72RA1RAMP
 62
4
 10
1875.548
 20
-6995.709
 30
-1901.157
 70
    32
  0
VERTEX
  8
W72RA1RAMP
 62
4
 10
1879.791
 20
-7006.683
 30
-1899.686
 70
    32
  0
VERTEX
  8
W72RA1RAMP
 62
4
 10
1882.315
 20
-7017.922
 30
-1898.256
 70
    32
  0
VERTEX
  8
W72RA1RAMP
 62
4
 10
1872.410
 20
-7020.293
 30
-1898.366
 70
    32
  0
VERTEX
  8
W72RA1RAMP
 62
4
 10
1865.793
 20
-7019.195
 30
-1898.762
 70
    32
  0
VERTEX
  8
W72RA1RAMP
 62
4
 10
1866.890
 20
-7012.577
 30
-1899.525
 70
    32
  0
VERTEX
  8
W72RA1RAMP
 62
4
 10
1866.742
 20
-7000.271
 30
-1900.995
 70
    32
  0
VERTEX
  8
W72RA1RAMP
 62
4
 10
1863.374
 20
-6990.114
 30
-1902.421
 70
    32
  0
VERTEX
  8
W72RA1RAMP
 62
4
 10
1859.995
 20
-6981.163
 30
-1903.707
 70
    32
  0
VERTEX
  8
W72RA1RAMP
 62
4
 10
1857.536
 20
-6974.646
 30
-1904.459
 70
    32
  0
VERTEX
  8
W72RA1RAMP
 62
4
 10
1853.401
 20
-6966.175
 30
-1905.722
 70
    32
  0
SEQEND
  8
W72RA1RAMP
  0
POLYLINE
  8
W72RA1RAMP
 62
4
 66
     1
 70
     9
  0
VERTEX
  8
W72RA1RAMP
 62
4
 10
1765.540
 20
-6971.228
 30
-1920.266
 70
    32
  0
VERTEX
  8
W72RA1RAMP
 62
4
 10
1776.282
 20
-6970.310
 30
-1921.715
 70
    32
  0
VERTEX
  8
W72RA1RAMP
 62
4
 10
1779.139
 20
-6970.065
 30
-1922.387
 70
    32
  0
VERTEX
  8
W72RA1RAMP
 62
4
 10
1779.671
 20
-6969.915
 30
-1922.515
 70
    32
  0
VERTEX
  8
W72RA1RAMP
 62
4
 10
1793.157
 20
-6966.094
 30
-1923.095
 70
    32
  0
VERTEX
  8
W72RA1RAMP
 62
4
 10
1828.721
 20
-6956.016
 30
-1924.710
 70
    32
  0
VERTEX
  8
W72RA1RAMP
 62
4
 10
1851.427
 20
-6949.582
 30
-1924.634
 70
    32
  0
VERTEX
  8
W72RA1RAMP
 62
4
 10
1864.956
 20
-6948.033
 30
-1923.329
 70
    32
  0
VERTEX
  8
W72RA1RAMP
 62
4
 10
1880.691
 20
-6951.217
 30
-1921.598
 70
    32
  0
VERTEX
  8
W72RA1RAMP
 62
4
 10
1896.517
 20
-6960.244
 30
-1919.814
 70
    32
  0
VERTEX
  8
W72RA1RAMP
 62
4
 10
1903.959
 20
-6967.397
 30
-1919.431
 70
    32
  0
VERTEX
  8
W72RA1RAMP
 62
4
 10
1911.629
 20
-6972.761
 30
-1919.206
 70
    32
  0
VERTEX
  8
W72RA1RAMP
 62
4
 10
1918.001
 20
-6986.597
 30
-1918.963
 70
    32
  0
VERTEX
  8
W72RA1RAMP
 62
4
 10
1959.799
 20
-7046.918
 30
-1917.816
 70
    32
  0
VERTEX
  8
W72RA1RAMP
 62
4
 10
1972.038
 20
-7043.370
 30
-1917.839
 70
    32
  0
VERTEX
  8
W72RA1RAMP
 62
4
 10
1968.445
 20
-7025.460
 30
-1917.900
 70
    32
  0
VERTEX
  8
W72RA1RAMP
 62
4
 10
1984.003
 20
-7023.543
 30
-1917.920
 70
    32
  0
VERTEX
  8
W72RA1RAMP
 62
4
 10
1986.930
 20
-7039.040
 30
-1917.866
 70
    32
  0
VERTEX
  8
W72RA1RAMP
 62
4
 10
1993.735
 20
-7044.737
 30
-1917.851
 70
    32
  0
VERTEX
  8
W72RA1RAMP
 62
4
 10
1991.633
 20
-7058.323
 30
-1917.801
 70
    32
  0
VERTEX
  8
W72RA1RAMP
 62
4
 10
2001.497
 20
-7094.928
 30
-1917.677
 70
    32
  0
VERTEX
  8
W72RA1RAMP
 62
4
 10
2009.394
 20
-7108.522
 30
-1917.634
 70
    32
  0
VERTEX
  8
W72RA1RAMP
 62
4
 10
2022.611
 20
-7120.083
 30
-1917.603
 70
    32
  0
VERTEX
  8
W72RA1RAMP
 62
4
 10
2032.648
 20
-7139.970
 30
-1917.540
 70
    32
  0
VERTEX
  8
W72RA1RAMP
 62
4
 10
2024.640
 20
-7146.071
 30
-1917.512
 70
    32
  0
VERTEX
  8
W72RA1RAMP
 62
4
 10
2013.689
 20
-7148.347
 30
-1917.495
 70
    32
  0
VERTEX
  8
W72RA1RAMP
 62
4
 10
2009.179
 20
-7133.980
 30
-1917.543
 70
    32
  0
VERTEX
  8
W72RA1RAMP
 62
4
 10
2001.256
 20
-7119.045
 30
-1917.590
 70
    32
  0
VERTEX
  8
W72RA1RAMP
 62
4
 10
1982.783
 20
-7097.646
 30
-1917.652
 70
    32
  0
VERTEX
  8
W72RA1RAMP
 62
4
 10
1951.686
 20
-7052.767
 30
-1917.788
 70
    32
  0
VERTEX
  8
W72RA1RAMP
 62
4
 10
1944.578
 20
-7051.073
 30
-1917.853
 70
    32
  0
VERTEX
  8
W72RA1RAMP
 62
4
 10
1942.060
 20
-7053.874
 30
-1917.927
 70
    32
  0
VERTEX
  8
W72RA1RAMP
 62
4
 10
1925.490
 20
-7134.779
 30
-1917.538
 70
    32
  0
VERTEX
  8
W72RA1RAMP
 62
4
 10
1910.904
 20
-7122.681
 30
-1918.205
 70
    32
  0
VERTEX
  8
W72RA1RAMP
 62
4
 10
1919.910
 20
-7116.355
 30
-1918.015
 70
    32
  0
VERTEX
  8
W72RA1RAMP
 62
4
 10
1932.647
 20
-7049.968
 30
-1918.160
 70
    32
  0
VERTEX
  8
W72RA1RAMP
 62
4
 10
1931.968
 20
-7043.587
 30
-1918.159
 70
    32
  0
VERTEX
  8
W72RA1RAMP
 62
4
 10
1934.268
 20
-7027.631
 30
-1918.261
 70
    32
  0
VERTEX
  8
W72RA1RAMP
 62
4
 10
1903.042
 20
-6982.568
 30
-1919.494
 70
    32
  0
VERTEX
  8
W72RA1RAMP
 62
4
 10
1895.192
 20
-6977.432
 30
-1919.879
 70
    32
  0
VERTEX
  8
W72RA1RAMP
 62
4
 10
1891.028
 20
-6970.456
 30
-1920.032
 70
    32
  0
VERTEX
  8
W72RA1RAMP
 62
4
 10
1877.056
 20
-6961.538
 30
-1921.740
 70
    32
  0
VERTEX
  8
W72RA1RAMP
 62
4
 10
1863.009
 20
-6960.993
 30
-1923.213
 70
    32
  0
VERTEX
  8
W72RA1RAMP
 62
4
 10
1854.059
 20
-6960.376
 30
-1924.159
 70
    32
  0
VERTEX
  8
W72RA1RAMP
 62
4
 10
1844.058
 20
-6962.299
 30
-1924.672
 70
    32
  0
VERTEX
  8
W72RA1RAMP
 62
4
 10
1840.613
 20
-6966.324
 30
-1924.589
 70
    32
  0
VERTEX
  8
W72RA1RAMP
 62
4
 10
1830.971
 20
-6968.396
 30
-1924.710
 70
    32
  0
VERTEX
  8
W72RA1RAMP
 62
4
 10
1813.849
 20
-6972.074
 30
-1923.942
 70
    32
  0
VERTEX
  8
W72RA1RAMP
 62
4
 10
1811.241
 20
-6972.634
 30
-1923.830
 70
    32
  0
VERTEX
  8
W72RA1RAMP
 62
4
 10
1797.334
 20
-6976.641
 30
-1923.231
 70
    32
  0
VERTEX
  8
W72RA1RAMP
 62
4
 10
1790.335
 20
-6980.725
 30
-1922.922
 70
    32
  0
VERTEX
  8
W72RA1RAMP
 62
4
 10
1789.277
 20
-6982.167
 30
-1922.872
 70
    32
  0
SEQEND
  8
W72RA1RAMP
  0
TEXT
  8
W72RA1RAMP
 62
4
 10
1572.982
 20
-6741.743
 30
-1916.252
 40
11.811
  1
72A1
 50
-1.569
 41
 1.0 
  0
POLYLINE
  8
W72RA1RAMP
 62
4
 66
     1
 70
     9
  0
VERTEX
  8
W72RA1RAMP
 62
4
 10
1658.700
 20
-6270.700
 30
-1932.000
 70
    32
  0
VERTEX
  8
W72RA1RAMP
 62
4
 10
1662.466
 20
-6279.828
 30
-1932.000
 70
    32
  0
VERTEX
  8
W72RA1RAMP
 62
4
 10
1662.685
 20
-6283.531
 30
-1932.000
 70
    32
  0
VERTEX
  8
W72RA1RAMP
 62
4
 10
1662.466
 20
-6287.506
 30
-1932.000
 70
    32
  0
VERTEX
  8
W72RA1RAMP
 62
4
 10
1661.168
 20
-6297.026
 30
-1932.000
 70
    32
  0
VERTEX
  8
W72RA1RAMP
 62
4
 10
1657.509
 20
-6306.468
 30
-1932.000
 70
    32
  0
VERTEX
  8
W72RA1RAMP
 62
4
 10
1654.582
 20
-6310.555
 30
-1932.000
 70
    32
  0
VERTEX
  8
W72RA1RAMP
 62
4
 10
1630.258
 20
-6346.981
 30
-1926.000
 70
    32
  0
VERTEX
  8
W72RA1RAMP
 62
4
 10
1635.883
 20
-6360.569
 30
-1926.000
 70
    32
  0
VERTEX
  8
W72RA1RAMP
 62
4
 10
1665.185
 20
-6313.633
 30
-1932.000
 70
    32
  0
VERTEX
  8
W72RA1RAMP
 62
4
 10
1668.442
 20
-6308.148
 30
-1932.000
 70
    32
  0
VERTEX
  8
W72RA1RAMP
 62
4
 10
1673.314
 20
-6297.552
 30
-1932.000
 70
    32
  0
VERTEX
  8
W72RA1RAMP
 62
4
 10
1676.784
 20
-6288.822
 30
-1932.000
 70
    32
  0
VERTEX
  8
W72RA1RAMP
 62
4
 10
1675.179
 20
-6285.893
 30
-1932.000
 70
    32
  0
VERTEX
  8
W72RA1RAMP
 62
4
 10
1677.700
 20
-6274.800
 30
-1932.000
 70
    32
  0
SEQEND
  8
W72RA1RAMP
  0
POLYLINE
  8
W72RA1RAMP
 62
4
 66
     1
 70
     9
  0
VERTEX
  8
W72RA1RAMP
 62
4
 10
1685.200
 20
-6235.500
 30
-1943.000
 70
    32
  0
VERTEX
  8
W72RA1RAMP
 62
4
 10
1667.900
 20
-6246.100
 30
-1943.000
 70
    32
  0
VERTEX
  8
W72RA1RAMP
 62
4
 10
1648.600
 20
-6240.100
 30
-1943.000
 70
    32
  0
VERTEX
  8
W72RA1RAMP
 62
4
 10
1630.252
 20
-6234.853
 30
-1943.000
 70
    32
  0
VERTEX
  8
W72RA1RAMP
 62
4
 10
1623.797
 20
-6251.365
 30
-1943.000
 70
    32
  0
VERTEX
  8
W72RA1RAMP
 62
4
 10
1645.200
 20
-6257.800
 30
-1943.000
 70
    32
  0
VERTEX
  8
W72RA1RAMP
 62
4
 10
1654.700
 20
-6260.900
 30
-1943.000
 70
    32
  0
VERTEX
  8
W72RA1RAMP
 62
4
 10
1667.500
 20
-6265.700
 30
-1943.000
 70
    32
  0
VERTEX
  8
W72RA1RAMP
 62
4
 10
1669.000
 20
-6272.000
 30
-1943.000
 70
    32
  0
VERTEX
  8
W72RA1RAMP
 62
4
 10
1643.000
 20
-6335.800
 30
-1943.000
 70
    32
  0
VERTEX
  8
W72RA1RAMP
 62
4
 10
1630.142
 20
-6346.683
 30
-1926.000
 70
    32
  0
VERTEX
  8
W72RA1RAMP
 62
4
 10
1635.657
 20
-6360.855
 30
-1926.000
 70
    32
  0
VERTEX
  8
W72RA1RAMP
 62
4
 10
1652.000
 20
-6340.100
 30
-1943.000
 70
    32
  0
VERTEX
  8
W72RA1RAMP
 62
4
 10
1678.100
 20
-6279.400
 30
-1943.000
 70
    32
  0
VERTEX
  8
W72RA1RAMP
 62
4
 10
1694.800
 20
-6276.100
 30
-1943.000
 70
    32
  0
SEQEND
  8
W72RA1RAMP
  0
POLYLINE
  8
W72RA1RAMP
 62
4
 66
     1
 70
     8
  0
VERTEX
  8
W72RA1RAMP
 62
4
 10
1601.624
 20
-6385.223
 30
-1917.238
 70
    32
  0
VERTEX
  8
W72RA1RAMP
 62
4
 10
1624.252
 20
-6354.768
 30
-1925.991
 70
    32
  0
VERTEX
  8
W72RA1RAMP
 62
4
 10
1629.924
 20
-6347.083
 30
-1925.158
 70
    32
  0
VERTEX
  8
W72RA1RAMP
 62
4
 10
1649.347
 20
-6311.478
 30
-1921.225
 70
    32
  0
VERTEX
  8
W72RA1RAMP
 62
4
 10
1663.691
 20
-6292.093
 30
-1919.734
 70
    32
  0
VERTEX
  8
W72RA1RAMP
 62
4
 10
1676.034
 20
-6294.588
 30
-1919.496
 70
    32
  0
VERTEX
  8
W72RA1RAMP
 62
4
 10
1670.788
 20
-6302.687
 30
-1919.373
 70
    32
  0
VERTEX
  8
W72RA1RAMP
 62
4
 10
1659.700
 20
-6315.993
 30
-1921.067
 70
    32
  0
VERTEX
  8
W72RA1RAMP
 62
4
 10
1635.149
 20
-6361.804
 30
-1926.231
 70
    32
  0
VERTEX
  8
W72RA1RAMP
 62
4
 10
1603.272
 20
-6399.984
 30
-1915.101
 70
    32
  0
SEQEND
  8
W72RA1RAMP
  0
POLYLINE
  8
W72RA1RAMP
 62
4
 66
     1
 70
     8
  0
VERTEX
  8
W72RA1RAMP
 62
4
 10
1616.076
 20
-6387.564
 30
-1913.000
 70
    32
  0
VERTEX
  8
W72RA1RAMP
 62
4
 10
1636.761
 20
-6358.226
 30
-1910.000
 70
    32
  0
VERTEX
  8
W72RA1RAMP
 62
4
 10
1659.743
 20
-6314.879
 30
-1905.000
 70
    32
  0
VERTEX
  8
W72RA1RAMP
 62
4
 10
1650.954
 20
-6307.974
 30
-1905.000
 70
    32
  0
VERTEX
  8
W72RA1RAMP
 62
4
 10
1627.366
 20
-6350.477
 30
-1910.000
 70
    32
  0
VERTEX
  8
W72RA1RAMP
 62
4
 10
1605.996
 20
-6379.455
 30
-1913.000
 70
    32
  0
SEQEND
  8
W72RA1RAMP
  0
POLYLINE
  8
W72RA1RAMP
 62
1
 66
     1
 70
     8
  0
VERTEX
  8
W72RA1RAMP
 62
1
 10
1660.374
 20
-6315.465
 30
-1909.000
 70
    32
  0
VERTEX
  8
W72RA1RAMP
 62
1
 10
1647.840
 20
-6332.225
 30
-1911.000
 70
    32
  0
VERTEX
  8
W72RA1RAMP
 62
1
 10
1635.744
 20
-6343.907
 30
-1912.000
 70
    32
  0
VERTEX
  8
W72RA1RAMP
 62
1
 10
1601.624
 20
-6385.223
 30
-1913.238
 70
    32
  0
SEQEND
  8
W72RA1RAMP
  0
POLYLINE
  8
W72RA1RAMP
 62
1
 66
     1
 70
     8
  0
VERTEX
  8
W72RA1RAMP
 62
1
 10
1674.336
 20
-6311.130
 30
-1909.372
 70
    32
  0
VERTEX
  8
W72RA1RAMP
 62
1
 10
1656.677
 20
-6336.882
 30
-1910.000
 70
    32
  0
VERTEX
  8
W72RA1RAMP
 62
1
 10
1642.839
 20
-6350.313
 30
-1912.000
 70
    32
  0
VERTEX
  8
W72RA1RAMP
 62
1
 10
1603.272
 20
-6399.984
 30
-1915.101
 70
    32
  0
SEQEND
  8
W72RA1RAMP
  0
LINE
  8
W72RA1RAMP
 62
4
 10
1601.624
 20
-6385.223
 30
-1917.238
 11
1603.272
 21
-6399.984
 31
-1915.101
  0
POLYLINE
  8
W72RA1RAMP
 62
4
 66
     1
 70
     8
  0
VERTEX
  8
W72RA1RAMP
 62
4
 10
1582.642
 20
-6347.852
 30
-1919.961
 70
    32
  0
VERTEX
  8
W72RA1RAMP
 62
4
 10
1592.960
 20
-6347.351
 30
-1921.842
 70
    32
  0
VERTEX
  8
W72RA1RAMP
 62
4
 10
1598.021
 20
-6383.996
 30
-1916.872
 70
    32
  0
VERTEX
  8
W72RA1RAMP
 62
4
 10
1601.624
 20
-6385.223
 30
-1917.238
 70
    32
  0
VERTEX
  8
W72RA1RAMP
 62
4
 10
1604.053
 20
-6381.895
 30
-1917.328
 70
    32
  0
SEQEND
  8
W72RA1RAMP
  0
POLYLINE
  8
W72RA1RAMP
 62
4
 66
     1
 70
     8
  0
VERTEX
  8
W72RA1RAMP
 62
4
 10
1609.706
 20
-6392.178
 30
-1915.673
 70
    32
  0
VERTEX
  8
W72RA1RAMP
 62
4
 10
1603.272
 20
-6399.984
 30
-1915.101
 70
    32
  0
VERTEX
  8
W72RA1RAMP
 62
4
 10
1601.624
 20
-6385.223
 30
-1917.238
 70
    32
  0
SEQEND
  8
W72RA1RAMP
  0
POINT
  8
W72RA1RAMP
 62
4
 10
1603.272
 20
-6399.984
 30
-1915.101
  0
POLYLINE
  8
W72RA1RAMP
 62
4
 66
     1
 70
     8
  0
VERTEX
  8
W72RA1RAMP
 62
4
 10
1675.267
 20
-6448.755
 30
-1900.852
 70
    32
  0
VERTEX
  8
W72RA1RAMP
 62
4
 10
1676.200
 20
-6456.592
 30
-1900.267
 70
    32
  0
VERTEX
  8
W72RA1RAMP
 62
4
 10
1676.327
 20
-6457.661
 30
-1900.206
 70
    32
  0
VERTEX
  8
W72RA1RAMP
 62
4
 10
1663.914
 20
-6459.772
 30
-1903.688
 70
    32
  0
VERTEX
  8
W72RA1RAMP
 62
4
 10
1662.081
 20
-6460.084
 30
-1904.046
 70
    32
  0
VERTEX
  8
W72RA1RAMP
 62
4
 10
1659.824
 20
-6460.468
 30
-1904.490
 70
    32
  0
VERTEX
  8
W72RA1RAMP
 62
4
 10
1647.574
 20
-6462.552
 30
-1908.271
 70
    32
  0
VERTEX
  8
W72RA1RAMP
 62
4
 10
1646.496
 20
-6462.735
 30
-1910.498
 70
    32
  0
VERTEX
  8
W72RA1RAMP
 62
4
 10
1644.107
 20
-6468.118
 30
-1910.814
 70
    32
  0
VERTEX
  8
W72RA1RAMP
 62
4
 10
1646.813
 20
-6473.522
 30
-1911.491
 70
    32
  0
VERTEX
  8
W72RA1RAMP
 62
4
 10
1663.467
 20
-6492.715
 30
-1914.375
 70
    32
  0
VERTEX
  8
W72RA1RAMP
 62
4
 10
1682.097
 20
-6498.785
 30
-1916.732
 70
    32
  0
VERTEX
  8
W72RA1RAMP
 62
4
 10
1697.925
 20
-6504.795
 30
-1921.393
 70
    32
  0
VERTEX
  8
W72RA1RAMP
 62
4
 10
1723.075
 20
-6500.963
 30
-1928.723
 70
    32
  0
VERTEX
  8
W72RA1RAMP
 62
4
 10
1730.551
 20
-6497.879
 30
-1930.855
 70
    32
  0
VERTEX
  8
W72RA1RAMP
 62
4
 10
1741.781
 20
-6484.736
 30
-1935.228
 70
    32
  0
VERTEX
  8
W72RA1RAMP
 62
4
 10
1743.365
 20
-6482.320
 30
-1935.036
 70
    32
  0
VERTEX
  8
W72RA1RAMP
 62
4
 10
1757.447
 20
-6436.146
 30
-1931.250
 70
    32
  0
VERTEX
  8
W72RA1RAMP
 62
4
 10
1765.543
 20
-6419.073
 30
-1929.730
 70
    32
  0
VERTEX
  8
W72RA1RAMP
 62
4
 10
1779.154
 20
-6400.798
 30
-1928.052
 70
    32
  0
VERTEX
  8
W72RA1RAMP
 62
4
 10
1796.377
 20
-6383.434
 30
-1926.275
 70
    32
  0
VERTEX
  8
W72RA1RAMP
 62
4
 10
1802.338
 20
-6382.910
 30
-1925.892
 70
    32
  0
VERTEX
  8
W72RA1RAMP
 62
4
 10
1814.049
 20
-6378.667
 30
-1925.046
 70
    32
  0
VERTEX
  8
W72RA1RAMP
 62
4
 10
1839.284
 20
-6366.430
 30
-1917.715
 70
    32
  0
VERTEX
  8
W72RA1RAMP
 62
4
 10
1846.024
 20
-6377.096
 30
-1917.647
 70
    32
  0
VERTEX
  8
W72RA1RAMP
 62
4
 10
1837.887
 20
-6378.509
 30
-1919.652
 70
    32
  0
VERTEX
  8
W72RA1RAMP
 62
4
 10
1818.863
 20
-6386.311
 30
-1924.913
 70
    32
  0
VERTEX
  8
W72RA1RAMP
 62
4
 10
1789.936
 20
-6415.892
 30
-1928.256
 70
    32
  0
VERTEX
  8
W72RA1RAMP
 62
4
 10
1766.758
 20
-6445.015
 30
-1931.567
 70
    32
  0
VERTEX
  8
W72RA1RAMP
 62
4
 10
1760.801
 20
-6464.523
 30
-1933.286
 70
    32
  0
VERTEX
  8
W72RA1RAMP
 62
4
 10
1757.916
 20
-6478.855
 30
-1934.545
 70
    32
  0
VERTEX
  8
W72RA1RAMP
 62
4
 10
1752.120
 20
-6489.765
 30
-1935.591
 70
    32
  0
VERTEX
  8
W72RA1RAMP
 62
4
 10
1749.143
 20
-6495.497
 30
-1934.394
 70
    32
  0
VERTEX
  8
W72RA1RAMP
 62
4
 10
1738.449
 20
-6504.846
 30
-1931.517
 70
    32
  0
VERTEX
  8
W72RA1RAMP
 62
4
 10
1726.257
 20
-6512.440
 30
-1927.990
 70
    32
  0
VERTEX
  8
W72RA1RAMP
 62
4
 10
1712.888
 20
-6516.830
 30
-1925.199
 70
    32
  0
VERTEX
  8
W72RA1RAMP
 62
4
 10
1697.112
 20
-6514.354
 30
-1918.797
 70
    32
  0
VERTEX
  8
W72RA1RAMP
 62
4
 10
1684.734
 20
-6516.368
 30
-1917.026
 70
    32
  0
VERTEX
  8
W72RA1RAMP
 62
4
 10
1684.987
 20
-6518.490
 30
-1916.849
 70
    32
  0
VERTEX
  8
W72RA1RAMP
 62
4
 10
1688.609
 20
-6522.121
 30
-1916.939
 70
    32
  0
VERTEX
  8
W72RA1RAMP
 62
4
 10
1695.300
 20
-6532.758
 30
-1916.719
 70
    32
  0
VERTEX
  8
W72RA1RAMP
 62
4
 10
1697.001
 20
-6535.451
 30
-1913.648
 70
    32
  0
VERTEX
  8
W72RA1RAMP
 62
4
 10
1728.274
 20
-6581.749
 30
-1910.078
 70
    32
  0
VERTEX
  8
W72RA1RAMP
 62
4
 10
1741.433
 20
-6608.388
 30
-1908.516
 70
    32
  0
VERTEX
  8
W72RA1RAMP
 62
4
 10
1752.707
 20
-6628.812
 30
-1912.964
 70
    32
  0
VERTEX
  8
W72RA1RAMP
 62
4
 10
1739.213
 20
-6628.835
 30
-1911.711
 70
    32
  0
VERTEX
  8
W72RA1RAMP
 62
4
 10
1733.135
 20
-6615.393
 30
-1909.073
 70
    32
  0
VERTEX
  8
W72RA1RAMP
 62
4
 10
1729.040
 20
-6608.857
 30
-1908.572
 70
    32
  0
VERTEX
  8
W72RA1RAMP
 62
4
 10
1717.269
 20
-6591.640
 30
-1909.900
 70
    32
  0
VERTEX
  8
W72RA1RAMP
 62
4
 10
1709.110
 20
-6569.545
 30
-1911.399
 70
    32
  0
VERTEX
  8
W72RA1RAMP
 62
4
 10
1689.884
 20
-6540.466
 30
-1913.648
 70
    32
  0
VERTEX
  8
W72RA1RAMP
 62
4
 10
1688.905
 20
-6539.037
 30
-1915.320
 70
    32
  0
VERTEX
  8
W72RA1RAMP
 62
4
 10
1683.677
 20
-6531.408
 30
-1915.425
 70
    32
  0
VERTEX
  8
W72RA1RAMP
 62
4
 10
1666.004
 20
-6511.136
 30
-1916.096
 70
    32
  0
VERTEX
  8
W72RA1RAMP
 62
4
 10
1638.480
 20
-6479.896
 30
-1911.306
 70
    32
  0
VERTEX
  8
W72RA1RAMP
 62
4
 10
1634.805
 20
-6474.289
 30
-1910.530
 70
    32
  0
VERTEX
  8
W72RA1RAMP
 62
4
 10
1620.744
 20
-6461.175
 30
-1908.703
 70
    32
  0
VERTEX
  8
W72RA1RAMP
 62
4
 10
1568.148
 20
-6447.039
 30
-1917.579
 70
    32
  0
VERTEX
  8
W72RA1RAMP
 62
4
 10
1535.341
 20
-6442.227
 30
-1922.732
 70
    32
  0
VERTEX
  8
W72RA1RAMP
 62
4
 10
1516.690
 20
-6453.930
 30
-1928.458
 70
    32
  0
VERTEX
  8
W72RA1RAMP
 62
4
 10
1499.562
 20
-6474.636
 30
-1935.386
 70
    32
  0
VERTEX
  8
W72RA1RAMP
 62
4
 10
1495.462
 20
-6485.124
 30
-1938.993
 70
    32
  0
VERTEX
  8
W72RA1RAMP
 62
4
 10
1495.128
 20
-6497.723
 30
-1942.252
 70
    32
  0
VERTEX
  8
W72RA1RAMP
 62
4
 10
1499.213
 20
-6504.475
 30
-1944.664
 70
    32
  0
VERTEX
  8
W72RA1RAMP
 62
4
 10
1511.693
 20
-6518.784
 30
-1950.517
 70
    32
  0
VERTEX
  8
W72RA1RAMP
 62
4
 10
1523.259
 20
-6528.238
 30
-1954.926
 70
    32
  0
VERTEX
  8
W72RA1RAMP
 62
4
 10
1541.731
 20
-6535.267
 30
-1957.849
 70
    32
  0
VERTEX
  8
W72RA1RAMP
 62
4
 10
1550.950
 20
-6533.822
 30
-1959.085
 70
    32
  0
VERTEX
  8
W72RA1RAMP
 62
4
 10
1561.511
 20
-6533.905
 30
-1960.687
 70
    32
  0
VERTEX
  8
W72RA1RAMP
 62
4
 10
1562.162
 20
-6533.299
 30
-1960.687
 70
    32
  0
VERTEX
  8
W72RA1RAMP
 62
4
 10
1564.034
 20
-6531.553
 30
-1961.076
 70
    32
  0
VERTEX
  8
W72RA1RAMP
 62
4
 10
1564.622
 20
-6531.005
 30
-1961.210
 70
    32
  0
VERTEX
  8
W72RA1RAMP
 62
4
 10
1598.830
 20
-6499.118
 30
-1967.815
 70
    32
  0
VERTEX
  8
W72RA1RAMP
 62
4
 10
1599.911
 20
-6497.664
 30
-1968.062
 70
    32
  0
VERTEX
  8
W72RA1RAMP
 62
4
 10
1607.731
 20
-6487.186
 30
-1970.109
 70
    32
  0
VERTEX
  8
W72RA1RAMP
 62
4
 10
1613.701
 20
-6496.738
 30
-1970.150
 70
    32
  0
VERTEX
  8
W72RA1RAMP
 62
4
 10
1587.423
 20
-6523.273
 30
-1964.458
 70
    32
  0
VERTEX
  8
W72RA1RAMP
 62
4
 10
1581.665
 20
-6529.086
 30
-1963.308
 70
    32
  0
VERTEX
  8
W72RA1RAMP
 62
4
 10
1580.128
 20
-6530.638
 30
-1962.944
 70
    32
  0
VERTEX
  8
W72RA1RAMP
 62
4
 10
1581.299
 20
-6531.886
 30
-1962.913
 70
    32
  0
VERTEX
  8
W72RA1RAMP
 62
4
 10
1583.916
 20
-6534.678
 30
-1962.899
 70
    32
  0
VERTEX
  8
W72RA1RAMP
 62
4
 10
1584.950
 20
-6534.627
 30
-1963.017
 70
    32
  0
VERTEX
  8
W72RA1RAMP
 62
4
 10
1587.635
 20
-6534.497
 30
-1963.440
 70
    32
  0
VERTEX
  8
W72RA1RAMP
 62
4
 10
1592.041
 20
-6534.283
 30
-1963.440
 70
    32
  0
VERTEX
  8
W72RA1RAMP
 62
4
 10
1609.804
 20
-6533.421
 30
-1963.440
 70
    32
  0
VERTEX
  8
W72RA1RAMP
 62
4
 10
1610.674
 20
-6541.688
 30
-1963.440
 70
    32
  0
VERTEX
  8
W72RA1RAMP
 62
4
 10
1610.786
 20
-6542.750
 30
-1963.440
 70
    32
  0
VERTEX
  8
W72RA1RAMP
 62
4
 10
1600.903
 20
-6556.659
 30
-1963.440
 70
    32
  0
VERTEX
  8
W72RA1RAMP
 62
4
 10
1599.370
 20
-6555.804
 30
-1963.440
 70
    32
  0
VERTEX
  8
W72RA1RAMP
 62
4
 10
1581.933
 20
-6546.084
 30
-1961.586
 70
    32
  0
VERTEX
  8
W72RA1RAMP
 62
4
 10
1579.129
 20
-6546.476
 30
-1961.122
 70
    32
  0
VERTEX
  8
W72RA1RAMP
 62
4
 10
1575.601
 20
-6546.970
 30
-1960.687
 70
    32
  0
VERTEX
  8
W72RA1RAMP
 62
4
 10
1560.149
 20
-6549.132
 30
-1960.687
 70
    32
  0
VERTEX
  8
W72RA1RAMP
 62
4
 10
1519.911
 20
-6580.861
 30
-1951.886
 70
    32
  0
VERTEX
  8
W72RA1RAMP
 62
4
 10
1515.842
 20
-6585.356
 30
-1950.383
 70
    32
  0
VERTEX
  8
W72RA1RAMP
 62
4
 10
1512.826
 20
-6600.055
 30
-1947.456
 70
    32
  0
VERTEX
  8
W72RA1RAMP
 62
4
 10
1512.649
 20
-6618.819
 30
-1943.630
 70
    32
  0
VERTEX
  8
W72RA1RAMP
 62
4
 10
1514.176
 20
-6625.794
 30
-1942.307
 70
    32
  0
VERTEX
  8
W72RA1RAMP
 62
4
 10
1570.160
 20
-6759.369
 30
-1914.980
 70
    32
  0
VERTEX
  8
W72RA1RAMP
 62
4
 10
1609.561
 20
-6852.411
 30
-1898.562
 70
    32
  0
VERTEX
  8
W72RA1RAMP
 62
4
 10
1619.551
 20
-6851.533
 30
-1898.803
 70
    32
  0
VERTEX
  8
W72RA1RAMP
 62
4
 10
1665.667
 20
-6801.591
 30
-1896.189
 70
    32
  0
VERTEX
  8
W72RA1RAMP
 62
4
 10
1673.509
 20
-6806.935
 30
-1896.217
 70
    32
  0
VERTEX
  8
W72RA1RAMP
 62
4
 10
1622.016
 20
-6863.453
 30
-1897.897
 70
    32
  0
VERTEX
  8
W72RA1RAMP
 62
4
 10
1626.039
 20
-6869.923
 30
-1897.451
 70
    32
  0
VERTEX
  8
W72RA1RAMP
 62
4
 10
1631.728
 20
-6885.820
 30
-1894.747
 70
    32
  0
VERTEX
  8
W72RA1RAMP
 62
4
 10
1634.384
 20
-6893.619
 30
-1895.719
 70
    32
  0
VERTEX
  8
W72RA1RAMP
 62
4
 10
1692.070
 20
-6939.035
 30
-1906.032
 70
    32
  0
VERTEX
  8
W72RA1RAMP
 62
4
 10
1697.037
 20
-6935.457
 30
-1906.253
 70
    32
  0
VERTEX
  8
W72RA1RAMP
 62
4
 10
1697.353
 20
-6931.601
 30
-1905.907
 70
    32
  0
VERTEX
  8
W72RA1RAMP
 62
4
 10
1698.507
 20
-6917.504
 30
-1909.541
 70
    32
  0
VERTEX
  8
W72RA1RAMP
 62
4
 10
1700.964
 20
-6887.494
 30
-1907.917
 70
    32
  0
VERTEX
  8
W72RA1RAMP
 62
4
 10
1702.385
 20
-6879.408
 30
-1908.669
 70
    32
  0
VERTEX
  8
W72RA1RAMP
 62
4
 10
1702.909
 20
-6879.191
 30
-1909.451
 70
    32
  0
VERTEX
  8
W72RA1RAMP
 62
4
 10
1706.972
 20
-6877.507
 30
-1910.231
 70
    32
  0
VERTEX
  8
W72RA1RAMP
 62
4
 10
1710.206
 20
-6878.710
 30
-1911.037
 70
    32
  0
VERTEX
  8
W72RA1RAMP
 62
4
 10
1713.543
 20
-6881.724
 30
-1912.214
 70
    32
  0
VERTEX
  8
W72RA1RAMP
 62
4
 10
1713.682
 20
-6884.003
 30
-1913.197
 70
    32
  0
VERTEX
  8
W72RA1RAMP
 62
4
 10
1712.666
 20
-6913.403
 30
-1914.624
 70
    32
  0
VERTEX
  8
W72RA1RAMP
 62
4
 10
1711.536
 20
-6935.540
 30
-1909.116
 70
    32
  0
VERTEX
  8
W72RA1RAMP
 62
4
 10
1712.618
 20
-6941.146
 30
-1908.119
 70
    32
  0
VERTEX
  8
W72RA1RAMP
 62
4
 10
1713.043
 20
-6949.819
 30
-1909.091
 70
    32
  0
VERTEX
  8
W72RA1RAMP
 62
4
 10
1714.647
 20
-6954.665
 30
-1910.326
 70
    32
  0
VERTEX
  8
W72RA1RAMP
 62
4
 10
1721.851
 20
-6965.045
 30
-1913.067
 70
    32
  0
VERTEX
  8
W72RA1RAMP
 62
4
 10
1730.313
 20
-6968.579
 30
-1915.970
 70
    32
  0
VERTEX
  8
W72RA1RAMP
 62
4
 10
1743.581
 20
-6974.118
 30
-1917.488
 70
    32
  0
VERTEX
  8
W72RA1RAMP
 62
4
 10
1757.203
 20
-6973.461
 30
-1919.106
 70
    32
  0
VERTEX
  8
W72RA1RAMP
 62
4
 10
1759.260
 20
-6972.910
 30
-1919.354
 70
    32
  0
VERTEX
  8
W72RA1RAMP
 62
4
 10
1765.540
 20
-6971.228
 30
-1920.266
 70
    32
  0
VERTEX
  8
W72RA1RAMP
 62
4
 10
1774.568
 20
-6964.803
 30
-1922.035
 70
    32
  0
VERTEX
  8
W72RA1RAMP
 62
4
 10
1783.149
 20
-6960.227
 30
-1921.886
 70
    32
  0
VERTEX
  8
W72RA1RAMP
 62
4
 10
1791.012
 20
-6957.653
 30
-1921.755
 70
    32
  0
VERTEX
  8
W72RA1RAMP
 62
4
 10
1796.260
 20
-6955.934
 30
-1920.045
 70
    32
  0
VERTEX
  8
W72RA1RAMP
 62
4
 10
1800.016
 20
-6955.571
 30
-1918.923
 70
    32
  0
VERTEX
  8
W72RA1RAMP
 62
4
 10
1810.793
 20
-6951.942
 30
-1915.400
 70
    32
  0
VERTEX
  8
W72RA1RAMP
 62
4
 10
1816.569
 20
-6949.997
 30
-1913.067
 70
    32
  0
VERTEX
  8
W72RA1RAMP
 62
4
 10
1825.377
 20
-6946.801
 30
-1911.270
 70
    32
  0
VERTEX
  8
W72RA1RAMP
 62
4
 10
1839.690
 20
-6947.178
 30
-1909.251
 70
    32
  0
VERTEX
  8
W72RA1RAMP
 62
4
 10
1851.188
 20
-6950.033
 30
-1907.394
 70
    32
  0
VERTEX
  8
W72RA1RAMP
 62
4
 10
1854.453
 20
-6953.742
 30
-1906.599
 70
    32
  0
VERTEX
  8
W72RA1RAMP
 62
4
 10
1859.460
 20
-6959.430
 30
-1905.867
 70
    32
  0
VERTEX
  8
W72RA1RAMP
 62
4
 10
1861.326
 20
-6962.230
 30
-1905.769
 70
    32
  0
VERTEX
  8
W72RA1RAMP
 62
4
 10
1867.922
 20
-6978.878
 30
-1897.637
 70
    32
  0
VERTEX
  8
W72RA1RAMP
 62
4
 10
1871.792
 20
-6990.818
 30
-1892.254
 70
    32
  0
VERTEX
  8
W72RA1RAMP
 62
4
 10
1875.267
 20
-7003.415
 30
-1886.622
 70
    32
  0
VERTEX
  8
W72RA1RAMP
 62
4
 10
1870.342
 20
-7007.309
 30
-1885.343
 70
    32
  0
VERTEX
  8
W72RA1RAMP
 62
4
 10
1860.221
 20
-7008.465
 30
-1885.629
 70
    32
  0
VERTEX
  8
W72RA1RAMP
 62
4
 10
1859.441
 20
-6995.371
 30
-1891.500
 70
    32
  0
VERTEX
  8
W72RA1RAMP
 62
4
 10
1857.358
 20
-6983.213
 30
-1897.354
 70
    32
  0
VERTEX
  8
W72RA1RAMP
 62
4
 10
1853.401
 20
-6966.175
 30
-1905.722
 70
    32
  0
VERTEX
  8
W72RA1RAMP
 62
4
 10
1843.441
 20
-6961.582
 30
-1907.403
 70
    32
  0
VERTEX
  8
W72RA1RAMP
 62
4
 10
1835.948
 20
-6970.283
 30
-1908.858
 70
    32
  0
VERTEX
  8
W72RA1RAMP
 62
4
 10
1825.670
 20
-6973.217
 30
-1911.854
 70
    32
  0
VERTEX
  8
W72RA1RAMP
 62
4
 10
1815.268
 20
-6970.255
 30
-1914.997
 70
    32
  0
VERTEX
  8
W72RA1RAMP
 62
4
 10
1801.816
 20
-6974.251
 30
-1920.589
 70
    32
  0
VERTEX
  8
W72RA1RAMP
 62
4
 10
1795.243
 20
-6976.330
 30
-1921.746
 70
    32
  0
VERTEX
  8
W72RA1RAMP
 62
4
 10
1794.831
 20
-6978.102
 30
-1923.120
 70
    32
  0
VERTEX
  8
W72RA1RAMP
 62
4
 10
1789.277
 20
-6982.167
 30
-1922.872
 70
    32
  0
VERTEX
  8
W72RA1RAMP
 62
4
 10
1791.390
 20
-6984.265
 30
-1922.953
 70
    32
  0
VERTEX
  8
W72RA1RAMP
 62
4
 10
1792.500
 20
-6983.970
 30
-1923.000
 70
    32
  0
VERTEX
  8
W72RA1RAMP
 62
4
 10
1795.070
 20
-6985.050
 30
-1923.104
 70
    32
  0
VERTEX
  8
W72RA1RAMP
 62
4
 10
1795.980
 20
-6987.450
 30
-1923.133
 70
    32
  0
VERTEX
  8
W72RA1RAMP
 62
4
 10
1795.320
 20
-6989.770
 30
-1923.097
 70
    32
  0
VERTEX
  8
W72RA1RAMP
 62
4
 10
1793.330
 20
-6990.600
 30
-1923.010
 70
    32
  0
VERTEX
  8
W72RA1RAMP
 62
4
 10
1791.130
 20
-6990.326
 30
-1922.919
 70
    32
  0
VERTEX
  8
W72RA1RAMP
 62
4
 10
1782.488
 20
-6991.960
 30
-1922.550
 70
    32
  0
VERTEX
  8
W72RA1RAMP
 62
4
 10
1782.031
 20
-6992.046
 30
-1922.441
 70
    32
  0
VERTEX
  8
W72RA1RAMP
 62
4
 10
1780.835
 20
-6991.716
 30
-1922.172
 70
    32
  0
VERTEX
  8
W72RA1RAMP
 62
4
 10
1761.536
 20
-6986.382
 30
-1919.600
 70
    32
  0
VERTEX
  8
W72RA1RAMP
 62
4
 10
1757.033
 20
-6984.754
 30
-1919.327
 70
    32
  0
VERTEX
  8
W72RA1RAMP
 62
4
 10
1748.006
 20
-6985.419
 30
-1917.904
 70
    32
  0
VERTEX
  8
W72RA1RAMP
 62
4
 10
1747.399
 20
-6985.464
 30
-1917.832
 70
    32
  0
VERTEX
  8
W72RA1RAMP
 62
4
 10
1736.732
 20
-6984.368
 30
-1916.580
 70
    32
  0
VERTEX
  8
W72RA1RAMP
 62
4
 10
1731.982
 20
-6989.477
 30
-1915.970
 70
    32
  0
VERTEX
  8
W72RA1RAMP
 62
4
 10
1731.901
 20
-6989.563
 30
-1916.311
 70
    32
  0
VERTEX
  8
W72RA1RAMP
 62
4
 10
1712.530
 20
-6975.053
 30
-1912.401
 70
    32
  0
VERTEX
  8
W72RA1RAMP
 62
4
 10
1696.583
 20
-6957.630
 30
-1908.155
 70
    32
  0
VERTEX
  8
W72RA1RAMP
 62
4
 10
1625.358
 20
-6899.847
 30
-1895.267
 70
    32
  0
VERTEX
  8
W72RA1RAMP
 62
4
 10
1618.617
 20
-6901.039
 30
-1894.628
 70
    32
  0
VERTEX
  8
W72RA1RAMP
 62
4
 10
1612.465
 20
-6896.965
 30
-1893.681
 70
    32
  0
VERTEX
  8
W72RA1RAMP
 62
4
 10
1602.550
 20
-6894.260
 30
-1891.612
 70
    32
  0
VERTEX
  8
W72RA1RAMP
 62
4
 10
1598.721
 20
-6895.414
 30
-1891.261
 70
    32
  0
VERTEX
  8
W72RA1RAMP
 62
4
 10
1595.053
 20
-6896.281
 30
-1888.561
 70
    32
  0
VERTEX
  8
W72RA1RAMP
 62
4
 10
1557.216
 20
-6907.149
 30
-1894.077
 70
    32
  0
VERTEX
  8
W72RA1RAMP
 62
4
 10
1555.184
 20
-6912.198
 30
-1894.447
 70
    32
  0
VERTEX
  8
W72RA1RAMP
 62
4
 10
1556.284
 20
-6918.698
 30
-1893.849
 70
    32
  0
VERTEX
  8
W72RA1RAMP
 62
4
 10
1554.906
 20
-6922.706
 30
-1893.379
 70
    32
  0
VERTEX
  8
W72RA1RAMP
 62
4
 10
1579.078
 20
-6956.359
 30
-1887.305
 70
    32
  0
VERTEX
  8
W72RA1RAMP
 62
4
 10
1578.766
 20
-6962.064
 30
-1886.585
 70
    32
  0
VERTEX
  8
W72RA1RAMP
 62
4
 10
1569.196
 20
-6996.915
 30
-1880.381
 70
    32
  0
VERTEX
  8
W72RA1RAMP
 62
4
 10
1564.726
 20
-7003.405
 30
-1879.124
 70
    32
  0
VERTEX
  8
W72RA1RAMP
 62
4
 10
1552.228
 20
-7047.005
 30
-1870.538
 70
    32
  0
VERTEX
  8
W72RA1RAMP
 62
4
 10
1553.081
 20
-7057.792
 30
-1867.579
 70
    32
  0
VERTEX
  8
W72RA1RAMP
 62
4
 10
1559.401
 20
-7079.533
 30
-1861.129
 70
    32
  0
VERTEX
  8
W72RA1RAMP
 62
4
 10
1573.341
 20
-7097.478
 30
-1853.565
 70
    32
  0
VERTEX
  8
W72RA1RAMP
 62
4
 10
1581.336
 20
-7100.464
 30
-1851.125
 70
    32
  0
VERTEX
  8
W72RA1RAMP
 62
4
 10
1593.688
 20
-7101.018
 30
-1847.525
 70
    32
  0
VERTEX
  8
W72RA1RAMP
 62
4
 10
1680.834
 20
-7039.219
 30
-1833.765
 70
    32
  0
VERTEX
  8
W72RA1RAMP
 62
4
 10
1685.128
 20
-7036.577
 30
-1833.964
 70
    32
  0
VERTEX
  8
W72RA1RAMP
 62
4
 10
1770.280
 20
-6980.400
 30
-1816.367
 70
    32
  0
VERTEX
  8
W72RA1RAMP
 62
4
 10
1778.093
 20
-6988.289
 30
-1816.289
 70
    32
  0
VERTEX
  8
W72RA1RAMP
 62
4
 10
1770.208
 20
-6993.809
 30
-1816.820
 70
    32
  0
VERTEX
  8
W72RA1RAMP
 62
4
 10
1720.044
 20
-7028.369
 30
-1828.024
 70
    32
  0
VERTEX
  8
W72RA1RAMP
 62
4
 10
1714.989
 20
-7032.944
 30
-1829.899
 70
    32
  0
VERTEX
  8
W72RA1RAMP
 62
4
 10
1712.756
 20
-7035.298
 30
-1832.552
 70
    32
  0
VERTEX
  8
W72RA1RAMP
 62
4
 10
1713.464
 20
-7039.514
 30
-1832.602
 70
    32
  0
VERTEX
  8
W72RA1RAMP
 62
4
 10
1720.811
 20
-7042.240
 30
-1831.641
 70
    32
  0
VERTEX
  8
W72RA1RAMP
 62
4
 10
1723.880
 20
-7043.378
 30
-1831.156
 70
    32
  0
VERTEX
  8
W72RA1RAMP
 62
4
 10
1729.490
 20
-7044.677
 30
-1830.259
 70
    32
  0
VERTEX
  8
W72RA1RAMP
 62
4
 10
1730.116
 20
-7044.822
 30
-1830.191
 70
    32
  0
VERTEX
  8
W72RA1RAMP
 62
4
 10
1736.106
 20
-7043.199
 30
-1829.514
 70
    32
  0
VERTEX
  8
W72RA1RAMP
 62
4
 10
1745.122
 20
-7040.755
 30
-1828.108
 70
    32
  0
VERTEX
  8
W72RA1RAMP
 62
4
 10
1745.829
 20
-7040.563
 30
-1828.266
 70
    32
  0
VERTEX
  8
W72RA1RAMP
 62
4
 10
1748.880
 20
-7039.736
 30
-1828.946
 70
    32
  0
VERTEX
  8
W72RA1RAMP
 62
4
 10
1750.054
 20
-7039.205
 30
-1829.223
 70
    32
  0
VERTEX
  8
W72RA1RAMP
 62
4
 10
1755.354
 20
-7036.806
 30
-1830.473
 70
    32
  0
VERTEX
  8
W72RA1RAMP
 62
4
 10
1758.035
 20
-7036.421
 30
-1831.046
 70
    32
  0
VERTEX
  8
W72RA1RAMP
 62
4
 10
1759.241
 20
-7036.248
 30
-1831.304
 70
    32
  0
VERTEX
  8
W72RA1RAMP
 62
4
 10
1759.718
 20
-7036.041
 30
-1831.416
 70
    32
  0
VERTEX
  8
W72RA1RAMP
 62
4
 10
1767.311
 20
-7032.753
 30
-1833.174
 70
    32
  0
VERTEX
  8
W72RA1RAMP
 62
4
 10
1771.554
 20
-7030.916
 30
-1834.157
 70
    32
  0
VERTEX
  8
W72RA1RAMP
 62
4
 10
1773.113
 20
-7030.241
 30
-1834.518
 70
    32
  0
VERTEX
  8
W72RA1RAMP
 62
4
 10
1773.113
 20
-7030.241
 30
-1834.518
 70
    32
  0
VERTEX
  8
W72RA1RAMP
 62
4
 10
1776.863
 20
-7027.483
 30
-1835.462
 70
    32
  0
VERTEX
  8
W72RA1RAMP
 62
4
 10
1785.557
 20
-7024.308
 30
-1837.436
 70
    32
  0
VERTEX
  8
W72RA1RAMP
 62
4
 10
1789.030
 20
-7022.539
 30
-1838.258
 70
    32
  0
VERTEX
  8
W72RA1RAMP
 62
4
 10
1796.583
 20
-7018.693
 30
-1838.255
 70
    32
  0
VERTEX
  8
W72RA1RAMP
 62
4
 10
1805.471
 20
-7016.145
 30
-1838.243
 70
    32
  0
VERTEX
  8
W72RA1RAMP
 62
4
 10
1813.259
 20
-7016.684
 30
-1838.222
 70
    32
  0
VERTEX
  8
W72RA1RAMP
 62
4
 10
1816.226
 20
-7017.619
 30
-1838.211
 70
    32
  0
VERTEX
  8
W72RA1RAMP
 62
4
 10
1817.358
 20
-7017.321
 30
-1838.209
 70
    32
  0
VERTEX
  8
W72RA1RAMP
 62
4
 10
1823.525
 20
-7015.700
 30
-1838.218
 70
    32
  0
VERTEX
  8
W72RA1RAMP
 62
4
 10
1827.478
 20
-7025.120
 30
-1838.220
 70
    32
  0
VERTEX
  8
W72RA1RAMP
 62
4
 10
1819.795
 20
-7027.570
 30
-1838.209
 70
    32
  0
VERTEX
  8
W72RA1RAMP
 62
4
 10
1818.983
 20
-7030.705
 30
-1838.207
 70
    32
  0
VERTEX
  8
W72RA1RAMP
 62
4
 10
1812.578
 20
-7033.515
 30
-1838.197
 70
    32
  0
VERTEX
  8
W72RA1RAMP
 62
4
 10
1802.791
 20
-7033.389
 30
-1838.183
 70
    32
  0
VERTEX
  8
W72RA1RAMP
 62
4
 10
1802.264
 20
-7033.465
 30
-1838.182
 70
    32
  0
VERTEX
  8
W72RA1RAMP
 62
4
 10
1792.806
 20
-7034.835
 30
-1838.200
 70
    32
  0
VERTEX
  8
W72RA1RAMP
 62
4
 10
1790.310
 20
-7035.197
 30
-1837.670
 70
    32
  0
VERTEX
  8
W72RA1RAMP
 62
4
 10
1781.037
 20
-7038.277
 30
-1835.586
 70
    32
  0
VERTEX
  8
W72RA1RAMP
 62
4
 10
1779.456
 20
-7039.064
 30
-1835.212
 70
    32
  0
VERTEX
  8
W72RA1RAMP
 62
4
 10
1777.173
 20
-7040.201
 30
-1834.666
 70
    32
  0
VERTEX
  8
W72RA1RAMP
 62
4
 10
1777.173
 20
-7040.201
 30
-1834.666
 70
    32
  0
VERTEX
  8
W72RA1RAMP
 62
4
 10
1775.275
 20
-7040.735
 30
-1834.242
 70
    32
  0
VERTEX
  8
W72RA1RAMP
 62
4
 10
1765.313
 20
-7043.538
 30
-1832.014
 70
    32
  0
VERTEX
  8
W72RA1RAMP
 62
4
 10
1762.616
 20
-7044.297
 30
-1831.411
 70
    32
  0
VERTEX
  8
W72RA1RAMP
 62
4
 10
1761.228
 20
-7045.537
 30
-1831.040
 70
    32
  0
VERTEX
  8
W72RA1RAMP
 62
4
 10
1759.690
 20
-7046.912
 30
-1830.628
 70
    32
  0
VERTEX
  8
W72RA1RAMP
 62
4
 10
1758.288
 20
-7047.236
 30
-1830.319
 70
    32
  0
VERTEX
  8
W72RA1RAMP
 62
4
 10
1752.629
 20
-7048.546
 30
-1829.074
 70
    32
  0
VERTEX
  8
W72RA1RAMP
 62
4
 10
1748.479
 20
-7049.621
 30
-1828.153
 70
    32
  0
VERTEX
  8
W72RA1RAMP
 62
4
 10
1748.277
 20
-7049.673
 30
-1828.108
 70
    32
  0
VERTEX
  8
W72RA1RAMP
 62
4
 10
1744.099
 20
-7050.755
 30
-1828.683
 70
    32
  0
VERTEX
  8
W72RA1RAMP
 62
4
 10
1740.131
 20
-7051.782
 30
-1829.131
 70
    32
  0
VERTEX
  8
W72RA1RAMP
 62
4
 10
1732.158
 20
-7054.780
 30
-1830.038
 70
    32
  0
VERTEX
  8
W72RA1RAMP
 62
4
 10
1730.086
 20
-7054.782
 30
-1830.268
 70
    32
  0
VERTEX
  8
W72RA1RAMP
 62
4
 10
1725.565
 20
-7054.786
 30
-1831.001
 70
    32
  0
VERTEX
  8
W72RA1RAMP
 62
4
 10
1717.477
 20
-7052.758
 30
-1832.292
 70
    32
  0
VERTEX
  8
W72RA1RAMP
 62
4
 10
1705.712
 20
-7052.836
 30
-1834.200
 70
    32
  0
VERTEX
  8
W72RA1RAMP
 62
4
 10
1705.078
 20
-7061.642
 30
-1835.755
 70
    32
  0
VERTEX
  8
W72RA1RAMP
 62
4
 10
1704.454
 20
-7067.048
 30
-1835.844
 70
    32
  0
VERTEX
  8
W72RA1RAMP
 62
4
 10
1704.389
 20
-7067.610
 30
-1835.838
 70
    32
  0
VERTEX
  8
W72RA1RAMP
 62
4
 10
1705.581
 20
-7071.777
 30
-1835.761
 70
    32
  0
VERTEX
  8
W72RA1RAMP
 62
4
 10
1708.185
 20
-7080.885
 30
-1835.797
 70
    32
  0
VERTEX
  8
W72RA1RAMP
 62
4
 10
1708.986
 20
-7083.687
 30
-1836.384
 70
    32
  0
VERTEX
  8
W72RA1RAMP
 62
4
 10
1710.538
 20
-7089.105
 30
-1837.519
 70
    32
  0
VERTEX
  8
W72RA1RAMP
 62
4
 10
1711.116
 20
-7091.123
 30
-1837.884
 70
    32
  0
VERTEX
  8
W72RA1RAMP
 62
4
 10
1713.732
 20
-7093.884
 30
-1838.531
 70
    32
  0
VERTEX
  8
W72RA1RAMP
 62
4
 10
1720.577
 20
-7101.110
 30
-1838.814
 70
    32
  0
VERTEX
  8
W72RA1RAMP
 62
4
 10
1723.718
 20
-7102.654
 30
-1838.881
 70
    32
  0
VERTEX
  8
W72RA1RAMP
 62
4
 10
1729.403
 20
-7105.448
 30
-1838.942
 70
    32
  0
VERTEX
  8
W72RA1RAMP
 62
4
 10
1731.972
 20
-7106.710
 30
-1838.814
 70
    32
  0
VERTEX
  8
W72RA1RAMP
 62
4
 10
1735.083
 20
-7108.239
 30
-1838.659
 70
    32
  0
VERTEX
  8
W72RA1RAMP
 62
4
 10
1741.874
 20
-7109.453
 30
-1838.352
 70
    32
  0
VERTEX
  8
W72RA1RAMP
 62
4
 10
1745.805
 20
-7108.286
 30
-1838.201
 70
    32
  0
VERTEX
  8
W72RA1RAMP
 62
4
 10
1747.897
 20
-7107.665
 30
-1838.162
 70
    32
  0
VERTEX
  8
W72RA1RAMP
 62
4
 10
1762.404
 20
-7103.357
 30
-1837.861
 70
    32
  0
VERTEX
  8
W72RA1RAMP
 62
4
 10
1761.706
 20
-7113.540
 30
-1837.813
 70
    32
  0
VERTEX
  8
W72RA1RAMP
 62
4
 10
1755.915
 20
-7118.552
 30
-1837.913
 70
    32
  0
VERTEX
  8
W72RA1RAMP
 62
4
 10
1753.813
 20
-7118.981
 30
-1837.958
 70
    32
  0
VERTEX
  8
W72RA1RAMP
 62
4
 10
1752.157
 20
-7120.793
 30
-1837.984
 70
    32
  0
VERTEX
  8
W72RA1RAMP
 62
4
 10
1754.096
 20
-7124.427
 30
-1837.607
 70
    32
  0
VERTEX
  8
W72RA1RAMP
 62
4
 10
1757.295
 20
-7130.421
 30
-1837.522
 70
    32
  0
VERTEX
  8
W72RA1RAMP
 62
4
 10
1760.509
 20
-7134.072
 30
-1837.459
 70
    32
  0
VERTEX
  8
W72RA1RAMP
 62
4
 10
1768.318
 20
-7141.142
 30
-1837.323
 70
    32
  0
VERTEX
  8
W72RA1RAMP
 62
4
 10
1775.105
 20
-7147.287
 30
-1837.229
 70
    32
  0
VERTEX
  8
W72RA1RAMP
 62
4
 10
1790.154
 20
-7151.019
 30
-1837.065
 70
    32
  0
VERTEX
  8
W72RA1RAMP
 62
4
 10
1795.518
 20
-7152.349
 30
-1837.063
 70
    32
  0
VERTEX
  8
W72RA1RAMP
 62
4
 10
1796.119
 20
-7152.221
 30
-1837.063
 70
    32
  0
VERTEX
  8
W72RA1RAMP
 62
4
 10
1799.766
 20
-7151.451
 30
-1837.064
 70
    32
  0
VERTEX
  8
W72RA1RAMP
 62
4
 10
1804.754
 20
-7150.397
 30
-1837.054
 70
    32
  0
VERTEX
  8
W72RA1RAMP
 62
4
 10
1806.178
 20
-7155.962
 30
-1837.055
 70
    32
  0
VERTEX
  8
W72RA1RAMP
 62
4
 10
1807.274
 20
-7160.242
 30
-1837.046
 70
    32
  0
VERTEX
  8
W72RA1RAMP
 62
4
 10
1796.934
 20
-7167.115
 30
-1837.031
 70
    32
  0
VERTEX
  8
W72RA1RAMP
 62
4
 10
1787.976
 20
-7166.685
 30
-1837.033
 70
    32
  0
VERTEX
  8
W72RA1RAMP
 62
4
 10
1786.168
 20
-7165.928
 30
-1837.034
 70
    32
  0
VERTEX
  8
W72RA1RAMP
 62
4
 10
1779.359
 20
-7163.080
 30
-1837.114
 70
    32
  0
VERTEX
  8
W72RA1RAMP
 62
4
 10
1771.401
 20
-7164.415
 30
-1837.184
 70
    32
  0
VERTEX
  8
W72RA1RAMP
 62
4
 10
1761.808
 20
-7151.502
 30
-1837.338
 70
    32
  0
VERTEX
  8
W72RA1RAMP
 62
4
 10
1749.044
 20
-7137.374
 30
-1837.528
 70
    32
  0
VERTEX
  8
W72RA1RAMP
 62
4
 10
1748.597
 20
-7136.879
 30
-1837.536
 70
    32
  0
VERTEX
  8
W72RA1RAMP
 62
4
 10
1744.195
 20
-7133.513
 30
-1837.607
 70
    32
  0
VERTEX
  8
W72RA1RAMP
 62
4
 10
1738.374
 20
-7129.063
 30
-1838.214
 70
    32
  0
VERTEX
  8
W72RA1RAMP
 62
4
 10
1735.305
 20
-7126.717
 30
-1838.379
 70
    32
  0
VERTEX
  8
W72RA1RAMP
 62
4
 10
1731.041
 20
-7123.456
 30
-1838.608
 70
    32
  0
VERTEX
  8
W72RA1RAMP
 62
4
 10
1722.285
 20
-7118.062
 30
-1839.060
 70
    32
  0
VERTEX
  8
W72RA1RAMP
 62
4
 10
1721.708
 20
-7117.794
 30
-1839.089
 70
    32
  0
VERTEX
  8
W72RA1RAMP
 62
4
 10
1713.392
 20
-7113.932
 30
-1839.003
 70
    32
  0
VERTEX
  8
W72RA1RAMP
 62
4
 10
1705.043
 20
-7108.434
 30
-1838.894
 70
    32
  0
VERTEX
  8
W72RA1RAMP
 62
4
 10
1702.905
 20
-7103.184
 30
-1838.811
 70
    32
  0
VERTEX
  8
W72RA1RAMP
 62
4
 10
1702.063
 20
-7101.117
 30
-1838.735
 70
    32
  0
VERTEX
  8
W72RA1RAMP
 62
4
 10
1700.277
 20
-7096.731
 30
-1837.899
 70
    32
  0
VERTEX
  8
W72RA1RAMP
 62
4
 10
1696.513
 20
-7087.901
 30
-1836.202
 70
    32
  0
VERTEX
  8
W72RA1RAMP
 62
4
 10
1695.730
 20
-7086.065
 30
-1835.797
 70
    32
  0
VERTEX
  8
W72RA1RAMP
 62
4
 10
1694.968
 20
-7084.277
 30
-1835.789
 70
    32
  0
VERTEX
  8
W72RA1RAMP
 62
4
 10
1694.273
 20
-7082.647
 30
-1835.824
 70
    32
  0
VERTEX
  8
W72RA1RAMP
 62
4
 10
1694.445
 20
-7068.418
 30
-1836.010
 70
    32
  0
VERTEX
  8
W72RA1RAMP
 62
4
 10
1694.448
 20
-7068.139
 30
-1836.006
 70
    32
  0
VERTEX
  8
W72RA1RAMP
 62
4
 10
1693.124
 20
-7051.031
 30
-1835.771
 70
    32
  0
VERTEX
  8
W72RA1RAMP
 62
4
 10
1693.097
 20
-7050.678
 30
-1835.725
 70
    32
  0
VERTEX
  8
W72RA1RAMP
 62
4
 10
1688.326
 20
-7046.088
 30
-1835.322
 70
    32
  0
VERTEX
  8
W72RA1RAMP
 62
4
 10
1681.996
 20
-7050.858
 30
-1835.122
 70
    32
  0
VERTEX
  8
W72RA1RAMP
 62
4
 10
1656.903
 20
-7069.768
 30
-1839.441
 70
    32
  0
VERTEX
  8
W72RA1RAMP
 62
4
 10
1606.657
 20
-7107.633
 30
-1845.451
 70
    32
  0
VERTEX
  8
W72RA1RAMP
 62
4
 10
1594.889
 20
-7111.059
 30
-1847.242
 70
    32
  0
VERTEX
  8
W72RA1RAMP
 62
4
 10
1583.657
 20
-7110.705
 30
-1849.921
 70
    32
  0
VERTEX
  8
W72RA1RAMP
 62
4
 10
1576.552
 20
-7113.530
 30
-1851.668
 70
    32
  0
VERTEX
  8
W72RA1RAMP
 62
4
 10
1572.310
 20
-7113.161
 30
-1852.377
 70
    32
  0
VERTEX
  8
W72RA1RAMP
 62
4
 10
1559.990
 20
-7099.593
 30
-1856.254
 70
    32
  0
VERTEX
  8
W72RA1RAMP
 62
4
 10
1550.824
 20
-7087.298
 30
-1859.661
 70
    32
  0
VERTEX
  8
W72RA1RAMP
 62
4
 10
1540.471
 20
-7059.024
 30
-1867.879
 70
    32
  0
VERTEX
  8
W72RA1RAMP
 62
4
 10
1539.314
 20
-7046.877
 30
-1870.458
 70
    32
  0
VERTEX
  8
W72RA1RAMP
 62
4
 10
1549.920
 20
-7011.615
 30
-1876.856
 70
    32
  0
VERTEX
  8
W72RA1RAMP
 62
4
 10
1564.993
 20
-6973.680
 30
-1884.563
 70
    32
  0
VERTEX
  8
W72RA1RAMP
 62
4
 10
1566.469
 20
-6963.490
 30
-1886.462
 70
    32
  0
VERTEX
  8
W72RA1RAMP
 62
4
 10
1556.728
 20
-6941.308
 30
-1890.601
 70
    32
  0
VERTEX
  8
W72RA1RAMP
 62
4
 10
1535.640
 20
-6912.066
 30
-1896.230
 70
    32
  0
VERTEX
  8
W72RA1RAMP
 62
4
 10
1523.854
 20
-6895.722
 30
-1895.610
 70
    32
  0
VERTEX
  8
W72RA1RAMP
 62
4
 10
1476.803
 20
-6830.473
 30
-1876.887
 70
    32
  0
VERTEX
  8
W72RA1RAMP
 62
4
 10
1466.297
 20
-6832.997
 30
-1875.703
 70
    32
  0
VERTEX
  8
W72RA1RAMP
 62
4
 10
1458.675
 20
-6821.362
 30
-1872.353
 70
    32
  0
VERTEX
  8
W72RA1RAMP
 62
4
 10
1463.501
 20
-6812.364
 30
-1871.448
 70
    32
  0
VERTEX
  8
W72RA1RAMP
 62
4
 10
1404.395
 20
-6728.457
 30
-1847.010
 70
    32
  0
VERTEX
  8
W72RA1RAMP
 62
4
 10
1402.278
 20
-6725.452
 30
-1846.453
 70
    32
  0
VERTEX
  8
W72RA1RAMP
 62
4
 10
1399.627
 20
-6724.719
 30
-1846.127
 70
    32
  0
VERTEX
  8
W72RA1RAMP
 62
4
 10
1390.234
 20
-6717.882
 30
-1844.319
 70
    32
  0
VERTEX
  8
W72RA1RAMP
 62
4
 10
1388.059
 20
-6713.092
 30
-1843.478
 70
    32
  0
VERTEX
  8
W72RA1RAMP
 62
4
 10
1388.540
 20
-6706.550
 30
-1842.812
 70
    32
  0
VERTEX
  8
W72RA1RAMP
 62
4
 10
1339.649
 20
-6638.796
 30
-1828.171
 70
    32
  0
VERTEX
  8
W72RA1RAMP
 62
4
 10
1336.110
 20
-6639.476
 30
-1827.667
 70
    32
  0
VERTEX
  8
W72RA1RAMP
 62
4
 10
1328.115
 20
-6628.435
 30
-1825.127
 70
    32
  0
VERTEX
  8
W72RA1RAMP
 62
4
 10
1324.520
 20
-6621.613
 30
-1823.763
 70
    32
  0
VERTEX
  8
W72RA1RAMP
 62
4
 10
1321.061
 20
-6610.770
 30
-1820.959
 70
    32
  0
VERTEX
  8
W72RA1RAMP
 62
4
 10
1320.608
 20
-6609.352
 30
-1820.840
 70
    32
  0
VERTEX
  8
W72RA1RAMP
 62
4
 10
1319.667
 20
-6607.000
 30
-1820.639
 70
    32
  0
VERTEX
  8
W72RA1RAMP
 62
4
 10
1316.979
 20
-6600.279
 30
-1820.115
 70
    32
  0
VERTEX
  8
W72RA1RAMP
 62
4
 10
1316.416
 20
-6595.922
 30
-1819.788
 70
    32
  0
VERTEX
  8
W72RA1RAMP
 62
4
 10
1316.015
 20
-6592.821
 30
-1819.447
 70
    32
  0
VERTEX
  8
W72RA1RAMP
 62
4
 10
1314.192
 20
-6578.709
 30
-1818.290
 70
    32
  0
VERTEX
  8
W72RA1RAMP
 62
4
 10
1313.902
 20
-6576.462
 30
-1818.108
 70
    32
  0
VERTEX
  8
W72RA1RAMP
 62
4
 10
1316.633
 20
-6565.456
 30
-1817.203
 70
    32
  0
VERTEX
  8
W72RA1RAMP
 62
4
 10
1317.267
 20
-6562.899
 30
-1816.903
 70
    32
  0
VERTEX
  8
W72RA1RAMP
 62
4
 10
1317.353
 20
-6562.555
 30
-1816.882
 70
    32
  0
VERTEX
  8
W72RA1RAMP
 62
4
 10
1327.113
 20
-6557.146
 30
-1816.438
 70
    32
  0
VERTEX
  8
W72RA1RAMP
 62
4
 10
1330.243
 20
-6555.411
 30
-1816.257
 70
    32
  0
VERTEX
  8
W72RA1RAMP
 62
4
 10
1328.927
 20
-6559.292
 30
-1816.539
 70
    32
  0
VERTEX
  8
W72RA1RAMP
 62
4
 10
1326.874
 20
-6565.341
 30
-1816.919
 70
    32
  0
VERTEX
  8
W72RA1RAMP
 62
4
 10
1325.255
 20
-6570.114
 30
-1817.490
 70
    32
  0
VERTEX
  8
W72RA1RAMP
 62
4
 10
1325.603
 20
-6572.686
 30
-1817.765
 70
    32
  0
VERTEX
  8
W72RA1RAMP
 62
4
 10
1326.474
 20
-6579.111
 30
-1818.286
 70
    32
  0
VERTEX
  8
W72RA1RAMP
 62
4
 10
1327.190
 20
-6584.394
 30
-1818.719
 70
    32
  0
VERTEX
  8
W72RA1RAMP
 62
4
 10
1328.495
 20
-6594.019
 30
-1819.781
 70
    32
  0
VERTEX
  8
W72RA1RAMP
 62
4
 10
1329.112
 20
-6598.568
 30
-1820.122
 70
    32
  0
VERTEX
  8
W72RA1RAMP
 62
4
 10
1329.358
 20
-6600.385
 30
-1820.270
 70
    32
  0
VERTEX
  8
W72RA1RAMP
 62
4
 10
1329.823
 20
-6607.730
 30
-1820.858
 70
    32
  0
VERTEX
  8
W72RA1RAMP
 62
4
 10
1330.627
 20
-6608.846
 30
-1820.959
 70
    32
  0
VERTEX
  8
W72RA1RAMP
 62
4
 10
1355.827
 20
-6643.854
 30
-1830.464
 70
    32
  0
VERTEX
  8
W72RA1RAMP
 62
4
 10
1373.432
 20
-6668.861
 30
-1835.553
 70
    32
  0
VERTEX
  8
W72RA1RAMP
 62
4
 10
1412.002
 20
-6722.930
 30
-1846.086
 70
    32
  0
VERTEX
  8
W72RA1RAMP
 62
4
 10
1518.388
 20
-6872.063
 30
-1890.031
 70
    32
  0
VERTEX
  8
W72RA1RAMP
 62
4
 10
1535.562
 20
-6882.753
 30
-1894.686
 70
    32
  0
VERTEX
  8
W72RA1RAMP
 62
4
 10
1551.179
 20
-6892.839
 30
-1893.520
 70
    32
  0
VERTEX
  8
W72RA1RAMP
 62
4
 10
1562.086
 20
-6895.275
 30
-1891.891
 70
    32
  0
VERTEX
  8
W72RA1RAMP
 62
4
 10
1582.299
 20
-6889.518
 30
-1888.903
 70
    32
  0
VERTEX
  8
W72RA1RAMP
 62
4
 10
1587.596
 20
-6885.725
 30
-1888.045
 70
    32
  0
VERTEX
  8
W72RA1RAMP
 62
4
 10
1597.186
 20
-6876.887
 30
-1893.073
 70
    32
  0
VERTEX
  8
W72RA1RAMP
 62
4
 10
1599.061
 20
-6868.353
 30
-1896.016
 70
    32
  0
VERTEX
  8
W72RA1RAMP
 62
4
 10
1600.267
 20
-6854.658
 30
-1897.599
 70
    32
  0
VERTEX
  8
W72RA1RAMP
 62
4
 10
1561.304
 20
-6763.321
 30
-1914.056
 70
    32
  0
VERTEX
  8
W72RA1RAMP
 62
4
 10
1501.652
 20
-6623.938
 30
-1941.930
 70
    32
  0
VERTEX
  8
W72RA1RAMP
 62
4
 10
1498.978
 20
-6610.538
 30
-1944.575
 70
    32
  0
VERTEX
  8
W72RA1RAMP
 62
4
 10
1501.126
 20
-6585.337
 30
-1948.765
 70
    32
  0
VERTEX
  8
W72RA1RAMP
 62
4
 10
1512.558
 20
-6572.002
 30
-1951.814
 70
    32
  0
VERTEX
  8
W72RA1RAMP
 62
4
 10
1540.918
 20
-6552.170
 30
-1958.023
 70
    32
  0
VERTEX
  8
W72RA1RAMP
 62
4
 10
1541.877
 20
-6550.110
 30
-1958.362
 70
    32
  0
VERTEX
  8
W72RA1RAMP
 62
4
 10
1539.902
 20
-6547.994
 30
-1958.192
 70
    32
  0
VERTEX
  8
W72RA1RAMP
 62
4
 10
1513.386
 20
-6534.306
 30
-1954.101
 70
    32
  0
VERTEX
  8
W72RA1RAMP
 62
4
 10
1494.855
 20
-6520.719
 30
-1947.934
 70
    32
  0
VERTEX
  8
W72RA1RAMP
 62
4
 10
1482.373
 20
-6500.450
 30
-1942.692
 70
    32
  0
VERTEX
  8
W72RA1RAMP
 62
4
 10
1479.648
 20
-6485.601
 30
-1939.170
 70
    32
  0
VERTEX
  8
W72RA1RAMP
 62
4
 10
1484.920
 20
-6481.549
 30
-1938.096
 70
    32
  0
VERTEX
  8
W72RA1RAMP
 62
4
 10
1488.043
 20
-6469.392
 30
-1935.408
 70
    32
  0
VERTEX
  8
W72RA1RAMP
 62
4
 10
1499.448
 20
-6455.891
 30
-1931.939
 70
    32
  0
VERTEX
  8
W72RA1RAMP
 62
4
 10
1524.018
 20
-6433.158
 30
-1924.233
 70
    32
  0
VERTEX
  8
W72RA1RAMP
 62
4
 10
1518.881
 20
-6425.125
 30
-1924.939
 70
    32
  0
VERTEX
  8
W72RA1RAMP
 62
4
 10
1530.458
 20
-6416.037
 30
-1922.956
 70
    32
  0
VERTEX
  8
W72RA1RAMP
 62
4
 10
1538.948
 20
-6419.861
 30
-1921.881
 70
    32
  0
VERTEX
  8
W72RA1RAMP
 62
4
 10
1540.921
 20
-6418.103
 30
-1921.632
 70
    32
  0
VERTEX
  8
W72RA1RAMP
 62
4
 10
1545.281
 20
-6422.374
 30
-1920.963
 70
    32
  0
VERTEX
  8
W72RA1RAMP
 62
4
 10
1583.475
 20
-6398.882
 30
-1913.738
 70
    32
  0
VERTEX
  8
W72RA1RAMP
 62
4
 10
1586.888
 20
-6395.400
 30
-1913.102
 70
    32
  0
VERTEX
  8
W72RA1RAMP
 62
4
 10
1589.294
 20
-6392.944
 30
-1913.916
 70
    32
  0
VERTEX
  8
W72RA1RAMP
 62
4
 10
1582.196
 20
-6344.830
 30
-1920.366
 70
    32
  0
SEQEND
  8
W72RA1RAMP
  0
POLYLINE
  8
W72RA1RAMP
 62
4
 66
     1
 70
     8
  0
VERTEX
  8
W72RA1RAMP
 62
4
 10
1603.272
 20
-6399.984
 30
-1915.101
 70
    32
  0
VERTEX
  8
W72RA1RAMP
 62
4
 10
1594.275
 20
-6405.299
 30
-1912.873
 70
    32
  0
VERTEX
  8
W72RA1RAMP
 62
4
 10
1557.757
 20
-6426.871
 30
-1919.159
 70
    32
  0
VERTEX
  8
W72RA1RAMP
 62
4
 10
1556.042
 20
-6430.736
 30
-1919.342
 70
    32
  0
VERTEX
  8
W72RA1RAMP
 62
4
 10
1619.996
 20
-6449.006
 30
-1909.277
 70
    32
  0
VERTEX
  8
W72RA1RAMP
 62
4
 10
1631.315
 20
-6448.142
 30
-1907.627
 70
    32
  0
VERTEX
  8
W72RA1RAMP
 62
4
 10
1631.621
 20
-6448.063
 30
-1909.277
 70
    32
  0
VERTEX
  8
W72RA1RAMP
 62
4
 10
1633.204
 20
-6447.651
 30
-1908.831
 70
    32
  0
VERTEX
  8
W72RA1RAMP
 62
4
 10
1635.373
 20
-6447.088
 30
-1908.405
 70
    32
  0
VERTEX
  8
W72RA1RAMP
 62
4
 10
1662.711
 20
-6439.981
 30
-1903.037
 70
    32
  0
VERTEX
  8
W72RA1RAMP
 62
4
 10
1668.274
 20
-6440.273
 30
-1902.049
 70
    32
  0
VERTEX
  8
W72RA1RAMP
 62
4
 10
1671.882
 20
-6444.649
 30
-1901.432
 70
    32
  0
VERTEX
  8
W72RA1RAMP
 62
4
 10
1675.267
 20
-6448.755
 30
-1900.852
 70
    32
  0
VERTEX
  8
W72RA1RAMP
 62
4
 10
1675.267
 20
-6448.755
 30
-1900.852
 70
    32
  0
SEQEND
  8
W72RA1RAMP
  0
POLYLINE
  8
W72RA1RAMP
 62
4
 66
     1
 70
     8
  0
VERTEX
  8
W72RA1RAMP
 62
4
 10
1477.969
 20
-6131.262
 30
-1920.000
 70
    32
  0
VERTEX
  8
W72RA1RAMP
 62
4
 10
1479.941
 20
-6135.766
 30
-1920.000
 70
    32
  0
VERTEX
  8
W72RA1RAMP
 62
4
 10
1495.654
 20
-6145.184
 30
-1920.000
 70
    32
  0
VERTEX
  8
W72RA1RAMP
 62
4
 10
1497.461
 20
-6148.739
 30
-1920.000
 70
    32
  0
VERTEX
  8
W72RA1RAMP
 62
4
 10
1517.359
 20
-6182.156
 30
-1920.000
 70
    32
  0
VERTEX
  8
W72RA1RAMP
 62
4
 10
1584.921
 20
-6324.413
 30
-1920.000
 70
    32
  0
SEQEND
  8
W72RA1RAMP
  0
POLYLINE
  8
W72RA1RAMP
 62
4
 66
     1
 70
     8
  0
VERTEX
  8
W72RA1RAMP
 62
4
 10
1582.196
 20
-6344.829
 30
-1920.000
 70
    32
  0
VERTEX
  8
W72RA1RAMP
 62
4
 10
1513.930
 20
-6198.516
 30
-1920.000
 70
    32
  0
VERTEX
  8
W72RA1RAMP
 62
4
 10
1504.368
 20
-6181.284
 30
-1920.000
 70
    32
  0
VERTEX
  8
W72RA1RAMP
 62
4
 10
1489.445
 20
-6156.229
 30
-1920.000
 70
    32
  0
VERTEX
  8
W72RA1RAMP
 62
4
 10
1484.364
 20
-6150.362
 30
-1920.000
 70
    32
  0
VERTEX
  8
W72RA1RAMP
 62
4
 10
1454.938
 20
-6144.512
 30
-1920.000
 70
    32
  0
VERTEX
  8
W72RA1RAMP
 62
4
 10
1454.600
 20
-6144.570
 30
-1920.000
 70
    32
  0
SEQEND
  8
W72RA1RAMP
  0
POLYLINE
  8
W72RA1RAMP
 62
4
 66
     1
 70
     8
  0
VERTEX
  8
W72RA1RAMP
 62
4
 10
1603.272
 20
-6399.984
 30
-1915.101
 70
    32
  0
VERTEX
  8
W72RA1RAMP
 62
4
 10
1621.851
 20
-6383.884
 30
-1917.784
 70
    32
  0
VERTEX
  8
W72RA1RAMP
 62
4
 10
1639.065
 20
-6362.825
 30
-1920.712
 70
    32
  0
VERTEX
  8
W72RA1RAMP
 62
4
 10
1662.759
 20
-6318.370
 30
-1920.712
 70
    32
  0
VERTEX
  8
W72RA1RAMP
 62
4
 10
1674.085
 20
-6304.937
 30
-1920.712
 70
    32
  0
VERTEX
  8
W72RA1RAMP
 62
4
 10
1679.195
 20
-6297.022
 30
-1920.712
 70
    32
  0
VERTEX
  8
W72RA1RAMP
 62
4
 10
1666.921
 20
-6294.389
 30
-1920.712
 70
    32
  0
VERTEX
  8
W72RA1RAMP
 62
4
 10
1652.035
 20
-6313.992
 30
-1920.712
 70
    32
  0
VERTEX
  8
W72RA1RAMP
 62
4
 10
1633.044
 20
-6349.088
 30
-1920.712
 70
    32
  0
VERTEX
  8
W72RA1RAMP
 62
4
 10
1625.259
 20
-6359.598
 30
-1920.712
 70
    32
  0
VERTEX
  8
W72RA1RAMP
 62
4
 10
1609.231
 20
-6381.564
 30
-1920.115
 70
    32
  0
VERTEX
  8
W72RA1RAMP
 62
4
 10
1603.984
 20
-6377.525
 30
-1919.680
 70
    32
  0
VERTEX
  8
W72RA1RAMP
 62
4
 10
1607.808
 20
-6353.097
 30
-1915.463
 70
    32
  0
VERTEX
  8
W72RA1RAMP
 62
4
 10
1606.136
 20
-6340.066
 30
-1914.025
 70
    32
  0
VERTEX
  8
W72RA1RAMP
 62
4
 10
1602.470
 20
-6334.900
 30
-1914.569
 70
    32
  0
VERTEX
  8
W72RA1RAMP
 62
4
 10
1594.521
 20
-6326.243
 30
-1915.546
 70
    32
  0
VERTEX
  8
W72RA1RAMP
 62
4
 10
1584.921
 20
-6324.413
 30
-1920.000
 70
    32
  0
SEQEND
  8
W72RA1RAMP
  0
ENDSEC
  0
EOF
