999
********************************
999
*   DXF File - Entities Only   *
999
*        3D Data Format        *
999
*     Output from ENVISAGE     *
999
*     28-Dec-2007 13:37:32     *
999
********************************
  0
SECTION 
  2
HEADER
  9
$ACADVER
  1
AC1009
  9
$EXTMIN
 10
-290000.000
 20
-250000.000
 30
-4000.000
  9
$EXTMAX
 10
5000000.000
 20
600000.000
 30
6000.000
  0
ENDSEC
  0
SECTION
  2
ENTITIES
  0
POLYLINE
  8
W72RB2RAMP
 62
2
 66
     1
 70
     9
  0
VERTEX
  8
W72RB2RAMP
 62
2
 10
2103.254
 20
-8298.573
 30
-1953.428
 70
    32
  0
VERTEX
  8
W72RB2RAMP
 62
2
 10
2122.326
 20
-8305.810
 30
-1948.172
 70
    32
  0
VERTEX
  8
W72RB2RAMP
 62
2
 10
2129.227
 20
-8308.602
 30
-1946.242
 70
    32
  0
VERTEX
  8
W72RB2RAMP
 62
2
 10
2133.489
 20
-8310.326
 30
-1946.838
 70
    32
  0
VERTEX
  8
W72RB2RAMP
 62
2
 10
2142.967
 20
-8312.683
 30
-1944.977
 70
    32
  0
VERTEX
  8
W72RB2RAMP
 62
2
 10
2158.109
 20
-8316.070
 30
-1941.234
 70
    32
  0
VERTEX
  8
W72RB2RAMP
 62
2
 10
2161.523
 20
-8304.279
 30
-1941.228
 70
    32
  0
VERTEX
  8
W72RB2RAMP
 62
2
 10
2141.080
 20
-8301.791
 30
-1945.982
 70
    32
  0
VERTEX
  8
W72RB2RAMP
 62
2
 10
2136.764
 20
-8299.865
 30
-1947.055
 70
    32
  0
VERTEX
  8
W72RB2RAMP
 62
2
 10
2132.597
 20
-8298.006
 30
-1946.570
 70
    32
  0
VERTEX
  8
W72RB2RAMP
 62
2
 10
2106.106
 20
-8286.187
 30
-1954.267
 70
    32
  0
VERTEX
  8
W72RB2RAMP
 62
2
 10
2105.263
 20
-8289.848
 30
-1953.818
 70
    32
  0
VERTEX
  8
W72RB2RAMP
 62
2
 10
2103.254
 20
-8298.573
 30
-1953.428
 70
    32
  0
SEQEND
  8
W72RB2RAMP
  0
POLYLINE
  8
W72RB2RAMP
 62
2
 66
     1
 70
     9
  0
VERTEX
  8
W72RB2RAMP
 62
2
 10
2118.090
 20
-8068.417
 30
-1845.000
 70
    32
  0
VERTEX
  8
W72RB2RAMP
 62
2
 10
2114.875
 20
-8073.953
 30
-1845.000
 70
    32
  0
VERTEX
  8
W72RB2RAMP
 62
2
 10
2116.981
 20
-8089.761
 30
-1845.000
 70
    32
  0
VERTEX
  8
W72RB2RAMP
 62
2
 10
2129.606
 20
-8085.690
 30
-1845.000
 70
    32
  0
VERTEX
  8
W72RB2RAMP
 62
2
 10
2136.642
 20
-8084.457
 30
-1845.000
 70
    32
  0
VERTEX
  8
W72RB2RAMP
 62
2
 10
2133.286
 20
-8072.628
 30
-1845.000
 70
    32
  0
VERTEX
  8
W72RB2RAMP
 62
2
 10
2125.455
 20
-8066.213
 30
-1845.000
 70
    32
  0
SEQEND
  8
W72RB2RAMP
  0
POLYLINE
  8
W72RB2RAMP
 62
2
 66
     1
 70
     9
  0
VERTEX
  8
W72RB2RAMP
 62
2
 10
2121.079
 20
-8073.694
 30
-1844.000
 70
    32
  0
VERTEX
  8
W72RB2RAMP
 62
2
 10
2122.281
 20
-8071.688
 30
-1844.000
 70
    32
  0
VERTEX
  8
W72RB2RAMP
 62
2
 10
2125.049
 20
-8070.917
 30
-1844.000
 70
    32
  0
VERTEX
  8
W72RB2RAMP
 62
2
 10
2127.852
 20
-8073.229
 30
-1844.000
 70
    32
  0
VERTEX
  8
W72RB2RAMP
 62
2
 10
2128.628
 20
-8077.247
 30
-1844.000
 70
    32
  0
VERTEX
  8
W72RB2RAMP
 62
2
 10
2121.829
 20
-8079.267
 30
-1844.000
 70
    32
  0
SEQEND
  8
W72RB2RAMP
  0
POLYLINE
  8
W72RB2RAMP
 62
2
 66
     1
 70
     8
  0
VERTEX
  8
W72RB2RAMP
 62
2
 10
2119.310
 20
-8065.142
 30
-1852.000
 70
    32
  0
VERTEX
  8
W72RB2RAMP
 62
2
 10
2125.699
 20
-8062.035
 30
-1852.000
 70
    32
  0
VERTEX
  8
W72RB2RAMP
 62
2
 10
2133.783
 20
-8064.072
 30
-1852.000
 70
    32
  0
SEQEND
  8
W72RB2RAMP
  0
TEXT
  8
W72RB2RAMP
 62
2
 10
2151.852
 20
-8082.876
 30
-1859.660
 40
2.362
  1
72B2
 41
 1.0 
  0
POLYLINE
  8
W72RB2RAMP
 62
2
 66
     1
 70
     9
  0
VERTEX
  8
W72RB2RAMP
 62
2
 10
2173.066
 20
-8358.825
 30
-1939.405
 70
    32
  0
VERTEX
  8
W72RB2RAMP
 62
2
 10
2172.777
 20
-8375.480
 30
-1936.957
 70
    32
  0
VERTEX
  8
W72RB2RAMP
 62
2
 10
2175.513
 20
-8379.403
 30
-1936.306
 70
    32
  0
VERTEX
  8
W72RB2RAMP
 62
2
 10
2180.276
 20
-8393.960
 30
-1934.410
 70
    32
  0
VERTEX
  8
W72RB2RAMP
 62
2
 10
2181.898
 20
-8398.917
 30
-1933.694
 70
    32
  0
VERTEX
  8
W72RB2RAMP
 62
2
 10
2185.753
 20
-8400.980
 30
-1933.273
 70
    32
  0
VERTEX
  8
W72RB2RAMP
 62
2
 10
2190.536
 20
-8408.701
 30
-1932.188
 70
    32
  0
VERTEX
  8
W72RB2RAMP
 62
2
 10
2195.589
 20
-8412.352
 30
-1930.990
 70
    32
  0
VERTEX
  8
W72RB2RAMP
 62
2
 10
2197.901
 20
-8415.770
 30
-1930.203
 70
    32
  0
VERTEX
  8
W72RB2RAMP
 62
2
 10
2201.351
 20
-8417.124
 30
-1929.273
 70
    32
  0
VERTEX
  8
W72RB2RAMP
 62
2
 10
2201.476
 20
-8417.173
 30
-1929.233
 70
    32
  0
VERTEX
  8
W72RB2RAMP
 62
2
 10
2207.824
 20
-8422.129
 30
-1927.415
 70
    32
  0
VERTEX
  8
W72RB2RAMP
 62
2
 10
2215.448
 20
-8424.414
 30
-1925.844
 70
    32
  0
VERTEX
  8
W72RB2RAMP
 62
2
 10
2218.535
 20
-8425.339
 30
-1924.793
 70
    32
  0
VERTEX
  8
W72RB2RAMP
 62
2
 10
2231.704
 20
-8427.180
 30
-1922.161
 70
    32
  0
VERTEX
  8
W72RB2RAMP
 62
2
 10
2239.789
 20
-8427.804
 30
-1920.303
 70
    32
  0
VERTEX
  8
W72RB2RAMP
 62
2
 10
2247.839
 20
-8425.811
 30
-1919.086
 70
    32
  0
VERTEX
  8
W72RB2RAMP
 62
2
 10
2252.092
 20
-8424.758
 30
-1918.321
 70
    32
  0
VERTEX
  8
W72RB2RAMP
 62
2
 10
2254.166
 20
-8422.547
 30
-1917.801
 70
    32
  0
VERTEX
  8
W72RB2RAMP
 62
2
 10
2255.952
 20
-8422.186
 30
-1917.487
 70
    32
  0
VERTEX
  8
W72RB2RAMP
 62
2
 10
2263.861
 20
-8422.434
 30
-1917.275
 70
    32
  0
VERTEX
  8
W72RB2RAMP
 62
2
 10
2270.207
 20
-8410.511
 30
-1915.654
 70
    32
  0
VERTEX
  8
W72RB2RAMP
 62
2
 10
2276.114
 20
-8401.740
 30
-1914.423
 70
    32
  0
VERTEX
  8
W72RB2RAMP
 62
2
 10
2283.508
 20
-8386.099
 30
-1912.325
 70
    32
  0
VERTEX
  8
W72RB2RAMP
 62
2
 10
2286.524
 20
-8378.868
 30
-1911.261
 70
    32
  0
VERTEX
  8
W72RB2RAMP
 62
2
 10
2290.823
 20
-8368.564
 30
-1910.102
 70
    32
  0
VERTEX
  8
W72RB2RAMP
 62
2
 10
2297.081
 20
-8360.733
 30
-1909.509
 70
    32
  0
VERTEX
  8
W72RB2RAMP
 62
2
 10
2297.081
 20
-8360.733
 30
-1909.509
 70
    32
  0
VERTEX
  8
W72RB2RAMP
 62
2
 10
2298.242
 20
-8343.559
 30
-1908.496
 70
    32
  0
VERTEX
  8
W72RB2RAMP
 62
2
 10
2295.247
 20
-8325.022
 30
-1907.416
 70
    32
  0
VERTEX
  8
W72RB2RAMP
 62
2
 10
2294.456
 20
-8320.129
 30
-1908.242
 70
    32
  0
VERTEX
  8
W72RB2RAMP
 62
2
 10
2291.778
 20
-8308.200
 30
-1910.248
 70
    32
  0
VERTEX
  8
W72RB2RAMP
 62
2
 10
2278.712
 20
-8310.786
 30
-1910.157
 70
    32
  0
VERTEX
  8
W72RB2RAMP
 62
2
 10
2280.813
 20
-8320.987
 30
-1908.508
 70
    32
  0
VERTEX
  8
W72RB2RAMP
 62
2
 10
2282.766
 20
-8330.466
 30
-1907.804
 70
    32
  0
VERTEX
  8
W72RB2RAMP
 62
2
 10
2285.191
 20
-8354.275
 30
-1909.150
 70
    32
  0
VERTEX
  8
W72RB2RAMP
 62
2
 10
2285.191
 20
-8354.275
 30
-1909.150
 70
    32
  0
VERTEX
  8
W72RB2RAMP
 62
2
 10
2281.634
 20
-8360.492
 30
-1909.496
 70
    32
  0
VERTEX
  8
W72RB2RAMP
 62
2
 10
2277.183
 20
-8369.051
 30
-1910.272
 70
    32
  0
VERTEX
  8
W72RB2RAMP
 62
2
 10
2273.350
 20
-8379.970
 30
-1911.854
 70
    32
  0
VERTEX
  8
W72RB2RAMP
 62
2
 10
2271.990
 20
-8383.174
 30
-1912.326
 70
    32
  0
VERTEX
  8
W72RB2RAMP
 62
2
 10
2267.835
 20
-8392.964
 30
-1913.625
 70
    32
  0
VERTEX
  8
W72RB2RAMP
 62
2
 10
2261.865
 20
-8401.800
 30
-1914.865
 70
    32
  0
VERTEX
  8
W72RB2RAMP
 62
2
 10
2256.797
 20
-8406.114
 30
-1915.964
 70
    32
  0
VERTEX
  8
W72RB2RAMP
 62
2
 10
2243.755
 20
-8413.900
 30
-1918.704
 70
    32
  0
VERTEX
  8
W72RB2RAMP
 62
2
 10
2243.467
 20
-8413.886
 30
-1918.748
 70
    32
  0
VERTEX
  8
W72RB2RAMP
 62
2
 10
2241.278
 20
-8413.781
 30
-1919.086
 70
    32
  0
VERTEX
  8
W72RB2RAMP
 62
2
 10
2233.528
 20
-8413.411
 30
-1921.841
 70
    32
  0
VERTEX
  8
W72RB2RAMP
 62
2
 10
2226.295
 20
-8413.065
 30
-1923.690
 70
    32
  0
VERTEX
  8
W72RB2RAMP
 62
2
 10
2217.315
 20
-8409.899
 30
-1926.412
 70
    32
  0
VERTEX
  8
W72RB2RAMP
 62
2
 10
2208.558
 20
-8406.150
 30
-1929.259
 70
    32
  0
VERTEX
  8
W72RB2RAMP
 62
2
 10
2201.334
 20
-8400.226
 30
-1931.857
 70
    32
  0
VERTEX
  8
W72RB2RAMP
 62
2
 10
2194.264
 20
-8393.607
 30
-1933.322
 70
    32
  0
VERTEX
  8
W72RB2RAMP
 62
2
 10
2189.045
 20
-8385.170
 30
-1934.842
 70
    32
  0
VERTEX
  8
W72RB2RAMP
 62
2
 10
2186.695
 20
-8379.222
 30
-1936.002
 70
    32
  0
VERTEX
  8
W72RB2RAMP
 62
2
 10
2184.990
 20
-8374.905
 30
-1936.679
 70
    32
  0
VERTEX
  8
W72RB2RAMP
 62
2
 10
2185.000
 20
-8360.762
 30
-1937.700
 70
    32
  0
VERTEX
  8
W72RB2RAMP
 62
2
 10
2173.066
 20
-8358.825
 30
-1937.700
 70
    32
  0
VERTEX
  8
W72RB2RAMP
 62
2
 10
2173.066
 20
-8358.825
 30
-1939.405
 70
    32
  0
VERTEX
  8
W72RB2RAMP
 62
2
 10
2173.066
 20
-8358.825
 30
-1939.405
 70
    32
  0
SEQEND
  8
W72RB2RAMP
  0
POLYLINE
  8
W72RB2RAMP
 62
2
 66
     1
 70
     8
  0
VERTEX
  8
W72RB2RAMP
 62
2
 10
2252.926
 20
-7996.404
 30
-1859.055
 70
    32
  0
VERTEX
  8
W72RB2RAMP
 62
2
 10
2242.157
 20
-8000.507
 30
-1860.003
 70
    32
  0
VERTEX
  8
W72RB2RAMP
 62
2
 10
2240.311
 20
-8000.934
 30
-1859.567
 70
    32
  0
VERTEX
  8
W72RB2RAMP
 62
2
 10
2237.129
 20
-8001.672
 30
-1857.013
 70
    32
  0
VERTEX
  8
W72RB2RAMP
 62
2
 10
2236.913
 20
-8001.722
 30
-1857.115
 70
    32
  0
VERTEX
  8
W72RB2RAMP
 62
2
 10
2235.433
 20
-8004.291
 30
-1858.116
 70
    32
  0
VERTEX
  8
W72RB2RAMP
 62
2
 10
2233.413
 20
-8004.817
 30
-1859.077
 70
    32
  0
VERTEX
  8
W72RB2RAMP
 62
2
 10
2218.979
 20
-8008.577
 30
-1865.341
 70
    32
  0
VERTEX
  8
W72RB2RAMP
 62
2
 10
2212.004
 20
-8008.956
 30
-1868.243
 70
    32
  0
VERTEX
  8
W72RB2RAMP
 62
2
 10
2207.192
 20
-8009.218
 30
-1868.429
 70
    32
  0
VERTEX
  8
W72RB2RAMP
 62
2
 10
2206.765
 20
-8009.829
 30
-1868.447
 70
    32
  0
VERTEX
  8
W72RB2RAMP
 62
2
 10
2206.166
 20
-8010.687
 30
-1868.484
 70
    32
  0
VERTEX
  8
W72RB2RAMP
 62
2
 10
2199.846
 20
-8009.393
 30
-1868.750
 70
    32
  0
VERTEX
  8
W72RB2RAMP
 62
2
 10
2197.169
 20
-8015.774
 30
-1868.942
 70
    32
  0
VERTEX
  8
W72RB2RAMP
 62
2
 10
2198.926
 20
-8017.599
 30
-1868.885
 70
    32
  0
VERTEX
  8
W72RB2RAMP
 62
2
 10
2199.169
 20
-8017.850
 30
-1867.127
 70
    32
  0
VERTEX
  8
W72RB2RAMP
 62
2
 10
2200.863
 20
-8019.610
 30
-1868.410
 70
    32
  0
VERTEX
  8
W72RB2RAMP
 62
2
 10
2200.618
 20
-8021.635
 30
-1868.305
 70
    32
  0
VERTEX
  8
W72RB2RAMP
 62
2
 10
2203.679
 20
-8025.471
 30
-1868.049
 70
    32
  0
VERTEX
  8
W72RB2RAMP
 62
2
 10
2212.367
 20
-8029.125
 30
-1866.639
 70
    32
  0
VERTEX
  8
W72RB2RAMP
 62
2
 10
2219.084
 20
-8030.535
 30
-1867.000
 70
    32
  0
VERTEX
  8
W72RB2RAMP
 62
2
 10
2235.470
 20
-8035.301
 30
-1860.000
 70
    32
  0
VERTEX
  8
W72RB2RAMP
 62
2
 10
2247.009
 20
-8039.876
 30
-1853.001
 70
    32
  0
VERTEX
  8
W72RB2RAMP
 62
2
 10
2261.071
 20
-8038.322
 30
-1847.738
 70
    32
  0
VERTEX
  8
W72RB2RAMP
 62
2
 10
2264.607
 20
-8034.820
 30
-1847.396
 70
    32
  0
VERTEX
  8
W72RB2RAMP
 62
2
 10
2264.942
 20
-8016.512
 30
-1845.701
 70
    32
  0
VERTEX
  8
W72RB2RAMP
 62
2
 10
2264.190
 20
-8000.284
 30
-1844.205
 70
    32
  0
VERTEX
  8
W72RB2RAMP
 62
2
 10
2276.198
 20
-8002.065
 30
-1844.306
 70
    32
  0
VERTEX
  8
W72RB2RAMP
 62
2
 10
2275.497
 20
-8030.775
 30
-1846.964
 70
    32
  0
VERTEX
  8
W72RB2RAMP
 62
2
 10
2274.468
 20
-8053.087
 30
-1846.533
 70
    32
  0
VERTEX
  8
W72RB2RAMP
 62
2
 10
2275.818
 20
-8053.483
 30
-1846.500
 70
    32
  0
VERTEX
  8
W72RB2RAMP
 62
2
 10
2276.711
 20
-8060.798
 30
-1846.500
 70
    32
  0
VERTEX
  8
W72RB2RAMP
 62
2
 10
2273.804
 20
-8068.371
 30
-1847.000
 70
    32
  0
VERTEX
  8
W72RB2RAMP
 62
2
 10
2260.964
 20
-8070.538
 30
-1847.000
 70
    32
  0
VERTEX
  8
W72RB2RAMP
 62
2
 10
2252.208
 20
-8053.520
 30
-1851.000
 70
    32
  0
VERTEX
  8
W72RB2RAMP
 62
2
 10
2233.231
 20
-8046.616
 30
-1860.000
 70
    32
  0
VERTEX
  8
W72RB2RAMP
 62
2
 10
2220.062
 20
-8043.927
 30
-1867.000
 70
    32
  0
VERTEX
  8
W72RB2RAMP
 62
2
 10
2218.335
 20
-8043.521
 30
-1865.218
 70
    32
  0
VERTEX
  8
W72RB2RAMP
 62
2
 10
2213.952
 20
-8046.485
 30
-1864.657
 70
    32
  0
VERTEX
  8
W72RB2RAMP
 62
2
 10
2211.648
 20
-8050.307
 30
-1863.863
 70
    32
  0
VERTEX
  8
W72RB2RAMP
 62
2
 10
2211.020
 20
-8060.242
 30
-1863.019
 70
    32
  0
VERTEX
  8
W72RB2RAMP
 62
2
 10
2210.066
 20
-8072.424
 30
-1860.942
 70
    32
  0
VERTEX
  8
W72RB2RAMP
 62
2
 10
2209.906
 20
-8074.436
 30
-1860.826
 70
    32
  0
VERTEX
  8
W72RB2RAMP
 62
2
 10
2216.838
 20
-8085.752
 30
-1860.177
 70
    32
  0
VERTEX
  8
W72RB2RAMP
 62
2
 10
2221.144
 20
-8091.271
 30
-1858.829
 70
    32
  0
VERTEX
  8
W72RB2RAMP
 62
2
 10
2215.075
 20
-8106.441
 30
-1857.580
 70
    32
  0
VERTEX
  8
W72RB2RAMP
 62
2
 10
2209.908
 20
-8102.275
 30
-1858.787
 70
    32
  0
VERTEX
  8
W72RB2RAMP
 62
2
 10
2203.707
 20
-8099.513
 30
-1858.898
 70
    32
  0
VERTEX
  8
W72RB2RAMP
 62
2
 10
2198.673
 20
-8098.613
 30
-1858.879
 70
    32
  0
VERTEX
  8
W72RB2RAMP
 62
2
 10
2196.371
 20
-8098.836
 30
-1858.820
 70
    32
  0
VERTEX
  8
W72RB2RAMP
 62
2
 10
2196.371
 20
-8098.836
 30
-1858.808
 70
    32
  0
VERTEX
  8
W72RB2RAMP
 62
2
 10
2195.761
 20
-8101.417
 30
-1858.600
 70
    32
  0
VERTEX
  8
W72RB2RAMP
 62
2
 10
2194.783
 20
-8105.558
 30
-1858.248
 70
    32
  0
VERTEX
  8
W72RB2RAMP
 62
2
 10
2191.278
 20
-8111.899
 30
-1857.672
 70
    32
  0
VERTEX
  8
W72RB2RAMP
 62
2
 10
2187.678
 20
-8114.594
 30
-1857.389
 70
    32
  0
VERTEX
  8
W72RB2RAMP
 62
2
 10
2183.118
 20
-8121.706
 30
-1856.622
 70
    32
  0
VERTEX
  8
W72RB2RAMP
 62
2
 10
2180.853
 20
-8122.220
 30
-1856.479
 70
    32
  0
VERTEX
  8
W72RB2RAMP
 62
2
 10
2174.886
 20
-8128.795
 30
-1855.720
 70
    32
  0
VERTEX
  8
W72RB2RAMP
 62
2
 10
2171.481
 20
-8134.610
 30
-1855.133
 70
    32
  0
VERTEX
  8
W72RB2RAMP
 62
2
 10
2171.481
 20
-8134.610
 30
-1855.258
 70
    32
  0
VERTEX
  8
W72RB2RAMP
 62
2
 10
2169.402
 20
-8134.392
 30
-1855.131
 70
    32
  0
VERTEX
  8
W72RB2RAMP
 62
2
 10
2165.052
 20
-8137.359
 30
-1854.720
 70
    32
  0
VERTEX
  8
W72RB2RAMP
 62
2
 10
2147.280
 20
-8151.340
 30
-1852.167
 70
    32
  0
VERTEX
  8
W72RB2RAMP
 62
2
 10
2129.145
 20
-8173.689
 30
-1848.418
 70
    32
  0
VERTEX
  8
W72RB2RAMP
 62
2
 10
2120.983
 20
-8183.147
 30
-1846.715
 70
    32
  0
VERTEX
  8
W72RB2RAMP
 62
2
 10
2102.897
 20
-8204.799
 30
-1842.866
 70
    32
  0
VERTEX
  8
W72RB2RAMP
 62
2
 10
2089.548
 20
-8218.245
 30
-1840.300
 70
    32
  0
VERTEX
  8
W72RB2RAMP
 62
2
 10
2082.621
 20
-8224.219
 30
-1838.712
 70
    32
  0
VERTEX
  8
W72RB2RAMP
 62
2
 10
2071.765
 20
-8233.582
 30
-1834.402
 70
    32
  0
VERTEX
  8
W72RB2RAMP
 62
2
 10
2070.171
 20
-8238.935
 30
-1833.452
 70
    32
  0
VERTEX
  8
W72RB2RAMP
 62
2
 10
2068.674
 20
-8243.960
 30
-1831.352
 70
    32
  0
VERTEX
  8
W72RB2RAMP
 62
2
 10
2064.994
 20
-8256.701
 30
-1828.789
 70
    32
  0
VERTEX
  8
W72RB2RAMP
 62
2
 10
2064.770
 20
-8261.107
 30
-1827.916
 70
    32
  0
VERTEX
  8
W72RB2RAMP
 62
2
 10
2064.747
 20
-8266.936
 30
-1826.766
 70
    32
  0
VERTEX
  8
W72RB2RAMP
 62
2
 10
2064.929
 20
-8272.822
 30
-1825.678
 70
    32
  0
VERTEX
  8
W72RB2RAMP
 62
2
 10
2065.010
 20
-8275.422
 30
-1825.224
 70
    32
  0
VERTEX
  8
W72RB2RAMP
 62
2
 10
2065.314
 20
-8280.406
 30
-1824.349
 70
    32
  0
VERTEX
  8
W72RB2RAMP
 62
2
 10
2065.322
 20
-8280.542
 30
-1824.326
 70
    32
  0
VERTEX
  8
W72RB2RAMP
 62
2
 10
2067.245
 20
-8287.079
 30
-1823.174
 70
    32
  0
VERTEX
  8
W72RB2RAMP
 62
2
 10
2070.821
 20
-8292.028
 30
-1822.139
 70
    32
  0
VERTEX
  8
W72RB2RAMP
 62
2
 10
2073.819
 20
-8296.484
 30
-1820.573
 70
    32
  0
VERTEX
  8
W72RB2RAMP
 62
2
 10
2076.081
 20
-8299.846
 30
-1819.657
 70
    32
  0
VERTEX
  8
W72RB2RAMP
 62
2
 10
2081.875
 20
-8303.415
 30
-1817.975
 70
    32
  0
VERTEX
  8
W72RB2RAMP
 62
2
 10
2090.219
 20
-8305.417
 30
-1815.964
 70
    32
  0
VERTEX
  8
W72RB2RAMP
 62
2
 10
2100.158
 20
-8307.801
 30
-1813.300
 70
    32
  0
VERTEX
  8
W72RB2RAMP
 62
2
 10
2126.300
 20
-8311.596
 30
-1809.343
 70
    32
  0
VERTEX
  8
W72RB2RAMP
 62
2
 10
2128.805
 20
-8311.960
 30
-1809.413
 70
    32
  0
VERTEX
  8
W72RB2RAMP
 62
2
 10
2135.145
 20
-8312.383
 30
-1809.995
 70
    32
  0
VERTEX
  8
W72RB2RAMP
 62
2
 10
2135.377
 20
-8312.399
 30
-1809.925
 70
    32
  0
VERTEX
  8
W72RB2RAMP
 62
2
 10
2136.329
 20
-8312.462
 30
-1809.977
 70
    32
  0
VERTEX
  8
W72RB2RAMP
 62
2
 10
2139.379
 20
-8312.869
 30
-1810.136
 70
    32
  0
VERTEX
  8
W72RB2RAMP
 62
2
 10
2140.240
 20
-8312.532
 30
-1810.193
 70
    32
  0
VERTEX
  8
W72RB2RAMP
 62
2
 10
2141.022
 20
-8312.226
 30
-1810.238
 70
    32
  0
VERTEX
  8
W72RB2RAMP
 62
2
 10
2145.614
 20
-8310.429
 30
-1810.811
 70
    32
  0
VERTEX
  8
W72RB2RAMP
 62
2
 10
2149.788
 20
-8308.795
 30
-1811.332
 70
    32
  0
VERTEX
  8
W72RB2RAMP
 62
2
 10
2171.421
 20
-8297.560
 30
-1814.187
 70
    32
  0
VERTEX
  8
W72RB2RAMP
 62
2
 10
2171.950
 20
-8297.285
 30
-1814.312
 70
    32
  0
VERTEX
  8
W72RB2RAMP
 62
2
 10
2190.391
 20
-8288.208
 30
-1818.625
 70
    32
  0
VERTEX
  8
W72RB2RAMP
 62
2
 10
2196.301
 20
-8285.299
 30
-1820.050
 70
    32
  0
VERTEX
  8
W72RB2RAMP
 62
2
 10
2196.381
 20
-8285.259
 30
-1820.050
 70
    32
  0
VERTEX
  8
W72RB2RAMP
 62
2
 10
2199.462
 20
-8283.743
 30
-1820.774
 70
    32
  0
VERTEX
  8
W72RB2RAMP
 62
2
 10
2216.918
 20
-8275.061
 30
-1824.885
 70
    32
  0
VERTEX
  8
W72RB2RAMP
 62
2
 10
2220.170
 20
-8273.444
 30
-1825.651
 70
    32
  0
VERTEX
  8
W72RB2RAMP
 62
2
 10
2223.016
 20
-8272.029
 30
-1826.307
 70
    32
  0
VERTEX
  8
W72RB2RAMP
 62
2
 10
2223.079
 20
-8271.997
 30
-1826.322
 70
    32
  0
VERTEX
  8
W72RB2RAMP
 62
2
 10
2224.306
 20
-8271.387
 30
-1826.535
 70
    32
  0
VERTEX
  8
W72RB2RAMP
 62
2
 10
2226.151
 20
-8270.469
 30
-1826.876
 70
    32
  0
VERTEX
  8
W72RB2RAMP
 62
2
 10
2229.292
 20
-8268.907
 30
-1827.456
 70
    32
  0
VERTEX
  8
W72RB2RAMP
 62
2
 10
2232.342
 20
-8273.300
 30
-1827.521
 70
    32
  0
VERTEX
  8
W72RB2RAMP
 62
2
 10
2233.431
 20
-8274.869
 30
-1827.543
 70
    32
  0
VERTEX
  8
W72RB2RAMP
 62
2
 10
2235.686
 20
-8278.116
 30
-1827.622
 70
    32
  0
VERTEX
  8
W72RB2RAMP
 62
2
 10
2228.240
 20
-8281.637
 30
-1826.343
 70
    32
  0
VERTEX
  8
W72RB2RAMP
 62
2
 10
2228.187
 20
-8281.662
 30
-1826.334
 70
    32
  0
VERTEX
  8
W72RB2RAMP
 62
2
 10
2207.826
 20
-8291.290
 30
-1821.684
 70
    32
  0
VERTEX
  8
W72RB2RAMP
 62
2
 10
2207.460
 20
-8291.463
 30
-1821.600
 70
    32
  0
VERTEX
  8
W72RB2RAMP
 62
2
 10
2205.096
 20
-8292.648
 30
-1821.054
 70
    32
  0
VERTEX
  8
W72RB2RAMP
 62
2
 10
2200.920
 20
-8294.741
 30
-1820.069
 70
    32
  0
VERTEX
  8
W72RB2RAMP
 62
2
 10
2200.841
 20
-8294.781
 30
-1820.050
 70
    32
  0
VERTEX
  8
W72RB2RAMP
 62
2
 10
2182.992
 20
-8303.727
 30
-1815.712
 70
    32
  0
VERTEX
  8
W72RB2RAMP
 62
2
 10
2178.187
 20
-8306.135
 30
-1814.584
 70
    32
  0
VERTEX
  8
W72RB2RAMP
 62
2
 10
2176.582
 20
-8307.045
 30
-1814.196
 70
    32
  0
VERTEX
  8
W72RB2RAMP
 62
2
 10
2168.955
 20
-8311.365
 30
-1813.170
 70
    32
  0
VERTEX
  8
W72RB2RAMP
 62
2
 10
2166.807
 20
-8313.521
 30
-1812.392
 70
    32
  0
VERTEX
  8
W72RB2RAMP
 62
2
 10
2168.256
 20
-8319.326
 30
-1813.263
 70
    32
  0
VERTEX
  8
W72RB2RAMP
 62
2
 10
2174.533
 20
-8322.931
 30
-1814.534
 70
    32
  0
VERTEX
  8
W72RB2RAMP
 62
2
 10
2178.273
 20
-8329.499
 30
-1813.333
 70
    32
  0
VERTEX
  8
W72RB2RAMP
 62
2
 10
2181.667
 20
-8332.503
 30
-1813.897
 70
    32
  0
VERTEX
  8
W72RB2RAMP
 62
2
 10
2187.187
 20
-8337.554
 30
-1814.735
 70
    32
  0
VERTEX
  8
W72RB2RAMP
 62
2
 10
2207.773
 20
-8366.414
 30
-1819.736
 70
    32
  0
VERTEX
  8
W72RB2RAMP
 62
2
 10
2218.076
 20
-8377.664
 30
-1822.199
 70
    32
  0
VERTEX
  8
W72RB2RAMP
 62
2
 10
2221.457
 20
-8379.178
 30
-1822.294
 70
    32
  0
VERTEX
  8
W72RB2RAMP
 62
2
 10
2229.169
 20
-8382.791
 30
-1822.512
 70
    32
  0
VERTEX
  8
W72RB2RAMP
 62
2
 10
2234.148
 20
-8387.678
 30
-1822.692
 70
    32
  0
VERTEX
  8
W72RB2RAMP
 62
2
 10
2235.605
 20
-8393.102
 30
-1822.805
 70
    32
  0
VERTEX
  8
W72RB2RAMP
 62
2
 10
2246.885
 20
-8400.405
 30
-1823.155
 70
    32
  0
VERTEX
  8
W72RB2RAMP
 62
2
 10
2238.815
 20
-8407.880
 30
-1823.098
 70
    32
  0
VERTEX
  8
W72RB2RAMP
 62
2
 10
2221.638
 20
-8393.465
 30
-1822.515
 70
    32
  0
VERTEX
  8
W72RB2RAMP
 62
2
 10
2211.179
 20
-8390.393
 30
-1822.247
 70
    32
  0
VERTEX
  8
W72RB2RAMP
 62
2
 10
2189.423
 20
-8362.647
 30
-1817.292
 70
    32
  0
VERTEX
  8
W72RB2RAMP
 62
2
 10
2170.103
 20
-8336.140
 30
-1813.390
 70
    32
  0
VERTEX
  8
W72RB2RAMP
 62
2
 10
2160.806
 20
-8328.034
 30
-1813.265
 70
    32
  0
VERTEX
  8
W72RB2RAMP
 62
2
 10
2153.988
 20
-8324.805
 30
-1811.965
 70
    32
  0
VERTEX
  8
W72RB2RAMP
 62
2
 10
2147.923
 20
-8325.285
 30
-1810.236
 70
    32
  0
VERTEX
  8
W72RB2RAMP
 62
2
 10
2142.894
 20
-8325.768
 30
-1809.979
 70
    32
  0
VERTEX
  8
W72RB2RAMP
 62
2
 10
2141.866
 20
-8325.699
 30
-1809.931
 70
    32
  0
VERTEX
  8
W72RB2RAMP
 62
2
 10
2139.474
 20
-8325.540
 30
-1809.802
 70
    32
  0
VERTEX
  8
W72RB2RAMP
 62
2
 10
2125.910
 20
-8324.634
 30
-1809.423
 70
    32
  0
VERTEX
  8
W72RB2RAMP
 62
2
 10
2125.067
 20
-8324.431
 30
-1809.399
 70
    32
  0
VERTEX
  8
W72RB2RAMP
 62
2
 10
2109.671
 20
-8320.730
 30
-1812.000
 70
    32
  0
VERTEX
  8
W72RB2RAMP
 62
2
 10
2088.291
 20
-8318.354
 30
-1814.669
 70
    32
  0
VERTEX
  8
W72RB2RAMP
 62
2
 10
2079.338
 20
-8315.888
 30
-1816.869
 70
    32
  0
VERTEX
  8
W72RB2RAMP
 62
2
 10
2070.822
 20
-8315.401
 30
-1818.718
 70
    32
  0
VERTEX
  8
W72RB2RAMP
 62
2
 10
2068.378
 20
-8312.084
 30
-1819.665
 70
    32
  0
VERTEX
  8
W72RB2RAMP
 62
2
 10
2063.542
 20
-8307.779
 30
-1820.229
 70
    32
  0
VERTEX
  8
W72RB2RAMP
 62
2
 10
2061.271
 20
-8303.026
 30
-1820.699
 70
    32
  0
VERTEX
  8
W72RB2RAMP
 62
2
 10
2055.361
 20
-8290.659
 30
-1822.888
 70
    32
  0
VERTEX
  8
W72RB2RAMP
 62
2
 10
2052.566
 20
-8282.492
 30
-1824.338
 70
    32
  0
VERTEX
  8
W72RB2RAMP
 62
2
 10
2051.944
 20
-8280.643
 30
-1824.677
 70
    32
  0
VERTEX
  8
W72RB2RAMP
 62
2
 10
2046.999
 20
-8275.681
 30
-1825.676
 70
    32
  0
VERTEX
  8
W72RB2RAMP
 62
2
 10
2048.840
 20
-8267.333
 30
-1827.076
 70
    32
  0
VERTEX
  8
W72RB2RAMP
 62
2
 10
2049.695
 20
-8263.454
 30
-1827.727
 70
    32
  0
VERTEX
  8
W72RB2RAMP
 62
2
 10
2052.744
 20
-8257.505
 30
-1828.676
 70
    32
  0
VERTEX
  8
W72RB2RAMP
 62
2
 10
2051.352
 20
-8255.636
 30
-1829.040
 70
    32
  0
VERTEX
  8
W72RB2RAMP
 62
2
 10
2053.346
 20
-8250.920
 30
-1828.761
 70
    32
  0
VERTEX
  8
W72RB2RAMP
 62
2
 10
2055.867
 20
-8245.602
 30
-1829.843
 70
    32
  0
VERTEX
  8
W72RB2RAMP
 62
2
 10
2050.741
 20
-8246.676
 30
-1828.685
 70
    32
  0
VERTEX
  8
W72RB2RAMP
 62
2
 10
2046.938
 20
-8247.129
 30
-1827.877
 70
    32
  0
VERTEX
  8
W72RB2RAMP
 62
2
 10
2039.511
 20
-8254.462
 30
-1825.342
 70
    32
  0
VERTEX
  8
W72RB2RAMP
 62
2
 10
2022.978
 20
-8266.050
 30
-1822.471
 70
    32
  0
VERTEX
  8
W72RB2RAMP
 62
2
 10
2018.162
 20
-8269.345
 30
-1821.619
 70
    32
  0
VERTEX
  8
W72RB2RAMP
 62
2
 10
2015.672
 20
-8271.049
 30
-1821.240
 70
    32
  0
VERTEX
  8
W72RB2RAMP
 62
2
 10
2010.818
 20
-8273.656
 30
-1820.680
 70
    32
  0
VERTEX
  8
W72RB2RAMP
 62
2
 10
1999.091
 20
-8279.955
 30
-1817.099
 70
    32
  0
VERTEX
  8
W72RB2RAMP
 62
2
 10
1989.550
 20
-8284.831
 30
-1814.711
 70
    32
  0
VERTEX
  8
W72RB2RAMP
 62
2
 10
1981.188
 20
-8290.177
 30
-1813.756
 70
    32
  0
VERTEX
  8
W72RB2RAMP
 62
2
 10
1967.350
 20
-8299.024
 30
-1812.162
 70
    32
  0
VERTEX
  8
W72RB2RAMP
 62
2
 10
1967.350
 20
-8299.024
 30
-1811.911
 70
    32
  0
VERTEX
  8
W72RB2RAMP
 62
2
 10
1959.121
 20
-8304.779
 30
-1810.877
 70
    32
  0
VERTEX
  8
W72RB2RAMP
 62
2
 10
1950.100
 20
-8309.267
 30
-1810.009
 70
    32
  0
VERTEX
  8
W72RB2RAMP
 62
2
 10
1944.042
 20
-8311.742
 30
-1808.018
 70
    32
  0
VERTEX
  8
W72RB2RAMP
 62
2
 10
1944.160
 20
-8321.920
 30
-1805.686
 70
    32
  0
VERTEX
  8
W72RB2RAMP
 62
2
 10
1928.103
 20
-8309.644
 30
-1805.546
 70
    32
  0
VERTEX
  8
W72RB2RAMP
 62
2
 10
1942.016
 20
-8299.108
 30
-1810.238
 70
    32
  0
VERTEX
  8
W72RB2RAMP
 62
2
 10
1946.997
 20
-8295.337
 30
-1810.809
 70
    32
  0
VERTEX
  8
W72RB2RAMP
 62
2
 10
1960.229
 20
-8288.206
 30
-1812.122
 70
    32
  0
VERTEX
  8
W72RB2RAMP
 62
2
 10
1960.229
 20
-8288.206
 30
-1812.080
 70
    32
  0
VERTEX
  8
W72RB2RAMP
 62
2
 10
1964.785
 20
-8285.751
 30
-1812.579
 70
    32
  0
SEQEND
  8
W72RB2RAMP
  0
POLYLINE
  8
W72RB2RAMP
 62
2
 66
     1
 70
     8
  0
VERTEX
  8
W72RB2RAMP
 62
2
 10
2009.509
 20
-8258.439
 30
-1821.538
 70
    32
  0
VERTEX
  8
W72RB2RAMP
 62
2
 10
2026.181
 20
-8248.138
 30
-1824.385
 70
    32
  0
VERTEX
  8
W72RB2RAMP
 62
2
 10
2031.751
 20
-8244.146
 30
-1825.360
 70
    32
  0
VERTEX
  8
W72RB2RAMP
 62
2
 10
2036.032
 20
-8240.882
 30
-1826.678
 70
    32
  0
VERTEX
  8
W72RB2RAMP
 62
2
 10
2041.357
 20
-8236.822
 30
-1828.204
 70
    32
  0
VERTEX
  8
W72RB2RAMP
 62
2
 10
2043.918
 20
-8232.132
 30
-1829.285
 70
    32
  0
VERTEX
  8
W72RB2RAMP
 62
2
 10
2052.545
 20
-8227.841
 30
-1831.466
 70
    32
  0
VERTEX
  8
W72RB2RAMP
 62
2
 10
2059.556
 20
-8224.354
 30
-1833.059
 70
    32
  0
VERTEX
  8
W72RB2RAMP
 62
2
 10
2061.758
 20
-8223.259
 30
-1833.783
 70
    32
  0
VERTEX
  8
W72RB2RAMP
 62
2
 10
2072.000
 20
-8216.217
 30
-1837.494
 70
    32
  0
VERTEX
  8
W72RB2RAMP
 62
2
 10
2074.497
 20
-8214.500
 30
-1838.409
 70
    32
  0
VERTEX
  8
W72RB2RAMP
 62
2
 10
2075.428
 20
-8211.554
 30
-1839.153
 70
    32
  0
VERTEX
  8
W72RB2RAMP
 62
2
 10
2078.980
 20
-8207.602
 30
-1840.347
 70
    32
  0
VERTEX
  8
W72RB2RAMP
 62
2
 10
2100.771
 20
-8189.860
 30
-1844.252
 70
    32
  0
VERTEX
  8
W72RB2RAMP
 62
2
 10
2119.744
 20
-8164.722
 30
-1848.604
 70
    32
  0
VERTEX
  8
W72RB2RAMP
 62
2
 10
2134.274
 20
-8149.096
 30
-1851.428
 70
    32
  0
VERTEX
  8
W72RB2RAMP
 62
2
 10
2139.216
 20
-8143.812
 30
-1852.385
 70
    32
  0
VERTEX
  8
W72RB2RAMP
 62
2
 10
2144.872
 20
-8137.488
 30
-1853.498
 70
    32
  0
VERTEX
  8
W72RB2RAMP
 62
2
 10
2148.509
 20
-8128.100
 30
-1854.851
 70
    32
  0
VERTEX
  8
W72RB2RAMP
 62
2
 10
2140.392
 20
-8129.232
 30
-1854.124
 70
    32
  0
VERTEX
  8
W72RB2RAMP
 62
2
 10
2127.206
 20
-8128.579
 30
-1852.875
 70
    32
  0
VERTEX
  8
W72RB2RAMP
 62
2
 10
2117.891
 20
-8127.764
 30
-1851.987
 70
    32
  0
VERTEX
  8
W72RB2RAMP
 62
2
 10
2105.885
 20
-8125.848
 30
-1850.831
 70
    32
  0
VERTEX
  8
W72RB2RAMP
 62
2
 10
2105.885
 20
-8125.848
 30
-1850.042
 70
    32
  0
VERTEX
  8
W72RB2RAMP
 62
2
 10
2102.974
 20
-8124.507
 30
-1849.596
 70
    32
  0
VERTEX
  8
W72RB2RAMP
 62
2
 10
2093.255
 20
-8119.357
 30
-1848.198
 70
    32
  0
VERTEX
  8
W72RB2RAMP
 62
2
 10
2086.502
 20
-8116.735
 30
-1847.591
 70
    32
  0
VERTEX
  8
W72RB2RAMP
 62
2
 10
2082.075
 20
-8111.435
 30
-1846.567
 70
    32
  0
VERTEX
  8
W72RB2RAMP
 62
2
 10
2075.732
 20
-8095.046
 30
-1843.930
 70
    32
  0
VERTEX
  8
W72RB2RAMP
 62
2
 10
2071.908
 20
-8086.848
 30
-1842.524
 70
    32
  0
VERTEX
  8
W72RB2RAMP
 62
2
 10
2069.721
 20
-8076.728
 30
-1841.098
 70
    32
  0
VERTEX
  8
W72RB2RAMP
 62
2
 10
2071.935
 20
-8072.769
 30
-1840.560
 70
    32
  0
VERTEX
  8
W72RB2RAMP
 62
2
 10
2070.716
 20
-8067.387
 30
-1839.950
 70
    32
  0
VERTEX
  8
W72RB2RAMP
 62
2
 10
2056.583
 20
-8052.118
 30
-1838.000
 70
    32
  0
VERTEX
  8
W72RB2RAMP
 62
2
 10
2052.962
 20
-8042.946
 30
-1838.000
 70
    32
  0
VERTEX
  8
W72RB2RAMP
 62
2
 10
2049.167
 20
-8039.428
 30
-1838.000
 70
    32
  0
VERTEX
  8
W72RB2RAMP
 62
2
 10
2049.774
 20
-8034.881
 30
-1838.000
 70
    32
  0
VERTEX
  8
W72RB2RAMP
 62
2
 10
2063.821
 20
-8028.191
 30
-1838.000
 70
    32
  0
VERTEX
  8
W72RB2RAMP
 62
2
 10
2066.654
 20
-8033.554
 30
-1838.000
 70
    32
  0
VERTEX
  8
W72RB2RAMP
 62
2
 10
2072.321
 20
-8042.161
 30
-1838.000
 70
    32
  0
VERTEX
  8
W72RB2RAMP
 62
2
 10
2078.700
 20
-8043.611
 30
-1838.000
 70
    32
  0
VERTEX
  8
W72RB2RAMP
 62
2
 10
2078.971
 20
-8042.114
 30
-1836.283
 70
    32
  0
VERTEX
  8
W72RB2RAMP
 62
2
 10
2082.369
 20
-8034.911
 30
-1835.198
 70
    32
  0
VERTEX
  8
W72RB2RAMP
 62
2
 10
2085.326
 20
-8032.575
 30
-1834.562
 70
    32
  0
VERTEX
  8
W72RB2RAMP
 62
2
 10
2089.441
 20
-8021.820
 30
-1838.539
 70
    32
  0
VERTEX
  8
W72RB2RAMP
 62
2
 10
2092.628
 20
-8015.779
 30
-1836.533
 70
    32
  0
VERTEX
  8
W72RB2RAMP
 62
2
 10
2094.263
 20
-8012.498
 30
-1836.300
 70
    32
  0
VERTEX
  8
W72RB2RAMP
 62
2
 10
2095.723
 20
-8008.038
 30
-1835.250
 70
    32
  0
VERTEX
  8
W72RB2RAMP
 62
2
 10
2099.101
 20
-8006.455
 30
-1834.693
 70
    32
  0
VERTEX
  8
W72RB2RAMP
 62
2
 10
2104.094
 20
-7999.709
 30
-1833.031
 70
    32
  0
VERTEX
  8
W72RB2RAMP
 62
2
 10
2106.926
 20
-7998.597
 30
-1832.501
 70
    32
  0
VERTEX
  8
W72RB2RAMP
 62
2
 10
2112.125
 20
-7993.214
 30
-1830.700
 70
    32
  0
VERTEX
  8
W72RB2RAMP
 62
2
 10
2123.854
 20
-7988.453
 30
-1827.736
 70
    32
  0
VERTEX
  8
W72RB2RAMP
 62
2
 10
2133.320
 20
-7982.857
 30
-1825.136
 70
    32
  0
VERTEX
  8
W72RB2RAMP
 62
2
 10
2138.613
 20
-7974.085
 30
-1823.012
 70
    32
  0
VERTEX
  8
W72RB2RAMP
 62
2
 10
2143.549
 20
-7966.644
 30
-1821.066
 70
    32
  0
VERTEX
  8
W72RB2RAMP
 62
2
 10
2153.013
 20
-7968.079
 30
-1821.508
 70
    32
  0
VERTEX
  8
W72RB2RAMP
 62
2
 10
2160.742
 20
-7975.631
 30
-1821.671
 70
    32
  0
VERTEX
  8
W72RB2RAMP
 62
2
 10
2163.518
 20
-7985.656
 30
-1821.293
 70
    32
  0
VERTEX
  8
W72RB2RAMP
 62
2
 10
2159.508
 20
-7995.008
 30
-1821.223
 70
    32
  0
VERTEX
  8
W72RB2RAMP
 62
2
 10
2151.223
 20
-7995.958
 30
-1823.030
 70
    32
  0
VERTEX
  8
W72RB2RAMP
 62
2
 10
2140.987
 20
-7994.893
 30
-1824.997
 70
    32
  0
VERTEX
  8
W72RB2RAMP
 62
2
 10
2136.523
 20
-7994.160
 30
-1825.823
 70
    32
  0
VERTEX
  8
W72RB2RAMP
 62
2
 10
2126.820
 20
-7998.157
 30
-1828.281
 70
    32
  0
VERTEX
  8
W72RB2RAMP
 62
2
 10
2118.411
 20
-8002.859
 30
-1830.559
 70
    32
  0
VERTEX
  8
W72RB2RAMP
 62
2
 10
2114.554
 20
-8004.739
 30
-1832.461
 70
    32
  0
VERTEX
  8
W72RB2RAMP
 62
2
 10
2102.748
 20
-8018.559
 30
-1836.571
 70
    32
  0
VERTEX
  8
W72RB2RAMP
 62
2
 10
2098.826
 20
-8027.121
 30
-1838.369
 70
    32
  0
VERTEX
  8
W72RB2RAMP
 62
2
 10
2099.709
 20
-8030.465
 30
-1837.291
 70
    32
  0
VERTEX
  8
W72RB2RAMP
 62
2
 10
2097.049
 20
-8036.916
 30
-1834.664
 70
    32
  0
VERTEX
  8
W72RB2RAMP
 62
2
 10
2093.384
 20
-8044.603
 30
-1835.620
 70
    32
  0
VERTEX
  8
W72RB2RAMP
 62
2
 10
2087.699
 20
-8056.897
 30
-1838.026
 70
    32
  0
VERTEX
  8
W72RB2RAMP
 62
2
 10
2086.721
 20
-8064.530
 30
-1838.495
 70
    32
  0
VERTEX
  8
W72RB2RAMP
 62
2
 10
2086.176
 20
-8067.511
 30
-1839.383
 70
    32
  0
VERTEX
  8
W72RB2RAMP
 62
2
 10
2085.574
 20
-8072.347
 30
-1840.115
 70
    32
  0
VERTEX
  8
W72RB2RAMP
 62
2
 10
2084.096
 20
-8084.207
 30
-1842.816
 70
    32
  0
VERTEX
  8
W72RB2RAMP
 62
2
 10
2088.972
 20
-8093.602
 30
-1844.390
 70
    32
  0
VERTEX
  8
W72RB2RAMP
 62
2
 10
2091.120
 20
-8097.741
 30
-1845.169
 70
    32
  0
VERTEX
  8
W72RB2RAMP
 62
2
 10
2096.268
 20
-8104.054
 30
-1846.506
 70
    32
  0
VERTEX
  8
W72RB2RAMP
 62
2
 10
2104.294
 20
-8104.999
 30
-1849.000
 70
    32
  0
VERTEX
  8
W72RB2RAMP
 62
2
 10
2111.941
 20
-8099.041
 30
-1852.000
 70
    32
  0
VERTEX
  8
W72RB2RAMP
 62
2
 10
2112.602
 20
-8086.855
 30
-1852.000
 70
    32
  0
VERTEX
  8
W72RB2RAMP
 62
2
 10
2112.673
 20
-8077.405
 30
-1852.000
 70
    32
  0
VERTEX
  8
W72RB2RAMP
 62
2
 10
2114.388
 20
-8067.474
 30
-1852.000
 70
    32
  0
VERTEX
  8
W72RB2RAMP
 62
2
 10
2119.310
 20
-8065.142
 30
-1852.000
 70
    32
  0
VERTEX
  8
W72RB2RAMP
 62
2
 10
2121.941
 20
-8050.116
 30
-1852.000
 70
    32
  0
VERTEX
  8
W72RB2RAMP
 62
2
 10
2129.310
 20
-8049.004
 30
-1852.000
 70
    32
  0
VERTEX
  8
W72RB2RAMP
 62
2
 10
2133.761
 20
-8052.446
 30
-1852.000
 70
    32
  0
VERTEX
  8
W72RB2RAMP
 62
2
 10
2132.102
 20
-8059.683
 30
-1852.000
 70
    32
  0
VERTEX
  8
W72RB2RAMP
 62
2
 10
2135.318
 20
-8068.077
 30
-1852.000
 70
    32
  0
VERTEX
  8
W72RB2RAMP
 62
2
 10
2139.994
 20
-8076.211
 30
-1852.000
 70
    32
  0
VERTEX
  8
W72RB2RAMP
 62
2
 10
2142.685
 20
-8087.143
 30
-1852.000
 70
    32
  0
VERTEX
  8
W72RB2RAMP
 62
2
 10
2139.045
 20
-8090.401
 30
-1852.000
 70
    32
  0
VERTEX
  8
W72RB2RAMP
 62
2
 10
2132.794
 20
-8090.322
 30
-1852.000
 70
    32
  0
VERTEX
  8
W72RB2RAMP
 62
2
 10
2126.569
 20
-8092.045
 30
-1852.000
 70
    32
  0
VERTEX
  8
W72RB2RAMP
 62
2
 10
2125.430
 20
-8094.346
 30
-1852.000
 70
    32
  0
VERTEX
  8
W72RB2RAMP
 62
2
 10
2124.295
 20
-8095.694
 30
-1852.000
 70
    32
  0
VERTEX
  8
W72RB2RAMP
 62
2
 10
2124.829
 20
-8100.979
 30
-1852.000
 70
    32
  0
VERTEX
  8
W72RB2RAMP
 62
2
 10
2131.327
 20
-8112.765
 30
-1853.000
 70
    32
  0
VERTEX
  8
W72RB2RAMP
 62
2
 10
2138.638
 20
-8118.107
 30
-1853.801
 70
    32
  0
VERTEX
  8
W72RB2RAMP
 62
2
 10
2147.254
 20
-8116.705
 30
-1854.591
 70
    32
  0
VERTEX
  8
W72RB2RAMP
 62
2
 10
2159.617
 20
-8114.468
 30
-1855.692
 70
    32
  0
VERTEX
  8
W72RB2RAMP
 62
2
 10
2166.094
 20
-8112.549
 30
-1856.578
 70
    32
  0
VERTEX
  8
W72RB2RAMP
 62
2
 10
2175.050
 20
-8109.895
 30
-1857.191
 70
    32
  0
VERTEX
  8
W72RB2RAMP
 62
2
 10
2177.615
 20
-8109.135
 30
-1857.367
 70
    32
  0
VERTEX
  8
W72RB2RAMP
 62
2
 10
2181.865
 20
-8102.053
 30
-1858.118
 70
    32
  0
VERTEX
  8
W72RB2RAMP
 62
2
 10
2185.182
 20
-8095.531
 30
-1858.782
 70
    32
  0
VERTEX
  8
W72RB2RAMP
 62
2
 10
2189.075
 20
-8087.877
 30
-1859.562
 70
    32
  0
VERTEX
  8
W72RB2RAMP
 62
2
 10
2191.273
 20
-8081.767
 30
-1860.106
 70
    32
  0
VERTEX
  8
W72RB2RAMP
 62
2
 10
2195.449
 20
-8070.131
 30
-1861.059
 70
    32
  0
VERTEX
  8
W72RB2RAMP
 62
2
 10
2196.490
 20
-8067.135
 30
-1861.553
 70
    32
  0
VERTEX
  8
W72RB2RAMP
 62
2
 10
2199.029
 20
-8059.829
 30
-1862.832
 70
    32
  0
VERTEX
  8
W72RB2RAMP
 62
2
 10
2199.444
 20
-8052.248
 30
-1865.500
 70
    32
  0
VERTEX
  8
W72RB2RAMP
 62
2
 10
2198.608
 20
-8048.393
 30
-1866.430
 70
    32
  0
VERTEX
  8
W72RB2RAMP
 62
2
 10
2197.345
 20
-8040.577
 30
-1867.233
 70
    32
  0
VERTEX
  8
W72RB2RAMP
 62
2
 10
2192.410
 20
-8029.723
 30
-1868.001
 70
    32
  0
VERTEX
  8
W72RB2RAMP
 62
2
 10
2187.247
 20
-8024.251
 30
-1868.453
 70
    32
  0
VERTEX
  8
W72RB2RAMP
 62
2
 10
2177.367
 20
-8015.665
 30
-1869.401
 70
    32
  0
VERTEX
  8
W72RB2RAMP
 62
2
 10
2170.559
 20
-8009.190
 30
-1871.135
 70
    32
  0
VERTEX
  8
W72RB2RAMP
 62
2
 10
2167.623
 20
-8004.843
 30
-1872.099
 70
    32
  0
VERTEX
  8
W72RB2RAMP
 62
2
 10
2158.775
 20
-7996.528
 30
-1874.337
 70
    32
  0
VERTEX
  8
W72RB2RAMP
 62
2
 10
2153.146
 20
-7991.674
 30
-1875.795
 70
    32
  0
VERTEX
  8
W72RB2RAMP
 62
2
 10
2143.671
 20
-7982.816
 30
-1878.328
 70
    32
  0
VERTEX
  8
W72RB2RAMP
 62
2
 10
2122.419
 20
-7964.370
 30
-1884.253
 70
    32
  0
VERTEX
  8
W72RB2RAMP
 62
2
 10
2119.068
 20
-7965.702
 30
-1884.661
 70
    32
  0
VERTEX
  8
W72RB2RAMP
 62
2
 10
2112.822
 20
-7960.125
 30
-1886.422
 70
    32
  0
VERTEX
  8
W72RB2RAMP
 62
2
 10
2095.427
 20
-7945.770
 30
-1891.413
 70
    32
  0
VERTEX
  8
W72RB2RAMP
 62
2
 10
2100.145
 20
-7936.034
 30
-1890.868
 70
    32
  0
VERTEX
  8
W72RB2RAMP
 62
2
 10
2117.435
 20
-7946.951
 30
-1886.845
 70
    32
  0
VERTEX
  8
W72RB2RAMP
 62
2
 10
2128.671
 20
-7955.319
 30
-1884.187
 70
    32
  0
VERTEX
  8
W72RB2RAMP
 62
2
 10
2136.360
 20
-7960.023
 30
-1882.403
 70
    32
  0
VERTEX
  8
W72RB2RAMP
 62
2
 10
2151.995
 20
-7972.742
 30
-1878.179
 70
    32
  0
VERTEX
  8
W72RB2RAMP
 62
2
 10
2152.220
 20
-7975.167
 30
-1877.889
 70
    32
  0
VERTEX
  8
W72RB2RAMP
 62
2
 10
2154.592
 20
-7977.961
 30
-1877.246
 70
    32
  0
VERTEX
  8
W72RB2RAMP
 62
2
 10
2165.097
 20
-7987.700
 30
-1874.678
 70
    32
  0
VERTEX
  8
W72RB2RAMP
 62
2
 10
2175.492
 20
-7993.186
 30
-1872.576
 70
    32
  0
VERTEX
  8
W72RB2RAMP
 62
2
 10
2175.552
 20
-7993.218
 30
-1872.565
 70
    32
  0
VERTEX
  8
W72RB2RAMP
 62
2
 10
2182.811
 20
-7995.754
 30
-1871.335
 70
    32
  0
VERTEX
  8
W72RB2RAMP
 62
2
 10
2184.614
 20
-7996.031
 30
-1869.272
 70
    32
  0
VERTEX
  8
W72RB2RAMP
 62
2
 10
2185.482
 20
-7996.164
 30
-1869.235
 70
    32
  0
VERTEX
  8
W72RB2RAMP
 62
2
 10
2196.920
 20
-7997.918
 30
-1868.798
 70
    32
  0
VERTEX
  8
W72RB2RAMP
 62
2
 10
2200.444
 20
-7998.349
 30
-1868.663
 70
    32
  0
VERTEX
  8
W72RB2RAMP
 62
2
 10
2209.256
 20
-7996.761
 30
-1868.320
 70
    32
  0
VERTEX
  8
W72RB2RAMP
 62
2
 10
2214.322
 20
-7995.848
 30
-1866.156
 70
    32
  0
VERTEX
  8
W72RB2RAMP
 62
2
 10
2217.001
 20
-7995.076
 30
-1864.987
 70
    32
  0
VERTEX
  8
W72RB2RAMP
 62
2
 10
2232.558
 20
-7990.593
 30
-1857.523
 70
    32
  0
VERTEX
  8
W72RB2RAMP
 62
2
 10
2234.139
 20
-7990.138
 30
-1858.822
 70
    32
  0
VERTEX
  8
W72RB2RAMP
 62
2
 10
2239.066
 20
-7988.718
 30
-1860.003
 70
    32
  0
VERTEX
  8
W72RB2RAMP
 62
2
 10
2240.554
 20
-7988.289
 30
-1859.863
 70
    32
  0
VERTEX
  8
W72RB2RAMP
 62
2
 10
2242.867
 20
-7986.178
 30
-1859.612
 70
    32
  0
VERTEX
  8
W72RB2RAMP
 62
2
 10
2246.060
 20
-7982.171
 30
-1859.311
 70
    32
  0
VERTEX
  8
W72RB2RAMP
 62
2
 10
2252.926
 20
-7996.404
 30
-1859.055
 70
    32
  0
SEQEND
  8
W72RB2RAMP
  0
POLYLINE
  8
W72RB2RAMP
 62
6
 66
     1
 70
     9
  0
VERTEX
  8
W72RB2RAMP
 62
6
 10
2134.775
 20
-8082.470
 30
-1797.626
 70
    32
  0
VERTEX
  8
W72RB2RAMP
 62
6
 10
2143.758
 20
-8070.893
 30
-1800.321
 70
    32
  0
VERTEX
  8
W72RB2RAMP
 62
6
 10
2146.701
 20
-8065.683
 30
-1801.688
 70
    32
  0
VERTEX
  8
W72RB2RAMP
 62
6
 10
2153.956
 20
-8057.269
 30
-1803.918
 70
    32
  0
VERTEX
  8
W72RB2RAMP
 62
6
 10
2183.473
 20
-8031.432
 30
-1811.707
 70
    32
  0
VERTEX
  8
W72RB2RAMP
 62
6
 10
2190.951
 20
-8024.167
 30
-1813.358
 70
    32
  0
VERTEX
  8
W72RB2RAMP
 62
6
 10
2182.280
 20
-8016.529
 30
-1812.518
 70
    32
  0
VERTEX
  8
W72RB2RAMP
 62
6
 10
2167.464
 20
-8030.594
 30
-1809.321
 70
    32
  0
VERTEX
  8
W72RB2RAMP
 62
6
 10
2162.361
 20
-8036.282
 30
-1808.459
 70
    32
  0
VERTEX
  8
W72RB2RAMP
 62
6
 10
2151.130
 20
-8045.183
 30
-1805.215
 70
    32
  0
VERTEX
  8
W72RB2RAMP
 62
6
 10
2141.368
 20
-8053.573
 30
-1802.419
 70
    32
  0
VERTEX
  8
W72RB2RAMP
 62
6
 10
2123.089
 20
-8079.062
 30
-1795.915
 70
    32
  0
SEQEND
  8
W72RB2RAMP
  0
POLYLINE
  8
W72RB2RAMP
 62
2
 66
     1
 70
     9
  0
VERTEX
  8
W72RB2RAMP
 62
2
 10
1974.375
 20
-8285.922
 30
-1813.171
 70
    32
  0
VERTEX
  8
W72RB2RAMP
 62
2
 10
1979.005
 20
-8278.842
 30
-1813.929
 70
    32
  0
VERTEX
  8
W72RB2RAMP
 62
2
 10
1982.056
 20
-8276.000
 30
-1816.149
 70
    32
  0
VERTEX
  8
W72RB2RAMP
 62
2
 10
1987.793
 20
-8251.133
 30
-1818.324
 70
    32
  0
VERTEX
  8
W72RB2RAMP
 62
2
 10
1989.314
 20
-8245.378
 30
-1819.094
 70
    32
  0
VERTEX
  8
W72RB2RAMP
 62
2
 10
1991.086
 20
-8235.941
 30
-1818.008
 70
    32
  0
VERTEX
  8
W72RB2RAMP
 62
2
 10
1997.886
 20
-8230.823
 30
-1815.762
 70
    32
  0
VERTEX
  8
W72RB2RAMP
 62
2
 10
2001.501
 20
-8227.356
 30
-1814.317
 70
    32
  0
VERTEX
  8
W72RB2RAMP
 62
2
 10
2005.682
 20
-8219.266
 30
-1812.509
 70
    32
  0
VERTEX
  8
W72RB2RAMP
 62
2
 10
2009.022
 20
-8218.458
 30
-1812.505
 70
    32
  0
VERTEX
  8
W72RB2RAMP
 62
2
 10
2012.185
 20
-8212.784
 30
-1811.714
 70
    32
  0
VERTEX
  8
W72RB2RAMP
 62
2
 10
2012.975
 20
-8211.065
 30
-1811.607
 70
    32
  0
VERTEX
  8
W72RB2RAMP
 62
2
 10
2012.389
 20
-8201.740
 30
-1811.222
 70
    32
  0
VERTEX
  8
W72RB2RAMP
 62
2
 10
2009.597
 20
-8193.153
 30
-1807.468
 70
    32
  0
VERTEX
  8
W72RB2RAMP
 62
2
 10
2008.003
 20
-8188.272
 30
-1807.089
 70
    32
  0
VERTEX
  8
W72RB2RAMP
 62
2
 10
2005.398
 20
-8183.580
 30
-1806.514
 70
    32
  0
VERTEX
  8
W72RB2RAMP
 62
2
 10
2014.434
 20
-8179.293
 30
-1805.593
 70
    32
  0
VERTEX
  8
W72RB2RAMP
 62
2
 10
2017.997
 20
-8187.605
 30
-1807.000
 70
    32
  0
VERTEX
  8
W72RB2RAMP
 62
2
 10
2020.783
 20
-8194.860
 30
-1808.390
 70
    32
  0
VERTEX
  8
W72RB2RAMP
 62
2
 10
2027.442
 20
-8195.734
 30
-1807.742
 70
    32
  0
VERTEX
  8
W72RB2RAMP
 62
2
 10
2029.490
 20
-8193.601
 30
-1806.843
 70
    32
  0
VERTEX
  8
W72RB2RAMP
 62
2
 10
2054.243
 20
-8162.440
 30
-1798.119
 70
    32
  0
VERTEX
  8
W72RB2RAMP
 62
2
 10
2071.610
 20
-8136.578
 30
-1789.958
 70
    32
  0
VERTEX
  8
W72RB2RAMP
 62
2
 10
2095.088
 20
-8112.128
 30
-1785.630
 70
    32
  0
VERTEX
  8
W72RB2RAMP
 62
2
 10
2105.804
 20
-8097.860
 30
-1784.723
 70
    32
  0
VERTEX
  8
W72RB2RAMP
 62
2
 10
2105.687
 20
-8083.788
 30
-1783.261
 70
    32
  0
VERTEX
  8
W72RB2RAMP
 62
2
 10
2105.120
 20
-8070.980
 30
-1783.839
 70
    32
  0
VERTEX
  8
W72RB2RAMP
 62
2
 10
2105.120
 20
-8042.863
 30
-1782.941
 70
    32
  0
VERTEX
  8
W72RB2RAMP
 62
2
 10
2116.996
 20
-8043.310
 30
-1782.136
 70
    32
  0
VERTEX
  8
W72RB2RAMP
 62
2
 10
2116.251
 20
-8056.486
 30
-1783.494
 70
    32
  0
VERTEX
  8
W72RB2RAMP
 62
2
 10
2116.047
 20
-8072.233
 30
-1782.379
 70
    32
  0
VERTEX
  8
W72RB2RAMP
 62
2
 10
2117.598
 20
-8079.030
 30
-1782.778
 70
    32
  0
VERTEX
  8
W72RB2RAMP
 62
2
 10
2121.652
 20
-8078.879
 30
-1783.663
 70
    32
  0
VERTEX
  8
W72RB2RAMP
 62
2
 10
2128.917
 20
-8069.323
 30
-1782.093
 70
    32
  0
VERTEX
  8
W72RB2RAMP
 62
2
 10
2136.218
 20
-8058.938
 30
-1782.990
 70
    32
  0
VERTEX
  8
W72RB2RAMP
 62
2
 10
2138.470
 20
-8047.320
 30
-1783.696
 70
    32
  0
VERTEX
  8
W72RB2RAMP
 62
2
 10
2146.693
 20
-8034.711
 30
-1786.231
 70
    32
  0
VERTEX
  8
W72RB2RAMP
 62
2
 10
2152.781
 20
-8038.688
 30
-1786.326
 70
    32
  0
VERTEX
  8
W72RB2RAMP
 62
2
 10
2163.590
 20
-8034.341
 30
-1789.233
 70
    32
  0
VERTEX
  8
W72RB2RAMP
 62
2
 10
2171.814
 20
-8025.241
 30
-1791.599
 70
    32
  0
VERTEX
  8
W72RB2RAMP
 62
2
 10
2181.191
 20
-8017.888
 30
-1792.575
 70
    32
  0
VERTEX
  8
W72RB2RAMP
 62
2
 10
2182.280
 20
-8016.529
 30
-1800.516
 70
    32
  0
VERTEX
  8
W72RB2RAMP
 62
2
 10
2184.807
 20
-8013.323
 30
-1801.497
 70
    32
  0
VERTEX
  8
W72RB2RAMP
 62
2
 10
2193.709
 20
-8006.938
 30
-1801.606
 70
    32
  0
VERTEX
  8
W72RB2RAMP
 62
2
 10
2197.973
 20
-8004.064
 30
-1799.669
 70
    32
  0
VERTEX
  8
W72RB2RAMP
 62
2
 10
2205.200
 20
-8012.975
 30
-1800.227
 70
    32
  0
VERTEX
  8
W72RB2RAMP
 62
2
 10
2190.964
 20
-8024.152
 30
-1799.859
 70
    32
  0
VERTEX
  8
W72RB2RAMP
 62
2
 10
2190.210
 20
-8025.649
 30
-1792.737
 70
    32
  0
VERTEX
  8
W72RB2RAMP
 62
2
 10
2176.663
 20
-8038.030
 30
-1791.412
 70
    32
  0
VERTEX
  8
W72RB2RAMP
 62
2
 10
2165.032
 20
-8048.337
 30
-1787.636
 70
    32
  0
VERTEX
  8
W72RB2RAMP
 62
2
 10
2155.642
 20
-8055.127
 30
-1785.345
 70
    32
  0
VERTEX
  8
W72RB2RAMP
 62
2
 10
2148.174
 20
-8063.024
 30
-1783.761
 70
    32
  0
VERTEX
  8
W72RB2RAMP
 62
2
 10
2141.787
 20
-8073.294
 30
-1782.878
 70
    32
  0
VERTEX
  8
W72RB2RAMP
 62
2
 10
2131.999
 20
-8085.949
 30
-1783.825
 70
    32
  0
VERTEX
  8
W72RB2RAMP
 62
2
 10
2134.318
 20
-8087.554
 30
-1784.001
 70
    32
  0
VERTEX
  8
W72RB2RAMP
 62
2
 10
2144.170
 20
-8085.327
 30
-1784.177
 70
    32
  0
VERTEX
  8
W72RB2RAMP
 62
2
 10
2146.100
 20
-8086.049
 30
-1784.776
 70
    32
  0
VERTEX
  8
W72RB2RAMP
 62
2
 10
2156.359
 20
-8084.314
 30
-1782.953
 70
    32
  0
VERTEX
  8
W72RB2RAMP
 62
2
 10
2157.172
 20
-8084.752
 30
-1782.827
 70
    32
  0
VERTEX
  8
W72RB2RAMP
 62
2
 10
2166.923
 20
-8083.353
 30
-1783.571
 70
    32
  0
VERTEX
  8
W72RB2RAMP
 62
2
 10
2176.723
 20
-8082.715
 30
-1783.347
 70
    32
  0
VERTEX
  8
W72RB2RAMP
 62
2
 10
2188.955
 20
-8084.595
 30
-1785.692
 70
    32
  0
VERTEX
  8
W72RB2RAMP
 62
2
 10
2201.853
 20
-8089.742
 30
-1789.198
 70
    32
  0
VERTEX
  8
W72RB2RAMP
 62
2
 10
2217.583
 20
-8096.293
 30
-1792.531
 70
    32
  0
VERTEX
  8
W72RB2RAMP
 62
2
 10
2215.488
 20
-8103.061
 30
-1791.826
 70
    32
  0
VERTEX
  8
W72RB2RAMP
 62
2
 10
2210.748
 20
-8110.229
 30
-1791.942
 70
    32
  0
VERTEX
  8
W72RB2RAMP
 62
2
 10
2203.752
 20
-8102.552
 30
-1788.310
 70
    32
  0
VERTEX
  8
W72RB2RAMP
 62
2
 10
2193.016
 20
-8098.655
 30
-1785.932
 70
    32
  0
VERTEX
  8
W72RB2RAMP
 62
2
 10
2180.552
 20
-8094.767
 30
-1784.489
 70
    32
  0
VERTEX
  8
W72RB2RAMP
 62
2
 10
2177.261
 20
-8093.246
 30
-1784.181
 70
    32
  0
VERTEX
  8
W72RB2RAMP
 62
2
 10
2167.319
 20
-8094.222
 30
-1784.028
 70
    32
  0
VERTEX
  8
W72RB2RAMP
 62
2
 10
2167.137
 20
-8095.980
 30
-1784.535
 70
    32
  0
VERTEX
  8
W72RB2RAMP
 62
2
 10
2156.888
 20
-8095.508
 30
-1784.934
 70
    32
  0
VERTEX
  8
W72RB2RAMP
 62
2
 10
2148.935
 20
-8095.345
 30
-1784.753
 70
    32
  0
VERTEX
  8
W72RB2RAMP
 62
2
 10
2139.434
 20
-8097.529
 30
-1784.356
 70
    32
  0
VERTEX
  8
W72RB2RAMP
 62
2
 10
2138.121
 20
-8099.081
 30
-1784.215
 70
    32
  0
VERTEX
  8
W72RB2RAMP
 62
2
 10
2128.974
 20
-8100.291
 30
-1784.564
 70
    32
  0
VERTEX
  8
W72RB2RAMP
 62
2
 10
2128.611
 20
-8100.543
 30
-1784.972
 70
    32
  0
VERTEX
  8
W72RB2RAMP
 62
2
 10
2118.411
 20
-8101.504
 30
-1783.038
 70
    32
  0
VERTEX
  8
W72RB2RAMP
 62
2
 10
2115.161
 20
-8104.512
 30
-1784.292
 70
    32
  0
VERTEX
  8
W72RB2RAMP
 62
2
 10
2100.067
 20
-8121.216
 30
-1785.730
 70
    32
  0
VERTEX
  8
W72RB2RAMP
 62
2
 10
2079.613
 20
-8145.868
 30
-1789.466
 70
    32
  0
VERTEX
  8
W72RB2RAMP
 62
2
 10
2055.589
 20
-8180.092
 30
-1799.725
 70
    32
  0
VERTEX
  8
W72RB2RAMP
 62
2
 10
2036.884
 20
-8204.256
 30
-1805.208
 70
    32
  0
VERTEX
  8
W72RB2RAMP
 62
2
 10
2013.795
 20
-8227.672
 30
-1812.354
 70
    32
  0
VERTEX
  8
W72RB2RAMP
 62
2
 10
2011.703
 20
-8230.127
 30
-1812.880
 70
    32
  0
VERTEX
  8
W72RB2RAMP
 62
2
 10
2006.390
 20
-8238.298
 30
-1816.014
 70
    32
  0
VERTEX
  8
W72RB2RAMP
 62
2
 10
2002.710
 20
-8247.433
 30
-1818.106
 70
    32
  0
VERTEX
  8
W72RB2RAMP
 62
2
 10
2001.507
 20
-8250.580
 30
-1816.646
 70
    32
  0
VERTEX
  8
W72RB2RAMP
 62
2
 10
2000.624
 20
-8255.122
 30
-1817.002
 70
    32
  0
VERTEX
  8
W72RB2RAMP
 62
2
 10
2004.357
 20
-8259.931
 30
-1820.092
 70
    32
  0
VERTEX
  8
W72RB2RAMP
 62
2
 10
2009.509
 20
-8258.439
 30
-1821.037
 70
    32
  0
SEQEND
  8
W72RB2RAMP
  0
POLYLINE
  8
W72RB2RAMP
 62
8
 66
     1
 70
     8
  0
VERTEX
  8
W72RB2RAMP
 62
8
 10
2144.586
 20
-7983.442
 30
-1878.740
 70
    32
  0
VERTEX
  8
W72RB2RAMP
 62
8
 10
2149.026
 20
-7994.622
 30
-1875.496
 70
    32
  0
VERTEX
  8
W72RB2RAMP
 62
8
 10
2147.739
 20
-8003.190
 30
-1872.809
 70
    32
  0
VERTEX
  8
W72RB2RAMP
 62
8
 10
2149.119
 20
-8004.171
 30
-1873.625
 70
    32
  0
VERTEX
  8
W72RB2RAMP
 62
8
 10
2146.646
 20
-8013.782
 30
-1872.768
 70
    32
  0
VERTEX
  8
W72RB2RAMP
 62
8
 10
2145.989
 20
-8022.467
 30
-1875.937
 70
    32
  0
VERTEX
  8
W72RB2RAMP
 62
8
 10
2144.224
 20
-8036.296
 30
-1878.120
 70
    32
  0
VERTEX
  8
W72RB2RAMP
 62
8
 10
2145.836
 20
-8037.650
 30
-1878.131
 70
    32
  0
VERTEX
  8
W72RB2RAMP
 62
8
 10
2146.392
 20
-8048.061
 30
-1879.432
 70
    32
  0
VERTEX
  8
W72RB2RAMP
 62
8
 10
2148.512
 20
-8049.739
 30
-1880.754
 70
    32
  0
VERTEX
  8
W72RB2RAMP
 62
8
 10
2147.426
 20
-8066.847
 30
-1882.467
 70
    32
  0
VERTEX
  8
W72RB2RAMP
 62
8
 10
2156.372
 20
-8067.025
 30
-1882.467
 70
    32
  0
VERTEX
  8
W72RB2RAMP
 62
8
 10
2165.275
 20
-8066.127
 30
-1882.467
 70
    32
  0
VERTEX
  8
W72RB2RAMP
 62
8
 10
2159.678
 20
-8050.992
 30
-1880.496
 70
    32
  0
VERTEX
  8
W72RB2RAMP
 62
8
 10
2158.429
 20
-8043.791
 30
-1878.829
 70
    32
  0
VERTEX
  8
W72RB2RAMP
 62
8
 10
2156.420
 20
-8038.775
 30
-1877.616
 70
    32
  0
VERTEX
  8
W72RB2RAMP
 62
8
 10
2155.532
 20
-8028.222
 30
-1876.941
 70
    32
  0
VERTEX
  8
W72RB2RAMP
 62
8
 10
2155.410
 20
-8018.711
 30
-1873.531
 70
    32
  0
VERTEX
  8
W72RB2RAMP
 62
8
 10
2157.552
 20
-8015.300
 30
-1872.742
 70
    32
  0
VERTEX
  8
W72RB2RAMP
 62
8
 10
2158.050
 20
-7999.994
 30
-1873.555
 70
    32
  0
VERTEX
  8
W72RB2RAMP
 62
8
 10
2160.218
 20
-7998.615
 30
-1871.994
 70
    32
  0
SEQEND
  8
W72RB2RAMP
  0
ENDSEC
  0
EOF
