999
********************************
999
*   DXF File - Entities Only   *
999
*        3D Data Format        *
999
*     Output from ENVISAGE     *
999
*     28-Dec-2007 13:28:21     *
999
********************************
  0
SECTION 
  2
HEADER
  9
$ACADVER
  1
AC1009
  9
$EXTMIN
 10
-290000.000
 20
-250000.000
 30
-4000.000
  9
$EXTMAX
 10
5000000.000
 20
600000.000
 30
6000.000
  0
ENDSEC
  0
SECTION
  2
ENTITIES
  0
LINE
  8
W77RA2RAMP
 62
2
 10
1948.842
 20
-7074.854
 30
-2309.842
 11
1948.398
 21
-7073.748
 31
-2309.641
  0
LINE
  8
W77RA2RAMP
 62
2
 10
2024.240
 20
-7107.205
 30
-2321.392
 11
2023.837
 21
-7107.604
 31
-2321.333
  0
POLYLINE
  8
W77RA2RAMP
 62
2
 66
     1
 70
     9
  0
VERTEX
  8
W77RA2RAMP
 62
2
 10
1816.760
 20
-6724.780
 30
-2260.776
 70
    32
  0
VERTEX
  8
W77RA2RAMP
 62
2
 10
1817.787
 20
-6721.145
 30
-2261.357
 70
    32
  0
VERTEX
  8
W77RA2RAMP
 62
2
 10
1818.321
 20
-6719.256
 30
-2261.626
 70
    32
  0
VERTEX
  8
W77RA2RAMP
 62
2
 10
1821.699
 20
-6707.308
 30
-2263.435
 70
    32
  0
VERTEX
  8
W77RA2RAMP
 62
2
 10
1822.211
 20
-6700.441
 30
-2264.437
 70
    32
  0
VERTEX
  8
W77RA2RAMP
 62
2
 10
1823.133
 20
-6695.180
 30
-2265.218
 70
    32
  0
VERTEX
  8
W77RA2RAMP
 62
2
 10
1825.470
 20
-6681.834
 30
-2267.130
 70
    32
  0
VERTEX
  8
W77RA2RAMP
 62
2
 10
1826.835
 20
-6674.046
 30
-2268.537
 70
    32
  0
VERTEX
  8
W77RA2RAMP
 62
2
 10
1832.556
 20
-6641.385
 30
-2273.897
 70
    32
  0
VERTEX
  8
W77RA2RAMP
 62
2
 10
1832.672
 20
-6640.721
 30
-2273.942
 70
    32
  0
VERTEX
  8
W77RA2RAMP
 62
2
 10
1832.896
 20
-6639.443
 30
-2273.935
 70
    32
  0
VERTEX
  8
W77RA2RAMP
 62
2
 10
1838.370
 20
-6608.194
 30
-2272.950
 70
    32
  0
VERTEX
  8
W77RA2RAMP
 62
2
 10
1839.214
 20
-6603.800
 30
-2272.813
 70
    32
  0
VERTEX
  8
W77RA2RAMP
 62
2
 10
1840.387
 20
-6597.694
 30
-2272.416
 70
    32
  0
VERTEX
  8
W77RA2RAMP
 62
2
 10
1843.462
 20
-6581.678
 30
-2268.754
 70
    32
  0
VERTEX
  8
W77RA2RAMP
 62
2
 10
1849.363
 20
-6568.579
 30
-2265.524
 70
    32
  0
VERTEX
  8
W77RA2RAMP
 62
2
 10
1849.497
 20
-6568.379
 30
-2265.472
 70
    32
  0
VERTEX
  8
W77RA2RAMP
 62
2
 10
1853.724
 20
-6562.058
 30
-2263.611
 70
    32
  0
VERTEX
  8
W77RA2RAMP
 62
2
 10
1855.945
 20
-6558.737
 30
-2262.639
 70
    32
  0
VERTEX
  8
W77RA2RAMP
 62
2
 10
1859.985
 20
-6554.714
 30
-2261.287
 70
    32
  0
VERTEX
  8
W77RA2RAMP
 62
2
 10
1873.101
 20
-6541.653
 30
-2257.183
 70
    32
  0
VERTEX
  8
W77RA2RAMP
 62
2
 10
1874.896
 20
-6540.103
 30
-2256.658
 70
    32
  0
VERTEX
  8
W77RA2RAMP
 62
2
 10
1880.676
 20
-6535.110
 30
-2255.715
 70
    32
  0
VERTEX
  8
W77RA2RAMP
 62
2
 10
1894.443
 20
-6523.217
 30
-2253.596
 70
    32
  0
VERTEX
  8
W77RA2RAMP
 62
2
 10
1910.966
 20
-6515.203
 30
-2251.519
 70
    32
  0
VERTEX
  8
W77RA2RAMP
 62
2
 10
1918.382
 20
-6527.062
 30
-2251.742
 70
    32
  0
VERTEX
  8
W77RA2RAMP
 62
2
 10
1908.226
 20
-6529.754
 30
-2252.852
 70
    32
  0
VERTEX
  8
W77RA2RAMP
 62
2
 10
1907.035
 20
-6530.366
 30
-2253.004
 70
    32
  0
VERTEX
  8
W77RA2RAMP
 62
2
 10
1889.449
 20
-6539.398
 30
-2255.329
 70
    32
  0
VERTEX
  8
W77RA2RAMP
 62
2
 10
1888.854
 20
-6540.086
 30
-2255.441
 70
    32
  0
VERTEX
  8
W77RA2RAMP
 62
2
 10
1882.113
 20
-6547.883
 30
-2256.706
 70
    32
  0
VERTEX
  8
W77RA2RAMP
 62
2
 10
1880.466
 20
-6549.788
 30
-2257.365
 70
    32
  0
VERTEX
  8
W77RA2RAMP
 62
2
 10
1872.697
 20
-6558.682
 30
-2260.458
 70
    32
  0
VERTEX
  8
W77RA2RAMP
 62
2
 10
1866.460
 20
-6565.823
 30
-2262.738
 70
    32
  0
VERTEX
  8
W77RA2RAMP
 62
2
 10
1865.587
 20
-6566.848
 30
-2263.062
 70
    32
  0
VERTEX
  8
W77RA2RAMP
 62
2
 10
1864.461
 20
-6568.829
 30
-2263.616
 70
    32
  0
VERTEX
  8
W77RA2RAMP
 62
2
 10
1855.609
 20
-6584.391
 30
-2267.994
 70
    32
  0
VERTEX
  8
W77RA2RAMP
 62
2
 10
1854.530
 20
-6587.556
 30
-2268.791
 70
    32
  0
VERTEX
  8
W77RA2RAMP
 62
2
 10
1850.221
 20
-6600.192
 30
-2272.279
 70
    32
  0
VERTEX
  8
W77RA2RAMP
 62
2
 10
1847.439
 20
-6608.350
 30
-2272.837
 70
    32
  0
VERTEX
  8
W77RA2RAMP
 62
2
 10
1847.126
 20
-6609.267
 30
-2272.901
 70
    32
  0
VERTEX
  8
W77RA2RAMP
 62
2
 10
1845.828
 20
-6617.374
 30
-2273.419
 70
    32
  0
VERTEX
  8
W77RA2RAMP
 62
2
 10
1843.351
 20
-6632.845
 30
-2273.912
 70
    32
  0
VERTEX
  8
W77RA2RAMP
 62
2
 10
1844.740
 20
-6633.785
 30
-2273.972
 70
    32
  0
VERTEX
  8
W77RA2RAMP
 62
2
 10
1847.183
 20
-6635.437
 30
-2273.997
 70
    32
  0
VERTEX
  8
W77RA2RAMP
 62
2
 10
1848.587
 20
-6636.386
 30
-2273.939
 70
    32
  0
VERTEX
  8
W77RA2RAMP
 62
2
 10
1851.209
 20
-6635.956
 30
-2273.882
 70
    32
  0
VERTEX
  8
W77RA2RAMP
 62
2
 10
1879.285
 20
-6631.344
 30
-2275.196
 70
    32
  0
VERTEX
  8
W77RA2RAMP
 62
2
 10
1887.461
 20
-6630.000
 30
-2275.569
 70
    32
  0
VERTEX
  8
W77RA2RAMP
 62
2
 10
1916.420
 20
-6623.550
 30
-2276.901
 70
    32
  0
VERTEX
  8
W77RA2RAMP
 62
2
 10
1926.299
 20
-6620.625
 30
-2277.361
 70
    32
  0
VERTEX
  8
W77RA2RAMP
 62
2
 10
1922.486
 20
-6633.060
 30
-2277.104
 70
    32
  0
VERTEX
  8
W77RA2RAMP
 62
2
 10
1921.979
 20
-6634.713
 30
-2277.060
 70
    32
  0
VERTEX
  8
W77RA2RAMP
 62
2
 10
1887.671
 20
-6639.853
 30
-2275.461
 70
    32
  0
VERTEX
  8
W77RA2RAMP
 62
2
 10
1850.721
 20
-6645.811
 30
-2273.733
 70
    32
  0
VERTEX
  8
W77RA2RAMP
 62
2
 10
1849.508
 20
-6646.711
 30
-2273.668
 70
    32
  0
VERTEX
  8
W77RA2RAMP
 62
2
 10
1846.751
 20
-6648.755
 30
-2273.689
 70
    32
  0
VERTEX
  8
W77RA2RAMP
 62
2
 10
1845.967
 20
-6649.337
 30
-2273.637
 70
    32
  0
VERTEX
  8
W77RA2RAMP
 62
2
 10
1840.001
 20
-6653.762
 30
-2272.544
 70
    32
  0
VERTEX
  8
W77RA2RAMP
 62
2
 10
1838.786
 20
-6661.537
 30
-2271.279
 70
    32
  0
VERTEX
  8
W77RA2RAMP
 62
2
 10
1837.295
 20
-6671.081
 30
-2269.563
 70
    32
  0
VERTEX
  8
W77RA2RAMP
 62
2
 10
1835.180
 20
-6684.619
 30
-2267.130
 70
    32
  0
VERTEX
  8
W77RA2RAMP
 62
2
 10
1832.694
 20
-6700.531
 30
-2264.727
 70
    32
  0
VERTEX
  8
W77RA2RAMP
 62
2
 10
1832.520
 20
-6710.127
 30
-2263.332
 70
    32
  0
VERTEX
  8
W77RA2RAMP
 62
2
 10
1831.665
 20
-6713.922
 30
-2262.748
 70
    32
  0
VERTEX
  8
W77RA2RAMP
 62
2
 10
1830.287
 20
-6720.037
 30
-2261.831
 70
    32
  0
VERTEX
  8
W77RA2RAMP
 62
2
 10
1830.225
 20
-6720.316
 30
-2261.792
 70
    32
  0
SEQEND
  8
W77RA2RAMP
  0
POLYLINE
  8
W77RA2RAMP
 62
2
 66
     1
 70
     9
  0
VERTEX
  8
W77RA2RAMP
 62
2
 10
1938.691
 20
-6963.965
 30
-2289.369
 70
    32
  0
VERTEX
  8
W77RA2RAMP
 62
2
 10
1938.903
 20
-6963.527
 30
-2289.462
 70
    32
  0
VERTEX
  8
W77RA2RAMP
 62
2
 10
1944.501
 20
-6961.621
 30
-2290.286
 70
    32
  0
VERTEX
  8
W77RA2RAMP
 62
2
 10
1947.412
 20
-6958.541
 30
-2291.071
 70
    32
  0
VERTEX
  8
W77RA2RAMP
 62
2
 10
1952.564
 20
-6953.092
 30
-2292.546
 70
    32
  0
VERTEX
  8
W77RA2RAMP
 62
2
 10
1952.567
 20
-6953.088
 30
-2292.547
 70
    32
  0
VERTEX
  8
W77RA2RAMP
 62
2
 10
2040.733
 20
-6912.234
 30
-2307.373
 70
    32
  0
VERTEX
  8
W77RA2RAMP
 62
2
 10
2057.476
 20
-6904.475
 30
-2310.189
 70
    32
  0
VERTEX
  8
W77RA2RAMP
 62
2
 10
2053.114
 20
-6895.475
 30
-2311.499
 70
    32
  0
VERTEX
  8
W77RA2RAMP
 62
2
 10
1976.312
 20
-6931.064
 30
-2298.583
 70
    32
  0
VERTEX
  8
W77RA2RAMP
 62
2
 10
1951.400
 20
-6942.608
 30
-2294.394
 70
    32
  0
VERTEX
  8
W77RA2RAMP
 62
2
 10
1947.361
 20
-6944.479
 30
-2293.685
 70
    32
  0
VERTEX
  8
W77RA2RAMP
 62
2
 10
1945.684
 20
-6943.309
 30
-2293.753
 70
    32
  0
VERTEX
  8
W77RA2RAMP
 62
2
 10
1943.010
 20
-6941.443
 30
-2293.483
 70
    32
  0
VERTEX
  8
W77RA2RAMP
 62
2
 10
1943.198
 20
-6941.042
 30
-2293.555
 70
    32
  0
VERTEX
  8
W77RA2RAMP
 62
2
 10
1952.338
 20
-6921.586
 30
-2298.380
 70
    32
  0
VERTEX
  8
W77RA2RAMP
 62
2
 10
1960.927
 20
-6903.304
 30
-2302.438
 70
    32
  0
VERTEX
  8
W77RA2RAMP
 62
2
 10
1973.571
 20
-6876.390
 30
-2308.470
 70
    32
  0
VERTEX
  8
W77RA2RAMP
 62
2
 10
1982.659
 20
-6857.046
 30
-2308.470
 70
    32
  0
VERTEX
  8
W77RA2RAMP
 62
2
 10
1987.829
 20
-6846.041
 30
-2308.470
 70
    32
  0
VERTEX
  8
W77RA2RAMP
 62
2
 10
1978.744
 20
-6842.730
 30
-2308.470
 70
    32
  0
VERTEX
  8
W77RA2RAMP
 62
2
 10
1977.216
 20
-6845.171
 30
-2308.470
 70
    32
  0
VERTEX
  8
W77RA2RAMP
 62
2
 10
1975.206
 20
-6844.839
 30
-2308.470
 70
    32
  0
VERTEX
  8
W77RA2RAMP
 62
2
 10
1973.867
 20
-6844.618
 30
-2308.470
 70
    32
  0
VERTEX
  8
W77RA2RAMP
 62
2
 10
1973.780
 20
-6839.143
 30
-2308.470
 70
    32
  0
VERTEX
  8
W77RA2RAMP
 62
2
 10
1973.313
 20
-6809.577
 30
-2308.470
 70
    32
  0
VERTEX
  8
W77RA2RAMP
 62
2
 10
1973.295
 20
-6808.413
 30
-2308.470
 70
    32
  0
VERTEX
  8
W77RA2RAMP
 62
2
 10
1975.410
 20
-6792.407
 30
-2308.470
 70
    32
  0
VERTEX
  8
W77RA2RAMP
 62
2
 10
1959.348
 20
-6758.960
 30
-2308.470
 70
    32
  0
VERTEX
  8
W77RA2RAMP
 62
2
 10
1961.210
 20
-6839.318
 30
-2308.470
 70
    32
  0
VERTEX
  8
W77RA2RAMP
 62
2
 10
1961.309
 20
-6843.598
 30
-2308.470
 70
    32
  0
VERTEX
  8
W77RA2RAMP
 62
2
 10
1961.395
 20
-6847.315
 30
-2308.470
 70
    32
  0
VERTEX
  8
W77RA2RAMP
 62
2
 10
1961.056
 20
-6850.053
 30
-2308.470
 70
    32
  0
VERTEX
  8
W77RA2RAMP
 62
2
 10
1958.671
 20
-6869.267
 30
-2308.470
 70
    32
  0
VERTEX
  8
W77RA2RAMP
 62
2
 10
1958.754
 20
-6870.107
 30
-2308.470
 70
    32
  0
VERTEX
  8
W77RA2RAMP
 62
2
 10
1959.924
 20
-6881.921
 30
-2306.353
 70
    32
  0
VERTEX
  8
W77RA2RAMP
 62
2
 10
1954.699
 20
-6893.042
 30
-2303.884
 70
    32
  0
VERTEX
  8
W77RA2RAMP
 62
2
 10
1930.115
 20
-6945.372
 30
-2290.907
 70
    32
  0
VERTEX
  8
W77RA2RAMP
 62
2
 10
1928.105
 20
-6949.652
 30
-2290.144
 70
    32
  0
SEQEND
  8
W77RA2RAMP
  0
POLYLINE
  8
W77RA2RAMP
 62
2
 66
     1
 70
     9
  0
VERTEX
  8
W77RA2RAMP
 62
2
 10
2021.438
 20
-7113.192
 30
-2320.735
 70
    32
  0
VERTEX
  8
W77RA2RAMP
 62
2
 10
2020.723
 20
-7115.144
 30
-2320.743
 70
    32
  0
VERTEX
  8
W77RA2RAMP
 62
2
 10
2019.466
 20
-7118.572
 30
-2320.983
 70
    32
  0
VERTEX
  8
W77RA2RAMP
 62
2
 10
2019.076
 20
-7119.635
 30
-2321.047
 70
    32
  0
VERTEX
  8
W77RA2RAMP
 62
2
 10
2017.005
 20
-7128.472
 30
-2321.618
 70
    32
  0
VERTEX
  8
W77RA2RAMP
 62
2
 10
2020.382
 20
-7144.800
 30
-2322.929
 70
    32
  0
VERTEX
  8
W77RA2RAMP
 62
2
 10
2021.116
 20
-7148.349
 30
-2323.276
 70
    32
  0
VERTEX
  8
W77RA2RAMP
 62
2
 10
2021.146
 20
-7148.497
 30
-2323.287
 70
    32
  0
VERTEX
  8
W77RA2RAMP
 62
2
 10
2025.233
 20
-7158.290
 30
-2324.084
 70
    32
  0
VERTEX
  8
W77RA2RAMP
 62
2
 10
2041.180
 20
-7195.337
 30
-2327.108
 70
    32
  0
VERTEX
  8
W77RA2RAMP
 62
2
 10
2042.933
 20
-7199.410
 30
-2327.414
 70
    32
  0
VERTEX
  8
W77RA2RAMP
 62
2
 10
2050.332
 20
-7209.461
 30
-2328.288
 70
    32
  0
VERTEX
  8
W77RA2RAMP
 62
2
 10
2050.898
 20
-7210.230
 30
-2328.354
 70
    32
  0
VERTEX
  8
W77RA2RAMP
 62
2
 10
2052.588
 20
-7210.304
 30
-2328.421
 70
    32
  0
VERTEX
  8
W77RA2RAMP
 62
2
 10
2043.406
 20
-7223.792
 30
-2328.843
 70
    32
  0
VERTEX
  8
W77RA2RAMP
 62
2
 10
2042.933
 20
-7222.674
 30
-2328.762
 70
    32
  0
VERTEX
  8
W77RA2RAMP
 62
2
 10
2039.886
 20
-7216.427
 30
-2328.291
 70
    32
  0
VERTEX
  8
W77RA2RAMP
 62
2
 10
2014.170
 20
-7163.701
 30
-2324.212
 70
    32
  0
VERTEX
  8
W77RA2RAMP
 62
2
 10
2013.340
 20
-7161.162
 30
-2324.031
 70
    32
  0
VERTEX
  8
W77RA2RAMP
 62
2
 10
2012.400
 20
-7158.290
 30
-2323.803
 70
    32
  0
VERTEX
  8
W77RA2RAMP
 62
2
 10
2010.412
 20
-7151.567
 30
-2323.274
 70
    32
  0
VERTEX
  8
W77RA2RAMP
 62
2
 10
2008.900
 20
-7146.452
 30
-2322.762
 70
    32
  0
VERTEX
  8
W77RA2RAMP
 62
2
 10
2003.690
 20
-7140.990
 30
-2322.115
 70
    32
  0
VERTEX
  8
W77RA2RAMP
 62
2
 10
2003.901
 20
-7138.187
 30
-2321.863
 70
    32
  0
VERTEX
  8
W77RA2RAMP
 62
2
 10
2004.257
 20
-7133.458
 30
-2321.530
 70
    32
  0
VERTEX
  8
W77RA2RAMP
 62
2
 10
2004.294
 20
-7132.964
 30
-2321.488
 70
    32
  0
VERTEX
  8
W77RA2RAMP
 62
2
 10
2003.405
 20
-7129.087
 30
-2321.099
 70
    32
  0
VERTEX
  8
W77RA2RAMP
 62
2
 10
2000.010
 20
-7120.977
 30
-2320.205
 70
    32
  0
VERTEX
  8
W77RA2RAMP
 62
2
 10
1999.535
 20
-7119.843
 30
-2320.173
 70
    32
  0
VERTEX
  8
W77RA2RAMP
 62
2
 10
1999.392
 20
-7119.867
 30
-2320.169
 70
    32
  0
VERTEX
  8
W77RA2RAMP
 62
2
 10
1997.145
 20
-7120.243
 30
-2319.973
 70
    32
  0
VERTEX
  8
W77RA2RAMP
 62
2
 10
1995.878
 20
-7120.455
 30
-2319.754
 70
    32
  0
SEQEND
  8
W77RA2RAMP
  0
POLYLINE
  8
W77RA2RAMP
 62
2
 66
     1
 70
     9
  0
VERTEX
  8
W77RA2RAMP
 62
2
 10
2187.553
 20
-7015.167
 30
-2325.996
 70
    32
  0
VERTEX
  8
W77RA2RAMP
 62
2
 10
2197.629
 20
-7009.460
 30
-2328.317
 70
    32
  0
VERTEX
  8
W77RA2RAMP
 62
2
 10
2206.413
 20
-7004.623
 30
-2330.321
 70
    32
  0
VERTEX
  8
W77RA2RAMP
 62
2
 10
2219.019
 20
-6998.037
 30
-2330.890
 70
    32
  0
VERTEX
  8
W77RA2RAMP
 62
2
 10
2228.635
 20
-6992.498
 30
-2331.084
 70
    32
  0
VERTEX
  8
W77RA2RAMP
 62
2
 10
2236.326
 20
-6988.022
 30
-2331.238
 70
    32
  0
VERTEX
  8
W77RA2RAMP
 62
2
 10
2240.349
 20
-6986.043
 30
-2331.316
 70
    32
  0
VERTEX
  8
W77RA2RAMP
 62
2
 10
2246.790
 20
-6979.471
 30
-2331.000
 70
    32
  0
VERTEX
  8
W77RA2RAMP
 62
2
 10
2249.720
 20
-6996.327
 30
-2331.000
 70
    32
  0
VERTEX
  8
W77RA2RAMP
 62
2
 10
2242.819
 20
-6997.898
 30
-2331.248
 70
    32
  0
VERTEX
  8
W77RA2RAMP
 62
2
 10
2230.708
 20
-7006.387
 30
-2330.965
 70
    32
  0
VERTEX
  8
W77RA2RAMP
 62
2
 10
2220.514
 20
-7011.903
 30
-2330.733
 70
    32
  0
VERTEX
  8
W77RA2RAMP
 62
2
 10
2213.250
 20
-7015.358
 30
-2330.340
 70
    32
  0
VERTEX
  8
W77RA2RAMP
 62
2
 10
2205.985
 20
-7018.554
 30
-2328.766
 70
    32
  0
VERTEX
  8
W77RA2RAMP
 62
2
 10
2200.635
 20
-7020.920
 30
-2327.598
 70
    32
  0
VERTEX
  8
W77RA2RAMP
 62
2
 10
2194.251
 20
-7024.527
 30
-2326.173
 70
    32
  0
VERTEX
  8
W77RA2RAMP
 62
2
 10
2187.553
 20
-7015.167
 30
-2325.996
 70
    32
  0
SEQEND
  8
W77RA2RAMP
  0
POLYLINE
  8
W77RA2RAMP
 62
2
 66
     1
 70
     9
  0
VERTEX
  8
W77RA2RAMP
 62
2
 10
2151.739
 20
-7036.103
 30
-2319.882
 70
    32
  0
VERTEX
  8
W77RA2RAMP
 62
2
 10
2157.537
 20
-7031.974
 30
-2321.501
 70
    32
  0
VERTEX
  8
W77RA2RAMP
 62
2
 10
2162.184
 20
-7027.893
 30
-2322.230
 70
    32
  0
VERTEX
  8
W77RA2RAMP
 62
2
 10
2164.486
 20
-7025.872
 30
-2322.591
 70
    32
  0
VERTEX
  8
W77RA2RAMP
 62
2
 10
2170.870
 20
-7024.095
 30
-2323.350
 70
    32
  0
VERTEX
  8
W77RA2RAMP
 62
2
 10
2179.203
 20
-7019.059
 30
-2324.507
 70
    32
  0
VERTEX
  8
W77RA2RAMP
 62
2
 10
2187.553
 20
-7015.167
 30
-2325.996
 70
    32
  0
VERTEX
  8
W77RA2RAMP
 62
2
 10
2197.657
 20
-7009.877
 30
-2322.477
 70
    32
  0
VERTEX
  8
W77RA2RAMP
 62
2
 10
2208.038
 20
-7004.387
 30
-2320.469
 70
    32
  0
VERTEX
  8
W77RA2RAMP
 62
2
 10
2220.601
 20
-6997.111
 30
-2317.986
 70
    32
  0
VERTEX
  8
W77RA2RAMP
 62
2
 10
2224.206
 20
-6995.023
 30
-2318.795
 70
    32
  0
VERTEX
  8
W77RA2RAMP
 62
2
 10
2226.199
 20
-6993.869
 30
-2319.197
 70
    32
  0
VERTEX
  8
W77RA2RAMP
 62
2
 10
2233.787
 20
-6989.474
 30
-2318.025
 70
    32
  0
VERTEX
  8
W77RA2RAMP
 62
2
 10
2239.895
 20
-6985.937
 30
-2316.739
 70
    32
  0
VERTEX
  8
W77RA2RAMP
 62
2
 10
2241.899
 20
-6984.776
 30
-2318.419
 70
    32
  0
VERTEX
  8
W77RA2RAMP
 62
2
 10
2241.908
 20
-6984.763
 30
-2318.430
 70
    32
  0
VERTEX
  8
W77RA2RAMP
 62
2
 10
2245.290
 20
-6979.533
 30
-2319.391
 70
    32
  0
VERTEX
  8
W77RA2RAMP
 62
2
 10
2247.850
 20
-6975.574
 30
-2319.034
 70
    32
  0
VERTEX
  8
W77RA2RAMP
 62
2
 10
2249.995
 20
-6982.393
 30
-2319.161
 70
    32
  0
VERTEX
  8
W77RA2RAMP
 62
2
 10
2255.146
 20
-6998.774
 30
-2316.859
 70
    32
  0
VERTEX
  8
W77RA2RAMP
 62
2
 10
2250.982
 20
-6999.024
 30
-2316.633
 70
    32
  0
VERTEX
  8
W77RA2RAMP
 62
2
 10
2249.950
 20
-6999.086
 30
-2316.026
 70
    32
  0
VERTEX
  8
W77RA2RAMP
 62
2
 10
2243.607
 20
-6999.466
 30
-2317.118
 70
    32
  0
VERTEX
  8
W77RA2RAMP
 62
2
 10
2235.686
 20
-7003.338
 30
-2318.733
 70
    32
  0
VERTEX
  8
W77RA2RAMP
 62
2
 10
2231.594
 20
-7005.338
 30
-2319.340
 70
    32
  0
VERTEX
  8
W77RA2RAMP
 62
2
 10
2227.578
 20
-7007.301
 30
-2318.553
 70
    32
  0
VERTEX
  8
W77RA2RAMP
 62
2
 10
2225.630
 20
-7008.253
 30
-2318.129
 70
    32
  0
VERTEX
  8
W77RA2RAMP
 62
2
 10
2212.486
 20
-7014.678
 30
-2320.629
 70
    32
  0
VERTEX
  8
W77RA2RAMP
 62
2
 10
2194.251
 20
-7024.527
 30
-2326.173
 70
    32
  0
VERTEX
  8
W77RA2RAMP
 62
2
 10
2187.206
 20
-7028.550
 30
-2324.701
 70
    32
  0
VERTEX
  8
W77RA2RAMP
 62
2
 10
2180.713
 20
-7032.364
 30
-2323.809
 70
    32
  0
VERTEX
  8
W77RA2RAMP
 62
2
 10
2176.073
 20
-7035.470
 30
-2323.148
 70
    32
  0
VERTEX
  8
W77RA2RAMP
 62
2
 10
2171.463
 20
-7039.082
 30
-2322.457
 70
    32
  0
VERTEX
  8
W77RA2RAMP
 62
2
 10
2164.363
 20
-7046.122
 30
-2321.297
 70
    32
  0
VERTEX
  8
W77RA2RAMP
 62
2
 10
2151.739
 20
-7036.103
 30
-2319.882
 70
    32
  0
SEQEND
  8
W77RA2RAMP
  0
POLYLINE
  8
W77RA2RAMP
 62
2
 66
     1
 70
     9
  0
VERTEX
  8
W77RA2RAMP
 62
2
 10
2063.651
 20
-7068.751
 30
-2325.348
 70
    32
  0
VERTEX
  8
W77RA2RAMP
 62
2
 10
2059.964
 20
-7070.113
 30
-2325.500
 70
    32
  0
VERTEX
  8
W77RA2RAMP
 62
2
 10
2056.603
 20
-7071.993
 30
-2325.500
 70
    32
  0
VERTEX
  8
W77RA2RAMP
 62
2
 10
2055.709
 20
-7076.877
 30
-2325.491
 70
    32
  0
VERTEX
  8
W77RA2RAMP
 62
2
 10
2066.085
 20
-7103.317
 30
-2322.794
 70
    32
  0
VERTEX
  8
W77RA2RAMP
 62
2
 10
2067.272
 20
-7103.807
 30
-2322.761
 70
    32
  0
VERTEX
  8
W77RA2RAMP
 62
2
 10
2066.980
 20
-7103.980
 30
-2322.737
 70
    32
  0
VERTEX
  8
W77RA2RAMP
 62
2
 10
2056.409
 20
-7110.233
 30
-2321.895
 70
    32
  0
VERTEX
  8
W77RA2RAMP
 62
2
 10
2056.194
 20
-7108.396
 30
-2322.089
 70
    32
  0
VERTEX
  8
W77RA2RAMP
 62
2
 10
2055.272
 20
-7106.635
 30
-2322.264
 70
    32
  0
VERTEX
  8
W77RA2RAMP
 62
2
 10
2051.690
 20
-7097.698
 30
-2323.168
 70
    32
  0
VERTEX
  8
W77RA2RAMP
 62
2
 10
2047.639
 20
-7087.592
 30
-2324.180
 70
    32
  0
VERTEX
  8
W77RA2RAMP
 62
2
 10
2043.533
 20
-7087.230
 30
-2323.982
 70
    32
  0
VERTEX
  8
W77RA2RAMP
 62
2
 10
2040.591
 20
-7087.774
 30
-2323.758
 70
    32
  0
VERTEX
  8
W77RA2RAMP
 62
2
 10
2039.159
 20
-7090.656
 30
-2323.384
 70
    32
  0
VERTEX
  8
W77RA2RAMP
 62
2
 10
2038.805
 20
-7091.369
 30
-2323.311
 70
    32
  0
VERTEX
  8
W77RA2RAMP
 62
2
 10
2033.719
 20
-7098.540
 30
-2322.514
 70
    32
  0
VERTEX
  8
W77RA2RAMP
 62
2
 10
2031.230
 20
-7101.124
 30
-2322.199
 70
    32
  0
VERTEX
  8
W77RA2RAMP
 62
2
 10
2031.025
 20
-7101.304
 30
-2322.175
 70
    32
  0
VERTEX
  8
W77RA2RAMP
 62
2
 10
2024.498
 20
-7107.025
 30
-2321.424
 70
    32
  0
VERTEX
  8
W77RA2RAMP
 62
2
 10
2023.837
 20
-7107.604
 30
-2321.333
 70
    32
  0
VERTEX
  8
W77RA2RAMP
 62
2
 10
2022.983
 20
-7108.979
 30
-2321.167
 70
    32
  0
VERTEX
  8
W77RA2RAMP
 62
2
 10
2021.438
 20
-7113.192
 30
-2320.735
 70
    32
  0
VERTEX
  8
W77RA2RAMP
 62
2
 10
1995.878
 20
-7120.455
 30
-2319.754
 70
    32
  0
VERTEX
  8
W77RA2RAMP
 62
2
 10
1988.971
 20
-7120.550
 30
-2318.567
 70
    32
  0
VERTEX
  8
W77RA2RAMP
 62
2
 10
1986.389
 20
-7120.585
 30
-2318.284
 70
    32
  0
VERTEX
  8
W77RA2RAMP
 62
2
 10
1977.695
 20
-7119.400
 30
-2317.333
 70
    32
  0
VERTEX
  8
W77RA2RAMP
 62
2
 10
1968.807
 20
-7116.415
 30
-2316.360
 70
    32
  0
VERTEX
  8
W77RA2RAMP
 62
2
 10
1968.716
 20
-7116.363
 30
-2316.350
 70
    32
  0
VERTEX
  8
W77RA2RAMP
 62
2
 10
1964.900
 20
-7114.172
 30
-2315.719
 70
    32
  0
VERTEX
  8
W77RA2RAMP
 62
2
 10
1962.836
 20
-7112.987
 30
-2315.362
 70
    32
  0
VERTEX
  8
W77RA2RAMP
 62
2
 10
1958.762
 20
-7109.717
 30
-2314.594
 70
    32
  0
VERTEX
  8
W77RA2RAMP
 62
2
 10
1956.627
 20
-7108.003
 30
-2314.288
 70
    32
  0
VERTEX
  8
W77RA2RAMP
 62
2
 10
1949.604
 20
-7100.796
 30
-2313.113
 70
    32
  0
VERTEX
  8
W77RA2RAMP
 62
2
 10
1945.864
 20
-7096.869
 30
-2312.477
 70
    32
  0
VERTEX
  8
W77RA2RAMP
 62
2
 10
1941.444
 20
-7088.471
 30
-2311.319
 70
    32
  0
VERTEX
  8
W77RA2RAMP
 62
2
 10
1941.376
 20
-7088.322
 30
-2311.299
 70
    32
  0
VERTEX
  8
W77RA2RAMP
 62
2
 10
1939.061
 20
-7083.263
 30
-2310.356
 70
    32
  0
VERTEX
  8
W77RA2RAMP
 62
2
 10
1936.631
 20
-7077.228
 30
-2309.258
 70
    32
  0
VERTEX
  8
W77RA2RAMP
 62
2
 10
1934.376
 20
-7067.079
 30
-2307.557
 70
    32
  0
VERTEX
  8
W77RA2RAMP
 62
2
 10
1932.600
 20
-7053.463
 30
-2305.374
 70
    32
  0
VERTEX
  8
W77RA2RAMP
 62
2
 10
1931.304
 20
-7048.633
 30
-2304.547
 70
    32
  0
VERTEX
  8
W77RA2RAMP
 62
2
 10
1925.749
 20
-7027.934
 30
-2300.988
 70
    32
  0
VERTEX
  8
W77RA2RAMP
 62
2
 10
1921.540
 20
-7012.248
 30
-2297.850
 70
    32
  0
VERTEX
  8
W77RA2RAMP
 62
2
 10
1917.340
 20
-7005.993
 30
-2296.650
 70
    32
  0
VERTEX
  8
W77RA2RAMP
 62
2
 10
1916.497
 20
-7004.737
 30
-2296.464
 70
    32
  0
VERTEX
  8
W77RA2RAMP
 62
2
 10
1914.491
 20
-7006.184
 30
-2296.843
 70
    32
  0
VERTEX
  8
W77RA2RAMP
 62
2
 10
1914.046
 20
-7006.506
 30
-2296.875
 70
    32
  0
VERTEX
  8
W77RA2RAMP
 62
2
 10
1912.589
 20
-7008.832
 30
-2297.185
 70
    32
  0
VERTEX
  8
W77RA2RAMP
 62
2
 10
1910.109
 20
-7012.791
 30
-2297.711
 70
    32
  0
VERTEX
  8
W77RA2RAMP
 62
2
 10
1897.529
 20
-7005.518
 30
-2296.009
 70
    32
  0
VERTEX
  8
W77RA2RAMP
 62
2
 10
1895.063
 20
-7004.092
 30
-2295.675
 70
    32
  0
VERTEX
  8
W77RA2RAMP
 62
2
 10
1908.835
 20
-6984.587
 30
-2293.148
 70
    32
  0
VERTEX
  8
W77RA2RAMP
 62
2
 10
1912.662
 20
-6979.168
 30
-2291.931
 70
    32
  0
VERTEX
  8
W77RA2RAMP
 62
2
 10
1912.577
 20
-6978.851
 30
-2291.877
 70
    32
  0
VERTEX
  8
W77RA2RAMP
 62
2
 10
1911.714
 20
-6975.635
 30
-2291.840
 70
    32
  0
VERTEX
  8
W77RA2RAMP
 62
2
 10
1910.241
 20
-6970.148
 30
-2291.189
 70
    32
  0
VERTEX
  8
W77RA2RAMP
 62
2
 10
1909.071
 20
-6965.785
 30
-2290.359
 70
    32
  0
VERTEX
  8
W77RA2RAMP
 62
2
 10
1900.552
 20
-6934.044
 30
-2284.519
 70
    32
  0
VERTEX
  8
W77RA2RAMP
 62
2
 10
1886.058
 20
-6880.407
 30
-2274.639
 70
    32
  0
VERTEX
  8
W77RA2RAMP
 62
2
 10
1885.121
 20
-6876.940
 30
-2273.971
 70
    32
  0
VERTEX
  8
W77RA2RAMP
 62
2
 10
1884.471
 20
-6874.534
 30
-2273.512
 70
    32
  0
VERTEX
  8
W77RA2RAMP
 62
2
 10
1882.677
 20
-6872.208
 30
-2272.967
 70
    32
  0
VERTEX
  8
W77RA2RAMP
 62
2
 10
1882.199
 20
-6871.588
 30
-2272.835
 70
    32
  0
VERTEX
  8
W77RA2RAMP
 62
2
 10
1875.928
 20
-6863.455
 30
-2270.902
 70
    32
  0
VERTEX
  8
W77RA2RAMP
 62
2
 10
1870.957
 20
-6858.830
 30
-2269.666
 70
    32
  0
VERTEX
  8
W77RA2RAMP
 62
2
 10
1868.548
 20
-6856.589
 30
-2269.364
 70
    32
  0
VERTEX
  8
W77RA2RAMP
 62
2
 10
1867.720
 20
-6856.420
 30
-2269.312
 70
    32
  0
VERTEX
  8
W77RA2RAMP
 62
2
 10
1855.896
 20
-6854.014
 30
-2268.386
 70
    32
  0
VERTEX
  8
W77RA2RAMP
 62
2
 10
1850.800
 20
-6853.155
 30
-2268.001
 70
    32
  0
VERTEX
  8
W77RA2RAMP
 62
2
 10
1850.794
 20
-6853.143
 30
-2267.999
 70
    32
  0
VERTEX
  8
W77RA2RAMP
 62
2
 10
1849.394
 20
-6850.366
 30
-2267.693
 70
    32
  0
VERTEX
  8
W77RA2RAMP
 62
2
 10
1849.134
 20
-6849.685
 30
-2267.623
 70
    32
  0
VERTEX
  8
W77RA2RAMP
 62
2
 10
1847.512
 20
-6845.432
 30
-2267.186
 70
    32
  0
VERTEX
  8
W77RA2RAMP
 62
2
 10
1848.577
 20
-6843.220
 30
-2267.077
 70
    32
  0
VERTEX
  8
W77RA2RAMP
 62
2
 10
1849.472
 20
-6841.363
 30
-2266.986
 70
    32
  0
VERTEX
  8
W77RA2RAMP
 62
2
 10
1859.192
 20
-6838.443
 30
-2267.361
 70
    32
  0
VERTEX
  8
W77RA2RAMP
 62
2
 10
1860.510
 20
-6838.047
 30
-2267.412
 70
    32
  0
VERTEX
  8
W77RA2RAMP
 62
2
 10
1861.498
 20
-6837.750
 30
-2267.431
 70
    32
  0
VERTEX
  8
W77RA2RAMP
 62
2
 10
1862.225
 20
-6837.532
 30
-2267.437
 70
    32
  0
VERTEX
  8
W77RA2RAMP
 62
2
 10
1867.022
 20
-6836.091
 30
-2267.399
 70
    32
  0
VERTEX
  8
W77RA2RAMP
 62
2
 10
1856.828
 20
-6822.619
 30
-2265.392
 70
    32
  0
VERTEX
  8
W77RA2RAMP
 62
2
 10
1845.800
 20
-6808.047
 30
-2263.520
 70
    32
  0
VERTEX
  8
W77RA2RAMP
 62
2
 10
1828.135
 20
-6793.959
 30
-2261.770
 70
    32
  0
VERTEX
  8
W77RA2RAMP
 62
2
 10
1828.119
 20
-6793.884
 30
-2261.760
 70
    32
  0
VERTEX
  8
W77RA2RAMP
 62
2
 10
1827.054
 20
-6788.973
 30
-2260.992
 70
    32
  0
VERTEX
  8
W77RA2RAMP
 62
2
 10
1824.891
 20
-6778.991
 30
-2259.586
 70
    32
  0
VERTEX
  8
W77RA2RAMP
 62
2
 10
1824.671
 20
-6776.433
 30
-2259.207
 70
    32
  0
VERTEX
  8
W77RA2RAMP
 62
2
 10
1810.613
 20
-6760.071
 30
-2257.475
 70
    32
  0
VERTEX
  8
W77RA2RAMP
 62
2
 10
1802.708
 20
-6751.738
 30
-2256.634
 70
    32
  0
VERTEX
  8
W77RA2RAMP
 62
2
 10
1801.330
 20
-6750.285
 30
-2256.781
 70
    32
  0
VERTEX
  8
W77RA2RAMP
 62
2
 10
1797.214
 20
-6745.947
 30
-2257.229
 70
    32
  0
VERTEX
  8
W77RA2RAMP
 62
2
 10
1797.355
 20
-6745.611
 30
-2257.269
 70
    32
  0
VERTEX
  8
W77RA2RAMP
 62
2
 10
1801.901
 20
-6734.772
 30
-2258.939
 70
    32
  0
VERTEX
  8
W77RA2RAMP
 62
2
 10
1802.270
 20
-6733.892
 30
-2259.076
 70
    32
  0
VERTEX
  8
W77RA2RAMP
 62
2
 10
1801.637
 20
-6731.997
 30
-2259.349
 70
    32
  0
VERTEX
  8
W77RA2RAMP
 62
2
 10
1793.109
 20
-6706.486
 30
-2262.461
 70
    32
  0
VERTEX
  8
W77RA2RAMP
 62
2
 10
1793.543
 20
-6706.341
 30
-2262.499
 70
    32
  0
VERTEX
  8
W77RA2RAMP
 62
2
 10
1802.594
 20
-6703.316
 30
-2263.282
 70
    32
  0
VERTEX
  8
W77RA2RAMP
 62
2
 10
1807.243
 20
-6717.225
 30
-2261.586
 70
    32
  0
VERTEX
  8
W77RA2RAMP
 62
2
 10
1808.215
 20
-6720.134
 30
-2261.231
 70
    32
  0
VERTEX
  8
W77RA2RAMP
 62
2
 10
1809.419
 20
-6723.735
 30
-2260.712
 70
    32
  0
VERTEX
  8
W77RA2RAMP
 62
2
 10
1809.572
 20
-6723.757
 30
-2260.711
 70
    32
  0
VERTEX
  8
W77RA2RAMP
 62
2
 10
1816.760
 20
-6724.780
 30
-2260.776
 70
    32
  0
VERTEX
  8
W77RA2RAMP
 62
2
 10
1830.225
 20
-6720.316
 30
-2261.792
 70
    32
  0
VERTEX
  8
W77RA2RAMP
 62
2
 10
1832.947
 20
-6725.467
 30
-2261.167
 70
    32
  0
VERTEX
  8
W77RA2RAMP
 62
2
 10
1833.782
 20
-6727.048
 30
-2260.954
 70
    32
  0
VERTEX
  8
W77RA2RAMP
 62
2
 10
1833.948
 20
-6727.760
 30
-2260.851
 70
    32
  0
VERTEX
  8
W77RA2RAMP
 62
2
 10
1834.883
 20
-6731.775
 30
-2260.300
 70
    32
  0
VERTEX
  8
W77RA2RAMP
 62
2
 10
1838.115
 20
-6745.665
 30
-2258.427
 70
    32
  0
VERTEX
  8
W77RA2RAMP
 62
2
 10
1832.303
 20
-6749.836
 30
-2257.583
 70
    32
  0
VERTEX
  8
W77RA2RAMP
 62
2
 10
1830.933
 20
-6750.819
 30
-2257.391
 70
    32
  0
VERTEX
  8
W77RA2RAMP
 62
2
 10
1830.258
 20
-6751.936
 30
-2257.205
 70
    32
  0
VERTEX
  8
W77RA2RAMP
 62
2
 10
1827.013
 20
-6757.299
 30
-2256.294
 70
    32
  0
VERTEX
  8
W77RA2RAMP
 62
2
 10
1826.742
 20
-6757.747
 30
-2256.240
 70
    32
  0
VERTEX
  8
W77RA2RAMP
 62
2
 10
1825.703
 20
-6759.464
 30
-2256.559
 70
    32
  0
VERTEX
  8
W77RA2RAMP
 62
2
 10
1828.020
 20
-6763.058
 30
-2256.981
 70
    32
  0
VERTEX
  8
W77RA2RAMP
 62
2
 10
1833.767
 20
-6771.972
 30
-2258.399
 70
    32
  0
VERTEX
  8
W77RA2RAMP
 62
2
 10
1834.985
 20
-6771.506
 30
-2258.334
 70
    32
  0
VERTEX
  8
W77RA2RAMP
 62
2
 10
1845.908
 20
-6780.676
 30
-2259.823
 70
    32
  0
VERTEX
  8
W77RA2RAMP
 62
2
 10
1846.521
 20
-6781.192
 30
-2259.888
 70
    32
  0
VERTEX
  8
W77RA2RAMP
 62
2
 10
1848.319
 20
-6785.056
 30
-2260.394
 70
    32
  0
VERTEX
  8
W77RA2RAMP
 62
2
 10
1855.534
 20
-6800.563
 30
-2262.569
 70
    32
  0
VERTEX
  8
W77RA2RAMP
 62
2
 10
1855.804
 20
-6803.013
 30
-2262.886
 70
    32
  0
VERTEX
  8
W77RA2RAMP
 62
2
 10
1881.544
 20
-6839.271
 30
-2268.238
 70
    32
  0
VERTEX
  8
W77RA2RAMP
 62
2
 10
1883.835
 20
-6841.353
 30
-2268.569
 70
    32
  0
VERTEX
  8
W77RA2RAMP
 62
2
 10
1887.877
 20
-6841.997
 30
-2268.772
 70
    32
  0
VERTEX
  8
W77RA2RAMP
 62
2
 10
1888.400
 20
-6845.020
 30
-2269.170
 70
    32
  0
VERTEX
  8
W77RA2RAMP
 62
2
 10
1888.882
 20
-6847.805
 30
-2269.460
 70
    32
  0
VERTEX
  8
W77RA2RAMP
 62
2
 10
1889.807
 20
-6853.153
 30
-2270.383
 70
    32
  0
VERTEX
  8
W77RA2RAMP
 62
2
 10
1891.848
 20
-6864.945
 30
-2272.537
 70
    32
  0
VERTEX
  8
W77RA2RAMP
 62
2
 10
1899.259
 20
-6891.786
 30
-2277.677
 70
    32
  0
VERTEX
  8
W77RA2RAMP
 62
2
 10
1904.044
 20
-6909.117
 30
-2281.023
 70
    32
  0
VERTEX
  8
W77RA2RAMP
 62
2
 10
1907.061
 20
-6908.650
 30
-2281.196
 70
    32
  0
VERTEX
  8
W77RA2RAMP
 62
2
 10
1909.640
 20
-6904.956
 30
-2280.784
 70
    32
  0
VERTEX
  8
W77RA2RAMP
 62
2
 10
1910.551
 20
-6903.650
 30
-2280.597
 70
    32
  0
VERTEX
  8
W77RA2RAMP
 62
2
 10
1911.786
 20
-6901.881
 30
-2280.343
 70
    32
  0
VERTEX
  8
W77RA2RAMP
 62
2
 10
1919.170
 20
-6891.298
 30
-2278.826
 70
    32
  0
VERTEX
  8
W77RA2RAMP
 62
2
 10
1926.656
 20
-6882.735
 30
-2277.675
 70
    32
  0
VERTEX
  8
W77RA2RAMP
 62
2
 10
1926.829
 20
-6882.899
 30
-2277.713
 70
    32
  0
VERTEX
  8
W77RA2RAMP
 62
2
 10
1935.256
 20
-6890.919
 30
-2279.566
 70
    32
  0
VERTEX
  8
W77RA2RAMP
 62
2
 10
1929.470
 20
-6899.884
 30
-2280.875
 70
    32
  0
VERTEX
  8
W77RA2RAMP
 62
2
 10
1928.181
 20
-6901.881
 30
-2281.166
 70
    32
  0
VERTEX
  8
W77RA2RAMP
 62
2
 10
1927.442
 20
-6903.025
 30
-2281.333
 70
    32
  0
VERTEX
  8
W77RA2RAMP
 62
2
 10
1928.548
 20
-6904.478
 30
-2281.648
 70
    32
  0
VERTEX
  8
W77RA2RAMP
 62
2
 10
1929.979
 20
-6906.356
 30
-2282.055
 70
    32
  0
VERTEX
  8
W77RA2RAMP
 62
2
 10
1930.436
 20
-6913.358
 30
-2283.326
 70
    32
  0
VERTEX
  8
W77RA2RAMP
 62
2
 10
1924.322
 20
-6914.232
 30
-2283.175
 70
    32
  0
VERTEX
  8
W77RA2RAMP
 62
2
 10
1923.965
 20
-6914.137
 30
-2283.140
 70
    32
  0
VERTEX
  8
W77RA2RAMP
 62
2
 10
1922.270
 20
-6913.685
 30
-2282.974
 70
    32
  0
VERTEX
  8
W77RA2RAMP
 62
2
 10
1921.585
 20
-6915.278
 30
-2283.224
 70
    32
  0
VERTEX
  8
W77RA2RAMP
 62
2
 10
1916.975
 20
-6926.009
 30
-2284.907
 70
    32
  0
VERTEX
  8
W77RA2RAMP
 62
2
 10
1915.537
 20
-6928.550
 30
-2285.288
 70
    32
  0
VERTEX
  8
W77RA2RAMP
 62
2
 10
1915.164
 20
-6929.210
 30
-2285.368
 70
    32
  0
VERTEX
  8
W77RA2RAMP
 62
2
 10
1911.396
 20
-6935.868
 30
-2285.986
 70
    32
  0
VERTEX
  8
W77RA2RAMP
 62
2
 10
1913.497
 20
-6943.699
 30
-2287.427
 70
    32
  0
VERTEX
  8
W77RA2RAMP
 62
2
 10
1915.053
 20
-6949.496
 30
-2288.530
 70
    32
  0
VERTEX
  8
W77RA2RAMP
 62
2
 10
1920.560
 20
-6949.562
 30
-2289.216
 70
    32
  0
VERTEX
  8
W77RA2RAMP
 62
2
 10
1920.955
 20
-6949.567
 30
-2289.228
 70
    32
  0
VERTEX
  8
W77RA2RAMP
 62
2
 10
1922.226
 20
-6949.582
 30
-2289.153
 70
    32
  0
VERTEX
  8
W77RA2RAMP
 62
2
 10
1928.105
 20
-6949.652
 30
-2290.144
 70
    32
  0
VERTEX
  8
W77RA2RAMP
 62
2
 10
1938.691
 20
-6963.965
 30
-2289.369
 70
    32
  0
VERTEX
  8
W77RA2RAMP
 62
2
 10
1937.892
 20
-6965.611
 30
-2289.567
 70
    32
  0
VERTEX
  8
W77RA2RAMP
 62
2
 10
1928.996
 20
-6983.964
 30
-2291.978
 70
    32
  0
VERTEX
  8
W77RA2RAMP
 62
2
 10
1928.856
 20
-6984.254
 30
-2291.981
 70
    32
  0
VERTEX
  8
W77RA2RAMP
 62
2
 10
1928.720
 20
-6984.533
 30
-2292.040
 70
    32
  0
VERTEX
  8
W77RA2RAMP
 62
2
 10
1927.064
 20
-6989.217
 30
-2293.001
 70
    32
  0
VERTEX
  8
W77RA2RAMP
 62
2
 10
1926.296
 20
-6991.389
 30
-2293.463
 70
    32
  0
VERTEX
  8
W77RA2RAMP
 62
2
 10
1945.547
 20
-7063.124
 30
-2307.814
 70
    32
  0
VERTEX
  8
W77RA2RAMP
 62
2
 10
1948.398
 20
-7073.748
 30
-2309.641
 70
    32
  0
VERTEX
  8
W77RA2RAMP
 62
2
 10
1951.022
 20
-7079.774
 30
-2310.752
 70
    32
  0
VERTEX
  8
W77RA2RAMP
 62
2
 10
1952.925
 20
-7081.898
 30
-2311.217
 70
    32
  0
VERTEX
  8
W77RA2RAMP
 62
2
 10
1953.562
 20
-7082.610
 30
-2311.389
 70
    32
  0
VERTEX
  8
W77RA2RAMP
 62
2
 10
1956.714
 20
-7087.382
 30
-2312.449
 70
    32
  0
VERTEX
  8
W77RA2RAMP
 62
2
 10
1960.966
 20
-7093.004
 30
-2313.743
 70
    32
  0
VERTEX
  8
W77RA2RAMP
 62
2
 10
1961.545
 20
-7093.769
 30
-2313.873
 70
    32
  0
VERTEX
  8
W77RA2RAMP
 62
2
 10
1966.565
 20
-7099.053
 30
-2314.905
 70
    32
  0
VERTEX
  8
W77RA2RAMP
 62
2
 10
1970.377
 20
-7102.929
 30
-2315.680
 70
    32
  0
VERTEX
  8
W77RA2RAMP
 62
2
 10
1970.501
 20
-7102.982
 30
-2315.700
 70
    32
  0
VERTEX
  8
W77RA2RAMP
 62
2
 10
1975.609
 20
-7105.157
 30
-2316.495
 70
    32
  0
VERTEX
  8
W77RA2RAMP
 62
2
 10
1981.581
 20
-7106.755
 30
-2317.363
 70
    32
  0
VERTEX
  8
W77RA2RAMP
 62
2
 10
1983.565
 20
-7106.963
 30
-2317.630
 70
    32
  0
VERTEX
  8
W77RA2RAMP
 62
2
 10
1988.090
 20
-7107.436
 30
-2318.434
 70
    32
  0
VERTEX
  8
W77RA2RAMP
 62
2
 10
1988.649
 20
-7107.416
 30
-2318.534
 70
    32
  0
VERTEX
  8
W77RA2RAMP
 62
2
 10
1993.105
 20
-7107.250
 30
-2319.007
 70
    32
  0
VERTEX
  8
W77RA2RAMP
 62
2
 10
1999.522
 20
-7107.011
 30
-2319.542
 70
    32
  0
VERTEX
  8
W77RA2RAMP
 62
2
 10
2007.325
 20
-7104.949
 30
-2320.247
 70
    32
  0
VERTEX
  8
W77RA2RAMP
 62
2
 10
2007.353
 20
-7104.937
 30
-2320.250
 70
    32
  0
VERTEX
  8
W77RA2RAMP
 62
2
 10
2011.482
 20
-7103.096
 30
-2320.809
 70
    32
  0
VERTEX
  8
W77RA2RAMP
 62
2
 10
2014.777
 20
-7101.628
 30
-2321.154
 70
    32
  0
VERTEX
  8
W77RA2RAMP
 62
2
 10
2017.579
 20
-7100.470
 30
-2321.441
 70
    32
  0
VERTEX
  8
W77RA2RAMP
 62
2
 10
2019.406
 20
-7097.663
 30
-2321.785
 70
    32
  0
VERTEX
  8
W77RA2RAMP
 62
2
 10
2021.166
 20
-7095.263
 30
-2322.093
 70
    32
  0
VERTEX
  8
W77RA2RAMP
 62
2
 10
2024.371
 20
-7091.861
 30
-2322.581
 70
    32
  0
VERTEX
  8
W77RA2RAMP
 62
2
 10
2025.962
 20
-7089.985
 30
-2322.837
 70
    32
  0
VERTEX
  8
W77RA2RAMP
 62
2
 10
2026.137
 20
-7089.778
 30
-2322.861
 70
    32
  0
VERTEX
  8
W77RA2RAMP
 62
2
 10
2027.751
 20
-7086.088
 30
-2323.227
 70
    32
  0
VERTEX
  8
W77RA2RAMP
 62
2
 10
2028.909
 20
-7083.899
 30
-2323.453
 70
    32
  0
VERTEX
  8
W77RA2RAMP
 62
2
 10
2031.780
 20
-7078.473
 30
-2324.581
 70
    32
  0
VERTEX
  8
W77RA2RAMP
 62
2
 10
2033.723
 20
-7071.557
 30
-2325.854
 70
    32
  0
VERTEX
  8
W77RA2RAMP
 62
2
 10
2034.328
 20
-7066.105
 30
-2326.595
 70
    32
  0
VERTEX
  8
W77RA2RAMP
 62
2
 10
2035.623
 20
-7061.030
 30
-2327.264
 70
    32
  0
VERTEX
  8
W77RA2RAMP
 62
2
 10
2034.871
 20
-7056.092
 30
-2327.928
 70
    32
  0
VERTEX
  8
W77RA2RAMP
 62
2
 10
2033.764
 20
-7051.721
 30
-2328.520
 70
    32
  0
VERTEX
  8
W77RA2RAMP
 62
2
 10
2032.886
 20
-7047.834
 30
-2329.045
 70
    32
  0
VERTEX
  8
W77RA2RAMP
 62
2
 10
2032.683
 20
-7046.154
 30
-2329.274
 70
    32
  0
VERTEX
  8
W77RA2RAMP
 62
2
 10
2030.631
 20
-7042.118
 30
-2329.904
 70
    32
  0
VERTEX
  8
W77RA2RAMP
 62
2
 10
2033.249
 20
-7040.558
 30
-2330.006
 70
    32
  0
VERTEX
  8
W77RA2RAMP
 62
2
 10
2037.135
 20
-7038.241
 30
-2330.270
 70
    32
  0
VERTEX
  8
W77RA2RAMP
 62
2
 10
2041.143
 20
-7035.851
 30
-2330.404
 70
    32
  0
VERTEX
  8
W77RA2RAMP
 62
2
 10
2044.985
 20
-7046.513
 30
-2329.038
 70
    32
  0
VERTEX
  8
W77RA2RAMP
 62
2
 10
2046.716
 20
-7051.701
 30
-2328.378
 70
    32
  0
VERTEX
  8
W77RA2RAMP
 62
2
 10
2048.866
 20
-7058.193
 30
-2327.495
 70
    32
  0
VERTEX
  8
W77RA2RAMP
 62
2
 10
2052.431
 20
-7058.966
 30
-2327.000
 70
    32
  0
VERTEX
  8
W77RA2RAMP
 62
2
 10
2058.779
 20
-7055.767
 30
-2326.000
 70
    32
  0
VERTEX
  8
W77RA2RAMP
 62
2
 10
2066.935
 20
-7052.641
 30
-2325.206
 70
    32
  0
VERTEX
  8
W77RA2RAMP
 62
2
 10
2078.681
 20
-7050.325
 30
-2324.229
 70
    32
  0
VERTEX
  8
W77RA2RAMP
 62
2
 10
2085.961
 20
-7060.103
 30
-2323.539
 70
    32
  0
VERTEX
  8
W77RA2RAMP
 62
2
 10
2087.896
 20
-7060.305
 30
-2323.374
 70
    32
  0
VERTEX
  8
W77RA2RAMP
 62
2
 10
2095.977
 20
-7061.148
 30
-2322.000
 70
    32
  0
VERTEX
  8
W77RA2RAMP
 62
2
 10
2102.276
 20
-7080.950
 30
-2322.000
 70
    32
  0
VERTEX
  8
W77RA2RAMP
 62
2
 10
2099.881
 20
-7078.758
 30
-2322.219
 70
    32
  0
VERTEX
  8
W77RA2RAMP
 62
2
 10
2088.448
 20
-7072.004
 30
-2323.235
 70
    32
  0
VERTEX
  8
W77RA2RAMP
 62
2
 10
2063.651
 20
-7068.751
 30
-2325.348
 70
    32
  0
SEQEND
  8
W77RA2RAMP
  0
POLYLINE
  8
W77RA2RAMP
 62
2
 66
     1
 70
     9
  0
VERTEX
  8
W77RA2RAMP
 62
2
 10
2113.421
 20
-7060.278
 30
-2320.765
 70
    32
  0
VERTEX
  8
W77RA2RAMP
 62
2
 10
2117.423
 20
-7058.407
 30
-2319.716
 70
    32
  0
VERTEX
  8
W77RA2RAMP
 62
2
 10
2120.660
 20
-7056.894
 30
-2321.356
 70
    32
  0
VERTEX
  8
W77RA2RAMP
 62
2
 10
2123.854
 20
-7055.401
 30
-2320.757
 70
    32
  0
VERTEX
  8
W77RA2RAMP
 62
2
 10
2129.835
 20
-7052.606
 30
-2319.536
 70
    32
  0
VERTEX
  8
W77RA2RAMP
 62
2
 10
2134.251
 20
-7049.878
 30
-2318.568
 70
    32
  0
VERTEX
  8
W77RA2RAMP
 62
2
 10
2138.430
 20
-7047.296
 30
-2319.971
 70
    32
  0
VERTEX
  8
W77RA2RAMP
 62
2
 10
2144.165
 20
-7043.753
 30
-2319.833
 70
    32
  0
VERTEX
  8
W77RA2RAMP
 62
2
 10
2145.667
 20
-7037.024
 30
-2319.690
 70
    32
  0
VERTEX
  8
W77RA2RAMP
 62
2
 10
2150.769
 20
-7036.393
 30
-2319.615
 70
    32
  0
VERTEX
  8
W77RA2RAMP
 62
2
 10
2192.049
 20
-7012.907
 30
-2311.155
 70
    32
  0
VERTEX
  8
W77RA2RAMP
 62
2
 10
2211.621
 20
-7000.673
 30
-2307.092
 70
    32
  0
VERTEX
  8
W77RA2RAMP
 62
2
 10
2223.531
 20
-6993.228
 30
-2304.498
 70
    32
  0
VERTEX
  8
W77RA2RAMP
 62
2
 10
2241.496
 20
-6981.471
 30
-2303.442
 70
    32
  0
VERTEX
  8
W77RA2RAMP
 62
2
 10
2252.244
 20
-6998.417
 30
-2303.399
 70
    32
  0
VERTEX
  8
W77RA2RAMP
 62
2
 10
2237.905
 20
-7000.975
 30
-2303.698
 70
    32
  0
VERTEX
  8
W77RA2RAMP
 62
2
 10
2232.914
 20
-7003.650
 30
-2303.844
 70
    32
  0
VERTEX
  8
W77RA2RAMP
 62
2
 10
2184.460
 20
-7029.622
 30
-2314.031
 70
    32
  0
VERTEX
  8
W77RA2RAMP
 62
2
 10
2171.295
 20
-7036.678
 30
-2316.636
 70
    32
  0
VERTEX
  8
W77RA2RAMP
 62
2
 10
2164.363
 20
-7046.122
 30
-2321.297
 70
    32
  0
VERTEX
  8
W77RA2RAMP
 62
2
 10
2160.885
 20
-7053.278
 30
-2319.629
 70
    32
  0
VERTEX
  8
W77RA2RAMP
 62
2
 10
2161.237
 20
-7053.865
 30
-2319.630
 70
    32
  0
VERTEX
  8
W77RA2RAMP
 62
2
 10
2159.515
 20
-7059.435
 30
-2319.756
 70
    32
  0
VERTEX
  8
W77RA2RAMP
 62
2
 10
2147.904
 20
-7057.905
 30
-2320.047
 70
    32
  0
VERTEX
  8
W77RA2RAMP
 62
2
 10
2143.684
 20
-7059.346
 30
-2320.126
 70
    32
  0
VERTEX
  8
W77RA2RAMP
 62
2
 10
2140.474
 20
-7060.655
 30
-2319.192
 70
    32
  0
VERTEX
  8
W77RA2RAMP
 62
2
 10
2135.790
 20
-7062.564
 30
-2319.578
 70
    32
  0
VERTEX
  8
W77RA2RAMP
 62
2
 10
2126.478
 20
-7066.360
 30
-2321.279
 70
    32
  0
VERTEX
  8
W77RA2RAMP
 62
2
 10
2120.544
 20
-7070.268
 30
-2320.444
 70
    32
  0
VERTEX
  8
W77RA2RAMP
 62
2
 10
2118.370
 20
-7071.874
 30
-2321.017
 70
    32
  0
VERTEX
  8
W77RA2RAMP
 62
2
 10
2113.421
 20
-7060.278
 30
-2320.765
 70
    32
  0
SEQEND
  8
W77RA2RAMP
  0
TEXT
  8
W77RA2RAMP
 62
2
 10
1695.960
 20
-6899.707
 30
-2320.189
 40
4.101
  1
77A2
 41
 1.0 
  0
TEXT
  8
W77RA2RAMP
 62
2
 10
1787.808
 20
-6702.279
 30
-2259.321
 40
2.362
  1
S
 41
 1.0 
  0
POLYLINE
  8
W77RA2RAMP
 62
2
 66
     1
 70
     9
  0
VERTEX
  8
W77RA2RAMP
 62
2
 10
2113.421
 20
-7060.278
 30
-2320.765
 70
    32
  0
VERTEX
  8
W77RA2RAMP
 62
2
 10
2117.157
 20
-7058.544
 30
-2320.697
 70
    32
  0
VERTEX
  8
W77RA2RAMP
 62
2
 10
2128.827
 20
-7053.129
 30
-2319.472
 70
    32
  0
VERTEX
  8
W77RA2RAMP
 62
2
 10
2134.449
 20
-7049.266
 30
-2317.928
 70
    32
  0
VERTEX
  8
W77RA2RAMP
 62
2
 10
2147.881
 20
-7042.708
 30
-2314.540
 70
    32
  0
VERTEX
  8
W77RA2RAMP
 62
2
 10
2147.881
 20
-7042.708
 30
-2314.540
 70
    32
  0
VERTEX
  8
W77RA2RAMP
 62
2
 10
2184.984
 20
-7017.967
 30
-2304.435
 70
    32
  0
VERTEX
  8
W77RA2RAMP
 62
2
 10
2234.407
 20
-6985.020
 30
-2291.336
 70
    32
  0
VERTEX
  8
W77RA2RAMP
 62
2
 10
2247.930
 20
-6997.783
 30
-2291.232
 70
    32
  0
VERTEX
  8
W77RA2RAMP
 62
2
 10
2190.308
 20
-7027.595
 30
-2304.867
 70
    32
  0
VERTEX
  8
W77RA2RAMP
 62
2
 10
2144.947
 20
-7059.255
 30
-2316.996
 70
    32
  0
VERTEX
  8
W77RA2RAMP
 62
2
 10
2139.215
 20
-7062.317
 30
-2318.462
 70
    32
  0
VERTEX
  8
W77RA2RAMP
 62
2
 10
2133.510
 20
-7063.967
 30
-2319.773
 70
    32
  0
VERTEX
  8
W77RA2RAMP
 62
2
 10
2122.152
 20
-7069.899
 30
-2320.608
 70
    32
  0
VERTEX
  8
W77RA2RAMP
 62
2
 10
2118.370
 20
-7071.874
 30
-2321.017
 70
    32
  0
VERTEX
  8
W77RA2RAMP
 62
2
 10
2117.276
 20
-7075.426
 30
-2321.565
 70
    32
  0
VERTEX
  8
W77RA2RAMP
 62
2
 10
2117.354
 20
-7080.795
 30
-2321.616
 70
    32
  0
VERTEX
  8
W77RA2RAMP
 62
2
 10
2117.757
 20
-7083.363
 30
-2321.600
 70
    32
  0
VERTEX
  8
W77RA2RAMP
 62
2
 10
2108.713
 20
-7062.478
 30
-2322.000
 70
    32
  0
VERTEX
  8
W77RA2RAMP
 62
2
 10
2117.757
 20
-7083.363
 30
-2321.600
 70
    32
  0
VERTEX
  8
W77RA2RAMP
 62
2
 10
2108.713
 20
-7062.478
 30
-2322.000
 70
    32
  0
VERTEX
  8
W77RA2RAMP
 62
2
 10
2113.421
 20
-7060.278
 30
-2320.765
 70
    32
  0
SEQEND
  8
W77RA2RAMP
  0
ENDSEC
  0
EOF
