999
********************************
999
*   DXF File - Entities Only   *
999
*        3D Data Format        *
999
*     Output from ENVISAGE     *
999
*     28-Dec-2007 13:20:51     *
999
********************************
  0
SECTION 
  2
HEADER
  9
$ACADVER
  1
AC1009
  9
$EXTMIN
 10
-290000.000
 20
-250000.000
 30
-4000.000
  9
$EXTMAX
 10
5000000.000
 20
600000.000
 30
6000.000
  0
ENDSEC
  0
SECTION
  2
ENTITIES
  0
LINE
  8
W77RBRAMP
 62
2
 10
1825.864
 20
-6379.275
 30
-2360.000
 11
1825.864
 21
-6379.275
 31
-2276.000
  0
LINE
  8
W77RBRAMP
 62
2
 10
1823.218
 20
-6370.673
 30
-2276.000
 11
1823.218
 21
-6370.673
 31
-2360.000
  0
LINE
  8
W77RBRAMP
 62
2
 10
1815.094
 20
-6373.172
 30
-2360.000
 11
1815.094
 21
-6373.172
 31
-2276.000
  0
LINE
  8
W77RBRAMP
 62
2
 10
1817.739
 20
-6381.774
 30
-2276.000
 11
1817.739
 21
-6381.774
 31
-2360.000
  0
POLYLINE
  8
W77RBRAMP
 62
2
 66
     1
 70
     9
  0
VERTEX
  8
W77RBRAMP
 62
2
 10
1626.397
 20
-5744.147
 30
-2311.162
 70
    32
  0
VERTEX
  8
W77RBRAMP
 62
2
 10
1634.010
 20
-5756.129
 30
-2313.422
 70
    32
  0
VERTEX
  8
W77RBRAMP
 62
2
 10
1641.609
 20
-5768.087
 30
-2315.670
 70
    32
  0
VERTEX
  8
W77RBRAMP
 62
2
 10
1657.446
 20
-5786.526
 30
-2319.561
 70
    32
  0
VERTEX
  8
W77RBRAMP
 62
2
 10
1661.063
 20
-5791.230
 30
-2319.248
 70
    32
  0
VERTEX
  8
W77RBRAMP
 62
2
 10
1669.437
 20
-5780.043
 30
-2318.921
 70
    32
  0
VERTEX
  8
W77RBRAMP
 62
2
 10
1659.672
 20
-5772.733
 30
-2318.102
 70
    32
  0
VERTEX
  8
W77RBRAMP
 62
2
 10
1656.153
 20
-5768.802
 30
-2317.258
 70
    32
  0
VERTEX
  8
W77RBRAMP
 62
2
 10
1649.751
 20
-5761.651
 30
-2315.718
 70
    32
  0
VERTEX
  8
W77RBRAMP
 62
2
 10
1634.339
 20
-5737.820
 30
-2311.197
 70
    32
  0
SEQEND
  8
W77RBRAMP
  0
POLYLINE
  8
W77RBRAMP
 62
2
 66
     1
 70
     9
  0
VERTEX
  8
W77RBRAMP
 62
2
 10
1662.772
 20
-5778.912
 30
-2313.749
 70
    32
  0
VERTEX
  8
W77RBRAMP
 62
2
 10
1659.677
 20
-5776.757
 30
-2313.681
 70
    32
  0
VERTEX
  8
W77RBRAMP
 62
2
 10
1656.586
 20
-5774.605
 30
-2313.645
 70
    32
  0
VERTEX
  8
W77RBRAMP
 62
2
 10
1654.912
 20
-5772.399
 30
-2313.613
 70
    32
  0
VERTEX
  8
W77RBRAMP
 62
2
 10
1653.279
 20
-5770.247
 30
-2313.419
 70
    32
  0
VERTEX
  8
W77RBRAMP
 62
2
 10
1651.205
 20
-5767.514
 30
-2313.056
 70
    32
  0
VERTEX
  8
W77RBRAMP
 62
2
 10
1648.433
 20
-5763.862
 30
-2312.395
 70
    32
  0
VERTEX
  8
W77RBRAMP
 62
2
 10
1648.399
 20
-5763.816
 30
-2312.386
 70
    32
  0
VERTEX
  8
W77RBRAMP
 62
2
 10
1645.290
 20
-5758.068
 30
-2311.295
 70
    32
  0
VERTEX
  8
W77RBRAMP
 62
2
 10
1644.739
 20
-5757.050
 30
-2311.661
 70
    32
  0
VERTEX
  8
W77RBRAMP
 62
2
 10
1643.136
 20
-5754.086
 30
-2312.489
 70
    32
  0
VERTEX
  8
W77RBRAMP
 62
2
 10
1634.830
 20
-5738.728
 30
-2310.995
 70
    32
  0
VERTEX
  8
W77RBRAMP
 62
2
 10
1631.480
 20
-5732.534
 30
-2310.450
 70
    32
  0
VERTEX
  8
W77RBRAMP
 62
2
 10
1630.223
 20
-5730.210
 30
-2310.642
 70
    32
  0
VERTEX
  8
W77RBRAMP
 62
2
 10
1624.176
 20
-5723.544
 30
-2311.321
 70
    32
  0
VERTEX
  8
W77RBRAMP
 62
2
 10
1623.122
 20
-5722.381
 30
-2311.439
 70
    32
  0
VERTEX
  8
W77RBRAMP
 62
2
 10
1613.696
 20
-5729.025
 30
-2311.553
 70
    32
  0
VERTEX
  8
W77RBRAMP
 62
2
 10
1619.975
 20
-5736.502
 30
-2310.824
 70
    32
  0
VERTEX
  8
W77RBRAMP
 62
2
 10
1622.653
 20
-5739.690
 30
-2310.510
 70
    32
  0
VERTEX
  8
W77RBRAMP
 62
2
 10
1632.236
 20
-5751.098
 30
-2311.668
 70
    32
  0
VERTEX
  8
W77RBRAMP
 62
2
 10
1635.368
 20
-5754.828
 30
-2312.094
 70
    32
  0
VERTEX
  8
W77RBRAMP
 62
2
 10
1636.695
 20
-5757.691
 30
-2312.360
 70
    32
  0
VERTEX
  8
W77RBRAMP
 62
2
 10
1637.405
 20
-5759.223
 30
-2311.944
 70
    32
  0
VERTEX
  8
W77RBRAMP
 62
2
 10
1638.265
 20
-5761.080
 30
-2311.295
 70
    32
  0
VERTEX
  8
W77RBRAMP
 62
2
 10
1639.609
 20
-5763.981
 30
-2311.831
 70
    32
  0
VERTEX
  8
W77RBRAMP
 62
2
 10
1641.531
 20
-5768.128
 30
-2312.500
 70
    32
  0
VERTEX
  8
W77RBRAMP
 62
2
 10
1643.488
 20
-5771.458
 30
-2313.066
 70
    32
  0
VERTEX
  8
W77RBRAMP
 62
2
 10
1644.293
 20
-5772.828
 30
-2313.236
 70
    32
  0
VERTEX
  8
W77RBRAMP
 62
2
 10
1647.262
 20
-5777.879
 30
-2313.660
 70
    32
  0
VERTEX
  8
W77RBRAMP
 62
2
 10
1648.268
 20
-5779.591
 30
-2313.684
 70
    32
  0
VERTEX
  8
W77RBRAMP
 62
2
 10
1649.411
 20
-5780.878
 30
-2313.703
 70
    32
  0
VERTEX
  8
W77RBRAMP
 62
2
 10
1654.649
 20
-5787.770
 30
-2313.803
 70
    32
  0
SEQEND
  8
W77RBRAMP
  0
POLYLINE
  8
W77RBRAMP
 62
3
 66
     1
 70
     9
  0
VERTEX
  8
W77RBRAMP
 62
3
 10
1976.010
 20
-6474.289
 30
-2403.776
 70
    32
  0
VERTEX
  8
W77RBRAMP
 62
3
 10
1980.629
 20
-6489.730
 30
-2403.146
 70
    32
  0
VERTEX
  8
W77RBRAMP
 62
3
 10
1979.833
 20
-6493.869
 30
-2403.052
 70
    32
  0
VERTEX
  8
W77RBRAMP
 62
3
 10
1990.506
 20
-6507.083
 30
-2402.268
 70
    32
  0
VERTEX
  8
W77RBRAMP
 62
3
 10
2003.728
 20
-6493.392
 30
-2402.196
 70
    32
  0
VERTEX
  8
W77RBRAMP
 62
3
 10
1994.170
 20
-6479.860
 30
-2402.948
 70
    32
  0
VERTEX
  8
W77RBRAMP
 62
3
 10
1990.028
 20
-6477.473
 30
-2403.171
 70
    32
  0
VERTEX
  8
W77RBRAMP
 62
3
 10
1985.886
 20
-6471.582
 30
-2403.497
 70
    32
  0
VERTEX
  8
W77RBRAMP
 62
3
 10
1985.886
 20
-6471.582
 30
-2403.497
 70
    32
  0
VERTEX
  8
W77RBRAMP
 62
3
 10
1990.028
 20
-6477.473
 30
-2403.171
 70
    32
  0
VERTEX
  8
W77RBRAMP
 62
3
 10
1994.170
 20
-6479.860
 30
-2402.948
 70
    32
  0
VERTEX
  8
W77RBRAMP
 62
3
 10
2003.728
 20
-6493.392
 30
-2402.196
 70
    32
  0
VERTEX
  8
W77RBRAMP
 62
3
 10
1990.506
 20
-6507.083
 30
-2402.268
 70
    32
  0
VERTEX
  8
W77RBRAMP
 62
3
 10
1979.833
 20
-6493.869
 30
-2403.052
 70
    32
  0
VERTEX
  8
W77RBRAMP
 62
3
 10
1980.629
 20
-6489.730
 30
-2403.146
 70
    32
  0
VERTEX
  8
W77RBRAMP
 62
3
 10
1976.010
 20
-6474.289
 30
-2403.776
 70
    32
  0
SEQEND
  8
W77RBRAMP
  0
TEXT
  8
W77RBRAMP
 62
2
 10
1727.284
 20
-5929.479
 30
-2333.302
 40
4.101
  1
77B
 41
 1.0 
  0
POLYLINE
  8
W77RBRAMP
 62
2
 66
     1
 70
     9
  0
VERTEX
  8
W77RBRAMP
 62
2
 10
1914.539
 20
-6332.078
 30
-2358.500
 70
    32
  0
VERTEX
  8
W77RBRAMP
 62
2
 10
1920.502
 20
-6330.666
 30
-2358.500
 70
    32
  0
VERTEX
  8
W77RBRAMP
 62
2
 10
1921.920
 20
-6330.557
 30
-2358.666
 70
    32
  0
VERTEX
  8
W77RBRAMP
 62
2
 10
1914.018
 20
-6314.188
 30
-2361.205
 70
    32
  0
VERTEX
  8
W77RBRAMP
 62
2
 10
1906.429
 20
-6321.430
 30
-2358.500
 70
    32
  0
VERTEX
  8
W77RBRAMP
 62
2
 10
1892.053
 20
-6323.644
 30
-2359.500
 70
    32
  0
VERTEX
  8
W77RBRAMP
 62
2
 10
1889.229
 20
-6325.372
 30
-2360.000
 70
    32
  0
VERTEX
  8
W77RBRAMP
 62
2
 10
1902.677
 20
-6349.846
 30
-2360.000
 70
    32
  0
VERTEX
  8
W77RBRAMP
 62
2
 10
1912.083
 20
-6338.106
 30
-2359.500
 70
    32
  0
SEQEND
  8
W77RBRAMP
  0
POLYLINE
  8
W77RBRAMP
 62
2
 66
     1
 70
     9
  0
VERTEX
  8
W77RBRAMP
 62
2
 10
1825.864
 20
-6379.275
 30
-2276.000
 70
    32
  0
VERTEX
  8
W77RBRAMP
 62
2
 10
1823.218
 20
-6370.673
 30
-2276.000
 70
    32
  0
VERTEX
  8
W77RBRAMP
 62
2
 10
1815.094
 20
-6373.172
 30
-2276.000
 70
    32
  0
VERTEX
  8
W77RBRAMP
 62
2
 10
1817.739
 20
-6381.774
 30
-2276.000
 70
    32
  0
SEQEND
  8
W77RBRAMP
  0
POLYLINE
  8
W77RBRAMP
 62
2
 66
     1
 70
     9
  0
VERTEX
  8
W77RBRAMP
 62
2
 10
1817.739
 20
-6381.774
 30
-2360.000
 70
    32
  0
VERTEX
  8
W77RBRAMP
 62
2
 10
1815.094
 20
-6373.172
 30
-2360.000
 70
    32
  0
VERTEX
  8
W77RBRAMP
 62
2
 10
1823.218
 20
-6370.673
 30
-2360.000
 70
    32
  0
VERTEX
  8
W77RBRAMP
 62
2
 10
1825.864
 20
-6379.275
 30
-2360.000
 70
    32
  0
SEQEND
  8
W77RBRAMP
  0
TEXT
  8
W77RBRAMP
 62
1
 10
1455.288
 20
-5712.142
 30
-2257.576
 40
2.362
  1
S
 41
 1.0 
  0
POLYLINE
  8
W77RBRAMP
 62
2
 66
     1
 70
     9
  0
VERTEX
  8
W77RBRAMP
 62
2
 10
1580.264
 20
-5724.754
 30
-2316.711
 70
    32
  0
VERTEX
  8
W77RBRAMP
 62
2
 10
1582.299
 20
-5723.262
 30
-2316.708
 70
    32
  0
VERTEX
  8
W77RBRAMP
 62
2
 10
1590.707
 20
-5718.788
 30
-2315.360
 70
    32
  0
VERTEX
  8
W77RBRAMP
 62
2
 10
1601.964
 20
-5721.296
 30
-2314.581
 70
    32
  0
VERTEX
  8
W77RBRAMP
 62
2
 10
1604.745
 20
-5724.686
 30
-2314.369
 70
    32
  0
VERTEX
  8
W77RBRAMP
 62
2
 10
1609.424
 20
-5724.076
 30
-2314.057
 70
    32
  0
VERTEX
  8
W77RBRAMP
 62
2
 10
1613.696
 20
-5729.025
 30
-2311.623
 70
    32
  0
VERTEX
  8
W77RBRAMP
 62
2
 10
1616.844
 20
-5733.146
 30
-2310.666
 70
    32
  0
VERTEX
  8
W77RBRAMP
 62
2
 10
1633.971
 20
-5755.560
 30
-2305.507
 70
    32
  0
VERTEX
  8
W77RBRAMP
 62
2
 10
1643.859
 20
-5772.268
 30
-2301.990
 70
    32
  0
VERTEX
  8
W77RBRAMP
 62
2
 10
1645.816
 20
-5775.575
 30
-2300.860
 70
    32
  0
VERTEX
  8
W77RBRAMP
 62
2
 10
1646.371
 20
-5776.513
 30
-2300.553
 70
    32
  0
VERTEX
  8
W77RBRAMP
 62
2
 10
1648.556
 20
-5780.205
 30
-2299.378
 70
    32
  0
VERTEX
  8
W77RBRAMP
 62
2
 10
1649.005
 20
-5780.964
 30
-2299.129
 70
    32
  0
VERTEX
  8
W77RBRAMP
 62
2
 10
1662.492
 20
-5772.036
 30
-2298.800
 70
    32
  0
VERTEX
  8
W77RBRAMP
 62
2
 10
1658.076
 20
-5767.430
 30
-2300.552
 70
    32
  0
VERTEX
  8
W77RBRAMP
 62
2
 10
1657.705
 20
-5767.043
 30
-2300.703
 70
    32
  0
VERTEX
  8
W77RBRAMP
 62
2
 10
1654.006
 20
-5766.092
 30
-2301.560
 70
    32
  0
VERTEX
  8
W77RBRAMP
 62
2
 10
1652.287
 20
-5765.650
 30
-2301.979
 70
    32
  0
VERTEX
  8
W77RBRAMP
 62
2
 10
1652.169
 20
-5765.620
 30
-2301.997
 70
    32
  0
VERTEX
  8
W77RBRAMP
 62
2
 10
1640.219
 20
-5748.392
 30
-2305.823
 70
    32
  0
VERTEX
  8
W77RBRAMP
 62
2
 10
1640.120
 20
-5748.249
 30
-2305.855
 70
    32
  0
VERTEX
  8
W77RBRAMP
 62
2
 10
1623.122
 20
-5722.381
 30
-2311.556
 70
    32
  0
VERTEX
  8
W77RBRAMP
 62
2
 10
1623.122
 20
-5722.381
 30
-2311.556
 70
    32
  0
VERTEX
  8
W77RBRAMP
 62
2
 10
1620.409
 20
-5717.093
 30
-2312.668
 70
    32
  0
VERTEX
  8
W77RBRAMP
 62
2
 10
1605.965
 20
-5700.891
 30
-2310.746
 70
    32
  0
VERTEX
  8
W77RBRAMP
 62
2
 10
1595.726
 20
-5705.229
 30
-2310.205
 70
    32
  0
VERTEX
  8
W77RBRAMP
 62
2
 10
1587.452
 20
-5697.637
 30
-2309.191
 70
    32
  0
SEQEND
  8
W77RBRAMP
  0
POLYLINE
  8
W77RBRAMP
 62
2
 66
     1
 70
     9
  0
VERTEX
  8
W77RBRAMP
 62
2
 10
1646.498
 20
-5930.956
 30
-2350.576
 70
    32
  0
VERTEX
  8
W77RBRAMP
 62
2
 10
1646.628
 20
-5929.971
 30
-2350.406
 70
    32
  0
VERTEX
  8
W77RBRAMP
 62
2
 10
1646.804
 20
-5928.635
 30
-2350.176
 70
    32
  0
VERTEX
  8
W77RBRAMP
 62
2
 10
1650.108
 20
-5915.990
 30
-2348.147
 70
    32
  0
VERTEX
  8
W77RBRAMP
 62
2
 10
1650.544
 20
-5914.322
 30
-2342.399
 70
    32
  0
VERTEX
  8
W77RBRAMP
 62
2
 10
1650.949
 20
-5912.774
 30
-2341.772
 70
    32
  0
VERTEX
  8
W77RBRAMP
 62
2
 10
1650.988
 20
-5912.622
 30
-2341.907
 70
    32
  0
VERTEX
  8
W77RBRAMP
 62
2
 10
1653.341
 20
-5903.619
 30
-2341.469
 70
    32
  0
VERTEX
  8
W77RBRAMP
 62
2
 10
1670.245
 20
-5867.671
 30
-2338.699
 70
    32
  0
VERTEX
  8
W77RBRAMP
 62
2
 10
1677.240
 20
-5858.142
 30
-2337.624
 70
    32
  0
VERTEX
  8
W77RBRAMP
 62
2
 10
1682.627
 20
-5848.273
 30
-2336.762
 70
    32
  0
VERTEX
  8
W77RBRAMP
 62
2
 10
1692.736
 20
-5829.754
 30
-2334.513
 70
    32
  0
VERTEX
  8
W77RBRAMP
 62
2
 10
1693.940
 20
-5827.549
 30
-2334.290
 70
    32
  0
VERTEX
  8
W77RBRAMP
 62
2
 10
1699.446
 20
-5827.607
 30
-2331.589
 70
    32
  0
VERTEX
  8
W77RBRAMP
 62
2
 10
1682.020
 20
-5800.183
 30
-2332.520
 70
    32
  0
VERTEX
  8
W77RBRAMP
 62
2
 10
1685.318
 20
-5818.864
 30
-2333.639
 70
    32
  0
VERTEX
  8
W77RBRAMP
 62
2
 10
1684.417
 20
-5824.102
 30
-2334.208
 70
    32
  0
VERTEX
  8
W77RBRAMP
 62
2
 10
1670.706
 20
-5848.823
 30
-2337.217
 70
    32
  0
VERTEX
  8
W77RBRAMP
 62
2
 10
1664.104
 20
-5849.420
 30
-2337.498
 70
    32
  0
VERTEX
  8
W77RBRAMP
 62
2
 10
1659.408
 20
-5860.537
 30
-2338.803
 70
    32
  0
VERTEX
  8
W77RBRAMP
 62
2
 10
1656.146
 20
-5871.076
 30
-2339.999
 70
    32
  0
VERTEX
  8
W77RBRAMP
 62
2
 10
1641.346
 20
-5895.250
 30
-2342.988
 70
    32
  0
VERTEX
  8
W77RBRAMP
 62
2
 10
1636.838
 20
-5902.613
 30
-2343.697
 70
    32
  0
VERTEX
  8
W77RBRAMP
 62
2
 10
1636.749
 20
-5902.758
 30
-2343.546
 70
    32
  0
VERTEX
  8
W77RBRAMP
 62
2
 10
1635.518
 20
-5904.769
 30
-2344.532
 70
    32
  0
VERTEX
  8
W77RBRAMP
 62
2
 10
1634.216
 20
-5906.896
 30
-2344.886
 70
    32
  0
VERTEX
  8
W77RBRAMP
 62
2
 10
1633.785
 20
-5906.681
 30
-2344.791
 70
    32
  0
SEQEND
  8
W77RBRAMP
  0
POLYLINE
  8
W77RBRAMP
 62
2
 66
     1
 70
     9
  0
VERTEX
  8
W77RBRAMP
 62
2
 10
1788.263
 20
-6118.399
 30
-2399.688
 70
    32
  0
VERTEX
  8
W77RBRAMP
 62
2
 10
1800.347
 20
-6114.852
 30
-2399.743
 70
    32
  0
VERTEX
  8
W77RBRAMP
 62
2
 10
1833.636
 20
-6109.759
 30
-2399.893
 70
    32
  0
VERTEX
  8
W77RBRAMP
 62
2
 10
1858.036
 20
-6110.563
 30
-2400.000
 70
    32
  0
VERTEX
  8
W77RBRAMP
 62
2
 10
1856.704
 20
-6121.199
 30
-2400.000
 70
    32
  0
VERTEX
  8
W77RBRAMP
 62
2
 10
1836.662
 20
-6120.308
 30
-2399.947
 70
    32
  0
VERTEX
  8
W77RBRAMP
 62
2
 10
1813.179
 20
-6124.431
 30
-2399.883
 70
    32
  0
VERTEX
  8
W77RBRAMP
 62
2
 10
1790.844
 20
-6130.309
 30
-2399.821
 70
    32
  0
SEQEND
  8
W77RBRAMP
  0
POLYLINE
  8
W77RBRAMP
 62
2
 66
     1
 70
     9
  0
VERTEX
  8
W77RBRAMP
 62
2
 10
1846.580
 20
-6104.302
 30
-2386.000
 70
    32
  0
VERTEX
  8
W77RBRAMP
 62
2
 10
1840.317
 20
-6108.422
 30
-2387.362
 70
    32
  0
VERTEX
  8
W77RBRAMP
 62
2
 10
1830.500
 20
-6109.291
 30
-2389.336
 70
    32
  0
VERTEX
  8
W77RBRAMP
 62
2
 10
1806.841
 20
-6112.939
 30
-2394.157
 70
    32
  0
VERTEX
  8
W77RBRAMP
 62
2
 10
1797.180
 20
-6114.428
 30
-2396.933
 70
    32
  0
VERTEX
  8
W77RBRAMP
 62
2
 10
1790.398
 20
-6117.448
 30
-2398.993
 70
    32
  0
VERTEX
  8
W77RBRAMP
 62
2
 10
1788.263
 20
-6118.399
 30
-2399.688
 70
    32
  0
VERTEX
  8
W77RBRAMP
 62
2
 10
1790.844
 20
-6130.309
 30
-2399.821
 70
    32
  0
VERTEX
  8
W77RBRAMP
 62
2
 10
1803.073
 20
-6126.928
 30
-2395.992
 70
    32
  0
VERTEX
  8
W77RBRAMP
 62
2
 10
1809.206
 20
-6125.233
 30
-2394.187
 70
    32
  0
VERTEX
  8
W77RBRAMP
 62
2
 10
1816.186
 20
-6123.303
 30
-2392.731
 70
    32
  0
VERTEX
  8
W77RBRAMP
 62
2
 10
1823.585
 20
-6122.027
 30
-2391.218
 70
    32
  0
VERTEX
  8
W77RBRAMP
 62
2
 10
1833.785
 20
-6120.267
 30
-2388.866
 70
    32
  0
VERTEX
  8
W77RBRAMP
 62
2
 10
1847.766
 20
-6118.011
 30
-2386.000
 70
    32
  0
VERTEX
  8
W77RBRAMP
 62
2
 10
1848.383
 20
-6118.655
 30
-2385.487
 70
    32
  0
VERTEX
  8
W77RBRAMP
 62
2
 10
1847.745
 20
-6117.764
 30
-2386.000
 70
    32
  0
VERTEX
  8
W77RBRAMP
 62
2
 10
1850.909
 20
-6121.331
 30
-2386.000
 70
    32
  0
VERTEX
  8
W77RBRAMP
 62
2
 10
1852.430
 20
-6127.039
 30
-2386.000
 70
    32
  0
VERTEX
  8
W77RBRAMP
 62
2
 10
1847.735
 20
-6133.297
 30
-2386.000
 70
    32
  0
VERTEX
  8
W77RBRAMP
 62
2
 10
1863.357
 20
-6145.725
 30
-2386.000
 70
    32
  0
VERTEX
  8
W77RBRAMP
 62
2
 10
1872.076
 20
-6137.212
 30
-2386.000
 70
    32
  0
VERTEX
  8
W77RBRAMP
 62
2
 10
1874.687
 20
-6106.816
 30
-2386.000
 70
    32
  0
VERTEX
  8
W77RBRAMP
 62
2
 10
1868.390
 20
-6103.407
 30
-2386.000
 70
    32
  0
VERTEX
  8
W77RBRAMP
 62
2
 10
1861.202
 20
-6105.492
 30
-2386.000
 70
    32
  0
VERTEX
  8
W77RBRAMP
 62
2
 10
1852.974
 20
-6107.242
 30
-2386.000
 70
    32
  0
VERTEX
  8
W77RBRAMP
 62
2
 10
1846.580
 20
-6104.302
 30
-2386.000
 70
    32
  0
SEQEND
  8
W77RBRAMP
  0
POLYLINE
  8
W77RBRAMP
 62
2
 66
     1
 70
     9
  0
VERTEX
  8
W77RBRAMP
 62
2
 10
1743.967
 20
-6117.153
 30
-2390.659
 70
    32
  0
VERTEX
  8
W77RBRAMP
 62
2
 10
1738.829
 20
-6112.600
 30
-2389.308
 70
    32
  0
VERTEX
  8
W77RBRAMP
 62
2
 10
1732.164
 20
-6106.695
 30
-2387.520
 70
    32
  0
VERTEX
  8
W77RBRAMP
 62
2
 10
1725.900
 20
-6100.600
 30
-2385.718
 70
    32
  0
VERTEX
  8
W77RBRAMP
 62
2
 10
1718.447
 20
-6090.550
 30
-2383.581
 70
    32
  0
VERTEX
  8
W77RBRAMP
 62
2
 10
1712.135
 20
-6081.786
 30
-2381.579
 70
    32
  0
VERTEX
  8
W77RBRAMP
 62
2
 10
1707.091
 20
-6072.730
 30
-2379.701
 70
    32
  0
VERTEX
  8
W77RBRAMP
 62
2
 10
1703.900
 20
-6067.000
 30
-2378.431
 70
    32
  0
VERTEX
  8
W77RBRAMP
 62
2
 10
1700.673
 20
-6057.437
 30
-2376.569
 70
    32
  0
VERTEX
  8
W77RBRAMP
 62
2
 10
1696.021
 20
-6043.649
 30
-2373.951
 70
    32
  0
VERTEX
  8
W77RBRAMP
 62
2
 10
1692.751
 20
-6033.960
 30
-2372.123
 70
    32
  0
VERTEX
  8
W77RBRAMP
 62
2
 10
1690.240
 20
-6026.518
 30
-2370.782
 70
    32
  0
VERTEX
  8
W77RBRAMP
 62
2
 10
1683.032
 20
-6012.582
 30
-2368.061
 70
    32
  0
VERTEX
  8
W77RBRAMP
 62
2
 10
1673.725
 20
-5994.587
 30
-2364.405
 70
    32
  0
VERTEX
  8
W77RBRAMP
 62
2
 10
1669.240
 20
-5987.449
 30
-2361.701
 70
    32
  0
VERTEX
  8
W77RBRAMP
 62
2
 10
1669.453
 20
-5977.304
 30
-2360.228
 70
    32
  0
VERTEX
  8
W77RBRAMP
 62
2
 10
1669.470
 20
-5976.518
 30
-2360.118
 70
    32
  0
VERTEX
  8
W77RBRAMP
 62
2
 10
1674.363
 20
-5970.936
 30
-2359.641
 70
    32
  0
VERTEX
  8
W77RBRAMP
 62
2
 10
1671.645
 20
-5965.175
 30
-2358.654
 70
    32
  0
VERTEX
  8
W77RBRAMP
 62
2
 10
1681.795
 20
-5955.272
 30
-2357.903
 70
    32
  0
VERTEX
  8
W77RBRAMP
 62
2
 10
1680.790
 20
-5953.981
 30
-2357.656
 70
    32
  0
VERTEX
  8
W77RBRAMP
 62
2
 10
1675.632
 20
-5947.350
 30
-2356.153
 70
    32
  0
VERTEX
  8
W77RBRAMP
 62
2
 10
1664.395
 20
-5958.333
 30
-2357.144
 70
    32
  0
VERTEX
  8
W77RBRAMP
 62
2
 10
1660.951
 20
-5958.513
 30
-2356.914
 70
    32
  0
VERTEX
  8
W77RBRAMP
 62
2
 10
1660.392
 20
-5958.058
 30
-2356.795
 70
    32
  0
VERTEX
  8
W77RBRAMP
 62
2
 10
1654.970
 20
-5953.652
 30
-2355.496
 70
    32
  0
VERTEX
  8
W77RBRAMP
 62
2
 10
1652.794
 20
-5949.757
 30
-2354.590
 70
    32
  0
VERTEX
  8
W77RBRAMP
 62
2
 10
1651.037
 20
-5946.613
 30
-2353.839
 70
    32
  0
VERTEX
  8
W77RBRAMP
 62
2
 10
1645.695
 20
-5937.050
 30
-2351.619
 70
    32
  0
VERTEX
  8
W77RBRAMP
 62
2
 10
1646.208
 20
-5933.157
 30
-2350.954
 70
    32
  0
VERTEX
  8
W77RBRAMP
 62
2
 10
1646.498
 20
-5930.956
 30
-2350.576
 70
    32
  0
VERTEX
  8
W77RBRAMP
 62
2
 10
1633.785
 20
-5906.681
 30
-2344.791
 70
    32
  0
VERTEX
  8
W77RBRAMP
 62
2
 10
1630.790
 20
-5905.189
 30
-2344.686
 70
    32
  0
VERTEX
  8
W77RBRAMP
 62
2
 10
1624.595
 20
-5891.252
 30
-2342.600
 70
    32
  0
VERTEX
  8
W77RBRAMP
 62
2
 10
1619.284
 20
-5879.305
 30
-2341.396
 70
    32
  0
VERTEX
  8
W77RBRAMP
 62
2
 10
1617.914
 20
-5876.224
 30
-2341.085
 70
    32
  0
VERTEX
  8
W77RBRAMP
 62
2
 10
1615.625
 20
-5870.066
 30
-2340.232
 70
    32
  0
VERTEX
  8
W77RBRAMP
 62
2
 10
1616.570
 20
-5865.837
 30
-2339.440
 70
    32
  0
VERTEX
  8
W77RBRAMP
 62
2
 10
1618.696
 20
-5858.086
 30
-2339.243
 70
    32
  0
VERTEX
  8
W77RBRAMP
 62
2
 10
1617.669
 20
-5852.346
 30
-2338.584
 70
    32
  0
VERTEX
  8
W77RBRAMP
 62
2
 10
1617.751
 20
-5852.236
 30
-2338.572
 70
    32
  0
VERTEX
  8
W77RBRAMP
 62
2
 10
1616.333
 20
-5844.578
 30
-2337.215
 70
    32
  0
VERTEX
  8
W77RBRAMP
 62
2
 10
1609.481
 20
-5825.668
 30
-2334.677
 70
    32
  0
VERTEX
  8
W77RBRAMP
 62
2
 10
1607.709
 20
-5820.852
 30
-2333.744
 70
    32
  0
VERTEX
  8
W77RBRAMP
 62
2
 10
1600.384
 20
-5812.043
 30
-2331.648
 70
    32
  0
VERTEX
  8
W77RBRAMP
 62
2
 10
1597.703
 20
-5806.041
 30
-2330.440
 70
    32
  0
VERTEX
  8
W77RBRAMP
 62
2
 10
1594.241
 20
-5798.598
 30
-2329.115
 70
    32
  0
VERTEX
  8
W77RBRAMP
 62
2
 10
1588.074
 20
-5773.710
 30
-2324.951
 70
    32
  0
VERTEX
  8
W77RBRAMP
 62
2
 10
1581.434
 20
-5746.915
 30
-2320.435
 70
    32
  0
VERTEX
  8
W77RBRAMP
 62
2
 10
1581.113
 20
-5745.620
 30
-2320.217
 70
    32
  0
VERTEX
  8
W77RBRAMP
 62
2
 10
1580.371
 20
-5726.338
 30
-2317.123
 70
    32
  0
VERTEX
  8
W77RBRAMP
 62
2
 10
1580.264
 20
-5724.754
 30
-2316.711
 70
    32
  0
VERTEX
  8
W77RBRAMP
 62
2
 10
1587.452
 20
-5697.637
 30
-2309.191
 70
    32
  0
VERTEX
  8
W77RBRAMP
 62
2
 10
1593.133
 20
-5680.742
 30
-2304.865
 70
    32
  0
VERTEX
  8
W77RBRAMP
 62
2
 10
1594.013
 20
-5678.491
 30
-2304.230
 70
    32
  0
VERTEX
  8
W77RBRAMP
 62
2
 10
1603.494
 20
-5659.280
 30
-2298.690
 70
    32
  0
VERTEX
  8
W77RBRAMP
 62
2
 10
1607.251
 20
-5651.668
 30
-2296.607
 70
    32
  0
VERTEX
  8
W77RBRAMP
 62
2
 10
1607.560
 20
-5651.040
 30
-2296.494
 70
    32
  0
VERTEX
  8
W77RBRAMP
 62
2
 10
1608.728
 20
-5635.176
 30
-2293.185
 70
    32
  0
VERTEX
  8
W77RBRAMP
 62
2
 10
1605.011
 20
-5623.391
 30
-2290.416
 70
    32
  0
VERTEX
  8
W77RBRAMP
 62
2
 10
1603.229
 20
-5617.742
 30
-2288.887
 70
    32
  0
VERTEX
  8
W77RBRAMP
 62
2
 10
1601.955
 20
-5614.190
 30
-2287.913
 70
    32
  0
VERTEX
  8
W77RBRAMP
 62
2
 10
1601.453
 20
-5612.790
 30
-2287.647
 70
    32
  0
VERTEX
  8
W77RBRAMP
 62
2
 10
1589.803
 20
-5595.625
 30
-2283.412
 70
    32
  0
VERTEX
  8
W77RBRAMP
 62
2
 10
1578.944
 20
-5588.761
 30
-2280.608
 70
    32
  0
VERTEX
  8
W77RBRAMP
 62
2
 10
1578.436
 20
-5588.611
 30
-2280.499
 70
    32
  0
VERTEX
  8
W77RBRAMP
 62
2
 10
1570.644
 20
-5586.316
 30
-2279.552
 70
    32
  0
VERTEX
  8
W77RBRAMP
 62
2
 10
1563.792
 20
-5582.758
 30
-2278.600
 70
    32
  0
VERTEX
  8
W77RBRAMP
 62
2
 10
1553.963
 20
-5577.655
 30
-2277.023
 70
    32
  0
VERTEX
  8
W77RBRAMP
 62
2
 10
1553.215
 20
-5577.267
 30
-2276.949
 70
    32
  0
VERTEX
  8
W77RBRAMP
 62
2
 10
1552.791
 20
-5577.047
 30
-2276.904
 70
    32
  0
VERTEX
  8
W77RBRAMP
 62
2
 10
1547.762
 20
-5583.438
 30
-2276.293
 70
    32
  0
VERTEX
  8
W77RBRAMP
 62
2
 10
1544.019
 20
-5584.780
 30
-2275.864
 70
    32
  0
VERTEX
  8
W77RBRAMP
 62
2
 10
1537.697
 20
-5587.048
 30
-2275.688
 70
    32
  0
VERTEX
  8
W77RBRAMP
 62
2
 10
1528.040
 20
-5592.212
 30
-2275.446
 70
    32
  0
VERTEX
  8
W77RBRAMP
 62
2
 10
1519.704
 20
-5598.782
 30
-2275.270
 70
    32
  0
VERTEX
  8
W77RBRAMP
 62
2
 10
1516.397
 20
-5601.389
 30
-2275.191
 70
    32
  0
VERTEX
  8
W77RBRAMP
 62
2
 10
1514.468
 20
-5603.635
 30
-2275.151
 70
    32
  0
VERTEX
  8
W77RBRAMP
 62
2
 10
1512.077
 20
-5606.422
 30
-2274.982
 70
    32
  0
VERTEX
  8
W77RBRAMP
 62
2
 10
1505.141
 20
-5605.939
 30
-2274.839
 70
    32
  0
VERTEX
  8
W77RBRAMP
 62
2
 10
1504.905
 20
-5606.460
 30
-2274.812
 70
    32
  0
VERTEX
  8
W77RBRAMP
 62
2
 10
1504.402
 20
-5607.571
 30
-2274.786
 70
    32
  0
VERTEX
  8
W77RBRAMP
 62
2
 10
1499.406
 20
-5618.605
 30
-2274.516
 70
    32
  0
VERTEX
  8
W77RBRAMP
 62
2
 10
1498.483
 20
-5620.645
 30
-2274.029
 70
    32
  0
VERTEX
  8
W77RBRAMP
 62
2
 10
1483.627
 20
-5660.303
 30
-2264.890
 70
    32
  0
VERTEX
  8
W77RBRAMP
 62
2
 10
1476.911
 20
-5678.231
 30
-2260.753
 70
    32
  0
VERTEX
  8
W77RBRAMP
 62
2
 10
1475.250
 20
-5682.664
 30
-2259.694
 70
    32
  0
VERTEX
  8
W77RBRAMP
 62
2
 10
1471.613
 20
-5686.443
 30
-2258.606
 70
    32
  0
VERTEX
  8
W77RBRAMP
 62
2
 10
1467.573
 20
-5689.308
 30
-2257.432
 70
    32
  0
VERTEX
  8
W77RBRAMP
 62
2
 10
1470.613
 20
-5716.502
 30
-2257.672
 70
    32
  0
VERTEX
  8
W77RBRAMP
 62
2
 10
1471.544
 20
-5726.549
 30
-2256.447
 70
    32
  0
VERTEX
  8
W77RBRAMP
 62
2
 10
1479.450
 20
-5708.457
 30
-2259.190
 70
    32
  0
VERTEX
  8
W77RBRAMP
 62
2
 10
1485.073
 20
-5687.117
 30
-2262.219
 70
    32
  0
VERTEX
  8
W77RBRAMP
 62
2
 10
1496.264
 20
-5658.242
 30
-2266.517
 70
    32
  0
VERTEX
  8
W77RBRAMP
 62
2
 10
1501.774
 20
-5643.599
 30
-2270.019
 70
    32
  0
VERTEX
  8
W77RBRAMP
 62
2
 10
1506.464
 20
-5631.136
 30
-2272.897
 70
    32
  0
VERTEX
  8
W77RBRAMP
 62
2
 10
1510.692
 20
-5626.808
 30
-2274.175
 70
    32
  0
VERTEX
  8
W77RBRAMP
 62
2
 10
1511.805
 20
-5625.668
 30
-2274.195
 70
    32
  0
VERTEX
  8
W77RBRAMP
 62
2
 10
1522.202
 20
-5615.024
 30
-2274.871
 70
    32
  0
VERTEX
  8
W77RBRAMP
 62
2
 10
1528.628
 20
-5606.483
 30
-2275.368
 70
    32
  0
VERTEX
  8
W77RBRAMP
 62
2
 10
1533.984
 20
-5600.880
 30
-2275.721
 70
    32
  0
VERTEX
  8
W77RBRAMP
 62
2
 10
1534.983
 20
-5599.835
 30
-2275.743
 70
    32
  0
VERTEX
  8
W77RBRAMP
 62
2
 10
1539.842
 20
-5597.344
 30
-2275.869
 70
    32
  0
VERTEX
  8
W77RBRAMP
 62
2
 10
1547.101
 20
-5595.518
 30
-2276.075
 70
    32
  0
VERTEX
  8
W77RBRAMP
 62
2
 10
1549.149
 20
-5595.003
 30
-2276.295
 70
    32
  0
VERTEX
  8
W77RBRAMP
 62
2
 10
1550.416
 20
-5594.684
 30
-2276.497
 70
    32
  0
VERTEX
  8
W77RBRAMP
 62
2
 10
1558.844
 20
-5596.481
 30
-2277.843
 70
    32
  0
VERTEX
  8
W77RBRAMP
 62
2
 10
1572.199
 20
-5599.328
 30
-2280.710
 70
    32
  0
VERTEX
  8
W77RBRAMP
 62
2
 10
1573.524
 20
-5599.610
 30
-2281.033
 70
    32
  0
VERTEX
  8
W77RBRAMP
 62
2
 10
1576.563
 20
-5601.428
 30
-2281.941
 70
    32
  0
VERTEX
  8
W77RBRAMP
 62
2
 10
1578.316
 20
-5603.502
 30
-2282.611
 70
    32
  0
VERTEX
  8
W77RBRAMP
 62
2
 10
1583.489
 20
-5610.351
 30
-2284.694
 70
    32
  0
VERTEX
  8
W77RBRAMP
 62
2
 10
1584.356
 20
-5612.383
 30
-2285.169
 70
    32
  0
VERTEX
  8
W77RBRAMP
 62
2
 10
1590.961
 20
-5627.879
 30
-2290.424
 70
    32
  0
VERTEX
  8
W77RBRAMP
 62
2
 10
1592.439
 20
-5631.347
 30
-2291.405
 70
    32
  0
VERTEX
  8
W77RBRAMP
 62
2
 10
1596.146
 20
-5640.380
 30
-2293.949
 70
    32
  0
VERTEX
  8
W77RBRAMP
 62
2
 10
1595.060
 20
-5643.256
 30
-2294.580
 70
    32
  0
VERTEX
  8
W77RBRAMP
 62
2
 10
1590.185
 20
-5656.165
 30
-2298.774
 70
    32
  0
VERTEX
  8
W77RBRAMP
 62
2
 10
1589.275
 20
-5658.576
 30
-2299.453
 70
    32
  0
VERTEX
  8
W77RBRAMP
 62
2
 10
1587.555
 20
-5663.130
 30
-2300.739
 70
    32
  0
VERTEX
  8
W77RBRAMP
 62
2
 10
1584.863
 20
-5670.260
 30
-2302.719
 70
    32
  0
VERTEX
  8
W77RBRAMP
 62
2
 10
1576.792
 20
-5692.220
 30
-2308.813
 70
    32
  0
VERTEX
  8
W77RBRAMP
 62
2
 10
1566.412
 20
-5719.579
 30
-2316.412
 70
    32
  0
VERTEX
  8
W77RBRAMP
 62
2
 10
1565.884
 20
-5721.846
 30
-2317.035
 70
    32
  0
VERTEX
  8
W77RBRAMP
 62
2
 10
1565.417
 20
-5723.853
 30
-2317.063
 70
    32
  0
VERTEX
  8
W77RBRAMP
 62
2
 10
1566.077
 20
-5726.517
 30
-2317.115
 70
    32
  0
VERTEX
  8
W77RBRAMP
 62
2
 10
1566.791
 20
-5729.398
 30
-2317.114
 70
    32
  0
VERTEX
  8
W77RBRAMP
 62
2
 10
1578.649
 20
-5777.251
 30
-2325.040
 70
    32
  0
VERTEX
  8
W77RBRAMP
 62
2
 10
1586.107
 20
-5807.348
 30
-2330.076
 70
    32
  0
VERTEX
  8
W77RBRAMP
 62
2
 10
1588.356
 20
-5819.036
 30
-2332.000
 70
    32
  0
VERTEX
  8
W77RBRAMP
 62
2
 10
1587.692
 20
-5832.711
 30
-2334.090
 70
    32
  0
VERTEX
  8
W77RBRAMP
 62
2
 10
1588.169
 20
-5837.466
 30
-2334.852
 70
    32
  0
VERTEX
  8
W77RBRAMP
 62
2
 10
1588.324
 20
-5839.009
 30
-2335.095
 70
    32
  0
VERTEX
  8
W77RBRAMP
 62
2
 10
1583.263
 20
-5844.796
 30
-2335.787
 70
    32
  0
VERTEX
  8
W77RBRAMP
 62
2
 10
1584.644
 20
-5849.362
 30
-2336.554
 70
    32
  0
VERTEX
  8
W77RBRAMP
 62
2
 10
1586.600
 20
-5851.751
 30
-2337.005
 70
    32
  0
VERTEX
  8
W77RBRAMP
 62
2
 10
1596.668
 20
-5853.095
 30
-2337.652
 70
    32
  0
VERTEX
  8
W77RBRAMP
 62
2
 10
1598.365
 20
-5857.406
 30
-2338.408
 70
    32
  0
VERTEX
  8
W77RBRAMP
 62
2
 10
1599.578
 20
-5861.473
 30
-2339.091
 70
    32
  0
VERTEX
  8
W77RBRAMP
 62
2
 10
1602.162
 20
-5864.281
 30
-2339.568
 70
    32
  0
VERTEX
  8
W77RBRAMP
 62
2
 10
1607.935
 20
-5877.041
 30
-2340.997
 70
    32
  0
VERTEX
  8
W77RBRAMP
 62
2
 10
1630.423
 20
-5920.215
 30
-2347.698
 70
    32
  0
VERTEX
  8
W77RBRAMP
 62
2
 10
1630.598
 20
-5920.604
 30
-2347.282
 70
    32
  0
VERTEX
  8
W77RBRAMP
 62
2
 10
1633.774
 20
-5927.649
 30
-2348.849
 70
    32
  0
VERTEX
  8
W77RBRAMP
 62
2
 10
1636.310
 20
-5933.784
 30
-2350.194
 70
    32
  0
VERTEX
  8
W77RBRAMP
 62
2
 10
1637.728
 20
-5937.215
 30
-2350.954
 70
    32
  0
VERTEX
  8
W77RBRAMP
 62
2
 10
1643.170
 20
-5950.382
 30
-2353.844
 70
    32
  0
VERTEX
  8
W77RBRAMP
 62
2
 10
1644.566
 20
-5953.759
 30
-2354.590
 70
    32
  0
VERTEX
  8
W77RBRAMP
 62
2
 10
1645.845
 20
-5956.853
 30
-2355.272
 70
    32
  0
VERTEX
  8
W77RBRAMP
 62
2
 10
1650.318
 20
-5967.674
 30
-2357.647
 70
    32
  0
VERTEX
  8
W77RBRAMP
 62
2
 10
1653.329
 20
-5974.960
 30
-2358.920
 70
    32
  0
VERTEX
  8
W77RBRAMP
 62
2
 10
1659.748
 20
-5990.490
 30
-2361.579
 70
    32
  0
VERTEX
  8
W77RBRAMP
 62
2
 10
1664.144
 20
-6000.504
 30
-2364.478
 70
    32
  0
VERTEX
  8
W77RBRAMP
 62
2
 10
1671.373
 20
-6013.201
 30
-2367.198
 70
    32
  0
VERTEX
  8
W77RBRAMP
 62
2
 10
1680.623
 20
-6029.447
 30
-2370.573
 70
    32
  0
VERTEX
  8
W77RBRAMP
 62
2
 10
1680.657
 20
-6029.554
 30
-2370.593
 70
    32
  0
VERTEX
  8
W77RBRAMP
 62
2
 10
1686.305
 20
-6047.145
 30
-2373.949
 70
    32
  0
VERTEX
  8
W77RBRAMP
 62
2
 10
1689.502
 20
-6057.104
 30
-2375.786
 70
    32
  0
VERTEX
  8
W77RBRAMP
 62
2
 10
1694.265
 20
-6070.628
 30
-2378.362
 70
    32
  0
VERTEX
  8
W77RBRAMP
 62
2
 10
1698.699
 20
-6079.841
 30
-2380.206
 70
    32
  0
VERTEX
  8
W77RBRAMP
 62
2
 10
1702.245
 20
-6087.209
 30
-2381.576
 70
    32
  0
VERTEX
  8
W77RBRAMP
 62
2
 10
1705.317
 20
-6091.857
 30
-2382.408
 70
    32
  0
VERTEX
  8
W77RBRAMP
 62
2
 10
1709.738
 20
-6097.241
 30
-2383.591
 70
    32
  0
VERTEX
  8
W77RBRAMP
 62
2
 10
1716.600
 20
-6105.600
 30
-2385.480
 70
    32
  0
VERTEX
  8
W77RBRAMP
 62
2
 10
1722.717
 20
-6117.376
 30
-2387.738
 70
    32
  0
VERTEX
  8
W77RBRAMP
 62
2
 10
1728.120
 20
-6128.812
 30
-2390.039
 70
    32
  0
VERTEX
  8
W77RBRAMP
 62
2
 10
1731.831
 20
-6136.667
 30
-2391.257
 70
    32
  0
VERTEX
  8
W77RBRAMP
 62
2
 10
1739.890
 20
-6151.117
 30
-2393.174
 70
    32
  0
VERTEX
  8
W77RBRAMP
 62
2
 10
1747.258
 20
-6166.580
 30
-2395.094
 70
    32
  0
VERTEX
  8
W77RBRAMP
 62
2
 10
1752.279
 20
-6177.666
 30
-2396.447
 70
    32
  0
VERTEX
  8
W77RBRAMP
 62
2
 10
1758.986
 20
-6192.475
 30
-2398.322
 70
    32
  0
VERTEX
  8
W77RBRAMP
 62
2
 10
1762.700
 20
-6200.675
 30
-2399.333
 70
    32
  0
VERTEX
  8
W77RBRAMP
 62
2
 10
1764.121
 20
-6207.369
 30
-2399.520
 70
    32
  0
VERTEX
  8
W77RBRAMP
 62
2
 10
1764.147
 20
-6207.495
 30
-2399.520
 70
    32
  0
VERTEX
  8
W77RBRAMP
 62
2
 10
1764.770
 20
-6210.427
 30
-2399.604
 70
    32
  0
VERTEX
  8
W77RBRAMP
 62
2
 10
1766.471
 20
-6218.442
 30
-2397.599
 70
    32
  0
VERTEX
  8
W77RBRAMP
 62
2
 10
1768.255
 20
-6226.850
 30
-2395.454
 70
    32
  0
VERTEX
  8
W77RBRAMP
 62
2
 10
1768.761
 20
-6227.890
 30
-2395.166
 70
    32
  0
VERTEX
  8
W77RBRAMP
 62
2
 10
1771.738
 20
-6234.007
 30
-2393.467
 70
    32
  0
VERTEX
  8
W77RBRAMP
 62
2
 10
1774.148
 20
-6238.958
 30
-2392.065
 70
    32
  0
VERTEX
  8
W77RBRAMP
 62
2
 10
1774.166
 20
-6238.996
 30
-2392.054
 70
    32
  0
VERTEX
  8
W77RBRAMP
 62
2
 10
1776.502
 20
-6247.461
 30
-2389.845
 70
    32
  0
VERTEX
  8
W77RBRAMP
 62
2
 10
1777.964
 20
-6252.760
 30
-2388.425
 70
    32
  0
VERTEX
  8
W77RBRAMP
 62
2
 10
1778.402
 20
-6254.346
 30
-2388.011
 70
    32
  0
VERTEX
  8
W77RBRAMP
 62
2
 10
1781.415
 20
-6263.078
 30
-2385.692
 70
    32
  0
VERTEX
  8
W77RBRAMP
 62
2
 10
1781.498
 20
-6263.378
 30
-2385.613
 70
    32
  0
VERTEX
  8
W77RBRAMP
 62
2
 10
1783.006
 20
-6268.823
 30
-2384.177
 70
    32
  0
VERTEX
  8
W77RBRAMP
 62
2
 10
1785.466
 20
-6277.706
 30
-2381.859
 70
    32
  0
VERTEX
  8
W77RBRAMP
 62
2
 10
1788.252
 20
-6287.762
 30
-2379.547
 70
    32
  0
VERTEX
  8
W77RBRAMP
 62
2
 10
1791.187
 20
-6298.362
 30
-2377.228
 70
    32
  0
VERTEX
  8
W77RBRAMP
 62
2
 10
1793.343
 20
-6306.361
 30
-2375.428
 70
    32
  0
VERTEX
  8
W77RBRAMP
 62
2
 10
1795.687
 20
-6315.449
 30
-2373.445
 70
    32
  0
VERTEX
  8
W77RBRAMP
 62
2
 10
1798.461
 20
-6326.201
 30
-2371.022
 70
    32
  0
VERTEX
  8
W77RBRAMP
 62
2
 10
1799.360
 20
-6330.488
 30
-2370.009
 70
    32
  0
VERTEX
  8
W77RBRAMP
 62
2
 10
1801.781
 20
-6342.027
 30
-2367.538
 70
    32
  0
VERTEX
  8
W77RBRAMP
 62
2
 10
1801.273
 20
-6349.250
 30
-2366.087
 70
    32
  0
VERTEX
  8
W77RBRAMP
 62
2
 10
1803.070
 20
-6353.954
 30
-2365.033
 70
    32
  0
VERTEX
  8
W77RBRAMP
 62
2
 10
1806.943
 20
-6364.051
 30
-2362.913
 70
    32
  0
VERTEX
  8
W77RBRAMP
 62
2
 10
1810.689
 20
-6373.442
 30
-2363.014
 70
    32
  0
VERTEX
  8
W77RBRAMP
 62
2
 10
1813.693
 20
-6375.734
 30
-2363.014
 70
    32
  0
VERTEX
  8
W77RBRAMP
 62
2
 10
1818.174
 20
-6381.752
 30
-2363.014
 70
    32
  0
VERTEX
  8
W77RBRAMP
 62
2
 10
1829.514
 20
-6374.924
 30
-2363.014
 70
    32
  0
VERTEX
  8
W77RBRAMP
 62
2
 10
1826.945
 20
-6367.471
 30
-2363.014
 70
    32
  0
VERTEX
  8
W77RBRAMP
 62
2
 10
1826.948
 20
-6367.460
 30
-2363.014
 70
    32
  0
VERTEX
  8
W77RBRAMP
 62
2
 10
1829.529
 20
-6359.586
 30
-2363.108
 70
    32
  0
VERTEX
  8
W77RBRAMP
 62
2
 10
1828.751
 20
-6351.255
 30
-2364.036
 70
    32
  0
VERTEX
  8
W77RBRAMP
 62
2
 10
1819.596
 20
-6346.482
 30
-2365.860
 70
    32
  0
VERTEX
  8
W77RBRAMP
 62
2
 10
1813.572
 20
-6339.353
 30
-2367.608
 70
    32
  0
VERTEX
  8
W77RBRAMP
 62
2
 10
1813.158
 20
-6329.694
 30
-2371.745
 70
    32
  0
VERTEX
  8
W77RBRAMP
 62
2
 10
1816.886
 20
-6326.458
 30
-2371.663
 70
    32
  0
VERTEX
  8
W77RBRAMP
 62
2
 10
1823.360
 20
-6329.041
 30
-2370.090
 70
    32
  0
VERTEX
  8
W77RBRAMP
 62
2
 10
1826.835
 20
-6333.161
 30
-2369.162
 70
    32
  0
VERTEX
  8
W77RBRAMP
 62
2
 10
1831.263
 20
-6334.250
 30
-2368.342
 70
    32
  0
VERTEX
  8
W77RBRAMP
 62
2
 10
1835.819
 20
-6338.305
 30
-2367.376
 70
    32
  0
VERTEX
  8
W77RBRAMP
 62
2
 10
1839.393
 20
-6338.859
 30
-2366.728
 70
    32
  0
VERTEX
  8
W77RBRAMP
 62
2
 10
1846.083
 20
-6344.046
 30
-2365.342
 70
    32
  0
VERTEX
  8
W77RBRAMP
 62
2
 10
1851.986
 20
-6350.216
 30
-2364.052
 70
    32
  0
VERTEX
  8
W77RBRAMP
 62
2
 10
1862.758
 20
-6343.693
 30
-2362.733
 70
    32
  0
VERTEX
  8
W77RBRAMP
 62
2
 10
1871.422
 20
-6345.663
 30
-2361.414
 70
    32
  0
VERTEX
  8
W77RBRAMP
 62
2
 10
1880.371
 20
-6347.005
 30
-2361.504
 70
    32
  0
VERTEX
  8
W77RBRAMP
 62
2
 10
1885.370
 20
-6348.975
 30
-2360.000
 70
    32
  0
VERTEX
  8
W77RBRAMP
 62
2
 10
1878.213
 20
-6333.242
 30
-2360.000
 70
    32
  0
VERTEX
  8
W77RBRAMP
 62
2
 10
1872.575
 20
-6332.644
 30
-2361.497
 70
    32
  0
VERTEX
  8
W77RBRAMP
 62
2
 10
1861.262
 20
-6331.344
 30
-2363.363
 70
    32
  0
VERTEX
  8
W77RBRAMP
 62
2
 10
1853.739
 20
-6330.003
 30
-2364.591
 70
    32
  0
VERTEX
  8
W77RBRAMP
 62
2
 10
1845.977
 20
-6321.384
 30
-2366.664
 70
    32
  0
VERTEX
  8
W77RBRAMP
 62
2
 10
1831.741
 20
-6320.491
 30
-2369.443
 70
    32
  0
VERTEX
  8
W77RBRAMP
 62
2
 10
1825.323
 20
-6316.165
 30
-2371.119
 70
    32
  0
VERTEX
  8
W77RBRAMP
 62
2
 10
1816.543
 20
-6311.193
 30
-2373.005
 70
    32
  0
VERTEX
  8
W77RBRAMP
 62
2
 10
1807.668
 20
-6304.171
 30
-2373.478
 70
    32
  0
VERTEX
  8
W77RBRAMP
 62
2
 10
1803.565
 20
-6294.010
 30
-2377.228
 70
    32
  0
VERTEX
  8
W77RBRAMP
 62
2
 10
1799.865
 20
-6284.851
 30
-2379.390
 70
    32
  0
VERTEX
  8
W77RBRAMP
 62
2
 10
1797.401
 20
-6278.748
 30
-2380.776
 70
    32
  0
VERTEX
  8
W77RBRAMP
 62
2
 10
1795.107
 20
-6272.740
 30
-2382.390
 70
    32
  0
VERTEX
  8
W77RBRAMP
 62
2
 10
1792.644
 20
-6266.250
 30
-2384.177
 70
    32
  0
VERTEX
  8
W77RBRAMP
 62
2
 10
1788.900
 20
-6256.384
 30
-2386.818
 70
    32
  0
VERTEX
  8
W77RBRAMP
 62
2
 10
1787.345
 20
-6252.285
 30
-2387.905
 70
    32
  0
VERTEX
  8
W77RBRAMP
 62
2
 10
1786.798
 20
-6250.270
 30
-2388.425
 70
    32
  0
VERTEX
  8
W77RBRAMP
 62
2
 10
1784.330
 20
-6241.182
 30
-2390.795
 70
    32
  0
VERTEX
  8
W77RBRAMP
 62
2
 10
1782.972
 20
-6236.178
 30
-2392.065
 70
    32
  0
VERTEX
  8
W77RBRAMP
 62
2
 10
1780.961
 20
-6228.773
 30
-2393.994
 70
    32
  0
VERTEX
  8
W77RBRAMP
 62
2
 10
1779.714
 20
-6224.180
 30
-2395.164
 70
    32
  0
VERTEX
  8
W77RBRAMP
 62
2
 10
1779.677
 20
-6224.045
 30
-2395.200
 70
    32
  0
VERTEX
  8
W77RBRAMP
 62
2
 10
1778.075
 20
-6216.207
 30
-2397.233
 70
    32
  0
VERTEX
  8
W77RBRAMP
 62
2
 10
1777.593
 20
-6213.849
 30
-2397.835
 70
    32
  0
VERTEX
  8
W77RBRAMP
 62
2
 10
1776.201
 20
-6207.463
 30
-2399.473
 70
    32
  0
VERTEX
  8
W77RBRAMP
 62
2
 10
1775.634
 20
-6204.860
 30
-2399.475
 70
    32
  0
VERTEX
  8
W77RBRAMP
 62
2
 10
1774.006
 20
-6197.393
 30
-2399.421
 70
    32
  0
VERTEX
  8
W77RBRAMP
 62
2
 10
1770.289
 20
-6189.518
 30
-2398.509
 70
    32
  0
VERTEX
  8
W77RBRAMP
 62
2
 10
1766.840
 20
-6182.209
 30
-2397.599
 70
    32
  0
VERTEX
  8
W77RBRAMP
 62
2
 10
1763.158
 20
-6174.409
 30
-2396.642
 70
    32
  0
VERTEX
  8
W77RBRAMP
 62
2
 10
1756.369
 20
-6160.023
 30
-2394.853
 70
    32
  0
VERTEX
  8
W77RBRAMP
 62
2
 10
1752.391
 20
-6151.594
 30
-2393.767
 70
    32
  0
VERTEX
  8
W77RBRAMP
 62
2
 10
1748.946
 20
-6141.244
 30
-2392.854
 70
    32
  0
VERTEX
  8
W77RBRAMP
 62
2
 10
1747.677
 20
-6136.966
 30
-2393.031
 70
    32
  0
VERTEX
  8
W77RBRAMP
 62
2
 10
1751.674
 20
-6134.084
 30
-2393.529
 70
    32
  0
VERTEX
  8
W77RBRAMP
 62
2
 10
1757.901
 20
-6134.891
 30
-2392.813
 70
    32
  0
VERTEX
  8
W77RBRAMP
 62
2
 10
1771.414
 20
-6134.086
 30
-2391.263
 70
    32
  0
VERTEX
  8
W77RBRAMP
 62
2
 10
1777.123
 20
-6132.337
 30
-2390.710
 70
    32
  0
VERTEX
  8
W77RBRAMP
 62
2
 10
1793.706
 20
-6129.558
 30
-2388.186
 70
    32
  0
VERTEX
  8
W77RBRAMP
 62
2
 10
1800.947
 20
-6128.344
 30
-2386.994
 70
    32
  0
VERTEX
  8
W77RBRAMP
 62
2
 10
1818.060
 20
-6123.462
 30
-2383.230
 70
    32
  0
VERTEX
  8
W77RBRAMP
 62
2
 10
1829.029
 20
-6120.517
 30
-2380.868
 70
    32
  0
VERTEX
  8
W77RBRAMP
 62
2
 10
1833.541
 20
-6119.981
 30
-2380.421
 70
    32
  0
VERTEX
  8
W77RBRAMP
 62
2
 10
1842.609
 20
-6118.903
 30
-2379.452
 70
    32
  0
VERTEX
  8
W77RBRAMP
 62
2
 10
1848.383
 20
-6118.655
 30
-2379.104
 70
    32
  0
VERTEX
  8
W77RBRAMP
 62
2
 10
1855.287
 20
-6125.415
 30
-2378.855
 70
    32
  0
VERTEX
  8
W77RBRAMP
 62
2
 10
1850.905
 20
-6133.332
 30
-2379.285
 70
    32
  0
VERTEX
  8
W77RBRAMP
 62
2
 10
1856.523
 20
-6135.594
 30
-2379.301
 70
    32
  0
VERTEX
  8
W77RBRAMP
 62
2
 10
1862.853
 20
-6138.143
 30
-2379.196
 70
    32
  0
VERTEX
  8
W77RBRAMP
 62
2
 10
1872.018
 20
-6135.203
 30
-2379.041
 70
    32
  0
VERTEX
  8
W77RBRAMP
 62
2
 10
1874.442
 20
-6100.305
 30
-2377.409
 70
    32
  0
VERTEX
  8
W77RBRAMP
 62
2
 10
1864.716
 20
-6103.604
 30
-2378.016
 70
    32
  0
VERTEX
  8
W77RBRAMP
 62
2
 10
1854.114
 20
-6107.201
 30
-2378.677
 70
    32
  0
VERTEX
  8
W77RBRAMP
 62
2
 10
1840.681
 20
-6101.285
 30
-2379.439
 70
    32
  0
VERTEX
  8
W77RBRAMP
 62
2
 10
1826.632
 20
-6105.734
 30
-2380.868
 70
    32
  0
VERTEX
  8
W77RBRAMP
 62
2
 10
1820.872
 20
-6107.558
 30
-2382.118
 70
    32
  0
VERTEX
  8
W77RBRAMP
 62
2
 10
1803.210
 20
-6114.668
 30
-2386.000
 70
    32
  0
VERTEX
  8
W77RBRAMP
 62
2
 10
1797.978
 20
-6116.666
 30
-2387.170
 70
    32
  0
VERTEX
  8
W77RBRAMP
 62
2
 10
1783.521
 20
-6121.671
 30
-2389.534
 70
    32
  0
VERTEX
  8
W77RBRAMP
 62
2
 10
1783.456
 20
-6121.685
 30
-2389.544
 70
    32
  0
VERTEX
  8
W77RBRAMP
 62
2
 10
1770.320
 20
-6122.649
 30
-2391.401
 70
    32
  0
VERTEX
  8
W77RBRAMP
 62
2
 10
1766.710
 20
-6123.004
 30
-2391.815
 70
    32
  0
VERTEX
  8
W77RBRAMP
 62
2
 10
1760.154
 20
-6123.648
 30
-2391.868
 70
    32
  0
VERTEX
  8
W77RBRAMP
 62
2
 10
1752.152
 20
-6121.632
 30
-2391.469
 70
    32
  0
VERTEX
  8
W77RBRAMP
 62
2
 10
1743.967
 20
-6117.153
 30
-2390.659
 70
    32
  0
SEQEND
  8
W77RBRAMP
  0
POLYLINE
  8
W77RBRAMP
 62
2
 66
     1
 70
     9
  0
VERTEX
  8
W77RBRAMP
 62
2
 10
1771.414
 20
-6134.086
 30
-2396.684
 70
    32
  0
VERTEX
  8
W77RBRAMP
 62
2
 10
1780.144
 20
-6132.627
 30
-2398.401
 70
    32
  0
VERTEX
  8
W77RBRAMP
 62
2
 10
1786.781
 20
-6131.518
 30
-2399.545
 70
    32
  0
VERTEX
  8
W77RBRAMP
 62
2
 10
1787.653
 20
-6130.924
 30
-2400.000
 70
    32
  0
VERTEX
  8
W77RBRAMP
 62
2
 10
1787.647
 20
-6130.429
 30
-2400.000
 70
    32
  0
VERTEX
  8
W77RBRAMP
 62
2
 10
1803.890
 20
-6126.438
 30
-2402.952
 70
    32
  0
VERTEX
  8
W77RBRAMP
 62
2
 10
1813.854
 20
-6124.570
 30
-2404.632
 70
    32
  0
VERTEX
  8
W77RBRAMP
 62
2
 10
1828.055
 20
-6122.191
 30
-2407.318
 70
    32
  0
VERTEX
  8
W77RBRAMP
 62
2
 10
1838.911
 20
-6120.647
 30
-2409.456
 70
    32
  0
VERTEX
  8
W77RBRAMP
 62
2
 10
1844.494
 20
-6120.564
 30
-2410.416
 70
    32
  0
VERTEX
  8
W77RBRAMP
 62
2
 10
1851.891
 20
-6120.557
 30
-2412.451
 70
    32
  0
VERTEX
  8
W77RBRAMP
 62
2
 10
1863.006
 20
-6120.547
 30
-2413.889
 70
    32
  0
VERTEX
  8
W77RBRAMP
 62
2
 10
1865.078
 20
-6109.500
 30
-2413.866
 70
    32
  0
VERTEX
  8
W77RBRAMP
 62
2
 10
1857.641
 20
-6109.677
 30
-2413.202
 70
    32
  0
VERTEX
  8
W77RBRAMP
 62
2
 10
1846.957
 20
-6109.931
 30
-2411.231
 70
    32
  0
VERTEX
  8
W77RBRAMP
 62
2
 10
1834.407
 20
-6110.229
 30
-2408.765
 70
    32
  0
VERTEX
  8
W77RBRAMP
 62
2
 10
1826.628
 20
-6111.541
 30
-2407.318
 70
    32
  0
VERTEX
  8
W77RBRAMP
 62
2
 10
1817.843
 20
-6113.023
 30
-2405.700
 70
    32
  0
VERTEX
  8
W77RBRAMP
 62
2
 10
1811.759
 20
-6113.947
 30
-2404.633
 70
    32
  0
VERTEX
  8
W77RBRAMP
 62
2
 10
1801.279
 20
-6115.539
 30
-2402.878
 70
    32
  0
VERTEX
  8
W77RBRAMP
 62
2
 10
1788.231
 20
-6119.496
 30
-2400.629
 70
    32
  0
VERTEX
  8
W77RBRAMP
 62
2
 10
1787.519
 20
-6120.506
 30
-2400.000
 70
    32
  0
VERTEX
  8
W77RBRAMP
 62
2
 10
1778.451
 20
-6121.850
 30
-2398.453
 70
    32
  0
VERTEX
  8
W77RBRAMP
 62
2
 10
1770.320
 20
-6122.649
 30
-2396.545
 70
    32
  0
VERTEX
  8
W77RBRAMP
 62
2
 10
1752.152
 20
-6121.632
 30
-2391.469
 70
    32
  0
VERTEX
  8
W77RBRAMP
 62
2
 10
1751.674
 20
-6134.084
 30
-2393.529
 70
    32
  0
VERTEX
  8
W77RBRAMP
 62
2
 10
1771.414
 20
-6134.086
 30
-2396.684
 70
    32
  0
SEQEND
  8
W77RBRAMP
  0
ENDSEC
  0
EOF
