999
********************************
999
*   DXF File - Entities Only   *
999
*        3D Data Format        *
999
*     Output from ENVISAGE     *
999
*     28-Dec-2007 13:30:37     *
999
********************************
  0
SECTION 
  2
HEADER
  9
$ACADVER
  1
AC1009
  9
$EXTMIN
 10
-290000.000
 20
-250000.000
 30
-4000.000
  9
$EXTMAX
 10
5000000.000
 20
600000.000
 30
6000.000
  0
ENDSEC
  0
SECTION
  2
ENTITIES
  0
TEXT
  8
W78RA1RAMP
 62
3
 10
2358.857
 20
-6845.678
 30
-2476.940
 40
4.101
  1
78A1
 41
 1.0 
  0
TEXT
  8
W78RA1RAMP
 62
1
 10
1980.727
 20
-7075.555
 30
-2553.664
 40
2.362
  1
S
 41
 1.0 
  0
POLYLINE
  8
W78RA1RAMP
 62
3
 66
     1
 70
     9
  0
VERTEX
  8
W78RA1RAMP
 62
3
 10
2188.433
 20
-6773.874
 30
-2441.054
 70
    32
  0
VERTEX
  8
W78RA1RAMP
 62
3
 10
2217.107
 20
-6768.674
 30
-2445.770
 70
    32
  0
VERTEX
  8
W78RA1RAMP
 62
3
 10
2222.897
 20
-6764.227
 30
-2446.906
 70
    32
  0
VERTEX
  8
W78RA1RAMP
 62
3
 10
2232.847
 20
-6760.164
 30
-2449.004
 70
    32
  0
VERTEX
  8
W78RA1RAMP
 62
3
 10
2248.859
 20
-6747.791
 30
-2454.183
 70
    32
  0
VERTEX
  8
W78RA1RAMP
 62
3
 10
2258.576
 20
-6716.038
 30
-2456.709
 70
    32
  0
VERTEX
  8
W78RA1RAMP
 62
3
 10
2252.080
 20
-6713.182
 30
-2456.104
 70
    32
  0
VERTEX
  8
W78RA1RAMP
 62
3
 10
2239.899
 20
-6671.805
 30
-2457.723
 70
    32
  0
VERTEX
  8
W78RA1RAMP
 62
3
 10
2241.489
 20
-6664.626
 30
-2457.955
 70
    32
  0
VERTEX
  8
W78RA1RAMP
 62
3
 10
2240.691
 20
-6654.368
 30
-2458.308
 70
    32
  0
VERTEX
  8
W78RA1RAMP
 62
3
 10
2252.863
 20
-6639.508
 30
-2458.350
 70
    32
  0
VERTEX
  8
W78RA1RAMP
 62
3
 10
2256.770
 20
-6637.015
 30
-2458.000
 70
    32
  0
VERTEX
  8
W78RA1RAMP
 62
3
 10
2248.056
 20
-6628.141
 30
-2458.000
 70
    32
  0
VERTEX
  8
W78RA1RAMP
 62
3
 10
2237.564
 20
-6637.854
 30
-2458.350
 70
    32
  0
VERTEX
  8
W78RA1RAMP
 62
3
 10
2232.987
 20
-6637.700
 30
-2458.350
 70
    32
  0
VERTEX
  8
W78RA1RAMP
 62
3
 10
2227.281
 20
-6629.467
 30
-2458.350
 70
    32
  0
VERTEX
  8
W78RA1RAMP
 62
3
 10
2228.030
 20
-6616.167
 30
-2458.350
 70
    32
  0
VERTEX
  8
W78RA1RAMP
 62
3
 10
2233.793
 20
-6604.924
 30
-2458.350
 70
    32
  0
VERTEX
  8
W78RA1RAMP
 62
3
 10
2247.111
 20
-6593.014
 30
-2458.000
 70
    32
  0
VERTEX
  8
W78RA1RAMP
 62
3
 10
2243.943
 20
-6581.312
 30
-2458.000
 70
    32
  0
VERTEX
  8
W78RA1RAMP
 62
3
 10
2235.617
 20
-6585.799
 30
-2458.350
 70
    32
  0
VERTEX
  8
W78RA1RAMP
 62
3
 10
2219.074
 20
-6605.716
 30
-2458.350
 70
    32
  0
VERTEX
  8
W78RA1RAMP
 62
3
 10
2210.124
 20
-6609.475
 30
-2458.350
 70
    32
  0
VERTEX
  8
W78RA1RAMP
 62
3
 10
2218.346
 20
-6646.965
 30
-2458.350
 70
    32
  0
VERTEX
  8
W78RA1RAMP
 62
3
 10
2240.780
 20
-6717.107
 30
-2455.318
 70
    32
  0
VERTEX
  8
W78RA1RAMP
 62
3
 10
2242.013
 20
-6731.269
 30
-2454.947
 70
    32
  0
VERTEX
  8
W78RA1RAMP
 62
3
 10
2231.129
 20
-6747.141
 30
-2451.014
 70
    32
  0
VERTEX
  8
W78RA1RAMP
 62
3
 10
2210.284
 20
-6758.638
 30
-2445.210
 70
    32
  0
VERTEX
  8
W78RA1RAMP
 62
3
 10
2192.798
 20
-6759.543
 30
-2441.858
 70
    32
  0
VERTEX
  8
W78RA1RAMP
 62
3
 10
2179.589
 20
-6755.997
 30
-2439.337
 70
    32
  0
VERTEX
  8
W78RA1RAMP
 62
3
 10
2167.799
 20
-6747.018
 30
-2436.576
 70
    32
  0
SEQEND
  8
W78RA1RAMP
  0
POLYLINE
  8
W78RA1RAMP
 62
3
 66
     1
 70
     9
  0
VERTEX
  8
W78RA1RAMP
 62
3
 10
2274.997
 20
-6895.593
 30
-2459.358
 70
    32
  0
VERTEX
  8
W78RA1RAMP
 62
3
 10
2277.005
 20
-6893.328
 30
-2459.893
 70
    32
  0
VERTEX
  8
W78RA1RAMP
 62
3
 10
2297.781
 20
-6884.372
 30
-2466.167
 70
    32
  0
VERTEX
  8
W78RA1RAMP
 62
3
 10
2317.908
 20
-6875.344
 30
-2469.703
 70
    32
  0
VERTEX
  8
W78RA1RAMP
 62
3
 10
2318.735
 20
-6888.033
 30
-2470.526
 70
    32
  0
VERTEX
  8
W78RA1RAMP
 62
3
 10
2310.890
 20
-6902.398
 30
-2473.224
 70
    32
  0
VERTEX
  8
W78RA1RAMP
 62
3
 10
2302.952
 20
-6916.933
 30
-2478.361
 70
    32
  0
VERTEX
  8
W78RA1RAMP
 62
3
 10
2299.455
 20
-6928.319
 30
-2482.000
 70
    32
  0
VERTEX
  8
W78RA1RAMP
 62
3
 10
2294.939
 20
-6943.025
 30
-2482.000
 70
    32
  0
VERTEX
  8
W78RA1RAMP
 62
3
 10
2304.248
 20
-6946.742
 30
-2482.000
 70
    32
  0
VERTEX
  8
W78RA1RAMP
 62
3
 10
2308.241
 20
-6932.834
 30
-2482.000
 70
    32
  0
VERTEX
  8
W78RA1RAMP
 62
3
 10
2311.237
 20
-6922.402
 30
-2478.696
 70
    32
  0
VERTEX
  8
W78RA1RAMP
 62
3
 10
2326.792
 20
-6898.829
 30
-2473.762
 70
    32
  0
VERTEX
  8
W78RA1RAMP
 62
3
 10
2334.237
 20
-6883.099
 30
-2470.709
 70
    32
  0
VERTEX
  8
W78RA1RAMP
 62
3
 10
2353.503
 20
-6869.858
 30
-2471.283
 70
    32
  0
VERTEX
  8
W78RA1RAMP
 62
3
 10
2376.667
 20
-6863.274
 30
-2474.265
 70
    32
  0
VERTEX
  8
W78RA1RAMP
 62
3
 10
2387.938
 20
-6861.526
 30
-2475.670
 70
    32
  0
VERTEX
  8
W78RA1RAMP
 62
3
 10
2384.921
 20
-6848.022
 30
-2475.613
 70
    32
  0
VERTEX
  8
W78RA1RAMP
 62
3
 10
2374.326
 20
-6853.431
 30
-2474.204
 70
    32
  0
VERTEX
  8
W78RA1RAMP
 62
3
 10
2337.520
 20
-6861.104
 30
-2469.504
 70
    32
  0
VERTEX
  8
W78RA1RAMP
 62
3
 10
2322.728
 20
-6864.187
 30
-2469.130
 70
    32
  0
VERTEX
  8
W78RA1RAMP
 62
3
 10
2295.148
 20
-6872.479
 30
-2463.298
 70
    32
  0
VERTEX
  8
W78RA1RAMP
 62
3
 10
2286.727
 20
-6878.267
 30
-2462.111
 70
    32
  0
VERTEX
  8
W78RA1RAMP
 62
3
 10
2269.765
 20
-6879.567
 30
-2456.920
 70
    32
  0
SEQEND
  8
W78RA1RAMP
  0
POLYLINE
  8
W78RA1RAMP
 62
3
 66
     1
 70
     9
  0
VERTEX
  8
W78RA1RAMP
 62
3
 10
2199.429
 20
-6815.688
 30
-2446.374
 70
    32
  0
VERTEX
  8
W78RA1RAMP
 62
3
 10
2193.889
 20
-6837.008
 30
-2446.833
 70
    32
  0
VERTEX
  8
W78RA1RAMP
 62
3
 10
2175.907
 20
-6855.101
 30
-2446.980
 70
    32
  0
VERTEX
  8
W78RA1RAMP
 62
3
 10
2165.028
 20
-6864.148
 30
-2446.000
 70
    32
  0
VERTEX
  8
W78RA1RAMP
 62
3
 10
2173.973
 20
-6873.941
 30
-2446.000
 70
    32
  0
VERTEX
  8
W78RA1RAMP
 62
3
 10
2179.379
 20
-6864.068
 30
-2446.980
 70
    32
  0
VERTEX
  8
W78RA1RAMP
 62
3
 10
2182.844
 20
-6863.328
 30
-2446.980
 70
    32
  0
VERTEX
  8
W78RA1RAMP
 62
3
 10
2193.772
 20
-6854.575
 30
-2447.048
 70
    32
  0
VERTEX
  8
W78RA1RAMP
 62
3
 10
2203.208
 20
-6844.942
 30
-2447.052
 70
    32
  0
VERTEX
  8
W78RA1RAMP
 62
3
 10
2217.111
 20
-6841.733
 30
-2447.201
 70
    32
  0
SEQEND
  8
W78RA1RAMP
  0
POLYLINE
  8
W78RA1RAMP
 62
3
 66
     1
 70
     9
  0
VERTEX
  8
W78RA1RAMP
 62
3
 10
2216.236
 20
-6916.192
 30
-2452.008
 70
    32
  0
VERTEX
  8
W78RA1RAMP
 62
3
 10
2189.841
 20
-6928.371
 30
-2453.093
 70
    32
  0
VERTEX
  8
W78RA1RAMP
 62
3
 10
2169.058
 20
-6933.594
 30
-2453.930
 70
    32
  0
VERTEX
  8
W78RA1RAMP
 62
3
 10
2169.556
 20
-6944.551
 30
-2455.236
 70
    32
  0
VERTEX
  8
W78RA1RAMP
 62
3
 10
2198.576
 20
-6939.120
 30
-2454.119
 70
    32
  0
VERTEX
  8
W78RA1RAMP
 62
3
 10
2205.831
 20
-6949.229
 30
-2455.007
 70
    32
  0
SEQEND
  8
W78RA1RAMP
  0
POLYLINE
  8
W78RA1RAMP
 62
3
 66
     1
 70
     9
  0
VERTEX
  8
W78RA1RAMP
 62
3
 10
2354.936
 20
-7110.804
 30
-2443.475
 70
    32
  0
VERTEX
  8
W78RA1RAMP
 62
3
 10
2349.005
 20
-7098.409
 30
-2443.858
 70
    32
  0
VERTEX
  8
W78RA1RAMP
 62
3
 10
2345.976
 20
-7100.817
 30
-2443.637
 70
    32
  0
VERTEX
  8
W78RA1RAMP
 62
3
 10
2336.488
 20
-7101.832
 30
-2443.254
 70
    32
  0
VERTEX
  8
W78RA1RAMP
 62
3
 10
2324.105
 20
-7103.158
 30
-2442.756
 70
    32
  0
VERTEX
  8
W78RA1RAMP
 62
3
 10
2321.878
 20
-7103.396
 30
-2442.666
 70
    32
  0
VERTEX
  8
W78RA1RAMP
 62
3
 10
2306.380
 20
-7102.285
 30
-2442.174
 70
    32
  0
VERTEX
  8
W78RA1RAMP
 62
3
 10
2299.557
 20
-7094.524
 30
-2442.304
 70
    32
  0
VERTEX
  8
W78RA1RAMP
 62
3
 10
2298.253
 20
-7093.041
 30
-2442.295
 70
    32
  0
VERTEX
  8
W78RA1RAMP
 62
3
 10
2275.754
 20
-7062.144
 30
-2442.359
 70
    32
  0
VERTEX
  8
W78RA1RAMP
 62
3
 10
2276.465
 20
-7060.211
 30
-2442.480
 70
    32
  0
VERTEX
  8
W78RA1RAMP
 62
3
 10
2307.782
 20
-7064.514
 30
-2444.025
 70
    32
  0
VERTEX
  8
W78RA1RAMP
 62
3
 10
2322.286
 20
-7066.506
 30
-2444.440
 70
    32
  0
VERTEX
  8
W78RA1RAMP
 62
3
 10
2324.150
 20
-7066.763
 30
-2444.493
 70
    32
  0
VERTEX
  8
W78RA1RAMP
 62
3
 10
2332.596
 20
-7066.701
 30
-2444.793
 70
    32
  0
VERTEX
  8
W78RA1RAMP
 62
3
 10
2321.230
 20
-7052.242
 30
-2445.083
 70
    32
  0
VERTEX
  8
W78RA1RAMP
 62
3
 10
2320.130
 20
-7054.334
 30
-2444.944
 70
    32
  0
VERTEX
  8
W78RA1RAMP
 62
3
 10
2310.939
 20
-7052.997
 30
-2444.685
 70
    32
  0
VERTEX
  8
W78RA1RAMP
 62
3
 10
2281.339
 20
-7048.692
 30
-2443.235
 70
    32
  0
VERTEX
  8
W78RA1RAMP
 62
3
 10
2278.516
 20
-7046.919
 30
-2443.154
 70
    32
  0
VERTEX
  8
W78RA1RAMP
 62
3
 10
2275.916
 20
-7045.887
 30
-2443.054
 70
    32
  0
VERTEX
  8
W78RA1RAMP
 62
3
 10
2272.200
 20
-7044.410
 30
-2443.110
 70
    32
  0
VERTEX
  8
W78RA1RAMP
 62
3
 10
2269.227
 20
-7043.229
 30
-2443.368
 70
    32
  0
VERTEX
  8
W78RA1RAMP
 62
3
 10
2264.721
 20
-7042.349
 30
-2443.633
 70
    32
  0
VERTEX
  8
W78RA1RAMP
 62
3
 10
2260.168
 20
-7041.460
 30
-2444.198
 70
    32
  0
VERTEX
  8
W78RA1RAMP
 62
3
 10
2243.825
 20
-7017.959
 30
-2448.589
 70
    32
  0
VERTEX
  8
W78RA1RAMP
 62
3
 10
2240.382
 20
-7013.008
 30
-2449.515
 70
    32
  0
VERTEX
  8
W78RA1RAMP
 62
3
 10
2240.829
 20
-7009.961
 30
-2449.825
 70
    32
  0
VERTEX
  8
W78RA1RAMP
 62
3
 10
2245.210
 20
-7005.725
 30
-2449.872
 70
    32
  0
VERTEX
  8
W78RA1RAMP
 62
3
 10
2248.482
 20
-7004.696
 30
-2449.660
 70
    32
  0
VERTEX
  8
W78RA1RAMP
 62
3
 10
2252.242
 20
-7003.513
 30
-2449.416
 70
    32
  0
VERTEX
  8
W78RA1RAMP
 62
3
 10
2252.720
 20
-7003.383
 30
-2449.383
 70
    32
  0
VERTEX
  8
W78RA1RAMP
 62
3
 10
2256.023
 20
-7002.481
 30
-2449.401
 70
    32
  0
VERTEX
  8
W78RA1RAMP
 62
3
 10
2261.906
 20
-7004.659
 30
-2448.913
 70
    32
  0
VERTEX
  8
W78RA1RAMP
 62
3
 10
2263.894
 20
-6990.065
 30
-2449.576
 70
    32
  0
VERTEX
  8
W78RA1RAMP
 62
3
 10
2236.189
 20
-6994.493
 30
-2451.713
 70
    32
  0
VERTEX
  8
W78RA1RAMP
 62
3
 10
2228.612
 20
-6992.272
 30
-2452.666
 70
    32
  0
VERTEX
  8
W78RA1RAMP
 62
3
 10
2223.308
 20
-6988.369
 30
-2453.783
 70
    32
  0
VERTEX
  8
W78RA1RAMP
 62
3
 10
2219.076
 20
-6977.453
 30
-2455.322
 70
    32
  0
VERTEX
  8
W78RA1RAMP
 62
3
 10
2214.282
 20
-6970.342
 30
-2457.035
 70
    32
  0
VERTEX
  8
W78RA1RAMP
 62
3
 10
2213.504
 20
-6961.711
 30
-2456.194
 70
    32
  0
VERTEX
  8
W78RA1RAMP
 62
3
 10
2207.273
 20
-6988.892
 30
-2456.176
 70
    32
  0
VERTEX
  8
W78RA1RAMP
 62
3
 10
2210.493
 20
-6994.703
 30
-2455.323
 70
    32
  0
VERTEX
  8
W78RA1RAMP
 62
3
 10
2221.805
 20
-7006.327
 30
-2452.098
 70
    32
  0
VERTEX
  8
W78RA1RAMP
 62
3
 10
2259.897
 20
-7058.731
 30
-2442.370
 70
    32
  0
VERTEX
  8
W78RA1RAMP
 62
3
 10
2298.387
 20
-7111.684
 30
-2441.445
 70
    32
  0
VERTEX
  8
W78RA1RAMP
 62
3
 10
2313.155
 20
-7119.914
 30
-2441.572
 70
    32
  0
VERTEX
  8
W78RA1RAMP
 62
3
 10
2323.112
 20
-7114.173
 30
-2442.195
 70
    32
  0
SEQEND
  8
W78RA1RAMP
  0
POLYLINE
  8
W78RA1RAMP
 62
3
 66
     1
 70
     9
  0
VERTEX
  8
W78RA1RAMP
 62
3
 10
2180.390
 20
-7027.392
 30
-2455.940
 70
    32
  0
VERTEX
  8
W78RA1RAMP
 62
3
 10
2176.380
 20
-7038.449
 30
-2453.000
 70
    32
  0
VERTEX
  8
W78RA1RAMP
 62
3
 10
2189.233
 20
-7052.136
 30
-2453.000
 70
    32
  0
VERTEX
  8
W78RA1RAMP
 62
3
 10
2189.082
 20
-7032.999
 30
-2454.086
 70
    32
  0
SEQEND
  8
W78RA1RAMP
  0
POLYLINE
  8
W78RA1RAMP
 62
3
 66
     1
 70
     9
  0
VERTEX
  8
W78RA1RAMP
 62
3
 10
2137.978
 20
-7029.541
 30
-2466.667
 70
    32
  0
VERTEX
  8
W78RA1RAMP
 62
3
 10
2140.218
 20
-7033.447
 30
-2466.040
 70
    32
  0
VERTEX
  8
W78RA1RAMP
 62
3
 10
2127.568
 20
-7050.577
 30
-2469.918
 70
    32
  0
VERTEX
  8
W78RA1RAMP
 62
3
 10
2135.376
 20
-7056.858
 30
-2468.556
 70
    32
  0
VERTEX
  8
W78RA1RAMP
 62
3
 10
2166.259
 20
-7020.353
 30
-2459.881
 70
    32
  0
SEQEND
  8
W78RA1RAMP
  0
POLYLINE
  8
W78RA1RAMP
 62
3
 66
     1
 70
     9
  0
VERTEX
  8
W78RA1RAMP
 62
3
 10
2036.251
 20
-6987.998
 30
-2494.359
 70
    32
  0
VERTEX
  8
W78RA1RAMP
 62
3
 10
2047.366
 20
-6974.890
 30
-2494.690
 70
    32
  0
VERTEX
  8
W78RA1RAMP
 62
3
 10
2064.643
 20
-6967.729
 30
-2493.455
 70
    32
  0
VERTEX
  8
W78RA1RAMP
 62
3
 10
2065.610
 20
-6962.753
 30
-2493.991
 70
    32
  0
VERTEX
  8
W78RA1RAMP
 62
3
 10
2058.482
 20
-6955.350
 30
-2495.871
 70
    32
  0
VERTEX
  8
W78RA1RAMP
 62
3
 10
2051.716
 20
-6960.448
 30
-2496.051
 70
    32
  0
VERTEX
  8
W78RA1RAMP
 62
3
 10
2036.009
 20
-6964.938
 30
-2497.441
 70
    32
  0
VERTEX
  8
W78RA1RAMP
 62
3
 10
2032.989
 20
-6961.418
 30
-2498.288
 70
    32
  0
VERTEX
  8
W78RA1RAMP
 62
3
 10
2025.377
 20
-6965.059
 30
-2498.768
 70
    32
  0
VERTEX
  8
W78RA1RAMP
 62
3
 10
2025.377
 20
-6965.059
 30
-2498.768
 70
    32
  0
VERTEX
  8
W78RA1RAMP
 62
3
 10
2022.115
 20
-6969.550
 30
-2498.586
 70
    32
  0
SEQEND
  8
W78RA1RAMP
  0
POLYLINE
  8
W78RA1RAMP
 62
3
 66
     1
 70
     9
  0
VERTEX
  8
W78RA1RAMP
 62
3
 10
2045.183
 20
-6583.634
 30
-2403.011
 70
    32
  0
VERTEX
  8
W78RA1RAMP
 62
3
 10
2047.117
 20
-6592.487
 30
-2404.262
 70
    32
  0
VERTEX
  8
W78RA1RAMP
 62
3
 10
2051.230
 20
-6599.919
 30
-2405.712
 70
    32
  0
VERTEX
  8
W78RA1RAMP
 62
3
 10
2055.521
 20
-6607.448
 30
-2407.008
 70
    32
  0
VERTEX
  8
W78RA1RAMP
 62
3
 10
2061.980
 20
-6616.082
 30
-2408.618
 70
    32
  0
VERTEX
  8
W78RA1RAMP
 62
3
 10
2067.986
 20
-6628.483
 30
-2410.667
 70
    32
  0
VERTEX
  8
W78RA1RAMP
 62
3
 10
2083.794
 20
-6621.285
 30
-2411.040
 70
    32
  0
VERTEX
  8
W78RA1RAMP
 62
3
 10
2067.522
 20
-6596.931
 30
-2406.103
 70
    32
  0
VERTEX
  8
W78RA1RAMP
 62
3
 10
2059.761
 20
-6580.425
 30
-2402.935
 70
    32
  0
SEQEND
  8
W78RA1RAMP
  0
POLYLINE
  8
W78RA1RAMP
 62
3
 66
     1
 70
     9
  0
VERTEX
  8
W78RA1RAMP
 62
3
 10
2085.834
 20
-6661.645
 30
-2416.395
 70
    32
  0
VERTEX
  8
W78RA1RAMP
 62
3
 10
2088.923
 20
-6695.972
 30
-2421.165
 70
    32
  0
VERTEX
  8
W78RA1RAMP
 62
3
 10
2086.495
 20
-6710.588
 30
-2427.485
 70
    32
  0
VERTEX
  8
W78RA1RAMP
 62
3
 10
2079.300
 20
-6726.431
 30
-2431.078
 70
    32
  0
VERTEX
  8
W78RA1RAMP
 62
3
 10
2076.283
 20
-6733.076
 30
-2431.057
 70
    32
  0
VERTEX
  8
W78RA1RAMP
 62
3
 10
2080.066
 20
-6752.938
 30
-2430.622
 70
    32
  0
VERTEX
  8
W78RA1RAMP
 62
3
 10
2089.853
 20
-6754.711
 30
-2430.476
 70
    32
  0
VERTEX
  8
W78RA1RAMP
 62
3
 10
2094.571
 20
-6757.395
 30
-2430.374
 70
    32
  0
VERTEX
  8
W78RA1RAMP
 62
3
 10
2096.222
 20
-6760.320
 30
-2430.304
 70
    32
  0
VERTEX
  8
W78RA1RAMP
 62
3
 10
2093.601
 20
-6777.403
 30
-2430.153
 70
    32
  0
VERTEX
  8
W78RA1RAMP
 62
3
 10
2100.262
 20
-6792.518
 30
-2430.008
 70
    32
  0
VERTEX
  8
W78RA1RAMP
 62
3
 10
2098.257
 20
-6810.790
 30
-2431.174
 70
    32
  0
VERTEX
  8
W78RA1RAMP
 62
3
 10
2089.761
 20
-6834.061
 30
-2437.098
 70
    32
  0
VERTEX
  8
W78RA1RAMP
 62
3
 10
2069.043
 20
-6853.313
 30
-2439.640
 70
    32
  0
VERTEX
  8
W78RA1RAMP
 62
3
 10
2070.332
 20
-6866.808
 30
-2439.640
 70
    32
  0
VERTEX
  8
W78RA1RAMP
 62
3
 10
2092.501
 20
-6847.269
 30
-2439.640
 70
    32
  0
VERTEX
  8
W78RA1RAMP
 62
3
 10
2105.301
 20
-6829.255
 30
-2434.499
 70
    32
  0
VERTEX
  8
W78RA1RAMP
 62
3
 10
2111.725
 20
-6810.537
 30
-2429.982
 70
    32
  0
VERTEX
  8
W78RA1RAMP
 62
3
 10
2112.007
 20
-6784.155
 30
-2430.081
 70
    32
  0
VERTEX
  8
W78RA1RAMP
 62
3
 10
2107.901
 20
-6761.717
 30
-2430.262
 70
    32
  0
VERTEX
  8
W78RA1RAMP
 62
3
 10
2114.509
 20
-6750.536
 30
-2430.271
 70
    32
  0
VERTEX
  8
W78RA1RAMP
 62
3
 10
2115.499
 20
-6744.651
 30
-2430.323
 70
    32
  0
VERTEX
  8
W78RA1RAMP
 62
3
 10
2112.003
 20
-6730.952
 30
-2430.315
 70
    32
  0
VERTEX
  8
W78RA1RAMP
 62
3
 10
2101.946
 20
-6725.163
 30
-2430.406
 70
    32
  0
VERTEX
  8
W78RA1RAMP
 62
3
 10
2096.927
 20
-6719.024
 30
-2429.243
 70
    32
  0
VERTEX
  8
W78RA1RAMP
 62
3
 10
2100.046
 20
-6698.706
 30
-2422.492
 70
    32
  0
VERTEX
  8
W78RA1RAMP
 62
3
 10
2102.053
 20
-6685.636
 30
-2420.953
 70
    32
  0
VERTEX
  8
W78RA1RAMP
 62
3
 10
2102.880
 20
-6680.250
 30
-2420.319
 70
    32
  0
VERTEX
  8
W78RA1RAMP
 62
3
 10
2104.683
 20
-6677.779
 30
-2420.152
 70
    32
  0
VERTEX
  8
W78RA1RAMP
 62
3
 10
2108.319
 20
-6678.643
 30
-2420.582
 70
    32
  0
VERTEX
  8
W78RA1RAMP
 62
3
 10
2085.834
 20
-6661.645
 30
-2416.395
 70
    32
  0
SEQEND
  8
W78RA1RAMP
  0
POLYLINE
  8
W78RA1RAMP
 62
3
 66
     1
 70
     8
  0
VERTEX
  8
W78RA1RAMP
 62
3
 10
2213.504
 20
-6961.711
 30
-2456.194
 70
    32
  0
VERTEX
  8
W78RA1RAMP
 62
3
 10
2222.693
 20
-6933.720
 30
-2452.276
 70
    32
  0
VERTEX
  8
W78RA1RAMP
 62
3
 10
2235.880
 20
-6893.553
 30
-2451.147
 70
    32
  0
VERTEX
  8
W78RA1RAMP
 62
3
 10
2247.724
 20
-6886.846
 30
-2451.876
 70
    32
  0
VERTEX
  8
W78RA1RAMP
 62
3
 10
2252.912
 20
-6896.102
 30
-2453.499
 70
    32
  0
VERTEX
  8
W78RA1RAMP
 62
3
 10
2245.654
 20
-6904.400
 30
-2452.968
 70
    32
  0
VERTEX
  8
W78RA1RAMP
 62
3
 10
2251.487
 20
-6913.198
 30
-2454.678
 70
    32
  0
VERTEX
  8
W78RA1RAMP
 62
3
 10
2254.041
 20
-6913.753
 30
-2455.006
 70
    32
  0
VERTEX
  8
W78RA1RAMP
 62
3
 10
2263.306
 20
-6909.638
 30
-2456.312
 70
    32
  0
VERTEX
  8
W78RA1RAMP
 62
3
 10
2279.406
 20
-6934.219
 30
-2457.450
 70
    32
  0
VERTEX
  8
W78RA1RAMP
 62
3
 10
2287.887
 20
-6928.397
 30
-2460.126
 70
    32
  0
VERTEX
  8
W78RA1RAMP
 62
3
 10
2275.980
 20
-6908.492
 30
-2459.881
 70
    32
  0
VERTEX
  8
W78RA1RAMP
 62
3
 10
2274.997
 20
-6895.593
 30
-2459.358
 70
    32
  0
VERTEX
  8
W78RA1RAMP
 62
3
 10
2269.765
 20
-6879.567
 30
-2456.920
 70
    32
  0
VERTEX
  8
W78RA1RAMP
 62
3
 10
2251.157
 20
-6873.178
 30
-2451.944
 70
    32
  0
VERTEX
  8
W78RA1RAMP
 62
3
 10
2243.014
 20
-6860.629
 30
-2448.367
 70
    32
  0
VERTEX
  8
W78RA1RAMP
 62
3
 10
2209.112
 20
-6808.386
 30
-2446.310
 70
    32
  0
VERTEX
  8
W78RA1RAMP
 62
3
 10
2187.930
 20
-6775.744
 30
-2441.242
 70
    32
  0
VERTEX
  8
W78RA1RAMP
 62
3
 10
2188.433
 20
-6773.874
 30
-2441.054
 70
    32
  0
VERTEX
  8
W78RA1RAMP
 62
3
 10
2167.799
 20
-6747.018
 30
-2436.576
 70
    32
  0
VERTEX
  8
W78RA1RAMP
 62
3
 10
2129.594
 20
-6689.836
 30
-2423.902
 70
    32
  0
VERTEX
  8
W78RA1RAMP
 62
3
 10
2122.659
 20
-6679.456
 30
-2421.937
 70
    32
  0
VERTEX
  8
W78RA1RAMP
 62
3
 10
2092.089
 20
-6633.701
 30
-2413.275
 70
    32
  0
VERTEX
  8
W78RA1RAMP
 62
3
 10
2083.794
 20
-6621.285
 30
-2411.040
 70
    32
  0
VERTEX
  8
W78RA1RAMP
 62
3
 10
2067.522
 20
-6596.931
 30
-2406.103
 70
    32
  0
VERTEX
  8
W78RA1RAMP
 62
3
 10
2059.761
 20
-6580.425
 30
-2402.935
 70
    32
  0
VERTEX
  8
W78RA1RAMP
 62
3
 10
2045.088
 20
-6583.606
 30
-2403.004
 70
    32
  0
VERTEX
  8
W78RA1RAMP
 62
3
 10
2045.183
 20
-6583.634
 30
-2403.011
 70
    32
  0
VERTEX
  8
W78RA1RAMP
 62
3
 10
2047.117
 20
-6592.487
 30
-2404.262
 70
    32
  0
VERTEX
  8
W78RA1RAMP
 62
3
 10
2051.230
 20
-6599.919
 30
-2405.712
 70
    32
  0
VERTEX
  8
W78RA1RAMP
 62
3
 10
2055.521
 20
-6607.448
 30
-2407.008
 70
    32
  0
VERTEX
  8
W78RA1RAMP
 62
3
 10
2061.980
 20
-6616.082
 30
-2408.618
 70
    32
  0
VERTEX
  8
W78RA1RAMP
 62
3
 10
2067.986
 20
-6628.483
 30
-2410.667
 70
    32
  0
VERTEX
  8
W78RA1RAMP
 62
3
 10
2071.970
 20
-6635.268
 30
-2411.844
 70
    32
  0
VERTEX
  8
W78RA1RAMP
 62
3
 10
2079.712
 20
-6649.096
 30
-2414.216
 70
    32
  0
VERTEX
  8
W78RA1RAMP
 62
3
 10
2085.834
 20
-6661.645
 30
-2416.395
 70
    32
  0
VERTEX
  8
W78RA1RAMP
 62
3
 10
2108.319
 20
-6678.643
 30
-2420.582
 70
    32
  0
VERTEX
  8
W78RA1RAMP
 62
3
 10
2120.095
 20
-6696.146
 30
-2423.902
 70
    32
  0
VERTEX
  8
W78RA1RAMP
 62
3
 10
2165.692
 20
-6763.923
 30
-2438.387
 70
    32
  0
VERTEX
  8
W78RA1RAMP
 62
3
 10
2199.429
 20
-6815.688
 30
-2446.374
 70
    32
  0
SEQEND
  8
W78RA1RAMP
  0
POLYLINE
  8
W78RA1RAMP
 62
3
 66
     1
 70
     8
  0
VERTEX
  8
W78RA1RAMP
 62
3
 10
2217.111
 20
-6841.733
 30
-2447.201
 70
    32
  0
VERTEX
  8
W78RA1RAMP
 62
3
 10
2223.617
 20
-6851.778
 30
-2447.606
 70
    32
  0
VERTEX
  8
W78RA1RAMP
 62
3
 10
2226.792
 20
-6860.633
 30
-2448.050
 70
    32
  0
VERTEX
  8
W78RA1RAMP
 62
3
 10
2225.717
 20
-6875.644
 30
-2449.325
 70
    32
  0
VERTEX
  8
W78RA1RAMP
 62
3
 10
2227.766
 20
-6879.581
 30
-2449.720
 70
    32
  0
VERTEX
  8
W78RA1RAMP
 62
3
 10
2216.236
 20
-6916.192
 30
-2452.008
 70
    32
  0
VERTEX
  8
W78RA1RAMP
 62
3
 10
2205.831
 20
-6949.229
 30
-2455.007
 70
    32
  0
VERTEX
  8
W78RA1RAMP
 62
3
 10
2199.197
 20
-6969.606
 30
-2457.758
 70
    32
  0
VERTEX
  8
W78RA1RAMP
 62
3
 10
2192.486
 20
-6990.221
 30
-2457.354
 70
    32
  0
VERTEX
  8
W78RA1RAMP
 62
3
 10
2180.018
 20
-7002.797
 30
-2457.557
 70
    32
  0
VERTEX
  8
W78RA1RAMP
 62
3
 10
2168.546
 20
-7009.095
 30
-2459.886
 70
    32
  0
VERTEX
  8
W78RA1RAMP
 62
3
 10
2111.458
 20
-7027.642
 30
-2473.694
 70
    32
  0
VERTEX
  8
W78RA1RAMP
 62
3
 10
2102.359
 20
-7029.255
 30
-2476.029
 70
    32
  0
VERTEX
  8
W78RA1RAMP
 62
3
 10
2045.759
 20
-7004.120
 30
-2491.025
 70
    32
  0
VERTEX
  8
W78RA1RAMP
 62
3
 10
2038.425
 20
-6996.372
 30
-2492.976
 70
    32
  0
VERTEX
  8
W78RA1RAMP
 62
3
 10
2036.251
 20
-6987.998
 30
-2494.359
 70
    32
  0
VERTEX
  8
W78RA1RAMP
 62
3
 10
2022.115
 20
-6969.550
 30
-2498.586
 70
    32
  0
VERTEX
  8
W78RA1RAMP
 62
3
 10
2013.053
 20
-6969.793
 30
-2499.698
 70
    32
  0
VERTEX
  8
W78RA1RAMP
 62
3
 10
1973.766
 20
-6928.458
 30
-2510.131
 70
    32
  0
VERTEX
  8
W78RA1RAMP
 62
3
 10
1972.887
 20
-6918.704
 30
-2511.500
 70
    32
  0
VERTEX
  8
W78RA1RAMP
 62
3
 10
1968.012
 20
-6919.312
 30
-2512.071
 70
    32
  0
VERTEX
  8
W78RA1RAMP
 62
3
 10
1963.013
 20
-6916.452
 30
-2513.089
 70
    32
  0
VERTEX
  8
W78RA1RAMP
 62
3
 10
1960.084
 20
-6912.145
 30
-2513.399
 70
    32
  0
VERTEX
  8
W78RA1RAMP
 62
3
 10
1944.617
 20
-6901.688
 30
-2516.118
 70
    32
  0
VERTEX
  8
W78RA1RAMP
 62
3
 10
1930.170
 20
-6883.958
 30
-2519.882
 70
    32
  0
VERTEX
  8
W78RA1RAMP
 62
3
 10
1895.643
 20
-6881.513
 30
-2525.162
 70
    32
  0
VERTEX
  8
W78RA1RAMP
 62
3
 10
1880.169
 20
-6883.436
 30
-2527.206
 70
    32
  0
VERTEX
  8
W78RA1RAMP
 62
3
 10
1876.729
 20
-6885.013
 30
-2527.592
 70
    32
  0
VERTEX
  8
W78RA1RAMP
 62
3
 10
1869.746
 20
-6890.538
 30
-2528.497
 70
    32
  0
VERTEX
  8
W78RA1RAMP
 62
3
 10
1861.563
 20
-6894.576
 30
-2529.429
 70
    32
  0
VERTEX
  8
W78RA1RAMP
 62
3
 10
1847.949
 20
-6901.376
 30
-2530.172
 70
    32
  0
VERTEX
  8
W78RA1RAMP
 62
3
 10
1846.045
 20
-6904.493
 30
-2530.460
 70
    32
  0
VERTEX
  8
W78RA1RAMP
 62
3
 10
1847.809
 20
-6911.505
 30
-2531.114
 70
    32
  0
VERTEX
  8
W78RA1RAMP
 62
3
 10
1851.406
 20
-6915.684
 30
-2531.507
 70
    32
  0
VERTEX
  8
W78RA1RAMP
 62
3
 10
1851.124
 20
-6918.660
 30
-2531.784
 70
    32
  0
VERTEX
  8
W78RA1RAMP
 62
3
 10
1848.245
 20
-6927.080
 30
-2532.564
 70
    32
  0
VERTEX
  8
W78RA1RAMP
 62
3
 10
1848.566
 20
-6934.471
 30
-2533.739
 70
    32
  0
VERTEX
  8
W78RA1RAMP
 62
3
 10
1857.059
 20
-6950.456
 30
-2536.683
 70
    32
  0
VERTEX
  8
W78RA1RAMP
 62
3
 10
1858.162
 20
-6957.635
 30
-2537.915
 70
    32
  0
VERTEX
  8
W78RA1RAMP
 62
3
 10
1869.845
 20
-6970.921
 30
-2539.905
 70
    32
  0
VERTEX
  8
W78RA1RAMP
 62
3
 10
1974.413
 20
-7076.034
 30
-2556.200
 70
    32
  0
VERTEX
  8
W78RA1RAMP
 62
3
 10
1979.674
 20
-7065.691
 30
-2555.489
 70
    32
  0
VERTEX
  8
W78RA1RAMP
 62
3
 10
1873.042
 20
-6954.451
 30
-2538.366
 70
    32
  0
VERTEX
  8
W78RA1RAMP
 62
3
 10
1869.457
 20
-6949.983
 30
-2537.717
 70
    32
  0
VERTEX
  8
W78RA1RAMP
 62
3
 10
1861.494
 20
-6932.372
 30
-2533.704
 70
    32
  0
VERTEX
  8
W78RA1RAMP
 62
3
 10
1860.717
 20
-6928.505
 30
-2532.932
 70
    32
  0
VERTEX
  8
W78RA1RAMP
 62
3
 10
1860.646
 20
-6924.539
 30
-2532.137
 70
    32
  0
VERTEX
  8
W78RA1RAMP
 62
3
 10
1861.752
 20
-6921.627
 30
-2531.548
 70
    32
  0
VERTEX
  8
W78RA1RAMP
 62
3
 10
1863.835
 20
-6914.863
 30
-2530.742
 70
    32
  0
VERTEX
  8
W78RA1RAMP
 62
3
 10
1869.355
 20
-6906.675
 30
-2529.755
 70
    32
  0
VERTEX
  8
W78RA1RAMP
 62
3
 10
1882.131
 20
-6895.292
 30
-2527.331
 70
    32
  0
VERTEX
  8
W78RA1RAMP
 62
3
 10
1894.630
 20
-6891.988
 30
-2525.414
 70
    32
  0
VERTEX
  8
W78RA1RAMP
 62
3
 10
1904.539
 20
-6892.020
 30
-2523.951
 70
    32
  0
VERTEX
  8
W78RA1RAMP
 62
3
 10
1927.514
 20
-6899.542
 30
-2519.110
 70
    32
  0
VERTEX
  8
W78RA1RAMP
 62
3
 10
1955.407
 20
-6921.855
 30
-2513.182
 70
    32
  0
VERTEX
  8
W78RA1RAMP
 62
3
 10
1967.506
 20
-6936.385
 30
-2509.978
 70
    32
  0
VERTEX
  8
W78RA1RAMP
 62
3
 10
1972.130
 20
-6941.246
 30
-2508.760
 70
    32
  0
VERTEX
  8
W78RA1RAMP
 62
3
 10
2002.592
 20
-6973.260
 30
-2500.742
 70
    32
  0
VERTEX
  8
W78RA1RAMP
 62
3
 10
2040.866
 20
-7013.484
 30
-2490.667
 70
    32
  0
VERTEX
  8
W78RA1RAMP
 62
3
 10
2049.058
 20
-7018.827
 30
-2488.438
 70
    32
  0
VERTEX
  8
W78RA1RAMP
 62
3
 10
2056.549
 20
-7022.468
 30
-2486.532
 70
    32
  0
VERTEX
  8
W78RA1RAMP
 62
3
 10
2086.244
 20
-7037.182
 30
-2478.945
 70
    32
  0
VERTEX
  8
W78RA1RAMP
 62
3
 10
2089.060
 20
-7045.287
 30
-2478.252
 70
    32
  0
VERTEX
  8
W78RA1RAMP
 62
3
 10
2105.051
 20
-7040.140
 30
-2475.502
 70
    32
  0
VERTEX
  8
W78RA1RAMP
 62
3
 10
2137.978
 20
-7029.541
 30
-2466.667
 70
    32
  0
VERTEX
  8
W78RA1RAMP
 62
3
 10
2166.259
 20
-7020.353
 30
-2459.881
 70
    32
  0
VERTEX
  8
W78RA1RAMP
 62
3
 10
2172.703
 20
-7024.998
 30
-2458.041
 70
    32
  0
VERTEX
  8
W78RA1RAMP
 62
3
 10
2180.390
 20
-7027.392
 30
-2455.940
 70
    32
  0
VERTEX
  8
W78RA1RAMP
 62
3
 10
2189.082
 20
-7032.999
 30
-2454.086
 70
    32
  0
VERTEX
  8
W78RA1RAMP
 62
3
 10
2197.152
 20
-7008.199
 30
-2456.583
 70
    32
  0
VERTEX
  8
W78RA1RAMP
 62
3
 10
2203.469
 20
-6988.787
 30
-2456.640
 70
    32
  0
VERTEX
  8
W78RA1RAMP
 62
3
 10
2207.273
 20
-6988.892
 30
-2456.176
 70
    32
  0
VERTEX
  8
W78RA1RAMP
 62
3
 10
2213.504
 20
-6961.711
 30
-2456.194
 70
    32
  0
SEQEND
  8
W78RA1RAMP
  0
POLYLINE
  8
W78RA1RAMP
 62
3
 66
     1
 70
     8
  0
VERTEX
  8
W78RA1RAMP
 62
3
 10
2142.357
 20
-7066.399
 30
-2450.509
 70
    32
  0
VERTEX
  8
W78RA1RAMP
 62
3
 10
2141.583
 20
-7067.033
 30
-2450.475
 70
    32
  0
VERTEX
  8
W78RA1RAMP
 62
3
 10
2107.509
 20
-7094.905
 30
-2448.969
 70
    32
  0
VERTEX
  8
W78RA1RAMP
 62
3
 10
2141.583
 20
-7067.033
 30
-2450.475
 70
    32
  0
VERTEX
  8
W78RA1RAMP
 62
3
 10
2142.357
 20
-7066.399
 30
-2450.509
 70
    32
  0
VERTEX
  8
W78RA1RAMP
 62
3
 10
2150.376
 20
-7059.840
 30
-2450.863
 70
    32
  0
VERTEX
  8
W78RA1RAMP
 62
3
 10
2176.888
 20
-7038.153
 30
-2452.035
 70
    32
  0
VERTEX
  8
W78RA1RAMP
 62
3
 10
2189.453
 20
-7051.398
 30
-2452.100
 70
    32
  0
VERTEX
  8
W78RA1RAMP
 62
3
 10
2203.079
 20
-7075.771
 30
-2451.961
 70
    32
  0
VERTEX
  8
W78RA1RAMP
 62
3
 10
2190.885
 20
-7081.703
 30
-2451.507
 70
    32
  0
VERTEX
  8
W78RA1RAMP
 62
3
 10
2179.281
 20
-7082.438
 30
-2451.177
 70
    32
  0
VERTEX
  8
W78RA1RAMP
 62
3
 10
2172.806
 20
-7082.301
 30
-2451.004
 70
    32
  0
VERTEX
  8
W78RA1RAMP
 62
3
 10
2169.337
 20
-7069.995
 30
-2451.166
 70
    32
  0
VERTEX
  8
W78RA1RAMP
 62
3
 10
2157.313
 20
-7067.125
 30
-2450.900
 70
    32
  0
VERTEX
  8
W78RA1RAMP
 62
3
 10
2144.099
 20
-7077.896
 30
-2450.317
 70
    32
  0
VERTEX
  8
W78RA1RAMP
 62
3
 10
2143.667
 20
-7078.247
 30
-2450.298
 70
    32
  0
VERTEX
  8
W78RA1RAMP
 62
3
 10
2140.998
 20
-7081.303
 30
-2450.162
 70
    32
  0
VERTEX
  8
W78RA1RAMP
 62
3
 10
2132.010
 20
-7097.982
 30
-2449.570
 70
    32
  0
VERTEX
  8
W78RA1RAMP
 62
3
 10
2129.054
 20
-7106.922
 30
-2449.303
 70
    32
  0
VERTEX
  8
W78RA1RAMP
 62
3
 10
2128.795
 20
-7111.004
 30
-2449.211
 70
    32
  0
VERTEX
  8
W78RA1RAMP
 62
3
 10
2128.103
 20
-7116.176
 30
-2448.969
 70
    32
  0
VERTEX
  8
W78RA1RAMP
 62
3
 10
2117.054
 20
-7106.829
 30
-2448.969
 70
    32
  0
VERTEX
  8
W78RA1RAMP
 62
3
 10
2113.670
 20
-7103.160
 30
-2448.969
 70
    32
  0
VERTEX
  8
W78RA1RAMP
 62
3
 10
2107.509
 20
-7094.905
 30
-2448.969
 70
    32
  0
SEQEND
  8
W78RA1RAMP
  0
ENDSEC
  0
EOF
