999
********************************
999
*   DXF File - Entities Only   *
999
*        3D Data Format        *
999
*     Output from ENVISAGE     *
999
*     24-Dec-2007 12:18:40     *
999
********************************
  0
SECTION 
  2
HEADER
  9
$ACADVER
  1
AC1009
  9
$EXTMIN
 10
-290000.000
 20
-250000.000
 30
-4000.000
  9
$EXTMAX
 10
5000000.000
 20
600000.000
 30
6000.000
  0
ENDSEC
  0
SECTION
  2
ENTITIES
  0
POLYLINE
  8
T51SSILL
 62
4
 66
     1
 70
     9
  0
VERTEX
  8
T51SSILL
 62
4
 10
1114.906
 20
-7419.404
 30
97.347
 70
    32
  0
VERTEX
  8
T51SSILL
 62
4
 10
1115.235
 20
-7400.365
 30
97.453
 70
    32
  0
VERTEX
  8
T51SSILL
 62
4
 10
1111.112
 20
-7400.653
 30
97.462
 70
    32
  0
VERTEX
  8
T51SSILL
 62
4
 10
1105.605
 20
-7389.863
 30
97.537
 70
    32
  0
VERTEX
  8
T51SSILL
 62
4
 10
1011.800
 20
-7392.252
 30
97.767
 70
    32
  0
VERTEX
  8
T51SSILL
 62
4
 10
1004.181
 20
-7394.100
 30
97.776
 70
    32
  0
VERTEX
  8
T51SSILL
 62
4
 10
1005.013
 20
-7397.129
 30
97.757
 70
    32
  0
VERTEX
  8
T51SSILL
 62
4
 10
1011.230
 20
-7400.513
 30
97.722
 70
    32
  0
VERTEX
  8
T51SSILL
 62
4
 10
1008.908
 20
-7408.347
 30
97.684
 70
    32
  0
VERTEX
  8
T51SSILL
 62
4
 10
1010.756
 20
-7415.966
 30
97.637
 70
    32
  0
VERTEX
  8
T51SSILL
 62
4
 10
1018.894
 20
-7420.192
 30
97.592
 70
    32
  0
SEQEND
  8
T51SSILL
  0
POLYLINE
  8
T51SSILL
 62
4
 66
     1
 70
     9
  0
VERTEX
  8
T51SSILL
 62
4
 10
4172.012
 20
-8560.654
 30
89.287
 70
    32
  0
VERTEX
  8
T51SSILL
 62
4
 10
4166.226
 20
-8612.200
 30
89.289
 70
    32
  0
VERTEX
  8
T51SSILL
 62
4
 10
4172.414
 20
-8635.296
 30
89.291
 70
    32
  0
VERTEX
  8
T51SSILL
 62
4
 10
4207.247
 20
-8610.228
 30
89.289
 70
    32
  0
VERTEX
  8
T51SSILL
 62
4
 10
4203.157
 20
-8603.701
 30
89.288
 70
    32
  0
VERTEX
  8
T51SSILL
 62
4
 10
4194.197
 20
-8598.520
 30
89.288
 70
    32
  0
VERTEX
  8
T51SSILL
 62
4
 10
4189.192
 20
-8584.666
 30
89.288
 70
    32
  0
VERTEX
  8
T51SSILL
 62
4
 10
4182.578
 20
-8574.190
 30
89.287
 70
    32
  0
VERTEX
  8
T51SSILL
 62
4
 10
4177.992
 20
-8562.019
 30
89.287
 70
    32
  0
VERTEX
  8
T51SSILL
 62
4
 10
4173.903
 20
-8560.072
 30
89.287
 70
    32
  0
SEQEND
  8
T51SSILL
  0
POLYLINE
  8
T51SSILL
 62
4
 66
     1
 70
     9
  0
VERTEX
  8
T51SSILL
 62
4
 10
4190.224
 20
-7995.964
 30
89.232
 70
    32
  0
VERTEX
  8
T51SSILL
 62
4
 10
4244.986
 20
-8071.425
 30
89.245
 70
    32
  0
VERTEX
  8
T51SSILL
 62
4
 10
4231.407
 20
-8081.061
 30
89.246
 70
    32
  0
VERTEX
  8
T51SSILL
 62
4
 10
4222.022
 20
-8099.628
 30
89.249
 70
    32
  0
VERTEX
  8
T51SSILL
 62
4
 10
4217.610
 20
-8113.497
 30
89.251
 70
    32
  0
VERTEX
  8
T51SSILL
 62
4
 10
4213.748
 20
-8114.775
 30
89.251
 70
    32
  0
VERTEX
  8
T51SSILL
 62
4
 10
4179.191
 20
-8111.553
 30
89.249
 70
    32
  0
VERTEX
  8
T51SSILL
 62
4
 10
4172.078
 20
-8124.551
 30
89.251
 70
    32
  0
VERTEX
  8
T51SSILL
 62
4
 10
4189.789
 20
-8134.557
 30
89.253
 70
    32
  0
VERTEX
  8
T51SSILL
 62
4
 10
4204.659
 20
-8148.148
 30
89.256
 70
    32
  0
VERTEX
  8
T51SSILL
 62
4
 10
4215.318
 20
-8150.536
 30
89.256
 70
    32
  0
VERTEX
  8
T51SSILL
 62
4
 10
4227.062
 20
-8148.871
 30
89.256
 70
    32
  0
VERTEX
  8
T51SSILL
 62
4
 10
4233.913
 20
-8144.661
 30
89.256
 70
    32
  0
VERTEX
  8
T51SSILL
 62
4
 10
4249.356
 20
-8117.344
 30
89.252
 70
    32
  0
VERTEX
  8
T51SSILL
 62
4
 10
4258.964
 20
-8102.535
 30
89.250
 70
    32
  0
VERTEX
  8
T51SSILL
 62
4
 10
4263.806
 20
-8098.259
 30
89.250
 70
    32
  0
VERTEX
  8
T51SSILL
 62
4
 10
4281.432
 20
-8121.497
 30
89.254
 70
    32
  0
VERTEX
  8
T51SSILL
 62
4
 10
4292.048
 20
-8127.726
 30
89.255
 70
    32
  0
VERTEX
  8
T51SSILL
 62
4
 10
4300.888
 20
-8129.257
 30
89.255
 70
    32
  0
VERTEX
  8
T51SSILL
 62
4
 10
4227.762
 20
-8180.583
 30
89.261
 70
    32
  0
VERTEX
  8
T51SSILL
 62
4
 10
4179.719
 20
-8218.066
 30
89.266
 70
    32
  0
VERTEX
  8
T51SSILL
 62
4
 10
4175.329
 20
-8216.019
 30
89.265
 70
    32
  0
VERTEX
  8
T51SSILL
 62
4
 10
4167.221
 20
-8221.231
 30
89.266
 70
    32
  0
VERTEX
  8
T51SSILL
 62
4
 10
4163.275
 20
-8225.764
 30
89.266
 70
    32
  0
VERTEX
  8
T51SSILL
 62
4
 10
4165.080
 20
-8228.935
 30
89.267
 70
    32
  0
VERTEX
  8
T51SSILL
 62
4
 10
4001.241
 20
-8345.322
 30
89.277
 70
    32
  0
VERTEX
  8
T51SSILL
 62
4
 10
3993.521
 20
-8342.301
 30
89.277
 70
    32
  0
VERTEX
  8
T51SSILL
 62
4
 10
3974.513
 20
-8345.856
 30
89.277
 70
    32
  0
VERTEX
  8
T51SSILL
 62
4
 10
3966.754
 20
-8342.641
 30
89.277
 70
    32
  0
VERTEX
  8
T51SSILL
 62
4
 10
3963.132
 20
-8343.011
 30
89.277
 70
    32
  0
VERTEX
  8
T51SSILL
 62
4
 10
3824.047
 20
-8148.521
 30
89.258
 70
    32
  0
VERTEX
  8
T51SSILL
 62
4
 10
3818.223
 20
-8152.509
 30
89.259
 70
    32
  0
VERTEX
  8
T51SSILL
 62
4
 10
3914.280
 20
-8287.870
 30
89.269
 70
    32
  0
VERTEX
  8
T51SSILL
 62
4
 10
3909.682
 20
-8290.566
 30
89.269
 70
    32
  0
VERTEX
  8
T51SSILL
 62
4
 10
3908.851
 20
-8296.799
 30
89.270
 70
    32
  0
VERTEX
  8
T51SSILL
 62
4
 10
3902.179
 20
-8302.285
 30
89.271
 70
    32
  0
VERTEX
  8
T51SSILL
 62
4
 10
3904.370
 20
-8307.837
 30
89.272
 70
    32
  0
VERTEX
  8
T51SSILL
 62
4
 10
3912.820
 20
-8305.319
 30
89.271
 70
    32
  0
VERTEX
  8
T51SSILL
 62
4
 10
3922.071
 20
-8309.156
 30
89.272
 70
    32
  0
VERTEX
  8
T51SSILL
 62
4
 10
3928.021
 20
-8306.188
 30
89.272
 70
    32
  0
VERTEX
  8
T51SSILL
 62
4
 10
3956.530
 20
-8347.718
 30
89.278
 70
    32
  0
VERTEX
  8
T51SSILL
 62
4
 10
3967.442
 20
-8356.403
 30
89.278
 70
    32
  0
VERTEX
  8
T51SSILL
 62
4
 10
3974.451
 20
-8359.085
 30
89.278
 70
    32
  0
VERTEX
  8
T51SSILL
 62
4
 10
3974.892
 20
-8363.657
 30
89.278
 70
    32
  0
VERTEX
  8
T51SSILL
 62
4
 10
3893.225
 20
-8422.603
 30
89.282
 70
    32
  0
VERTEX
  8
T51SSILL
 62
4
 10
3878.960
 20
-8410.325
 30
89.282
 70
    32
  0
VERTEX
  8
T51SSILL
 62
4
 10
3873.424
 20
-8412.600
 30
89.282
 70
    32
  0
VERTEX
  8
T51SSILL
 62
4
 10
3872.952
 20
-8418.098
 30
89.282
 70
    32
  0
VERTEX
  8
T51SSILL
 62
4
 10
3877.404
 20
-8424.230
 30
89.283
 70
    32
  0
VERTEX
  8
T51SSILL
 62
4
 10
3873.905
 20
-8437.349
 30
89.284
 70
    32
  0
VERTEX
  8
T51SSILL
 62
4
 10
3799.853
 20
-8490.476
 30
89.287
 70
    32
  0
VERTEX
  8
T51SSILL
 62
4
 10
3803.861
 20
-8496.160
 30
89.287
 70
    32
  0
VERTEX
  8
T51SSILL
 62
4
 10
3884.248
 20
-8438.436
 30
89.283
 70
    32
  0
VERTEX
  8
T51SSILL
 62
4
 10
3889.256
 20
-8440.558
 30
89.283
 70
    32
  0
VERTEX
  8
T51SSILL
 62
4
 10
3898.551
 20
-8433.862
 30
89.283
 70
    32
  0
VERTEX
  8
T51SSILL
 62
4
 10
3896.913
 20
-8429.331
 30
89.283
 70
    32
  0
VERTEX
  8
T51SSILL
 62
4
 10
3976.931
 20
-8372.565
 30
89.279
 70
    32
  0
VERTEX
  8
T51SSILL
 62
4
 10
3985.302
 20
-8371.840
 30
89.279
 70
    32
  0
VERTEX
  8
T51SSILL
 62
4
 10
3992.917
 20
-8367.571
 30
89.278
 70
    32
  0
VERTEX
  8
T51SSILL
 62
4
 10
4000.518
 20
-8359.850
 30
89.278
 70
    32
  0
VERTEX
  8
T51SSILL
 62
4
 10
4003.619
 20
-8353.520
 30
89.278
 70
    32
  0
VERTEX
  8
T51SSILL
 62
4
 10
4220.508
 20
-8198.625
 30
89.264
 70
    32
  0
VERTEX
  8
T51SSILL
 62
4
 10
4223.307
 20
-8200.350
 30
89.264
 70
    32
  0
VERTEX
  8
T51SSILL
 62
4
 10
4222.394
 20
-8212.345
 30
89.266
 70
    32
  0
VERTEX
  8
T51SSILL
 62
4
 10
4228.960
 20
-8217.608
 30
89.267
 70
    32
  0
VERTEX
  8
T51SSILL
 62
4
 10
4240.374
 20
-8239.529
 30
89.269
 70
    32
  0
VERTEX
  8
T51SSILL
 62
4
 10
4245.551
 20
-8254.031
 30
89.269
 70
    32
  0
VERTEX
  8
T51SSILL
 62
4
 10
4251.438
 20
-8255.133
 30
89.269
 70
    32
  0
VERTEX
  8
T51SSILL
 62
4
 10
4264.748
 20
-8265.744
 30
89.270
 70
    32
  0
VERTEX
  8
T51SSILL
 62
4
 10
4266.412
 20
-8268.020
 30
89.270
 70
    32
  0
VERTEX
  8
T51SSILL
 62
4
 10
4266.109
 20
-8271.496
 30
89.270
 70
    32
  0
VERTEX
  8
T51SSILL
 62
4
 10
4168.168
 20
-8342.364
 30
89.275
 70
    32
  0
VERTEX
  8
T51SSILL
 62
4
 10
4161.109
 20
-8350.779
 30
89.276
 70
    32
  0
VERTEX
  8
T51SSILL
 62
4
 10
4154.634
 20
-8366.669
 30
89.276
 70
    32
  0
VERTEX
  8
T51SSILL
 62
4
 10
4156.955
 20
-8386.528
 30
89.277
 70
    32
  0
VERTEX
  8
T51SSILL
 62
4
 10
4177.712
 20
-8416.125
 30
89.279
 70
    32
  0
VERTEX
  8
T51SSILL
 62
4
 10
4179.503
 20
-8428.579
 30
89.279
 70
    32
  0
VERTEX
  8
T51SSILL
 62
4
 10
4178.352
 20
-8441.988
 30
89.280
 70
    32
  0
VERTEX
  8
T51SSILL
 62
4
 10
4173.801
 20
-8453.472
 30
89.281
 70
    32
  0
VERTEX
  8
T51SSILL
 62
4
 10
4176.908
 20
-8459.313
 30
89.281
 70
    32
  0
VERTEX
  8
T51SSILL
 62
4
 10
4168.894
 20
-8526.895
 30
89.285
 70
    32
  0
VERTEX
  8
T51SSILL
 62
4
 10
4159.832
 20
-8533.746
 30
89.285
 70
    32
  0
VERTEX
  8
T51SSILL
 62
4
 10
4152.836
 20
-8547.250
 30
89.286
 70
    32
  0
VERTEX
  8
T51SSILL
 62
4
 10
4154.443
 20
-8552.028
 30
89.286
 70
    32
  0
VERTEX
  8
T51SSILL
 62
4
 10
4164.072
 20
-8564.507
 30
89.287
 70
    32
  0
VERTEX
  8
T51SSILL
 62
4
 10
4157.002
 20
-8615.267
 30
89.290
 70
    32
  0
VERTEX
  8
T51SSILL
 62
4
 10
4159.421
 20
-8629.241
 30
89.290
 70
    32
  0
VERTEX
  8
T51SSILL
 62
4
 10
4165.084
 20
-8630.629
 30
89.290
 70
    32
  0
VERTEX
  8
T51SSILL
 62
4
 10
4167.586
 20
-8638.842
 30
89.291
 70
    32
  0
VERTEX
  8
T51SSILL
 62
4
 10
4160.475
 20
-8644.616
 30
89.291
 70
    32
  0
VERTEX
  8
T51SSILL
 62
4
 10
4154.464
 20
-8638.919
 30
89.291
 70
    32
  0
VERTEX
  8
T51SSILL
 62
4
 10
4150.785
 20
-8632.631
 30
89.291
 70
    32
  0
VERTEX
  8
T51SSILL
 62
4
 10
4147.357
 20
-8611.067
 30
89.290
 70
    32
  0
VERTEX
  8
T51SSILL
 62
4
 10
4141.398
 20
-8599.856
 30
89.289
 70
    32
  0
VERTEX
  8
T51SSILL
 62
4
 10
4150.068
 20
-8593.647
 30
89.289
 70
    32
  0
VERTEX
  8
T51SSILL
 62
4
 10
4147.270
 20
-8588.346
 30
89.288
 70
    32
  0
VERTEX
  8
T51SSILL
 62
4
 10
4141.546
 20
-8587.453
 30
89.288
 70
    32
  0
VERTEX
  8
T51SSILL
 62
4
 10
4135.404
 20
-8590.460
 30
89.289
 70
    32
  0
VERTEX
  8
T51SSILL
 62
4
 10
4124.258
 20
-8589.777
 30
89.289
 70
    32
  0
VERTEX
  8
T51SSILL
 62
4
 10
4112.985
 20
-8582.491
 30
89.288
 70
    32
  0
VERTEX
  8
T51SSILL
 62
4
 10
4109.202
 20
-8587.232
 30
89.289
 70
    32
  0
VERTEX
  8
T51SSILL
 62
4
 10
4115.729
 20
-8596.882
 30
89.289
 70
    32
  0
VERTEX
  8
T51SSILL
 62
4
 10
4116.480
 20
-8606.573
 30
89.290
 70
    32
  0
VERTEX
  8
T51SSILL
 62
4
 10
4113.924
 20
-8611.025
 30
89.290
 70
    32
  0
VERTEX
  8
T51SSILL
 62
4
 10
4114.546
 20
-8617.689
 30
89.290
 70
    32
  0
VERTEX
  8
T51SSILL
 62
4
 10
4108.238
 20
-8623.060
 30
89.291
 70
    32
  0
VERTEX
  8
T51SSILL
 62
4
 10
4109.610
 20
-8634.835
 30
89.291
 70
    32
  0
VERTEX
  8
T51SSILL
 62
4
 10
4106.241
 20
-8638.247
 30
89.291
 70
    32
  0
VERTEX
  8
T51SSILL
 62
4
 10
4089.998
 20
-8637.187
 30
89.292
 70
    32
  0
VERTEX
  8
T51SSILL
 62
4
 10
4087.117
 20
-8641.223
 30
89.292
 70
    32
  0
VERTEX
  8
T51SSILL
 62
4
 10
4099.855
 20
-8655.967
 30
89.292
 70
    32
  0
VERTEX
  8
T51SSILL
 62
4
 10
4110.585
 20
-8679.874
 30
89.294
 70
    32
  0
VERTEX
  8
T51SSILL
 62
4
 10
4061.656
 20
-8714.762
 30
89.296
 70
    32
  0
VERTEX
  8
T51SSILL
 62
4
 10
4066.643
 20
-8720.319
 30
89.296
 70
    32
  0
VERTEX
  8
T51SSILL
 62
4
 10
4111.649
 20
-8687.533
 30
89.294
 70
    32
  0
VERTEX
  8
T51SSILL
 62
4
 10
4131.832
 20
-8689.204
 30
89.294
 70
    32
  0
VERTEX
  8
T51SSILL
 62
4
 10
4153.081
 20
-8677.644
 30
89.293
 70
    32
  0
VERTEX
  8
T51SSILL
 62
4
 10
4156.087
 20
-8674.627
 30
89.293
 70
    32
  0
VERTEX
  8
T51SSILL
 62
4
 10
4161.386
 20
-8661.666
 30
89.292
 70
    32
  0
VERTEX
  8
T51SSILL
 62
4
 10
4160.344
 20
-8653.320
 30
89.292
 70
    32
  0
VERTEX
  8
T51SSILL
 62
4
 10
4217.453
 20
-8612.426
 30
89.289
 70
    32
  0
VERTEX
  8
T51SSILL
 62
4
 10
4220.534
 20
-8616.947
 30
89.289
 70
    32
  0
VERTEX
  8
T51SSILL
 62
4
 10
4223.971
 20
-8617.056
 30
89.289
 70
    32
  0
VERTEX
  8
T51SSILL
 62
4
 10
4227.746
 20
-8611.875
 30
89.289
 70
    32
  0
VERTEX
  8
T51SSILL
 62
4
 10
4224.202
 20
-8608.051
 30
89.288
 70
    32
  0
VERTEX
  8
T51SSILL
 62
4
 10
4252.748
 20
-8586.662
 30
89.287
 70
    32
  0
VERTEX
  8
T51SSILL
 62
4
 10
4259.015
 20
-8580.094
 30
89.287
 70
    32
  0
VERTEX
  8
T51SSILL
 62
4
 10
4267.333
 20
-8562.989
 30
89.286
 70
    32
  0
VERTEX
  8
T51SSILL
 62
4
 10
4297.845
 20
-8584.189
 30
89.287
 70
    32
  0
VERTEX
  8
T51SSILL
 62
4
 10
4346.768
 20
-8653.015
 30
89.293
 70
    32
  0
VERTEX
  8
T51SSILL
 62
4
 10
4350.813
 20
-8665.495
 30
89.294
 70
    32
  0
VERTEX
  8
T51SSILL
 62
4
 10
4350.134
 20
-8674.069
 30
89.295
 70
    32
  0
VERTEX
  8
T51SSILL
 62
4
 10
4345.631
 20
-8682.611
 30
89.296
 70
    32
  0
VERTEX
  8
T51SSILL
 62
4
 10
4341.767
 20
-8685.962
 30
89.296
 70
    32
  0
VERTEX
  8
T51SSILL
 62
4
 10
4248.192
 20
-8753.981
 30
89.298
 70
    32
  0
VERTEX
  8
T51SSILL
 62
4
 10
4240.643
 20
-8751.607
 30
89.297
 70
    32
  0
VERTEX
  8
T51SSILL
 62
4
 10
4237.740
 20
-8760.911
 30
89.298
 70
    32
  0
VERTEX
  8
T51SSILL
 62
4
 10
4162.518
 20
-8814.257
 30
89.300
 70
    32
  0
VERTEX
  8
T51SSILL
 62
4
 10
4166.624
 20
-8820.781
 30
89.300
 70
    32
  0
VERTEX
  8
T51SSILL
 62
4
 10
4241.482
 20
-8767.708
 30
89.298
 70
    32
  0
VERTEX
  8
T51SSILL
 62
4
 10
4261.849
 20
-8768.900
 30
89.299
 70
    32
  0
VERTEX
  8
T51SSILL
 62
4
 10
4264.375
 20
-8760.115
 30
89.299
 70
    32
  0
VERTEX
  8
T51SSILL
 62
4
 10
4260.264
 20
-8754.276
 30
89.298
 70
    32
  0
VERTEX
  8
T51SSILL
 62
4
 10
4348.875
 20
-8691.919
 30
89.296
 70
    32
  0
VERTEX
  8
T51SSILL
 62
4
 10
4356.061
 20
-8680.948
 30
89.296
 70
    32
  0
VERTEX
  8
T51SSILL
 62
4
 10
4358.421
 20
-8669.946
 30
89.295
 70
    32
  0
VERTEX
  8
T51SSILL
 62
4
 10
4369.428
 20
-8684.477
 30
89.296
 70
    32
  0
VERTEX
  8
T51SSILL
 62
4
 10
4375.391
 20
-8680.381
 30
89.296
 70
    32
  0
VERTEX
  8
T51SSILL
 62
4
 10
4368.193
 20
-8671.589
 30
89.295
 70
    32
  0
VERTEX
  8
T51SSILL
 62
4
 10
4369.132
 20
-8665.494
 30
89.295
 70
    32
  0
VERTEX
  8
T51SSILL
 62
4
 10
4375.084
 20
-8655.374
 30
89.295
 70
    32
  0
VERTEX
  8
T51SSILL
 62
4
 10
4362.922
 20
-8643.085
 30
89.293
 70
    32
  0
VERTEX
  8
T51SSILL
 62
4
 10
4339.276
 20
-8630.824
 30
89.292
 70
    32
  0
VERTEX
  8
T51SSILL
 62
4
 10
4321.213
 20
-8604.822
 30
89.289
 70
    32
  0
VERTEX
  8
T51SSILL
 62
4
 10
4321.951
 20
-8602.905
 30
89.289
 70
    32
  0
VERTEX
  8
T51SSILL
 62
4
 10
4324.961
 20
-8601.896
 30
89.289
 70
    32
  0
VERTEX
  8
T51SSILL
 62
4
 10
4335.981
 20
-8601.560
 30
89.289
 70
    32
  0
VERTEX
  8
T51SSILL
 62
4
 10
4345.623
 20
-8603.752
 30
89.290
 70
    32
  0
VERTEX
  8
T51SSILL
 62
4
 10
4350.484
 20
-8600.963
 30
89.290
 70
    32
  0
VERTEX
  8
T51SSILL
 62
4
 10
4357.456
 20
-8587.142
 30
89.289
 70
    32
  0
VERTEX
  8
T51SSILL
 62
4
 10
4358.888
 20
-8562.789
 30
89.287
 70
    32
  0
VERTEX
  8
T51SSILL
 62
4
 10
4357.900
 20
-8549.932
 30
89.286
 70
    32
  0
VERTEX
  8
T51SSILL
 62
4
 10
4351.438
 20
-8519.901
 30
89.284
 70
    32
  0
VERTEX
  8
T51SSILL
 62
4
 10
4351.325
 20
-8508.595
 30
89.283
 70
    32
  0
VERTEX
  8
T51SSILL
 62
4
 10
4358.736
 20
-8493.761
 30
89.283
 70
    32
  0
VERTEX
  8
T51SSILL
 62
4
 10
4358.119
 20
-8490.110
 30
89.282
 70
    32
  0
VERTEX
  8
T51SSILL
 62
4
 10
4356.855
 20
-8486.629
 30
89.282
 70
    32
  0
VERTEX
  8
T51SSILL
 62
4
 10
4354.156
 20
-8484.602
 30
89.282
 70
    32
  0
VERTEX
  8
T51SSILL
 62
4
 10
4349.197
 20
-8484.117
 30
89.282
 70
    32
  0
VERTEX
  8
T51SSILL
 62
4
 10
4344.698
 20
-8486.511
 30
89.282
 70
    32
  0
VERTEX
  8
T51SSILL
 62
4
 10
4333.782
 20
-8497.713
 30
89.282
 70
    32
  0
VERTEX
  8
T51SSILL
 62
4
 10
4331.840
 20
-8512.969
 30
89.283
 70
    32
  0
VERTEX
  8
T51SSILL
 62
4
 10
4325.593
 20
-8522.426
 30
89.284
 70
    32
  0
VERTEX
  8
T51SSILL
 62
4
 10
4325.734
 20
-8527.901
 30
89.284
 70
    32
  0
VERTEX
  8
T51SSILL
 62
4
 10
4323.439
 20
-8531.257
 30
89.284
 70
    32
  0
VERTEX
  8
T51SSILL
 62
4
 10
4304.609
 20
-8544.056
 30
89.284
 70
    32
  0
VERTEX
  8
T51SSILL
 62
4
 10
4300.011
 20
-8542.172
 30
89.284
 70
    32
  0
VERTEX
  8
T51SSILL
 62
4
 10
4292.904
 20
-8528.059
 30
89.283
 70
    32
  0
VERTEX
  8
T51SSILL
 62
4
 10
4301.502
 20
-8507.161
 30
89.282
 70
    32
  0
VERTEX
  8
T51SSILL
 62
4
 10
4291.316
 20
-8485.956
 30
89.281
 70
    32
  0
VERTEX
  8
T51SSILL
 62
4
 10
4276.656
 20
-8462.883
 30
89.280
 70
    32
  0
VERTEX
  8
T51SSILL
 62
4
 10
4282.427
 20
-8455.250
 30
89.280
 70
    32
  0
VERTEX
  8
T51SSILL
 62
4
 10
4285.153
 20
-8428.547
 30
89.278
 70
    32
  0
VERTEX
  8
T51SSILL
 62
4
 10
4277.603
 20
-8421.594
 30
89.278
 70
    32
  0
VERTEX
  8
T51SSILL
 62
4
 10
4253.404
 20
-8419.930
 30
89.278
 70
    32
  0
VERTEX
  8
T51SSILL
 62
4
 10
4226.554
 20
-8377.663
 30
89.276
 70
    32
  0
VERTEX
  8
T51SSILL
 62
4
 10
4218.804
 20
-8388.628
 30
89.277
 70
    32
  0
VERTEX
  8
T51SSILL
 62
4
 10
4213.464
 20
-8391.232
 30
89.277
 70
    32
  0
VERTEX
  8
T51SSILL
 62
4
 10
4230.918
 20
-8439.493
 30
89.279
 70
    32
  0
VERTEX
  8
T51SSILL
 62
4
 10
4231.324
 20
-8459.619
 30
89.280
 70
    32
  0
VERTEX
  8
T51SSILL
 62
4
 10
4219.792
 20
-8449.854
 30
89.280
 70
    32
  0
VERTEX
  8
T51SSILL
 62
4
 10
4212.521
 20
-8451.844
 30
89.280
 70
    32
  0
VERTEX
  8
T51SSILL
 62
4
 10
4165.837
 20
-8386.744
 30
89.277
 70
    32
  0
VERTEX
  8
T51SSILL
 62
4
 10
4161.647
 20
-8375.939
 30
89.277
 70
    32
  0
VERTEX
  8
T51SSILL
 62
4
 10
4164.463
 20
-8361.230
 30
89.276
 70
    32
  0
VERTEX
  8
T51SSILL
 62
4
 10
4175.428
 20
-8347.085
 30
89.275
 70
    32
  0
VERTEX
  8
T51SSILL
 62
4
 10
4336.329
 20
-8230.891
 30
89.267
 70
    32
  0
VERTEX
  8
T51SSILL
 62
4
 10
4340.698
 20
-8271.260
 30
89.269
 70
    32
  0
VERTEX
  8
T51SSILL
 62
4
 10
4337.907
 20
-8277.313
 30
89.270
 70
    32
  0
VERTEX
  8
T51SSILL
 62
4
 10
4326.447
 20
-8285.521
 30
89.270
 70
    32
  0
VERTEX
  8
T51SSILL
 62
4
 10
4325.126
 20
-8291.051
 30
89.270
 70
    32
  0
VERTEX
  8
T51SSILL
 62
4
 10
4330.096
 20
-8295.499
 30
89.271
 70
    32
  0
VERTEX
  8
T51SSILL
 62
4
 10
4335.639
 20
-8290.388
 30
89.270
 70
    32
  0
VERTEX
  8
T51SSILL
 62
4
 10
4344.228
 20
-8289.924
 30
89.270
 70
    32
  0
VERTEX
  8
T51SSILL
 62
4
 10
4345.145
 20
-8305.586
 30
89.271
 70
    32
  0
VERTEX
  8
T51SSILL
 62
4
 10
4354.147
 20
-8305.693
 30
89.271
 70
    32
  0
VERTEX
  8
T51SSILL
 62
4
 10
4351.460
 20
-8286.091
 30
89.270
 70
    32
  0
VERTEX
  8
T51SSILL
 62
4
 10
4353.228
 20
-8280.127
 30
89.269
 70
    32
  0
VERTEX
  8
T51SSILL
 62
4
 10
4350.081
 20
-8272.941
 30
89.269
 70
    32
  0
VERTEX
  8
T51SSILL
 62
4
 10
4344.999
 20
-8233.089
 30
89.267
 70
    32
  0
VERTEX
  8
T51SSILL
 62
4
 10
4354.537
 20
-8217.133
 30
89.266
 70
    32
  0
VERTEX
  8
T51SSILL
 62
4
 10
4610.359
 20
-8033.878
 30
89.171
 70
    32
  0
VERTEX
  8
T51SSILL
 62
4
 10
4617.131
 20
-8030.161
 30
89.167
 70
    32
  0
VERTEX
  8
T51SSILL
 62
4
 10
4628.720
 20
-8028.282
 30
89.160
 70
    32
  0
VERTEX
  8
T51SSILL
 62
4
 10
4642.310
 20
-8033.658
 30
89.154
 70
    32
  0
VERTEX
  8
T51SSILL
 62
4
 10
4711.024
 20
-8128.345
 30
89.131
 70
    32
  0
VERTEX
  8
T51SSILL
 62
4
 10
4703.446
 20
-8133.953
 30
89.136
 70
    32
  0
VERTEX
  8
T51SSILL
 62
4
 10
4708.190
 20
-8140.131
 30
89.134
 70
    32
  0
VERTEX
  8
T51SSILL
 62
4
 10
4715.441
 20
-8134.282
 30
89.130
 70
    32
  0
VERTEX
  8
T51SSILL
 62
4
 10
4932.599
 20
-8438.322
 30
89.559
 70
    32
  0
VERTEX
  8
T51SSILL
 62
4
 10
4924.776
 20
-8443.890
 30
89.560
 70
    32
  0
VERTEX
  8
T51SSILL
 62
4
 10
4928.845
 20
-8449.527
 30
89.553
 70
    32
  0
VERTEX
  8
T51SSILL
 62
4
 10
4936.460
 20
-8443.792
 30
89.553
 70
    32
  0
VERTEX
  8
T51SSILL
 62
4
 10
5059.967
 20
-8616.382
 30
89.349
 70
    32
  0
VERTEX
  8
T51SSILL
 62
4
 10
5053.384
 20
-8624.860
 30
89.347
 70
    32
  0
VERTEX
  8
T51SSILL
 62
4
 10
5064.422
 20
-8636.769
 30
89.331
 70
    32
  0
VERTEX
  8
T51SSILL
 62
4
 10
5072.451
 20
-8632.684
 30
89.329
 70
    32
  0
VERTEX
  8
T51SSILL
 62
4
 10
5132.594
 20
-8716.610
 30
89.305
 70
    32
  0
VERTEX
  8
T51SSILL
 62
4
 10
5119.336
 20
-8715.890
 30
89.314
 70
    32
  0
VERTEX
  8
T51SSILL
 62
4
 10
5109.060
 20
-8719.429
 30
89.320
 70
    32
  0
VERTEX
  8
T51SSILL
 62
4
 10
5086.014
 20
-8732.670
 30
89.331
 70
    32
  0
VERTEX
  8
T51SSILL
 62
4
 10
5079.995
 20
-8734.426
 30
89.335
 70
    32
  0
VERTEX
  8
T51SSILL
 62
4
 10
5077.598
 20
-8741.172
 30
89.335
 70
    32
  0
VERTEX
  8
T51SSILL
 62
4
 10
5017.125
 20
-8783.534
 30
89.364
 70
    32
  0
VERTEX
  8
T51SSILL
 62
4
 10
5022.573
 20
-8788.942
 30
89.359
 70
    32
  0
VERTEX
  8
T51SSILL
 62
4
 10
5082.897
 20
-8747.124
 30
89.330
 70
    32
  0
VERTEX
  8
T51SSILL
 62
4
 10
5097.169
 20
-8743.842
 30
89.322
 70
    32
  0
VERTEX
  8
T51SSILL
 62
4
 10
5110.111
 20
-8743.376
 30
89.314
 70
    32
  0
VERTEX
  8
T51SSILL
 62
4
 10
5111.487
 20
-8739.873
 30
89.314
 70
    32
  0
VERTEX
  8
T51SSILL
 62
4
 10
5106.803
 20
-8728.469
 30
89.319
 70
    32
  0
VERTEX
  8
T51SSILL
 62
4
 10
5115.403
 20
-8723.970
 30
89.315
 70
    32
  0
VERTEX
  8
T51SSILL
 62
4
 10
5127.568
 20
-8722.434
 30
89.307
 70
    32
  0
VERTEX
  8
T51SSILL
 62
4
 10
5134.218
 20
-8724.248
 30
89.303
 70
    32
  0
VERTEX
  8
T51SSILL
 62
4
 10
5142.826
 20
-8730.410
 30
89.296
 70
    32
  0
VERTEX
  8
T51SSILL
 62
4
 10
5189.056
 20
-8795.783
 30
89.252
 70
    32
  0
VERTEX
  8
T51SSILL
 62
4
 10
5173.292
 20
-8794.593
 30
89.263
 70
    32
  0
VERTEX
  8
T51SSILL
 62
4
 10
5162.950
 20
-8798.382
 30
89.268
 70
    32
  0
VERTEX
  8
T51SSILL
 62
4
 10
5156.039
 20
-8802.818
 30
89.272
 70
    32
  0
VERTEX
  8
T51SSILL
 62
4
 10
5017.670
 20
-8902.916
 30
89.339
 70
    32
  0
VERTEX
  8
T51SSILL
 62
4
 10
5022.356
 20
-8909.424
 30
89.335
 70
    32
  0
VERTEX
  8
T51SSILL
 62
4
 10
5169.532
 20
-8803.602
 30
89.263
 70
    32
  0
VERTEX
  8
T51SSILL
 62
4
 10
5182.716
 20
-8801.440
 30
89.255
 70
    32
  0
VERTEX
  8
T51SSILL
 62
4
 10
5187.503
 20
-8802.291
 30
89.252
 70
    32
  0
VERTEX
  8
T51SSILL
 62
4
 10
5199.245
 20
-8810.057
 30
89.243
 70
    32
  0
VERTEX
  8
T51SSILL
 62
4
 10
5263.369
 20
-8898.862
 30
89.183
 70
    32
  0
VERTEX
  8
T51SSILL
 62
4
 10
5273.640
 20
-8907.602
 30
89.175
 70
    32
  0
VERTEX
  8
T51SSILL
 62
4
 10
5280.835
 20
-8911.276
 30
89.170
 70
    32
  0
VERTEX
  8
T51SSILL
 62
4
 10
5297.207
 20
-8915.521
 30
89.159
 70
    32
  0
VERTEX
  8
T51SSILL
 62
4
 10
5300.852
 20
-8922.249
 30
89.156
 70
    32
  0
VERTEX
  8
T51SSILL
 62
4
 10
5298.600
 20
-8938.356
 30
89.155
 70
    32
  0
VERTEX
  8
T51SSILL
 62
4
 10
5300.359
 20
-8949.210
 30
89.153
 70
    32
  0
VERTEX
  8
T51SSILL
 62
4
 10
5335.337
 20
-8999.946
 30
89.124
 70
    32
  0
VERTEX
  8
T51SSILL
 62
4
 10
5336.588
 20
-9004.169
 30
89.123
 70
    32
  0
VERTEX
  8
T51SSILL
 62
4
 10
5336.999
 20
-9009.777
 30
89.122
 70
    32
  0
VERTEX
  8
T51SSILL
 62
4
 10
5334.505
 20
-9019.167
 30
89.122
 70
    32
  0
VERTEX
  8
T51SSILL
 62
4
 10
5326.448
 20
-9029.921
 30
89.126
 70
    32
  0
VERTEX
  8
T51SSILL
 62
4
 10
5274.949
 20
-9067.430
 30
89.154
 70
    32
  0
VERTEX
  8
T51SSILL
 62
4
 10
5268.655
 20
-9080.278
 30
89.157
 70
    32
  0
VERTEX
  8
T51SSILL
 62
4
 10
5267.083
 20
-9086.909
 30
89.157
 70
    32
  0
VERTEX
  8
T51SSILL
 62
4
 10
5267.916
 20
-9100.962
 30
89.155
 70
    32
  0
VERTEX
  8
T51SSILL
 62
4
 10
5271.045
 20
-9108.179
 30
89.152
 70
    32
  0
VERTEX
  8
T51SSILL
 62
4
 10
5265.019
 20
-9110.102
 30
89.156
 70
    32
  0
VERTEX
  8
T51SSILL
 62
4
 10
5270.014
 20
-9121.636
 30
89.151
 70
    32
  0
VERTEX
  8
T51SSILL
 62
4
 10
5268.846
 20
-9128.517
 30
89.151
 70
    32
  0
VERTEX
  8
T51SSILL
 62
4
 10
5272.147
 20
-9136.264
 30
89.148
 70
    32
  0
VERTEX
  8
T51SSILL
 62
4
 10
5273.521
 20
-9152.984
 30
89.145
 70
    32
  0
VERTEX
  8
T51SSILL
 62
4
 10
5280.316
 20
-9164.285
 30
89.139
 70
    32
  0
VERTEX
  8
T51SSILL
 62
4
 10
5291.267
 20
-9171.868
 30
89.131
 70
    32
  0
VERTEX
  8
T51SSILL
 62
4
 10
5312.643
 20
-9207.562
 30
89.113
 70
    32
  0
VERTEX
  8
T51SSILL
 62
4
 10
5324.905
 20
-9237.274
 30
89.102
 70
    32
  0
VERTEX
  8
T51SSILL
 62
4
 10
5322.362
 20
-9241.994
 30
89.103
 70
    32
  0
VERTEX
  8
T51SSILL
 62
4
 10
5315.803
 20
-9267.405
 30
89.104
 70
    32
  0
VERTEX
  8
T51SSILL
 62
4
 10
5317.509
 20
-9278.188
 30
89.102
 70
    32
  0
VERTEX
  8
T51SSILL
 62
4
 10
5328.031
 20
-9288.605
 30
89.094
 70
    32
  0
VERTEX
  8
T51SSILL
 62
4
 10
5332.467
 20
-9303.835
 30
89.089
 70
    32
  0
VERTEX
  8
T51SSILL
 62
4
 10
5346.393
 20
-9313.822
 30
89.079
 70
    32
  0
VERTEX
  8
T51SSILL
 62
4
 10
5354.137
 20
-9315.121
 30
89.074
 70
    32
  0
VERTEX
  8
T51SSILL
 62
4
 10
5357.468
 20
-9311.025
 30
89.072
 70
    32
  0
VERTEX
  8
T51SSILL
 62
4
 10
5368.718
 20
-9337.434
 30
89.062
 70
    32
  0
VERTEX
  8
T51SSILL
 62
4
 10
5375.491
 20
-9334.290
 30
89.058
 70
    32
  0
VERTEX
  8
T51SSILL
 62
4
 10
5357.956
 20
-9294.903
 30
89.074
 70
    32
  0
VERTEX
  8
T51SSILL
 62
4
 10
5358.576
 20
-9282.078
 30
89.075
 70
    32
  0
VERTEX
  8
T51SSILL
 62
4
 10
5362.037
 20
-9279.199
 30
89.073
 70
    32
  0
VERTEX
  8
T51SSILL
 62
4
 10
5353.042
 20
-9265.359
 30
89.080
 70
    32
  0
VERTEX
  8
T51SSILL
 62
4
 10
5349.230
 20
-9251.421
 30
89.085
 70
    32
  0
VERTEX
  8
T51SSILL
 62
4
 10
5335.804
 20
-9242.707
 30
89.094
 70
    32
  0
VERTEX
  8
T51SSILL
 62
4
 10
5313.711
 20
-9189.700
 30
89.115
 70
    32
  0
VERTEX
  8
T51SSILL
 62
4
 10
5317.362
 20
-9178.910
 30
89.114
 70
    32
  0
VERTEX
  8
T51SSILL
 62
4
 10
5313.430
 20
-9166.592
 30
89.118
 70
    32
  0
VERTEX
  8
T51SSILL
 62
4
 10
5317.153
 20
-9159.909
 30
89.116
 70
    32
  0
VERTEX
  8
T51SSILL
 62
4
 10
5314.815
 20
-9148.715
 30
89.119
 70
    32
  0
VERTEX
  8
T51SSILL
 62
4
 10
5307.617
 20
-9141.323
 30
89.125
 70
    32
  0
VERTEX
  8
T51SSILL
 62
4
 10
5306.705
 20
-9134.442
 30
89.126
 70
    32
  0
VERTEX
  8
T51SSILL
 62
4
 10
5300.586
 20
-9126.582
 30
89.131
 70
    32
  0
VERTEX
  8
T51SSILL
 62
4
 10
5277.885
 20
-9105.876
 30
89.148
 70
    32
  0
VERTEX
  8
T51SSILL
 62
4
 10
5273.934
 20
-9089.522
 30
89.152
 70
    32
  0
VERTEX
  8
T51SSILL
 62
4
 10
5277.731
 20
-9078.187
 30
89.151
 70
    32
  0
VERTEX
  8
T51SSILL
 62
4
 10
5284.022
 20
-9069.939
 30
89.148
 70
    32
  0
VERTEX
  8
T51SSILL
 62
4
 10
5333.792
 20
-9034.688
 30
89.121
 70
    32
  0
VERTEX
  8
T51SSILL
 62
4
 10
5341.987
 20
-9024.271
 30
89.117
 70
    32
  0
VERTEX
  8
T51SSILL
 62
4
 10
5344.899
 20
-9013.369
 30
89.116
 70
    32
  0
VERTEX
  8
T51SSILL
 62
4
 10
5771.074
 20
-9604.655
 30
88.772
 70
    32
  0
VERTEX
  8
T51SSILL
 62
4
 10
5777.123
 20
-9600.088
 30
88.769
 70
    32
  0
VERTEX
  8
T51SSILL
 62
4
 10
5573.129
 20
-9315.969
 30
88.934
 70
    32
  0
VERTEX
  8
T51SSILL
 62
4
 10
5589.837
 20
-9315.917
 30
88.923
 70
    32
  0
VERTEX
  8
T51SSILL
 62
4
 10
5599.757
 20
-9312.000
 30
88.917
 70
    32
  0
VERTEX
  8
T51SSILL
 62
4
 10
5681.771
 20
-9252.771
 30
88.872
 70
    32
  0
VERTEX
  8
T51SSILL
 62
4
 10
5677.275
 20
-9246.671
 30
88.876
 70
    32
  0
VERTEX
  8
T51SSILL
 62
4
 10
5591.898
 20
-9307.721
 30
88.923
 70
    32
  0
VERTEX
  8
T51SSILL
 62
4
 10
5579.021
 20
-9309.111
 30
88.931
 70
    32
  0
VERTEX
  8
T51SSILL
 62
4
 10
5572.214
 20
-9307.449
 30
88.935
 70
    32
  0
VERTEX
  8
T51SSILL
 62
4
 10
5562.484
 20
-9301.375
 30
88.942
 70
    32
  0
VERTEX
  8
T51SSILL
 62
4
 10
5312.322
 20
-8953.858
 30
89.144
 70
    32
  0
VERTEX
  8
T51SSILL
 62
4
 10
5308.349
 20
-8946.387
 30
89.148
 70
    32
  0
VERTEX
  8
T51SSILL
 62
4
 10
5306.807
 20
-8939.095
 30
89.150
 70
    32
  0
VERTEX
  8
T51SSILL
 62
4
 10
5307.423
 20
-8932.950
 30
89.150
 70
    32
  0
VERTEX
  8
T51SSILL
 62
4
 10
5310.029
 20
-8924.900
 30
89.149
 70
    32
  0
VERTEX
  8
T51SSILL
 62
4
 10
5316.753
 20
-8917.537
 30
89.146
 70
    32
  0
VERTEX
  8
T51SSILL
 62
4
 10
5815.699
 20
-8559.908
 30
88.885
 70
    32
  0
VERTEX
  8
T51SSILL
 62
4
 10
5826.392
 20
-8562.354
 30
88.883
 70
    32
  0
VERTEX
  8
T51SSILL
 62
4
 10
5868.596
 20
-8622.020
 30
88.883
 70
    32
  0
VERTEX
  8
T51SSILL
 62
4
 10
5864.522
 20
-8626.343
 30
88.883
 70
    32
  0
VERTEX
  8
T51SSILL
 62
4
 10
5881.273
 20
-8641.086
 30
88.883
 70
    32
  0
VERTEX
  8
T51SSILL
 62
4
 10
5887.870
 20
-8635.765
 30
88.883
 70
    32
  0
VERTEX
  8
T51SSILL
 62
4
 10
5832.739
 20
-8559.455
 30
88.883
 70
    32
  0
VERTEX
  8
T51SSILL
 62
4
 10
5834.905
 20
-8546.813
 30
88.884
 70
    32
  0
VERTEX
  8
T51SSILL
 62
4
 10
5902.252
 20
-8498.536
 30
88.890
 70
    32
  0
VERTEX
  8
T51SSILL
 62
4
 10
5906.030
 20
-8503.523
 30
88.880
 70
    32
  0
VERTEX
  8
T51SSILL
 62
4
 10
5915.366
 20
-8497.054
 30
88.895
 70
    32
  0
VERTEX
  8
T51SSILL
 62
4
 10
5910.630
 20
-8491.766
 30
88.920
 70
    32
  0
VERTEX
  8
T51SSILL
 62
4
 10
5924.389
 20
-8484.200
 30
88.986
 70
    32
  0
VERTEX
  8
T51SSILL
 62
4
 10
5934.933
 20
-8476.097
 30
89.051
 70
    32
  0
VERTEX
  8
T51SSILL
 62
4
 10
5942.685
 20
-8479.203
 30
89.044
 70
    32
  0
VERTEX
  8
T51SSILL
 62
4
 10
5947.758
 20
-8484.013
 30
89.022
 70
    32
  0
VERTEX
  8
T51SSILL
 62
4
 10
5954.402
 20
-8480.440
 30
89.054
 70
    32
  0
VERTEX
  8
T51SSILL
 62
4
 10
5955.760
 20
-8478.708
 30
89.056
 70
    32
  0
VERTEX
  8
T51SSILL
 62
4
 10
5953.588
 20
-8471.602
 30
89.061
 70
    32
  0
VERTEX
  8
T51SSILL
 62
4
 10
5953.724
 20
-8462.730
 30
89.066
 70
    32
  0
VERTEX
  8
T51SSILL
 62
4
 10
5979.934
 20
-8444.152
 30
89.066
 70
    32
  0
VERTEX
  8
T51SSILL
 62
4
 10
5987.700
 20
-8444.107
 30
89.062
 70
    32
  0
VERTEX
  8
T51SSILL
 62
4
 10
5996.592
 20
-8449.861
 30
89.055
 70
    32
  0
VERTEX
  8
T51SSILL
 62
4
 10
6003.436
 20
-8444.303
 30
89.056
 70
    32
  0
VERTEX
  8
T51SSILL
 62
4
 10
5999.754
 20
-8433.730
 30
89.063
 70
    32
  0
VERTEX
  8
T51SSILL
 62
4
 10
6004.222
 20
-8426.519
 30
89.065
 70
    32
  0
VERTEX
  8
T51SSILL
 62
4
 10
6227.056
 20
-8266.940
 30
89.043
 70
    32
  0
VERTEX
  8
T51SSILL
 62
4
 10
6232.941
 20
-8256.872
 30
89.041
 70
    32
  0
VERTEX
  8
T51SSILL
 62
4
 10
6235.274
 20
-8245.776
 30
89.041
 70
    32
  0
VERTEX
  8
T51SSILL
 62
4
 10
6233.872
 20
-8234.759
 30
89.040
 70
    32
  0
VERTEX
  8
T51SSILL
 62
4
 10
6229.625
 20
-8223.400
 30
89.040
 70
    32
  0
VERTEX
  8
T51SSILL
 62
4
 10
5932.999
 20
-7810.962
 30
89.348
 70
    32
  0
VERTEX
  8
T51SSILL
 62
4
 10
5931.638
 20
-7799.700
 30
89.354
 70
    32
  0
VERTEX
  8
T51SSILL
 62
4
 10
5934.328
 20
-7788.348
 30
89.359
 70
    32
  0
VERTEX
  8
T51SSILL
 62
4
 10
5942.538
 20
-7779.861
 30
89.361
 70
    32
  0
VERTEX
  8
T51SSILL
 62
4
 10
6168.397
 20
-7618.005
 30
89.383
 70
    32
  0
VERTEX
  8
T51SSILL
 62
4
 10
6179.587
 20
-7615.938
 30
89.381
 70
    32
  0
VERTEX
  8
T51SSILL
 62
4
 10
6187.794
 20
-7622.399
 30
89.375
 70
    32
  0
VERTEX
  8
T51SSILL
 62
4
 10
6299.899
 20
-7779.635
 30
89.266
 70
    32
  0
VERTEX
  8
T51SSILL
 62
4
 10
6305.520
 20
-7775.850
 30
89.266
 70
    32
  0
VERTEX
  8
T51SSILL
 62
4
 10
6185.165
 20
-7606.197
 30
89.384
 70
    32
  0
VERTEX
  8
T51SSILL
 62
4
 10
6246.689
 20
-7562.404
 30
89.390
 70
    32
  0
VERTEX
  8
T51SSILL
 62
4
 10
6240.864
 20
-7555.641
 30
89.395
 70
    32
  0
VERTEX
  8
T51SSILL
 62
4
 10
5938.799
 20
-7771.928
 30
89.366
 70
    32
  0
VERTEX
  8
T51SSILL
 62
4
 10
5927.497
 20
-7785.015
 30
89.363
 70
    32
  0
VERTEX
  8
T51SSILL
 62
4
 10
5923.471
 20
-7798.733
 30
89.357
 70
    32
  0
VERTEX
  8
T51SSILL
 62
4
 10
5875.215
 20
-7730.987
 30
89.404
 70
    32
  0
VERTEX
  8
T51SSILL
 62
4
 10
5872.570
 20
-7717.179
 30
89.411
 70
    32
  0
VERTEX
  8
T51SSILL
 62
4
 10
5875.579
 20
-7706.573
 30
89.416
 70
    32
  0
VERTEX
  8
T51SSILL
 62
4
 10
5884.872
 20
-7696.877
 30
89.418
 70
    32
  0
VERTEX
  8
T51SSILL
 62
4
 10
5956.839
 20
-7645.269
 30
89.425
 70
    32
  0
VERTEX
  8
T51SSILL
 62
4
 10
5951.699
 20
-7638.882
 30
89.430
 70
    32
  0
VERTEX
  8
T51SSILL
 62
4
 10
5936.045
 20
-7650.084
 30
89.428
 70
    32
  0
VERTEX
  8
T51SSILL
 62
4
 10
5915.890
 20
-7623.080
 30
89.448
 70
    32
  0
VERTEX
  8
T51SSILL
 62
4
 10
5911.374
 20
-7626.751
 30
89.447
 70
    32
  0
VERTEX
  8
T51SSILL
 62
4
 10
5903.537
 20
-7616.125
 30
89.454
 70
    32
  0
VERTEX
  8
T51SSILL
 62
4
 10
5898.388
 20
-7619.818
 30
89.454
 70
    32
  0
VERTEX
  8
T51SSILL
 62
4
 10
5901.857
 20
-7625.561
 30
89.450
 70
    32
  0
VERTEX
  8
T51SSILL
 62
4
 10
5886.519
 20
-7636.343
 30
89.449
 70
    32
  0
VERTEX
  8
T51SSILL
 62
4
 10
5890.622
 20
-7642.065
 30
89.445
 70
    32
  0
VERTEX
  8
T51SSILL
 62
4
 10
5895.475
 20
-7638.260
 30
89.445
 70
    32
  0
VERTEX
  8
T51SSILL
 62
4
 10
5906.257
 20
-7653.598
 30
89.435
 70
    32
  0
VERTEX
  8
T51SSILL
 62
4
 10
5911.039
 20
-7649.844
 30
89.435
 70
    32
  0
VERTEX
  8
T51SSILL
 62
4
 10
5918.995
 20
-7662.285
 30
89.427
 70
    32
  0
VERTEX
  8
T51SSILL
 62
4
 10
5876.014
 20
-7692.831
 30
89.423
 70
    32
  0
VERTEX
  8
T51SSILL
 62
4
 10
5867.399
 20
-7703.775
 30
89.420
 70
    32
  0
VERTEX
  8
T51SSILL
 62
4
 10
5863.942
 20
-7715.568
 30
89.415
 70
    32
  0
VERTEX
  8
T51SSILL
 62
4
 10
5816.558
 20
-7649.038
 30
89.461
 70
    32
  0
VERTEX
  8
T51SSILL
 62
4
 10
5813.194
 20
-7639.212
 30
89.467
 70
    32
  0
VERTEX
  8
T51SSILL
 62
4
 10
5813.770
 20
-7629.593
 30
89.471
 70
    32
  0
VERTEX
  8
T51SSILL
 62
4
 10
5818.170
 20
-7618.964
 30
89.476
 70
    32
  0
VERTEX
  8
T51SSILL
 62
4
 10
5856.077
 20
-7591.023
 30
89.480
 70
    32
  0
VERTEX
  8
T51SSILL
 62
4
 10
5860.059
 20
-7597.482
 30
89.475
 70
    32
  0
VERTEX
  8
T51SSILL
 62
4
 10
5874.819
 20
-7600.544
 30
89.470
 70
    32
  0
VERTEX
  8
T51SSILL
 62
4
 10
5888.487
 20
-7588.793
 30
89.472
 70
    32
  0
VERTEX
  8
T51SSILL
 62
4
 10
5899.887
 20
-7584.301
 30
89.471
 70
    32
  0
VERTEX
  8
T51SSILL
 62
4
 10
5918.010
 20
-7591.450
 30
89.463
 70
    32
  0
VERTEX
  8
T51SSILL
 62
4
 10
5923.180
 20
-7587.634
 30
89.464
 70
    32
  0
VERTEX
  8
T51SSILL
 62
4
 10
5932.633
 20
-7570.458
 30
89.470
 70
    32
  0
VERTEX
  8
T51SSILL
 62
4
 10
5919.441
 20
-7557.498
 30
89.480
 70
    32
  0
VERTEX
  8
T51SSILL
 62
4
 10
5909.518
 20
-7553.025
 30
89.485
 70
    32
  0
VERTEX
  8
T51SSILL
 62
4
 10
5907.302
 20
-7549.632
 30
89.487
 70
    32
  0
VERTEX
  8
T51SSILL
 62
4
 10
5949.477
 20
-7462.094
 30
89.520
 70
    32
  0
VERTEX
  8
T51SSILL
 62
4
 10
6029.238
 20
-7404.464
 30
89.528
 70
    32
  0
VERTEX
  8
T51SSILL
 62
4
 10
6024.243
 20
-7398.624
 30
89.532
 70
    32
  0
VERTEX
  8
T51SSILL
 62
4
 10
5945.443
 20
-7454.806
 30
89.525
 70
    32
  0
VERTEX
  8
T51SSILL
 62
4
 10
5900.797
 20
-7545.849
 30
89.491
 70
    32
  0
VERTEX
  8
T51SSILL
 62
4
 10
5885.590
 20
-7560.437
 30
89.487
 70
    32
  0
VERTEX
  8
T51SSILL
 62
4
 10
5818.181
 20
-7608.559
 30
89.481
 70
    32
  0
VERTEX
  8
T51SSILL
 62
4
 10
5828.003
 20
-7547.795
 30
89.509
 70
    32
  0
VERTEX
  8
T51SSILL
 62
4
 10
5887.831
 20
-7505.867
 30
89.514
 70
    32
  0
VERTEX
  8
T51SSILL
 62
4
 10
5882.430
 20
-7500.751
 30
89.518
 70
    32
  0
VERTEX
  8
T51SSILL
 62
4
 10
5822.153
 20
-7543.867
 30
89.513
 70
    32
  0
VERTEX
  8
T51SSILL
 62
4
 10
5809.523
 20
-7618.233
 30
89.478
 70
    32
  0
VERTEX
  8
T51SSILL
 62
4
 10
5806.588
 20
-7624.562
 30
89.476
 70
    32
  0
VERTEX
  8
T51SSILL
 62
4
 10
5805.341
 20
-7641.702
 30
89.468
 70
    32
  0
VERTEX
  8
T51SSILL
 62
4
 10
5802.173
 20
-7644.082
 30
89.467
 70
    32
  0
VERTEX
  8
T51SSILL
 62
4
 10
5822.936
 20
-7672.733
 30
89.447
 70
    32
  0
VERTEX
  8
T51SSILL
 62
4
 10
5811.747
 20
-7680.540
 30
89.446
 70
    32
  0
VERTEX
  8
T51SSILL
 62
4
 10
5816.405
 20
-7687.489
 30
89.441
 70
    32
  0
VERTEX
  8
T51SSILL
 62
4
 10
5827.797
 20
-7679.211
 30
89.443
 70
    32
  0
VERTEX
  8
T51SSILL
 62
4
 10
5868.935
 20
-7737.332
 30
89.402
 70
    32
  0
VERTEX
  8
T51SSILL
 62
4
 10
5825.353
 20
-7729.268
 30
89.418
 70
    32
  0
VERTEX
  8
T51SSILL
 62
4
 10
5747.978
 20
-7785.081
 30
89.410
 70
    32
  0
VERTEX
  8
T51SSILL
 62
4
 10
5752.855
 20
-7791.438
 30
89.406
 70
    32
  0
VERTEX
  8
T51SSILL
 62
4
 10
5827.660
 20
-7737.470
 30
89.413
 70
    32
  0
VERTEX
  8
T51SSILL
 62
4
 10
5875.786
 20
-7746.282
 30
89.396
 70
    32
  0
VERTEX
  8
T51SSILL
 62
4
 10
5930.637
 20
-7822.620
 30
89.343
 70
    32
  0
VERTEX
  8
T51SSILL
 62
4
 10
5881.375
 20
-7813.432
 30
89.360
 70
    32
  0
VERTEX
  8
T51SSILL
 62
4
 10
5866.028
 20
-7824.654
 30
89.359
 70
    32
  0
VERTEX
  8
T51SSILL
 62
4
 10
5853.596
 20
-7808.225
 30
89.370
 70
    32
  0
VERTEX
  8
T51SSILL
 62
4
 10
5845.841
 20
-7802.847
 30
89.375
 70
    32
  0
VERTEX
  8
T51SSILL
 62
4
 10
5824.000
 20
-7815.585
 30
89.375
 70
    32
  0
VERTEX
  8
T51SSILL
 62
4
 10
5836.152
 20
-7837.931
 30
89.360
 70
    32
  0
VERTEX
  8
T51SSILL
 62
4
 10
5833.900
 20
-7839.340
 30
89.360
 70
    32
  0
VERTEX
  8
T51SSILL
 62
4
 10
5837.758
 20
-7844.815
 30
89.356
 70
    32
  0
VERTEX
  8
T51SSILL
 62
4
 10
5791.753
 20
-7877.700
 30
89.352
 70
    32
  0
VERTEX
  8
T51SSILL
 62
4
 10
5796.678
 20
-7885.325
 30
89.347
 70
    32
  0
VERTEX
  8
T51SSILL
 62
4
 10
5847.410
 20
-7848.835
 30
89.352
 70
    32
  0
VERTEX
  8
T51SSILL
 62
4
 10
5856.121
 20
-7872.915
 30
89.337
 70
    32
  0
VERTEX
  8
T51SSILL
 62
4
 10
5861.597
 20
-7879.494
 30
89.332
 70
    32
  0
VERTEX
  8
T51SSILL
 62
4
 10
5855.546
 20
-7888.273
 30
89.329
 70
    32
  0
VERTEX
  8
T51SSILL
 62
4
 10
5860.663
 20
-7894.352
 30
89.325
 70
    32
  0
VERTEX
  8
T51SSILL
 62
4
 10
5881.548
 20
-7873.635
 30
89.330
 70
    32
  0
VERTEX
  8
T51SSILL
 62
4
 10
5874.386
 20
-7862.741
 30
89.337
 70
    32
  0
VERTEX
  8
T51SSILL
 62
4
 10
5865.890
 20
-7860.711
 30
89.341
 70
    32
  0
VERTEX
  8
T51SSILL
 62
4
 10
5857.934
 20
-7840.856
 30
89.353
 70
    32
  0
VERTEX
  8
T51SSILL
 62
4
 10
5885.299
 20
-7821.774
 30
89.355
 70
    32
  0
VERTEX
  8
T51SSILL
 62
4
 10
5936.545
 20
-7830.406
 30
89.337
 70
    32
  0
VERTEX
  8
T51SSILL
 62
4
 10
5976.039
 20
-7885.481
 30
89.299
 70
    32
  0
VERTEX
  8
T51SSILL
 62
4
 10
5966.675
 20
-7884.506
 30
89.302
 70
    32
  0
VERTEX
  8
T51SSILL
 62
4
 10
5953.626
 20
-7887.907
 30
89.304
 70
    32
  0
VERTEX
  8
T51SSILL
 62
4
 10
5915.144
 20
-7914.744
 30
89.300
 70
    32
  0
VERTEX
  8
T51SSILL
 62
4
 10
5911.969
 20
-7907.598
 30
89.305
 70
    32
  0
VERTEX
  8
T51SSILL
 62
4
 10
5911.021
 20
-7898.422
 30
89.310
 70
    32
  0
VERTEX
  8
T51SSILL
 62
4
 10
5897.914
 20
-7887.243
 30
89.319
 70
    32
  0
VERTEX
  8
T51SSILL
 62
4
 10
5896.249
 20
-7883.563
 30
89.321
 70
    32
  0
VERTEX
  8
T51SSILL
 62
4
 10
5888.859
 20
-7876.731
 30
89.326
 70
    32
  0
VERTEX
  8
T51SSILL
 62
4
 10
5882.312
 20
-7877.419
 30
89.328
 70
    32
  0
VERTEX
  8
T51SSILL
 62
4
 10
5869.857
 20
-7891.766
 30
89.324
 70
    32
  0
VERTEX
  8
T51SSILL
 62
4
 10
5872.144
 20
-7895.108
 30
89.322
 70
    32
  0
VERTEX
  8
T51SSILL
 62
4
 10
5876.995
 20
-7895.529
 30
89.320
 70
    32
  0
VERTEX
  8
T51SSILL
 62
4
 10
5889.339
 20
-7903.681
 30
89.313
 70
    32
  0
VERTEX
  8
T51SSILL
 62
4
 10
5893.977
 20
-7910.752
 30
89.308
 70
    32
  0
VERTEX
  8
T51SSILL
 62
4
 10
5875.675
 20
-7928.426
 30
89.304
 70
    32
  0
VERTEX
  8
T51SSILL
 62
4
 10
5882.027
 20
-7938.492
 30
89.297
 70
    32
  0
VERTEX
  8
T51SSILL
 62
4
 10
5836.986
 20
-7970.683
 30
89.293
 70
    32
  0
VERTEX
  8
T51SSILL
 62
4
 10
5842.205
 20
-7976.904
 30
89.288
 70
    32
  0
VERTEX
  8
T51SSILL
 62
4
 10
5881.167
 20
-7949.073
 30
89.292
 70
    32
  0
VERTEX
  8
T51SSILL
 62
4
 10
5883.290
 20
-7951.883
 30
89.290
 70
    32
  0
VERTEX
  8
T51SSILL
 62
4
 10
5895.148
 20
-7957.243
 30
89.284
 70
    32
  0
VERTEX
  8
T51SSILL
 62
4
 10
5915.038
 20
-7973.198
 30
89.271
 70
    32
  0
VERTEX
  8
T51SSILL
 62
4
 10
5936.060
 20
-7965.812
 30
89.269
 70
    32
  0
VERTEX
  8
T51SSILL
 62
4
 10
5941.186
 20
-7949.248
 30
89.276
 70
    32
  0
VERTEX
  8
T51SSILL
 62
4
 10
5925.869
 20
-7926.982
 30
89.291
 70
    32
  0
VERTEX
  8
T51SSILL
 62
4
 10
5922.733
 20
-7918.833
 30
89.296
 70
    32
  0
VERTEX
  8
T51SSILL
 62
4
 10
5954.450
 20
-7896.305
 30
89.299
 70
    32
  0
VERTEX
  8
T51SSILL
 62
4
 10
5959.920
 20
-7894.116
 30
89.299
 70
    32
  0
VERTEX
  8
T51SSILL
 62
4
 10
5968.603
 20
-7892.329
 30
89.297
 70
    32
  0
VERTEX
  8
T51SSILL
 62
4
 10
5978.614
 20
-7894.357
 30
89.294
 70
    32
  0
VERTEX
  8
T51SSILL
 62
4
 10
5982.332
 20
-7896.673
 30
89.291
 70
    32
  0
VERTEX
  8
T51SSILL
 62
4
 10
5988.001
 20
-7902.464
 30
89.287
 70
    32
  0
VERTEX
  8
T51SSILL
 62
4
 10
6223.972
 20
-8231.678
 30
89.041
 70
    32
  0
VERTEX
  8
T51SSILL
 62
4
 10
6226.912
 20
-8239.100
 30
89.041
 70
    32
  0
VERTEX
  8
T51SSILL
 62
4
 10
6226.848
 20
-8248.677
 30
89.042
 70
    32
  0
VERTEX
  8
T51SSILL
 62
4
 10
6225.355
 20
-8254.297
 30
89.042
 70
    32
  0
VERTEX
  8
T51SSILL
 62
4
 10
6219.867
 20
-8263.107
 30
89.044
 70
    32
  0
VERTEX
  8
T51SSILL
 62
4
 10
6007.657
 20
-8414.091
 30
89.071
 70
    32
  0
VERTEX
  8
T51SSILL
 62
4
 10
6004.065
 20
-8409.493
 30
89.075
 70
    32
  0
VERTEX
  8
T51SSILL
 62
4
 10
5998.141
 20
-8413.659
 30
89.075
 70
    32
  0
VERTEX
  8
T51SSILL
 62
4
 10
6001.618
 20
-8418.205
 30
89.071
 70
    32
  0
VERTEX
  8
T51SSILL
 62
4
 10
5929.192
 20
-8469.601
 30
89.073
 70
    32
  0
VERTEX
  8
T51SSILL
 62
4
 10
5911.030
 20
-8474.407
 30
89.025
 70
    32
  0
VERTEX
  8
T51SSILL
 62
4
 10
5904.691
 20
-8473.921
 30
89.019
 70
    32
  0
VERTEX
  8
T51SSILL
 62
4
 10
5899.935
 20
-8471.540
 30
89.026
 70
    32
  0
VERTEX
  8
T51SSILL
 62
4
 10
5886.550
 20
-8452.534
 30
89.100
 70
    32
  0
VERTEX
  8
T51SSILL
 62
4
 10
5875.720
 20
-8454.683
 30
89.093
 70
    32
  0
VERTEX
  8
T51SSILL
 62
4
 10
5889.289
 20
-8475.810
 30
89.012
 70
    32
  0
VERTEX
  8
T51SSILL
 62
4
 10
5888.355
 20
-8490.384
 30
88.959
 70
    32
  0
VERTEX
  8
T51SSILL
 62
4
 10
5879.285
 20
-8504.811
 30
88.927
 70
    32
  0
VERTEX
  8
T51SSILL
 62
4
 10
5787.498
 20
-8569.917
 30
88.921
 70
    32
  0
VERTEX
  8
T51SSILL
 62
4
 10
5749.171
 20
-8562.840
 30
88.978
 70
    32
  0
VERTEX
  8
T51SSILL
 62
4
 10
5747.855
 20
-8571.144
 30
88.975
 70
    32
  0
VERTEX
  8
T51SSILL
 62
4
 10
5778.574
 20
-8576.208
 30
88.921
 70
    32
  0
VERTEX
  8
T51SSILL
 62
4
 10
5686.294
 20
-8642.431
 30
88.912
 70
    32
  0
VERTEX
  8
T51SSILL
 62
4
 10
5676.232
 20
-8628.350
 30
88.911
 70
    32
  0
VERTEX
  8
T51SSILL
 62
4
 10
5668.197
 20
-8634.380
 30
88.904
 70
    32
  0
VERTEX
  8
T51SSILL
 62
4
 10
5678.220
 20
-8648.224
 30
88.907
 70
    32
  0
VERTEX
  8
T51SSILL
 62
4
 10
5660.635
 20
-8660.844
 30
88.892
 70
    32
  0
VERTEX
  8
T51SSILL
 62
4
 10
5644.918
 20
-8640.369
 30
88.914
 70
    32
  0
VERTEX
  8
T51SSILL
 62
4
 10
5636.017
 20
-8646.709
 30
88.918
 70
    32
  0
VERTEX
  8
T51SSILL
 62
4
 10
5651.283
 20
-8667.555
 30
88.898
 70
    32
  0
VERTEX
  8
T51SSILL
 62
4
 10
5637.018
 20
-8677.792
 30
88.913
 70
    32
  0
VERTEX
  8
T51SSILL
 62
4
 10
5631.607
 20
-8669.989
 30
88.916
 70
    32
  0
VERTEX
  8
T51SSILL
 62
4
 10
5622.665
 20
-8677.016
 30
88.926
 70
    32
  0
VERTEX
  8
T51SSILL
 62
4
 10
5627.863
 20
-8684.362
 30
88.922
 70
    32
  0
VERTEX
  8
T51SSILL
 62
4
 10
5325.874
 20
-8901.840
 30
89.143
 70
    32
  0
VERTEX
  8
T51SSILL
 62
4
 10
5312.123
 20
-8906.500
 30
89.150
 70
    32
  0
VERTEX
  8
T51SSILL
 62
4
 10
5300.362
 20
-8907.176
 30
89.158
 70
    32
  0
VERTEX
  8
T51SSILL
 62
4
 10
5292.372
 20
-8905.840
 30
89.163
 70
    32
  0
VERTEX
  8
T51SSILL
 62
4
 10
5277.004
 20
-8899.541
 30
89.174
 70
    32
  0
VERTEX
  8
T51SSILL
 62
4
 10
5269.022
 20
-8893.164
 30
89.180
 70
    32
  0
VERTEX
  8
T51SSILL
 62
4
 10
5112.615
 20
-8676.031
 30
89.327
 70
    32
  0
VERTEX
  8
T51SSILL
 62
4
 10
5118.359
 20
-8645.847
 30
89.330
 70
    32
  0
VERTEX
  8
T51SSILL
 62
4
 10
5125.289
 20
-8652.247
 30
89.324
 70
    32
  0
VERTEX
  8
T51SSILL
 62
4
 10
5132.882
 20
-8663.609
 30
89.317
 70
    32
  0
VERTEX
  8
T51SSILL
 62
4
 10
5147.833
 20
-8679.862
 30
89.304
 70
    32
  0
VERTEX
  8
T51SSILL
 62
4
 10
5156.501
 20
-8672.157
 30
89.300
 70
    32
  0
VERTEX
  8
T51SSILL
 62
4
 10
5154.931
 20
-8667.745
 30
89.302
 70
    32
  0
VERTEX
  8
T51SSILL
 62
4
 10
5163.512
 20
-8656.620
 30
89.299
 70
    32
  0
VERTEX
  8
T51SSILL
 62
4
 10
5147.640
 20
-8647.348
 30
89.311
 70
    32
  0
VERTEX
  8
T51SSILL
 62
4
 10
5171.975
 20
-8633.933
 30
89.299
 70
    32
  0
VERTEX
  8
T51SSILL
 62
4
 10
5163.892
 20
-8626.846
 30
89.305
 70
    32
  0
VERTEX
  8
T51SSILL
 62
4
 10
5158.073
 20
-8617.027
 30
89.311
 70
    32
  0
VERTEX
  8
T51SSILL
 62
4
 10
5132.714
 20
-8600.381
 30
89.327
 70
    32
  0
VERTEX
  8
T51SSILL
 62
4
 10
5130.535
 20
-8596.628
 30
89.321
 70
    32
  0
VERTEX
  8
T51SSILL
 62
4
 10
5218.642
 20
-8532.798
 30
89.292
 70
    32
  0
VERTEX
  8
T51SSILL
 62
4
 10
5229.857
 20
-8535.653
 30
89.282
 70
    32
  0
VERTEX
  8
T51SSILL
 62
4
 10
5241.275
 20
-8530.088
 30
89.276
 70
    32
  0
VERTEX
  8
T51SSILL
 62
4
 10
5239.171
 20
-8522.689
 30
89.281
 70
    32
  0
VERTEX
  8
T51SSILL
 62
4
 10
5241.412
 20
-8516.927
 30
89.281
 70
    32
  0
VERTEX
  8
T51SSILL
 62
4
 10
5275.590
 20
-8492.774
 30
89.266
 70
    32
  0
VERTEX
  8
T51SSILL
 62
4
 10
5270.570
 20
-8487.059
 30
89.272
 70
    32
  0
VERTEX
  8
T51SSILL
 62
4
 10
5236.002
 20
-8512.472
 30
89.288
 70
    32
  0
VERTEX
  8
T51SSILL
 62
4
 10
5227.322
 20
-8513.110
 30
89.294
 70
    32
  0
VERTEX
  8
T51SSILL
 62
4
 10
5222.110
 20
-8517.328
 30
89.296
 70
    32
  0
VERTEX
  8
T51SSILL
 62
4
 10
5219.824
 20
-8523.777
 30
89.295
 70
    32
  0
VERTEX
  8
T51SSILL
 62
4
 10
5187.596
 20
-8547.164
 30
89.309
 70
    32
  0
VERTEX
  8
T51SSILL
 62
4
 10
5188.509
 20
-8528.324
 30
89.319
 70
    32
  0
VERTEX
  8
T51SSILL
 62
4
 10
5184.224
 20
-8519.569
 30
89.327
 70
    32
  0
VERTEX
  8
T51SSILL
 62
4
 10
5095.673
 20
-8396.394
 30
89.467
 70
    32
  0
VERTEX
  8
T51SSILL
 62
4
 10
5100.849
 20
-8392.245
 30
89.465
 70
    32
  0
VERTEX
  8
T51SSILL
 62
4
 10
5096.962
 20
-8387.046
 30
89.471
 70
    32
  0
VERTEX
  8
T51SSILL
 62
4
 10
5152.476
 20
-8346.461
 30
89.446
 70
    32
  0
VERTEX
  8
T51SSILL
 62
4
 10
5147.645
 20
-8340.171
 30
89.453
 70
    32
  0
VERTEX
  8
T51SSILL
 62
4
 10
5097.914
 20
-8376.886
 30
89.476
 70
    32
  0
VERTEX
  8
T51SSILL
 62
4
 10
5090.795
 20
-8377.895
 30
89.481
 70
    32
  0
VERTEX
  8
T51SSILL
 62
4
 10
5084.875
 20
-8381.830
 30
89.484
 70
    32
  0
VERTEX
  8
T51SSILL
 62
4
 10
5046.385
 20
-8327.229
 30
89.546
 70
    32
  0
VERTEX
  8
T51SSILL
 62
4
 10
5051.632
 20
-8319.611
 30
89.545
 70
    32
  0
VERTEX
  8
T51SSILL
 62
4
 10
5047.720
 20
-8314.069
 30
89.552
 70
    32
  0
VERTEX
  8
T51SSILL
 62
4
 10
5041.584
 20
-8309.814
 30
89.559
 70
    32
  0
VERTEX
  8
T51SSILL
 62
4
 10
5029.710
 20
-8305.151
 30
89.571
 70
    32
  0
VERTEX
  8
T51SSILL
 62
4
 10
4997.857
 20
-8259.909
 30
89.610
 70
    32
  0
VERTEX
  8
T51SSILL
 62
4
 10
4988.948
 20
-8250.482
 30
89.547
 70
    32
  0
VERTEX
  8
T51SSILL
 62
4
 10
4976.078
 20
-8244.148
 30
89.498
 70
    32
  0
VERTEX
  8
T51SSILL
 62
4
 10
4961.785
 20
-8243.200
 30
89.480
 70
    32
  0
VERTEX
  8
T51SSILL
 62
4
 10
4953.350
 20
-8245.076
 30
89.483
 70
    32
  0
VERTEX
  8
T51SSILL
 62
4
 10
4884.506
 20
-8295.254
 30
89.607
 70
    32
  0
VERTEX
  8
T51SSILL
 62
4
 10
4876.221
 20
-8346.983
 30
89.522
 70
    32
  0
VERTEX
  8
T51SSILL
 62
4
 10
4816.732
 20
-8262.909
 30
89.288
 70
    32
  0
VERTEX
  8
T51SSILL
 62
4
 10
4814.694
 20
-8254.701
 30
89.284
 70
    32
  0
VERTEX
  8
T51SSILL
 62
4
 10
4817.214
 20
-8241.225
 30
89.308
 70
    32
  0
VERTEX
  8
T51SSILL
 62
4
 10
4825.586
 20
-8231.013
 30
89.287
 70
    32
  0
VERTEX
  8
T51SSILL
 62
4
 10
4972.416
 20
-8124.459
 30
89.115
 70
    32
  0
VERTEX
  8
T51SSILL
 62
4
 10
4967.749
 20
-8118.376
 30
89.116
 70
    32
  0
VERTEX
  8
T51SSILL
 62
4
 10
4816.478
 20
-8226.411
 30
89.252
 70
    32
  0
VERTEX
  8
T51SSILL
 62
4
 10
4807.700
 20
-8241.163
 30
89.260
 70
    32
  0
VERTEX
  8
T51SSILL
 62
4
 10
4806.707
 20
-8249.395
 30
89.248
 70
    32
  0
VERTEX
  8
T51SSILL
 62
4
 10
4761.963
 20
-8186.839
 30
89.113
 70
    32
  0
VERTEX
  8
T51SSILL
 62
4
 10
4760.036
 20
-8171.584
 30
89.115
 70
    32
  0
VERTEX
  8
T51SSILL
 62
4
 10
4761.142
 20
-8166.209
 30
89.116
 70
    32
  0
VERTEX
  8
T51SSILL
 62
4
 10
4768.589
 20
-8155.471
 30
89.117
 70
    32
  0
VERTEX
  8
T51SSILL
 62
4
 10
4926.414
 20
-8041.918
 30
89.127
 70
    32
  0
VERTEX
  8
T51SSILL
 62
4
 10
4921.168
 20
-8034.839
 30
89.128
 70
    32
  0
VERTEX
  8
T51SSILL
 62
4
 10
4761.497
 20
-8149.298
 30
89.118
 70
    32
  0
VERTEX
  8
T51SSILL
 62
4
 10
4753.093
 20
-8164.867
 30
89.116
 70
    32
  0
VERTEX
  8
T51SSILL
 62
4
 10
4751.499
 20
-8172.119
 30
89.116
 70
    32
  0
VERTEX
  8
T51SSILL
 62
4
 10
4721.334
 20
-8129.353
 30
89.126
 70
    32
  0
VERTEX
  8
T51SSILL
 62
4
 10
4729.588
 20
-8123.908
 30
89.122
 70
    32
  0
VERTEX
  8
T51SSILL
 62
4
 10
4725.491
 20
-8118.282
 30
89.123
 70
    32
  0
VERTEX
  8
T51SSILL
 62
4
 10
4716.858
 20
-8123.785
 30
89.127
 70
    32
  0
VERTEX
  8
T51SSILL
 62
4
 10
4705.695
 20
-8107.503
 30
89.131
 70
    32
  0
VERTEX
  8
T51SSILL
 62
4
 10
4704.104
 20
-8098.861
 30
89.130
 70
    32
  0
VERTEX
  8
T51SSILL
 62
4
 10
4705.024
 20
-8093.078
 30
89.129
 70
    32
  0
VERTEX
  8
T51SSILL
 62
4
 10
4706.889
 20
-8086.499
 30
89.128
 70
    32
  0
VERTEX
  8
T51SSILL
 62
4
 10
4711.755
 20
-8078.505
 30
89.129
 70
    32
  0
VERTEX
  8
T51SSILL
 62
4
 10
4887.676
 20
-7952.264
 30
89.139
 70
    32
  0
VERTEX
  8
T51SSILL
 62
4
 10
4882.502
 20
-7945.560
 30
89.140
 70
    32
  0
VERTEX
  8
T51SSILL
 62
4
 10
4712.913
 20
-8067.651
 30
89.130
 70
    32
  0
VERTEX
  8
T51SSILL
 62
4
 10
4702.123
 20
-8079.182
 30
89.129
 70
    32
  0
VERTEX
  8
T51SSILL
 62
4
 10
4695.902
 20
-8094.908
 30
89.134
 70
    32
  0
VERTEX
  8
T51SSILL
 62
4
 10
4567.002
 20
-7914.586
 30
89.176
 70
    32
  0
VERTEX
  8
T51SSILL
 62
4
 10
4570.151
 20
-7900.327
 30
89.172
 70
    32
  0
VERTEX
  8
T51SSILL
 62
4
 10
4617.155
 20
-7867.850
 30
89.158
 70
    32
  0
VERTEX
  8
T51SSILL
 62
4
 10
4612.835
 20
-7861.949
 30
89.159
 70
    32
  0
VERTEX
  8
T51SSILL
 62
4
 10
4564.812
 20
-7895.820
 30
89.174
 70
    32
  0
VERTEX
  8
T51SSILL
 62
4
 10
4551.777
 20
-7893.306
 30
89.181
 70
    32
  0
VERTEX
  8
T51SSILL
 62
4
 10
4428.645
 20
-7721.533
 30
89.197
 70
    32
  0
VERTEX
  8
T51SSILL
 62
4
 10
4418.599
 20
-7714.890
 30
89.196
 70
    32
  0
VERTEX
  8
T51SSILL
 62
4
 10
4404.036
 20
-7712.071
 30
89.196
 70
    32
  0
VERTEX
  8
T51SSILL
 62
4
 10
4388.953
 20
-7716.485
 30
89.197
 70
    32
  0
VERTEX
  8
T51SSILL
 62
4
 10
4281.913
 20
-7793.076
 30
89.209
 70
    32
  0
VERTEX
  8
T51SSILL
 62
4
 10
4286.522
 20
-7798.896
 30
89.209
 70
    32
  0
VERTEX
  8
T51SSILL
 62
4
 10
4392.353
 20
-7723.270
 30
89.198
 70
    32
  0
VERTEX
  8
T51SSILL
 62
4
 10
4407.746
 20
-7719.283
 30
89.196
 70
    32
  0
VERTEX
  8
T51SSILL
 62
4
 10
4418.015
 20
-7722.934
 30
89.197
 70
    32
  0
VERTEX
  8
T51SSILL
 62
4
 10
4422.454
 20
-7726.352
 30
89.198
 70
    32
  0
VERTEX
  8
T51SSILL
 62
4
 10
4467.786
 20
-7789.569
 30
89.209
 70
    32
  0
VERTEX
  8
T51SSILL
 62
4
 10
4453.595
 20
-7789.962
 30
89.208
 70
    32
  0
VERTEX
  8
T51SSILL
 62
4
 10
4436.176
 20
-7798.358
 30
89.209
 70
    32
  0
VERTEX
  8
T51SSILL
 62
4
 10
4205.846
 20
-7964.093
 30
89.228
 70
    32
  0
VERTEX
  8
T51SSILL
 62
4
 10
4194.748
 20
-7967.249
 30
89.228
 70
    32
  0
VERTEX
  8
T51SSILL
 62
4
 10
4184.937
 20
-7965.879
 30
89.227
 70
    32
  0
VERTEX
  8
T51SSILL
 62
4
 10
4176.877
 20
-7961.822
 30
89.227
 70
    32
  0
VERTEX
  8
T51SSILL
 62
4
 10
4104.612
 20
-7861.074
 30
89.223
 70
    32
  0
VERTEX
  8
T51SSILL
 62
4
 10
4097.626
 20
-7865.966
 30
89.224
 70
    32
  0
VERTEX
  8
T51SSILL
 62
4
 10
4140.138
 20
-7925.895
 30
89.225
 70
    32
  0
VERTEX
  8
T51SSILL
 62
4
 10
4124.172
 20
-7925.944
 30
89.226
 70
    32
  0
VERTEX
  8
T51SSILL
 62
4
 10
4117.116
 20
-7928.670
 30
89.227
 70
    32
  0
VERTEX
  8
T51SSILL
 62
4
 10
4069.547
 20
-7961.666
 30
89.232
 70
    32
  0
VERTEX
  8
T51SSILL
 62
4
 10
4027.006
 20
-7994.670
 30
89.236
 70
    32
  0
VERTEX
  8
T51SSILL
 62
4
 10
4032.054
 20
-8000.999
 30
89.237
 70
    32
  0
VERTEX
  8
T51SSILL
 62
4
 10
4074.405
 20
-7967.611
 30
89.232
 70
    32
  0
VERTEX
  8
T51SSILL
 62
4
 10
4118.209
 20
-7936.476
 30
89.227
 70
    32
  0
VERTEX
  8
T51SSILL
 62
4
 10
4133.725
 20
-7932.508
 30
89.226
 70
    32
  0
VERTEX
  8
T51SSILL
 62
4
 10
4144.726
 20
-7935.519
 30
89.226
 70
    32
  0
VERTEX
  8
T51SSILL
 62
4
 10
4151.230
 20
-7941.031
 30
89.226
 70
    32
  0
VERTEX
  8
T51SSILL
 62
4
 10
4179.901
 20
-7981.289
 30
89.230
 70
    32
  0
VERTEX
  8
T51SSILL
 62
4
 10
4169.497
 20
-7989.601
 30
89.231
 70
    32
  0
VERTEX
  8
T51SSILL
 62
4
 10
4170.014
 20
-7995.261
 30
89.232
 70
    32
  0
VERTEX
  8
T51SSILL
 62
4
 10
4177.832
 20
-8003.036
 30
89.233
 70
    32
  0
VERTEX
  8
T51SSILL
 62
4
 10
4184.140
 20
-7997.962
 30
89.232
 70
    32
  0
VERTEX
  8
T51SSILL
 62
4
 10
4185.425
 20
-7999.718
 30
89.233
 70
    32
  0
SEQEND
  8
T51SSILL
  0
POLYLINE
  8
T51SSILL
 62
4
 66
     1
 70
     9
  0
VERTEX
  8
T51SSILL
 62
4
 10
4284.141
 20
-8258.423
 30
89.269
 70
    32
  0
VERTEX
  8
T51SSILL
 62
4
 10
4281.810
 20
-8258.123
 30
89.269
 70
    32
  0
VERTEX
  8
T51SSILL
 62
4
 10
4268.574
 20
-8245.890
 30
89.269
 70
    32
  0
VERTEX
  8
T51SSILL
 62
4
 10
4258.832
 20
-8234.840
 30
89.268
 70
    32
  0
VERTEX
  8
T51SSILL
 62
4
 10
4251.863
 20
-8206.879
 30
89.266
 70
    32
  0
VERTEX
  8
T51SSILL
 62
4
 10
4245.361
 20
-8198.550
 30
89.264
 70
    32
  0
VERTEX
  8
T51SSILL
 62
4
 10
4239.728
 20
-8182.770
 30
89.262
 70
    32
  0
VERTEX
  8
T51SSILL
 62
4
 10
4367.918
 20
-8091.280
 30
89.251
 70
    32
  0
VERTEX
  8
T51SSILL
 62
4
 10
4487.623
 20
-8112.389
 30
89.249
 70
    32
  0
VERTEX
  8
T51SSILL
 62
4
 10
4313.063
 20
-8237.979
 30
89.268
 70
    32
  0
VERTEX
  8
T51SSILL
 62
4
 10
4317.370
 20
-8225.165
 30
89.267
 70
    32
  0
VERTEX
  8
T51SSILL
 62
4
 10
4317.485
 20
-8220.075
 30
89.267
 70
    32
  0
VERTEX
  8
T51SSILL
 62
4
 10
4314.550
 20
-8208.381
 30
89.266
 70
    32
  0
VERTEX
  8
T51SSILL
 62
4
 10
4305.008
 20
-8197.781
 30
89.266
 70
    32
  0
VERTEX
  8
T51SSILL
 62
4
 10
4306.066
 20
-8183.189
 30
89.264
 70
    32
  0
VERTEX
  8
T51SSILL
 62
4
 10
4304.663
 20
-8180.507
 30
89.263
 70
    32
  0
VERTEX
  8
T51SSILL
 62
4
 10
4297.164
 20
-8178.873
 30
89.263
 70
    32
  0
VERTEX
  8
T51SSILL
 62
4
 10
4294.999
 20
-8180.989
 30
89.263
 70
    32
  0
VERTEX
  8
T51SSILL
 62
4
 10
4296.807
 20
-8185.881
 30
89.264
 70
    32
  0
VERTEX
  8
T51SSILL
 62
4
 10
4294.353
 20
-8191.798
 30
89.265
 70
    32
  0
VERTEX
  8
T51SSILL
 62
4
 10
4290.368
 20
-8193.057
 30
89.265
 70
    32
  0
VERTEX
  8
T51SSILL
 62
4
 10
4282.443
 20
-8183.787
 30
89.263
 70
    32
  0
VERTEX
  8
T51SSILL
 62
4
 10
4278.339
 20
-8181.432
 30
89.263
 70
    32
  0
VERTEX
  8
T51SSILL
 62
4
 10
4275.872
 20
-8187.032
 30
89.263
 70
    32
  0
VERTEX
  8
T51SSILL
 62
4
 10
4278.420
 20
-8197.592
 30
89.265
 70
    32
  0
VERTEX
  8
T51SSILL
 62
4
 10
4277.048
 20
-8203.050
 30
89.266
 70
    32
  0
VERTEX
  8
T51SSILL
 62
4
 10
4280.042
 20
-8207.626
 30
89.266
 70
    32
  0
VERTEX
  8
T51SSILL
 62
4
 10
4279.861
 20
-8213.527
 30
89.267
 70
    32
  0
VERTEX
  8
T51SSILL
 62
4
 10
4291.758
 20
-8226.771
 30
89.267
 70
    32
  0
VERTEX
  8
T51SSILL
 62
4
 10
4296.244
 20
-8236.252
 30
89.268
 70
    32
  0
VERTEX
  8
T51SSILL
 62
4
 10
4305.933
 20
-8243.153
 30
89.268
 70
    32
  0
VERTEX
  8
T51SSILL
 62
4
 10
4299.190
 20
-8247.878
 30
89.268
 70
    32
  0
SEQEND
  8
T51SSILL
  0
POLYLINE
  8
T51SSILL
 62
4
 66
     1
 70
     9
  0
VERTEX
  8
T51SSILL
 62
4
 10
4393.422
 20
-7955.050
 30
89.232
 70
    32
  0
VERTEX
  8
T51SSILL
 62
4
 10
4389.920
 20
-7949.323
 30
89.231
 70
    32
  0
VERTEX
  8
T51SSILL
 62
4
 10
4500.116
 20
-7870.905
 30
89.205
 70
    32
  0
VERTEX
  8
T51SSILL
 62
4
 10
4508.600
 20
-7867.905
 30
89.200
 70
    32
  0
VERTEX
  8
T51SSILL
 62
4
 10
4524.233
 20
-7868.312
 30
89.192
 70
    32
  0
VERTEX
  8
T51SSILL
 62
4
 10
4478.083
 20
-7803.346
 30
89.207
 70
    32
  0
VERTEX
  8
T51SSILL
 62
4
 10
4467.305
 20
-7797.786
 30
89.210
 70
    32
  0
VERTEX
  8
T51SSILL
 62
4
 10
4459.757
 20
-7797.278
 30
89.209
 70
    32
  0
VERTEX
  8
T51SSILL
 62
4
 10
4448.671
 20
-7799.990
 30
89.210
 70
    32
  0
VERTEX
  8
T51SSILL
 62
4
 10
4209.826
 20
-7970.975
 30
89.229
 70
    32
  0
VERTEX
  8
T51SSILL
 62
4
 10
4199.179
 20
-7974.891
 30
89.229
 70
    32
  0
VERTEX
  8
T51SSILL
 62
4
 10
4185.832
 20
-7973.587
 30
89.229
 70
    32
  0
VERTEX
  8
T51SSILL
 62
4
 10
4250.864
 20
-8066.081
 30
89.244
 70
    32
  0
VERTEX
  8
T51SSILL
 62
4
 10
4267.691
 20
-8064.535
 30
89.245
 70
    32
  0
VERTEX
  8
T51SSILL
 62
4
 10
4273.028
 20
-8067.843
 30
89.245
 70
    32
  0
VERTEX
  8
T51SSILL
 62
4
 10
4273.796
 20
-8074.900
 30
89.246
 70
    32
  0
VERTEX
  8
T51SSILL
 62
4
 10
4298.602
 20
-8081.054
 30
89.248
 70
    32
  0
VERTEX
  8
T51SSILL
 62
4
 10
4297.419
 20
-8090.070
 30
89.249
 70
    32
  0
VERTEX
  8
T51SSILL
 62
4
 10
4286.599
 20
-8092.698
 30
89.249
 70
    32
  0
VERTEX
  8
T51SSILL
 62
4
 10
4284.083
 20
-8112.472
 30
89.252
 70
    32
  0
VERTEX
  8
T51SSILL
 62
4
 10
4290.019
 20
-8117.955
 30
89.253
 70
    32
  0
VERTEX
  8
T51SSILL
 62
4
 10
4296.398
 20
-8121.051
 30
89.254
 70
    32
  0
VERTEX
  8
T51SSILL
 62
4
 10
4303.680
 20
-8121.642
 30
89.254
 70
    32
  0
VERTEX
  8
T51SSILL
 62
4
 10
4312.901
 20
-8119.957
 30
89.254
 70
    32
  0
VERTEX
  8
T51SSILL
 62
4
 10
4365.394
 20
-8082.855
 30
89.250
 70
    32
  0
VERTEX
  8
T51SSILL
 62
4
 10
4497.186
 20
-8106.033
 30
89.243
 70
    32
  0
VERTEX
  8
T51SSILL
 62
4
 10
4608.180
 20
-8026.166
 30
89.171
 70
    32
  0
VERTEX
  8
T51SSILL
 62
4
 10
4621.969
 20
-8020.732
 30
89.163
 70
    32
  0
VERTEX
  8
T51SSILL
 62
4
 10
4634.236
 20
-8021.297
 30
89.156
 70
    32
  0
VERTEX
  8
T51SSILL
 62
4
 10
4591.602
 20
-7961.178
 30
89.170
 70
    32
  0
VERTEX
  8
T51SSILL
 62
4
 10
4587.140
 20
-7957.127
 30
89.172
 70
    32
  0
VERTEX
  8
T51SSILL
 62
4
 10
4577.422
 20
-7952.428
 30
89.176
 70
    32
  0
VERTEX
  8
T51SSILL
 62
4
 10
4564.223
 20
-7951.778
 30
89.183
 70
    32
  0
VERTEX
  8
T51SSILL
 62
4
 10
4554.262
 20
-7955.741
 30
89.189
 70
    32
  0
VERTEX
  8
T51SSILL
 62
4
 10
4407.451
 20
-8061.809
 30
89.248
 70
    32
  0
VERTEX
  8
T51SSILL
 62
4
 10
4402.882
 20
-8055.660
 30
89.247
 70
    32
  0
VERTEX
  8
T51SSILL
 62
4
 10
4554.771
 20
-7946.996
 30
89.187
 70
    32
  0
VERTEX
  8
T51SSILL
 62
4
 10
4568.253
 20
-7944.286
 30
89.180
 70
    32
  0
VERTEX
  8
T51SSILL
 62
4
 10
4580.097
 20
-7945.919
 30
89.174
 70
    32
  0
VERTEX
  8
T51SSILL
 62
4
 10
4532.609
 20
-7879.858
 30
89.189
 70
    32
  0
VERTEX
  8
T51SSILL
 62
4
 10
4524.748
 20
-7875.770
 30
89.193
 70
    32
  0
VERTEX
  8
T51SSILL
 62
4
 10
4514.172
 20
-7874.087
 30
89.198
 70
    32
  0
VERTEX
  8
T51SSILL
 62
4
 10
4505.599
 20
-7876.064
 30
89.203
 70
    32
  0
VERTEX
  8
T51SSILL
 62
4
 10
4471.214
 20
-7900.275
 30
89.225
 70
    32
  0
SEQEND
  8
T51SSILL
  0
POLYLINE
  8
T51SSILL
 62
4
 66
     1
 70
     9
  0
VERTEX
  8
T51SSILL
 62
4
 10
4201.068
 20
-8459.661
 30
89.281
 70
    32
  0
VERTEX
  8
T51SSILL
 62
4
 10
4206.106
 20
-8456.129
 30
89.281
 70
    32
  0
VERTEX
  8
T51SSILL
 62
4
 10
4190.774
 20
-8434.861
 30
89.280
 70
    32
  0
VERTEX
  8
T51SSILL
 62
4
 10
4187.572
 20
-8436.913
 30
89.280
 70
    32
  0
VERTEX
  8
T51SSILL
 62
4
 10
4176.897
 20
-8540.867
 30
89.285
 70
    32
  0
VERTEX
  8
T51SSILL
 62
4
 10
4187.115
 20
-8550.094
 30
89.286
 70
    32
  0
VERTEX
  8
T51SSILL
 62
4
 10
4196.093
 20
-8548.000
 30
89.286
 70
    32
  0
VERTEX
  8
T51SSILL
 62
4
 10
4201.984
 20
-8551.110
 30
89.286
 70
    32
  0
VERTEX
  8
T51SSILL
 62
4
 10
4206.234
 20
-8561.421
 30
89.286
 70
    32
  0
VERTEX
  8
T51SSILL
 62
4
 10
4212.101
 20
-8568.793
 30
89.287
 70
    32
  0
VERTEX
  8
T51SSILL
 62
4
 10
4211.534
 20
-8588.673
 30
89.288
 70
    32
  0
VERTEX
  8
T51SSILL
 62
4
 10
4218.259
 20
-8592.137
 30
89.288
 70
    32
  0
VERTEX
  8
T51SSILL
 62
4
 10
4230.225
 20
-8594.301
 30
89.288
 70
    32
  0
VERTEX
  8
T51SSILL
 62
4
 10
4246.283
 20
-8582.102
 30
89.287
 70
    32
  0
VERTEX
  8
T51SSILL
 62
4
 10
4256.261
 20
-8568.839
 30
89.286
 70
    32
  0
VERTEX
  8
T51SSILL
 62
4
 10
4260.452
 20
-8554.174
 30
89.285
 70
    32
  0
VERTEX
  8
T51SSILL
 62
4
 10
4260.013
 20
-8550.606
 30
89.285
 70
    32
  0
VERTEX
  8
T51SSILL
 62
4
 10
4252.425
 20
-8535.305
 30
89.284
 70
    32
  0
VERTEX
  8
T51SSILL
 62
4
 10
4228.867
 20
-8515.715
 30
89.283
 70
    32
  0
VERTEX
  8
T51SSILL
 62
4
 10
4215.021
 20
-8494.686
 30
89.283
 70
    32
  0
VERTEX
  8
T51SSILL
 62
4
 10
4211.682
 20
-8488.692
 30
89.282
 70
    32
  0
VERTEX
  8
T51SSILL
 62
4
 10
4210.318
 20
-8477.357
 30
89.282
 70
    32
  0
VERTEX
  8
T51SSILL
 62
4
 10
4204.964
 20
-8465.229
 30
89.281
 70
    32
  0
SEQEND
  8
T51SSILL
  0
POLYLINE
  8
T51SSILL
 62
4
 66
     1
 70
     9
  0
VERTEX
  8
T51SSILL
 62
4
 10
5075.546
 20
-8393.170
 30
89.486
 70
    32
  0
VERTEX
  8
T51SSILL
 62
4
 10
5078.332
 20
-8386.180
 30
89.487
 70
    32
  0
VERTEX
  8
T51SSILL
 62
4
 10
5035.964
 20
-8326.519
 30
89.555
 70
    32
  0
VERTEX
  8
T51SSILL
 62
4
 10
5033.119
 20
-8328.148
 30
89.556
 70
    32
  0
VERTEX
  8
T51SSILL
 62
4
 10
5026.456
 20
-8320.466
 30
89.566
 70
    32
  0
VERTEX
  8
T51SSILL
 62
4
 10
5028.779
 20
-8316.168
 30
89.566
 70
    32
  0
VERTEX
  8
T51SSILL
 62
4
 10
4989.650
 20
-8260.749
 30
89.608
 70
    32
  0
VERTEX
  8
T51SSILL
 62
4
 10
4979.276
 20
-8252.603
 30
89.551
 70
    32
  0
VERTEX
  8
T51SSILL
 62
4
 10
4974.083
 20
-8251.147
 30
89.538
 70
    32
  0
VERTEX
  8
T51SSILL
 62
4
 10
4963.766
 20
-8250.580
 30
89.525
 70
    32
  0
VERTEX
  8
T51SSILL
 62
4
 10
4956.211
 20
-8252.470
 30
89.529
 70
    32
  0
VERTEX
  8
T51SSILL
 62
4
 10
4891.038
 20
-8299.004
 30
89.637
 70
    32
  0
VERTEX
  8
T51SSILL
 62
4
 10
4881.588
 20
-8355.280
 30
89.542
 70
    32
  0
VERTEX
  8
T51SSILL
 62
4
 10
4939.049
 20
-8433.859
 30
89.558
 70
    32
  0
VERTEX
  8
T51SSILL
 62
4
 10
4946.075
 20
-8428.542
 30
89.558
 70
    32
  0
VERTEX
  8
T51SSILL
 62
4
 10
4950.307
 20
-8433.837
 30
89.551
 70
    32
  0
VERTEX
  8
T51SSILL
 62
4
 10
4942.534
 20
-8439.711
 30
89.552
 70
    32
  0
VERTEX
  8
T51SSILL
 62
4
 10
4972.518
 20
-8481.629
 30
89.502
 70
    32
  0
VERTEX
  8
T51SSILL
 62
4
 10
4975.315
 20
-8469.585
 30
89.510
 70
    32
  0
VERTEX
  8
T51SSILL
 62
4
 10
4983.053
 20
-8459.398
 30
89.512
 70
    32
  0
VERTEX
  8
T51SSILL
 62
4
 10
5030.227
 20
-8425.308
 30
89.507
 70
    32
  0
VERTEX
  8
T51SSILL
 62
4
 10
5034.479
 20
-8418.423
 30
89.507
 70
    32
  0
VERTEX
  8
T51SSILL
 62
4
 10
5044.459
 20
-8411.761
 30
89.502
 70
    32
  0
VERTEX
  8
T51SSILL
 62
4
 10
5050.921
 20
-8410.633
 30
89.497
 70
    32
  0
SEQEND
  8
T51SSILL
  0
POLYLINE
  8
T51SSILL
 62
4
 66
     1
 70
     9
  0
VERTEX
  8
T51SSILL
 62
4
 10
5083.153
 20
-8404.355
 30
89.473
 70
    32
  0
VERTEX
  8
T51SSILL
 62
4
 10
5079.671
 20
-8399.669
 30
89.479
 70
    32
  0
VERTEX
  8
T51SSILL
 62
4
 10
5050.370
 20
-8420.615
 30
89.492
 70
    32
  0
VERTEX
  8
T51SSILL
 62
4
 10
5054.488
 20
-8426.785
 30
89.486
 70
    32
  0
VERTEX
  8
T51SSILL
 62
4
 10
5044.508
 20
-8433.447
 30
89.491
 70
    32
  0
VERTEX
  8
T51SSILL
 62
4
 10
5040.602
 20
-8427.597
 30
89.497
 70
    32
  0
VERTEX
  8
T51SSILL
 62
4
 10
4987.580
 20
-8466.236
 30
89.504
 70
    32
  0
VERTEX
  8
T51SSILL
 62
4
 10
4981.948
 20
-8475.874
 30
89.501
 70
    32
  0
VERTEX
  8
T51SSILL
 62
4
 10
4980.407
 20
-8487.551
 30
89.493
 70
    32
  0
VERTEX
  8
T51SSILL
 62
4
 10
4985.466
 20
-8499.771
 30
89.481
 70
    32
  0
VERTEX
  8
T51SSILL
 62
4
 10
5020.851
 20
-8548.981
 30
89.423
 70
    32
  0
VERTEX
  8
T51SSILL
 62
4
 10
5028.455
 20
-8542.810
 30
89.423
 70
    32
  0
VERTEX
  8
T51SSILL
 62
4
 10
5033.648
 20
-8550.038
 30
89.414
 70
    32
  0
VERTEX
  8
T51SSILL
 62
4
 10
5025.948
 20
-8555.405
 30
89.415
 70
    32
  0
VERTEX
  8
T51SSILL
 62
4
 10
5106.722
 20
-8668.660
 30
89.332
 70
    32
  0
VERTEX
  8
T51SSILL
 62
4
 10
5113.948
 20
-8623.942
 30
89.335
 70
    32
  0
VERTEX
  8
T51SSILL
 62
4
 10
5108.397
 20
-8623.059
 30
89.329
 70
    32
  0
VERTEX
  8
T51SSILL
 62
4
 10
5109.596
 20
-8611.665
 30
89.321
 70
    32
  0
VERTEX
  8
T51SSILL
 62
4
 10
5115.825
 20
-8612.323
 30
89.324
 70
    32
  0
VERTEX
  8
T51SSILL
 62
4
 10
5118.338
 20
-8596.771
 30
89.327
 70
    32
  0
VERTEX
  8
T51SSILL
 62
4
 10
5174.425
 20
-8556.614
 30
89.315
 70
    32
  0
VERTEX
  8
T51SSILL
 62
4
 10
5180.195
 20
-8544.916
 30
89.317
 70
    32
  0
VERTEX
  8
T51SSILL
 62
4
 10
5181.641
 20
-8537.009
 30
89.320
 70
    32
  0
VERTEX
  8
T51SSILL
 62
4
 10
5178.506
 20
-8524.589
 30
89.329
 70
    32
  0
VERTEX
  8
T51SSILL
 62
4
 10
5139.976
 20
-8472.546
 30
89.389
 70
    32
  0
VERTEX
  8
T51SSILL
 62
4
 10
5114.690
 20
-8491.549
 30
89.400
 70
    32
  0
VERTEX
  8
T51SSILL
 62
4
 10
5110.176
 20
-8485.029
 30
89.408
 70
    32
  0
VERTEX
  8
T51SSILL
 62
4
 10
5136.368
 20
-8466.674
 30
89.395
 70
    32
  0
VERTEX
  8
T51SSILL
 62
4
 10
5089.353
 20
-8401.058
 30
89.470
 70
    32
  0
SEQEND
  8
T51SSILL
  0
POLYLINE
  8
T51SSILL
 62
4
 66
     1
 70
     9
  0
VERTEX
  8
T51SSILL
 62
4
 10
946.747
 20
-7299.738
 30
98.258
 70
    32
  0
VERTEX
  8
T51SSILL
 62
4
 10
953.350
 20
-7293.300
 30
98.237
 70
    32
  0
VERTEX
  8
T51SSILL
 62
4
 10
960.568
 20
-7303.492
 30
98.319
 70
    32
  0
VERTEX
  8
T51SSILL
 62
4
 10
958.592
 20
-7307.208
 30
98.336
 70
    32
  0
VERTEX
  8
T51SSILL
 62
4
 10
961.004
 20
-7310.882
 30
98.356
 70
    32
  0
VERTEX
  8
T51SSILL
 62
4
 10
966.087
 20
-7312.698
 30
98.332
 70
    32
  0
VERTEX
  8
T51SSILL
 62
4
 10
976.999
 20
-7328.036
 30
98.218
 70
    32
  0
VERTEX
  8
T51SSILL
 62
4
 10
986.255
 20
-7363.914
 30
97.992
 70
    32
  0
VERTEX
  8
T51SSILL
 62
4
 10
980.477
 20
-7377.697
 30
97.930
 70
    32
  0
VERTEX
  8
T51SSILL
 62
4
 10
939.444
 20
-7412.735
 30
98.203
 70
    32
  0
VERTEX
  8
T51SSILL
 62
4
 10
935.007
 20
-7409.339
 30
98.219
 70
    32
  0
VERTEX
  8
T51SSILL
 62
4
 10
944.835
 20
-7317.585
 30
98.360
 70
    32
  0
SEQEND
  8
T51SSILL
  0
POLYLINE
  8
T51SSILL
 62
4
 66
     1
 70
     9
  0
VERTEX
  8
T51SSILL
 62
4
 10
971.150
 20
-7157.533
 30
97.468
 70
    32
  0
VERTEX
  8
T51SSILL
 62
4
 10
977.220
 20
-7168.059
 30
97.548
 70
    32
  0
VERTEX
  8
T51SSILL
 62
4
 10
976.434
 20
-7168.785
 30
97.550
 70
    32
  0
VERTEX
  8
T51SSILL
 62
4
 10
1026.294
 20
-7251.611
 30
98.189
 70
    32
  0
VERTEX
  8
T51SSILL
 62
4
 10
1039.833
 20
-7264.383
 30
98.304
 70
    32
  0
VERTEX
  8
T51SSILL
 62
4
 10
1040.768
 20
-7256.198
 30
98.257
 70
    32
  0
VERTEX
  8
T51SSILL
 62
4
 10
1024.305
 20
-7229.363
 30
98.049
 70
    32
  0
VERTEX
  8
T51SSILL
 62
4
 10
1013.070
 20
-7214.973
 30
97.931
 70
    32
  0
VERTEX
  8
T51SSILL
 62
4
 10
1000.153
 20
-7179.605
 30
97.682
 70
    32
  0
VERTEX
  8
T51SSILL
 62
4
 10
977.686
 20
-7146.828
 30
97.421
 70
    32
  0
SEQEND
  8
T51SSILL
  0
POLYLINE
  8
T51SSILL
 62
4
 66
     1
 70
     9
  0
VERTEX
  8
T51SSILL
 62
4
 10
1050.263
 20
-7271.941
 30
98.343
 70
    32
  0
VERTEX
  8
T51SSILL
 62
4
 10
1059.034
 20
-7296.992
 30
98.180
 70
    32
  0
VERTEX
  8
T51SSILL
 62
4
 10
1067.296
 20
-7304.290
 30
98.117
 70
    32
  0
VERTEX
  8
T51SSILL
 62
4
 10
1069.827
 20
-7311.988
 30
98.067
 70
    32
  0
VERTEX
  8
T51SSILL
 62
4
 10
1077.358
 20
-7319.135
 30
98.008
 70
    32
  0
VERTEX
  8
T51SSILL
 62
4
 10
1079.857
 20
-7327.905
 30
97.952
 70
    32
  0
VERTEX
  8
T51SSILL
 62
4
 10
1085.705
 20
-7331.847
 30
97.915
 70
    32
  0
VERTEX
  8
T51SSILL
 62
4
 10
1101.412
 20
-7358.652
 30
97.723
 70
    32
  0
VERTEX
  8
T51SSILL
 62
4
 10
1106.704
 20
-7375.682
 30
97.614
 70
    32
  0
VERTEX
  8
T51SSILL
 62
4
 10
1103.819
 20
-7380.416
 30
97.595
 70
    32
  0
VERTEX
  8
T51SSILL
 62
4
 10
1094.890
 20
-7381.231
 30
97.614
 70
    32
  0
VERTEX
  8
T51SSILL
 62
4
 10
1056.315
 20
-7316.232
 30
98.079
 70
    32
  0
VERTEX
  8
T51SSILL
 62
4
 10
1054.365
 20
-7305.735
 30
98.143
 70
    32
  0
VERTEX
  8
T51SSILL
 62
4
 10
1051.900
 20
-7302.622
 30
98.166
 70
    32
  0
VERTEX
  8
T51SSILL
 62
4
 10
983.573
 20
-7304.897
 30
98.331
 70
    32
  0
VERTEX
  8
T51SSILL
 62
4
 10
976.361
 20
-7300.799
 30
98.347
 70
    32
  0
VERTEX
  8
T51SSILL
 62
4
 10
973.078
 20
-7296.120
 30
98.309
 70
    32
  0
VERTEX
  8
T51SSILL
 62
4
 10
971.410
 20
-7290.696
 30
98.272
 70
    32
  0
VERTEX
  8
T51SSILL
 62
4
 10
974.372
 20
-7288.961
 30
98.270
 70
    32
  0
VERTEX
  8
T51SSILL
 62
4
 10
1037.460
 20
-7274.812
 30
98.360
 70
    32
  0
SEQEND
  8
T51SSILL
  0
POLYLINE
  8
T51SSILL
 62
4
 66
     1
 70
     9
  0
VERTEX
  8
T51SSILL
 62
4
 10
1055.859
 20
-7342.925
 30
97.930
 70
    32
  0
VERTEX
  8
T51SSILL
 62
4
 10
1042.505
 20
-7321.304
 30
98.086
 70
    32
  0
VERTEX
  8
T51SSILL
 62
4
 10
1033.199
 20
-7320.263
 30
98.116
 70
    32
  0
VERTEX
  8
T51SSILL
 62
4
 10
1025.502
 20
-7312.383
 30
98.180
 70
    32
  0
VERTEX
  8
T51SSILL
 62
4
 10
983.202
 20
-7312.501
 30
98.289
 70
    32
  0
VERTEX
  8
T51SSILL
 62
4
 10
979.529
 20
-7314.913
 30
98.285
 70
    32
  0
VERTEX
  8
T51SSILL
 62
4
 10
988.089
 20
-7331.795
 30
98.168
 70
    32
  0
VERTEX
  8
T51SSILL
 62
4
 10
994.192
 20
-7334.203
 30
98.139
 70
    32
  0
VERTEX
  8
T51SSILL
 62
4
 10
1001.820
 20
-7341.497
 30
98.078
 70
    32
  0
SEQEND
  8
T51SSILL
  0
POLYLINE
  8
T51SSILL
 62
4
 66
     1
 70
     9
  0
VERTEX
  8
T51SSILL
 62
4
 10
1076.049
 20
-7380.562
 30
97.666
 70
    32
  0
VERTEX
  8
T51SSILL
 62
4
 10
1073.287
 20
-7371.230
 30
97.726
 70
    32
  0
VERTEX
  8
T51SSILL
 62
4
 10
1062.697
 20
-7355.260
 30
97.843
 70
    32
  0
VERTEX
  8
T51SSILL
 62
4
 10
998.720
 20
-7352.470
 30
98.024
 70
    32
  0
VERTEX
  8
T51SSILL
 62
4
 10
993.967
 20
-7355.801
 30
98.018
 70
    32
  0
VERTEX
  8
T51SSILL
 62
4
 10
998.082
 20
-7373.920
 30
97.906
 70
    32
  0
VERTEX
  8
T51SSILL
 62
4
 10
1006.957
 20
-7380.711
 30
97.844
 70
    32
  0
SEQEND
  8
T51SSILL
  0
POLYLINE
  8
T51SSILL
 62
4
 66
     1
 70
     9
  0
VERTEX
  8
T51SSILL
 62
4
 10
1111.290
 20
-7438.033
 30
97.252
 70
    32
  0
VERTEX
  8
T51SSILL
 62
4
 10
1111.326
 20
-7452.872
 30
97.169
 70
    32
  0
VERTEX
  8
T51SSILL
 62
4
 10
1089.707
 20
-7454.160
 30
97.217
 70
    32
  0
VERTEX
  8
T51SSILL
 62
4
 10
1078.871
 20
-7445.708
 30
97.293
 70
    32
  0
VERTEX
  8
T51SSILL
 62
4
 10
1069.772
 20
-7444.344
 30
97.324
 70
    32
  0
VERTEX
  8
T51SSILL
 62
4
 10
1054.657
 20
-7430.780
 30
97.440
 70
    32
  0
VERTEX
  8
T51SSILL
 62
4
 10
1113.572
 20
-7428.902
 30
97.297
 70
    32
  0
VERTEX
  8
T51SSILL
 62
4
 10
1112.389
 20
-7433.636
 30
97.274
 70
    32
  0
SEQEND
  8
T51SSILL
  0
POLYLINE
  8
T51SSILL
 62
4
 66
     1
 70
     9
  0
VERTEX
  8
T51SSILL
 62
4
 10
961.750
 20
-7218.489
 30
97.809
 70
    32
  0
VERTEX
  8
T51SSILL
 62
4
 10
938.779
 20
-7250.606
 30
97.939
 70
    32
  0
VERTEX
  8
T51SSILL
 62
4
 10
934.831
 20
-7250.359
 30
97.927
 70
    32
  0
VERTEX
  8
T51SSILL
 62
4
 10
922.228
 20
-7232.766
 30
97.785
 70
    32
  0
VERTEX
  8
T51SSILL
 62
4
 10
961.538
 20
-7172.361
 30
97.530
 70
    32
  0
VERTEX
  8
T51SSILL
 62
4
 10
966.837
 20
-7188.440
 30
97.642
 70
    32
  0
VERTEX
  8
T51SSILL
 62
4
 10
972.900
 20
-7199.917
 30
97.728
 70
    32
  0
VERTEX
  8
T51SSILL
 62
4
 10
999.039
 20
-7241.009
 30
98.049
 70
    32
  0
VERTEX
  8
T51SSILL
 62
4
 10
1004.343
 20
-7246.044
 30
98.094
 70
    32
  0
VERTEX
  8
T51SSILL
 62
4
 10
1016.389
 20
-7269.997
 30
98.272
 70
    32
  0
VERTEX
  8
T51SSILL
 62
4
 10
982.345
 20
-7278.364
 30
98.228
 70
    32
  0
VERTEX
  8
T51SSILL
 62
4
 10
968.144
 20
-7280.117
 30
98.199
 70
    32
  0
VERTEX
  8
T51SSILL
 62
4
 10
964.089
 20
-7274.261
 30
98.152
 70
    32
  0
VERTEX
  8
T51SSILL
 62
4
 10
994.756
 20
-7250.341
 30
98.093
 70
    32
  0
VERTEX
  8
T51SSILL
 62
4
 10
990.159
 20
-7241.898
 30
98.030
 70
    32
  0
VERTEX
  8
T51SSILL
 62
4
 10
956.006
 20
-7265.794
 30
98.079
 70
    32
  0
VERTEX
  8
T51SSILL
 62
4
 10
949.273
 20
-7256.019
 30
98.001
 70
    32
  0
VERTEX
  8
T51SSILL
 62
4
 10
954.110
 20
-7251.055
 30
97.984
 70
    32
  0
VERTEX
  8
T51SSILL
 62
4
 10
953.108
 20
-7247.928
 30
97.963
 70
    32
  0
VERTEX
  8
T51SSILL
 62
4
 10
970.701
 20
-7224.915
 30
97.873
 70
    32
  0
SEQEND
  8
T51SSILL
  0
POLYLINE
  8
T51SSILL
 62
3
 66
     1
 70
     9
  0
VERTEX
  8
T51SSILL
 62
3
 10
564.089
 20
-6612.735
 30
99.565
 70
    32
  0
VERTEX
  8
T51SSILL
 62
3
 10
585.935
 20
-6593.917
 30
107.648
 70
    32
  0
VERTEX
  8
T51SSILL
 62
3
 10
592.401
 20
-6603.468
 30
105.926
 70
    32
  0
VERTEX
  8
T51SSILL
 62
3
 10
577.291
 20
-6616.104
 30
101.932
 70
    32
  0
VERTEX
  8
T51SSILL
 62
3
 10
571.422
 20
-6623.018
 30
99.463
 70
    32
  0
SEQEND
  8
T51SSILL
  0
POLYLINE
  8
T51SSILL
 62
3
 66
     1
 70
     9
  0
VERTEX
  8
T51SSILL
 62
3
 10
741.976
 20
-7040.389
 30
99.276
 70
    32
  0
VERTEX
  8
T51SSILL
 62
3
 10
725.605
 20
-7023.580
 30
107.264
 70
    32
  0
VERTEX
  8
T51SSILL
 62
3
 10
734.563
 20
-7017.621
 30
106.592
 70
    32
  0
VERTEX
  8
T51SSILL
 62
3
 10
746.941
 20
-7031.117
 30
100.880
 70
    32
  0
VERTEX
  8
T51SSILL
 62
3
 10
750.385
 20
-7037.182
 30
99.263
 70
    32
  0
SEQEND
  8
T51SSILL
  0
POLYLINE
  8
T51SSILL
 62
3
 66
     1
 70
     9
  0
VERTEX
  8
T51SSILL
 62
3
 10
910.930
 20
-7335.032
 30
98.399
 70
    32
  0
VERTEX
  8
T51SSILL
 62
3
 10
895.434
 20
-7346.656
 30
104.110
 70
    32
  0
VERTEX
  8
T51SSILL
 62
3
 10
902.144
 20
-7353.584
 30
104.893
 70
    32
  0
VERTEX
  8
T51SSILL
 62
3
 10
922.806
 20
-7338.065
 30
98.368
 70
    32
  0
SEQEND
  8
T51SSILL
  0
POLYLINE
  8
T51SSILL
 62
3
 66
     1
 70
     9
  0
VERTEX
  8
T51SSILL
 62
3
 10
498.842
 20
-6502.933
 30
100.328
 70
    32
  0
VERTEX
  8
T51SSILL
 62
3
 10
504.330
 20
-6494.785
 30
98.494
 70
    32
  0
VERTEX
  8
T51SSILL
 62
3
 10
506.767
 20
-6487.437
 30
97.519
 70
    32
  0
VERTEX
  8
T51SSILL
 62
3
 10
518.142
 20
-6485.297
 30
97.091
 70
    32
  0
VERTEX
  8
T51SSILL
 62
3
 10
516.915
 20
-6498.630
 30
98.682
 70
    32
  0
VERTEX
  8
T51SSILL
 62
3
 10
506.081
 20
-6512.995
 30
100.226
 70
    32
  0
SEQEND
  8
T51SSILL
  0
POLYLINE
  8
T51SSILL
 62
3
 66
     1
 70
     9
  0
VERTEX
  8
T51SSILL
 62
3
 10
775.568
 20
-7100.706
 30
99.099
 70
    32
  0
VERTEX
  8
T51SSILL
 62
3
 10
784.822
 20
-7125.832
 30
94.870
 70
    32
  0
VERTEX
  8
T51SSILL
 62
3
 10
796.253
 20
-7123.225
 30
94.805
 70
    32
  0
VERTEX
  8
T51SSILL
 62
3
 10
786.751
 20
-7097.129
 30
99.080
 70
    32
  0
SEQEND
  8
T51SSILL
  0
POLYLINE
  8
T51SSILL
 62
3
 66
     1
 70
     9
  0
VERTEX
  8
T51SSILL
 62
3
 10
1034.998
 20
-7435.591
 30
98.108
 70
    32
  0
VERTEX
  8
T51SSILL
 62
3
 10
1054.957
 20
-7430.770
 30
95.940
 70
    32
  0
VERTEX
  8
T51SSILL
 62
3
 10
1076.806
 20
-7445.244
 30
91.440
 70
    32
  0
VERTEX
  8
T51SSILL
 62
3
 10
1085.779
 20
-7452.760
 30
89.424
 70
    32
  0
VERTEX
  8
T51SSILL
 62
3
 10
1093.277
 20
-7462.744
 30
88.040
 70
    32
  0
VERTEX
  8
T51SSILL
 62
3
 10
1081.677
 20
-7470.739
 30
88.040
 70
    32
  0
VERTEX
  8
T51SSILL
 62
3
 10
1078.148
 20
-7464.738
 30
97.188
 70
    32
  0
SEQEND
  8
T51SSILL
  0
POLYLINE
  8
T51SSILL
 62
3
 66
     1
 70
     9
  0
VERTEX
  8
T51SSILL
 62
3
 10
678.881
 20
-6748.747
 30
94.162
 70
    32
  0
VERTEX
  8
T51SSILL
 62
3
 10
708.766
 20
-6774.004
 30
88.109
 70
    32
  0
VERTEX
  8
T51SSILL
 62
3
 10
707.860
 20
-6786.518
 30
86.907
 70
    32
  0
VERTEX
  8
T51SSILL
 62
3
 10
670.278
 20
-6757.345
 30
94.255
 70
    32
  0
SEQEND
  8
T51SSILL
  0
TEXT
  8
T51SSILL
 62
4
 10
4690.626
 20
-7150.619
 30
88.779
 40
0.200
  1
5150
 41
 1.0 
  0
TEXT
  8
T51SSILL
 62
3
 10
568.450
 20
-6598.470
 30
102.432
 40
0.200
  1
U
 50
-139.259
 41
 1.0 
  0
TEXT
  8
T51SSILL
 62
3
 10
725.159
 20
-7044.061
 30
107.264
 40
0.200
  1
U
 41
 1.0 
  0
TEXT
  8
T51SSILL
 62
3
 10
918.754
 20
-7356.255
 30
98.399
 40
0.200
  1
U
 41
 1.0 
  0
TEXT
  8
T51SSILL
 62
3
 10
525.340
 20
-6508.911
 30
98.682
 40
0.200
  1
D
 41
 1.0 
  0
TEXT
  8
T51SSILL
 62
3
 10
765.849
 20
-7119.351
 30
97.012
 40
0.200
  1
D
 41
 1.0 
  0
TEXT
  8
T51SSILL
 62
3
 10
1049.209
 20
-7468.043
 30
97.188
 40
0.200
  1
D
 41
 1.0 
  0
TEXT
  8
T51SSILL
 62
3
 10
676.378
 20
-6791.265
 30
90.587
 40
0.200
  1
D
 50
-37.821
 41
 1.0 
  0
TEXT
  8
T51SSILL
 62
4
 10
1608.058
 20
-6693.495
 30
95.643
 40
0.200
  1
5150
 41
 1.0 
  0
POLYLINE
  8
T51SSILL
 62
4
 66
     1
 70
     9
  0
VERTEX
  8
T51SSILL
 62
4
 10
377.309
 20
-6125.505
 30
103.433
 70
    32
  0
VERTEX
  8
T51SSILL
 62
4
 10
359.780
 20
-6142.354
 30
103.725
 70
    32
  0
VERTEX
  8
T51SSILL
 62
4
 10
351.988
 20
-6146.731
 30
103.880
 70
    32
  0
VERTEX
  8
T51SSILL
 62
4
 10
345.161
 20
-6144.504
 30
104.062
 70
    32
  0
VERTEX
  8
T51SSILL
 62
4
 10
342.736
 20
-6141.378
 30
104.145
 70
    32
  0
VERTEX
  8
T51SSILL
 62
4
 10
317.305
 20
-6063.895
 30
105.362
 70
    32
  0
VERTEX
  8
T51SSILL
 62
4
 10
320.962
 20
-6054.935
 30
105.343
 70
    32
  0
VERTEX
  8
T51SSILL
 62
4
 10
320.878
 20
-6051.329
 30
105.373
 70
    32
  0
VERTEX
  8
T51SSILL
 62
4
 10
330.344
 20
-6043.414
 30
105.206
 70
    32
  0
VERTEX
  8
T51SSILL
 62
4
 10
390.149
 20
-6011.681
 30
103.952
 70
    32
  0
VERTEX
  8
T51SSILL
 62
4
 10
394.127
 20
-6007.722
 30
103.841
 70
    32
  0
VERTEX
  8
T51SSILL
 62
4
 10
398.486
 20
-6010.523
 30
103.806
 70
    32
  0
VERTEX
  8
T51SSILL
 62
4
 10
410.351
 20
-6024.497
 30
103.420
 70
    32
  0
VERTEX
  8
T51SSILL
 62
4
 10
412.002
 20
-6028.980
 30
103.345
 70
    32
  0
VERTEX
  8
T51SSILL
 62
4
 10
417.498
 20
-6037.141
 30
103.149
 70
    32
  0
VERTEX
  8
T51SSILL
 62
4
 10
416.707
 20
-6046.712
 30
103.093
 70
    32
  0
VERTEX
  8
T51SSILL
 62
4
 10
412.738
 20
-6051.447
 30
103.152
 70
    32
  0
VERTEX
  8
T51SSILL
 62
4
 10
421.332
 20
-6062.533
 30
102.858
 70
    32
  0
VERTEX
  8
T51SSILL
 62
4
 10
430.437
 20
-6061.107
 30
102.650
 70
    32
  0
VERTEX
  8
T51SSILL
 62
4
 10
435.450
 20
-6068.599
 30
102.470
 70
    32
  0
VERTEX
  8
T51SSILL
 62
4
 10
433.937
 20
-6073.597
 30
102.468
 70
    32
  0
VERTEX
  8
T51SSILL
 62
4
 10
421.781
 20
-6081.255
 30
102.702
 70
    32
  0
VERTEX
  8
T51SSILL
 62
4
 10
423.016
 20
-6091.094
 30
102.596
 70
    32
  0
VERTEX
  8
T51SSILL
 62
4
 10
421.994
 20
-6093.348
 30
102.603
 70
    32
  0
SEQEND
  8
T51SSILL
  0
POLYLINE
  8
T51SSILL
 62
4
 66
     1
 70
     9
  0
VERTEX
  8
T51SSILL
 62
4
 10
1117.766
 20
-7922.314
 30
96.008
 70
    32
  0
VERTEX
  8
T51SSILL
 62
4
 10
1134.300
 20
-7910.062
 30
95.726
 70
    32
  0
VERTEX
  8
T51SSILL
 62
4
 10
1165.767
 20
-7954.587
 30
95.675
 70
    32
  0
VERTEX
  8
T51SSILL
 62
4
 10
1163.969
 20
-7961.413
 30
95.745
 70
    32
  0
VERTEX
  8
T51SSILL
 62
4
 10
1156.181
 20
-7970.609
 30
95.903
 70
    32
  0
VERTEX
  8
T51SSILL
 62
4
 10
1129.219
 20
-7964.795
 30
96.179
 70
    32
  0
VERTEX
  8
T51SSILL
 62
4
 10
1129.914
 20
-7960.499
 30
96.140
 70
    32
  0
VERTEX
  8
T51SSILL
 62
4
 10
1122.416
 20
-7941.837
 30
96.094
 70
    32
  0
SEQEND
  8
T51SSILL
  0
POLYLINE
  8
T51SSILL
 62
4
 66
     1
 70
     9
  0
VERTEX
  8
T51SSILL
 62
4
 10
1090.895
 20
-7849.093
 30
95.716
 70
    32
  0
VERTEX
  8
T51SSILL
 62
4
 10
1128.937
 20
-7904.281
 30
95.747
 70
    32
  0
VERTEX
  8
T51SSILL
 62
4
 10
1111.817
 20
-7915.871
 30
96.032
 70
    32
  0
VERTEX
  8
T51SSILL
 62
4
 10
1108.866
 20
-7916.590
 30
96.072
 70
    32
  0
VERTEX
  8
T51SSILL
 62
4
 10
1105.226
 20
-7911.844
 30
96.081
 70
    32
  0
VERTEX
  8
T51SSILL
 62
4
 10
1100.272
 20
-7897.310
 30
96.035
 70
    32
  0
VERTEX
  8
T51SSILL
 62
4
 10
1099.002
 20
-7888.034
 30
95.983
 70
    32
  0
VERTEX
  8
T51SSILL
 62
4
 10
1091.650
 20
-7876.640
 30
95.988
 70
    32
  0
VERTEX
  8
T51SSILL
 62
4
 10
1084.174
 20
-7853.951
 30
95.913
 70
    32
  0
SEQEND
  8
T51SSILL
  0
POLYLINE
  8
T51SSILL
 62
4
 66
     1
 70
     9
  0
VERTEX
  8
T51SSILL
 62
4
 10
1218.995
 20
-7994.257
 30
95.333
 70
    32
  0
VERTEX
  8
T51SSILL
 62
4
 10
1235.708
 20
-8007.355
 30
95.332
 70
    32
  0
VERTEX
  8
T51SSILL
 62
4
 10
1245.454
 20
-8001.626
 30
95.441
 70
    32
  0
VERTEX
  8
T51SSILL
 62
4
 10
1248.878
 20
-7997.204
 30
95.489
 70
    32
  0
VERTEX
  8
T51SSILL
 62
4
 10
1236.410
 20
-7978.116
 30
95.466
 70
    32
  0
VERTEX
  8
T51SSILL
 62
4
 10
1236.558
 20
-7974.865
 30
95.482
 70
    32
  0
VERTEX
  8
T51SSILL
 62
4
 10
1222.557
 20
-7971.087
 30
95.378
 70
    32
  0
VERTEX
  8
T51SSILL
 62
4
 10
1215.023
 20
-7966.655
 30
95.333
 70
    32
  0
VERTEX
  8
T51SSILL
 62
4
 10
1210.542
 20
-7961.646
 30
95.317
 70
    32
  0
VERTEX
  8
T51SSILL
 62
4
 10
1207.288
 20
-7967.355
 30
95.278
 70
    32
  0
VERTEX
  8
T51SSILL
 62
4
 10
1199.693
 20
-7971.858
 30
95.399
 70
    32
  0
VERTEX
  8
T51SSILL
 62
4
 10
1202.664
 20
-7977.630
 30
95.406
 70
    32
  0
VERTEX
  8
T51SSILL
 62
4
 10
1200.881
 20
-7978.916
 30
95.436
 70
    32
  0
VERTEX
  8
T51SSILL
 62
4
 10
1144.516
 20
-7897.922
 30
95.518
 70
    32
  0
VERTEX
  8
T51SSILL
 62
4
 10
1068.006
 20
-7622.659
 30
96.328
 70
    32
  0
VERTEX
  8
T51SSILL
 62
4
 10
1074.412
 20
-7620.878
 30
96.321
 70
    32
  0
VERTEX
  8
T51SSILL
 62
4
 10
1092.916
 20
-7629.047
 30
96.227
 70
    32
  0
VERTEX
  8
T51SSILL
 62
4
 10
1097.411
 20
-7618.737
 30
96.273
 70
    32
  0
VERTEX
  8
T51SSILL
 62
4
 10
1094.098
 20
-7613.402
 30
96.312
 70
    32
  0
VERTEX
  8
T51SSILL
 62
4
 10
1088.832
 20
-7610.619
 30
96.341
 70
    32
  0
VERTEX
  8
T51SSILL
 62
4
 10
1070.405
 20
-7604.668
 30
96.422
 70
    32
  0
VERTEX
  8
T51SSILL
 62
4
 10
1065.801
 20
-7600.540
 30
96.458
 70
    32
  0
VERTEX
  8
T51SSILL
 62
4
 10
1062.844
 20
-7601.641
 30
96.459
 70
    32
  0
VERTEX
  8
T51SSILL
 62
4
 10
1057.058
 20
-7578.415
 30
96.604
 70
    32
  0
VERTEX
  8
T51SSILL
 62
4
 10
1057.949
 20
-7576.569
 30
96.612
 70
    32
  0
VERTEX
  8
T51SSILL
 62
4
 10
1093.730
 20
-7576.602
 30
96.520
 70
    32
  0
VERTEX
  8
T51SSILL
 62
4
 10
1091.468
 20
-7574.055
 30
96.540
 70
    32
  0
VERTEX
  8
T51SSILL
 62
4
 10
1091.708
 20
-7567.127
 30
96.578
 70
    32
  0
VERTEX
  8
T51SSILL
 62
4
 10
1063.991
 20
-7566.713
 30
96.652
 70
    32
  0
VERTEX
  8
T51SSILL
 62
4
 10
1055.155
 20
-7561.263
 30
96.706
 70
    32
  0
VERTEX
  8
T51SSILL
 62
4
 10
1050.565
 20
-7555.233
 30
96.751
 70
    32
  0
VERTEX
  8
T51SSILL
 62
4
 10
1050.551
 20
-7550.406
 30
96.779
 70
    32
  0
VERTEX
  8
T51SSILL
 62
4
 10
1055.159
 20
-7546.855
 30
96.787
 70
    32
  0
VERTEX
  8
T51SSILL
 62
4
 10
1059.768
 20
-7546.668
 30
96.776
 70
    32
  0
VERTEX
  8
T51SSILL
 62
4
 10
1064.200
 20
-7543.968
 30
96.779
 70
    32
  0
VERTEX
  8
T51SSILL
 62
4
 10
1079.262
 20
-7544.488
 30
96.737
 70
    32
  0
VERTEX
  8
T51SSILL
 62
4
 10
1074.922
 20
-7534.194
 30
96.806
 70
    32
  0
VERTEX
  8
T51SSILL
 62
4
 10
1057.422
 20
-7533.486
 30
96.856
 70
    32
  0
VERTEX
  8
T51SSILL
 62
4
 10
1047.383
 20
-7525.882
 30
96.924
 70
    32
  0
VERTEX
  8
T51SSILL
 62
4
 10
1044.935
 20
-7506.459
 30
97.040
 70
    32
  0
VERTEX
  8
T51SSILL
 62
4
 10
1069.320
 20
-7506.600
 30
96.976
 70
    32
  0
VERTEX
  8
T51SSILL
 62
4
 10
1079.045
 20
-7496.237
 30
97.009
 70
    32
  0
VERTEX
  8
T51SSILL
 62
4
 10
1045.036
 20
-7495.562
 30
97.101
 70
    32
  0
VERTEX
  8
T51SSILL
 62
4
 10
1036.834
 20
-7490.117
 30
97.153
 70
    32
  0
VERTEX
  8
T51SSILL
 62
4
 10
1031.620
 20
-7479.134
 30
97.228
 70
    32
  0
VERTEX
  8
T51SSILL
 62
4
 10
1026.819
 20
-7461.571
 30
97.339
 70
    32
  0
VERTEX
  8
T51SSILL
 62
4
 10
1022.945
 20
-7461.276
 30
97.351
 70
    32
  0
VERTEX
  8
T51SSILL
 62
4
 10
1015.817
 20
-7434.725
 30
97.518
 70
    32
  0
VERTEX
  8
T51SSILL
 62
4
 10
1023.985
 20
-7431.150
 30
97.517
 70
    32
  0
VERTEX
  8
T51SSILL
 62
4
 10
1030.321
 20
-7431.511
 30
97.499
 70
    32
  0
VERTEX
  8
T51SSILL
 62
4
 10
1040.141
 20
-7438.621
 30
97.433
 70
    32
  0
VERTEX
  8
T51SSILL
 62
4
 10
1045.592
 20
-7440.069
 30
97.411
 70
    32
  0
VERTEX
  8
T51SSILL
 62
4
 10
1063.947
 20
-7454.917
 30
97.280
 70
    32
  0
VERTEX
  8
T51SSILL
 62
4
 10
1072.285
 20
-7458.235
 30
97.240
 70
    32
  0
VERTEX
  8
T51SSILL
 62
4
 10
1078.148
 20
-7464.738
 30
97.188
 70
    32
  0
VERTEX
  8
T51SSILL
 62
4
 10
1085.415
 20
-7468.826
 30
97.146
 70
    32
  0
VERTEX
  8
T51SSILL
 62
4
 10
1116.218
 20
-7461.760
 30
97.106
 70
    32
  0
VERTEX
  8
T51SSILL
 62
4
 10
1118.878
 20
-7464.850
 30
97.082
 70
    32
  0
VERTEX
  8
T51SSILL
 62
4
 10
1125.863
 20
-7490.864
 30
96.918
 70
    32
  0
VERTEX
  8
T51SSILL
 62
4
 10
1131.333
 20
-7503.360
 30
96.833
 70
    32
  0
VERTEX
  8
T51SSILL
 62
4
 10
1133.656
 20
-7505.936
 30
96.813
 70
    32
  0
VERTEX
  8
T51SSILL
 62
4
 10
1145.141
 20
-7509.016
 30
96.766
 70
    32
  0
VERTEX
  8
T51SSILL
 62
4
 10
1171.647
 20
-7546.502
 30
96.799
 70
    32
  0
VERTEX
  8
T51SSILL
 62
4
 10
1174.711
 20
-7547.645
 30
96.820
 70
    32
  0
VERTEX
  8
T51SSILL
 62
4
 10
1182.376
 20
-7546.188
 30
96.892
 70
    32
  0
VERTEX
  8
T51SSILL
 62
4
 10
1188.285
 20
-7534.527
 30
96.993
 70
    32
  0
VERTEX
  8
T51SSILL
 62
4
 10
1179.005
 20
-7526.319
 30
96.950
 70
    32
  0
VERTEX
  8
T51SSILL
 62
4
 10
1150.258
 20
-7488.621
 30
96.869
 70
    32
  0
VERTEX
  8
T51SSILL
 62
4
 10
1133.015
 20
-7444.422
 30
97.160
 70
    32
  0
VERTEX
  8
T51SSILL
 62
4
 10
1134.736
 20
-7428.466
 30
97.245
 70
    32
  0
VERTEX
  8
T51SSILL
 62
4
 10
1140.900
 20
-7429.045
 30
97.226
 70
    32
  0
VERTEX
  8
T51SSILL
 62
4
 10
1140.484
 20
-7419.037
 30
97.283
 70
    32
  0
VERTEX
  8
T51SSILL
 62
4
 10
1124.860
 20
-7419.350
 30
97.322
 70
    32
  0
VERTEX
  8
T51SSILL
 62
4
 10
1124.124
 20
-7400.291
 30
97.431
 70
    32
  0
VERTEX
  8
T51SSILL
 62
4
 10
1131.508
 20
-7400.175
 30
97.412
 70
    32
  0
VERTEX
  8
T51SSILL
 62
4
 10
1132.076
 20
-7392.553
 30
97.454
 70
    32
  0
VERTEX
  8
T51SSILL
 62
4
 10
1136.896
 20
-7393.173
 30
97.438
 70
    32
  0
VERTEX
  8
T51SSILL
 62
4
 10
1140.989
 20
-7389.963
 30
97.445
 70
    32
  0
VERTEX
  8
T51SSILL
 62
4
 10
1138.758
 20
-7379.979
 30
97.507
 70
    32
  0
VERTEX
  8
T51SSILL
 62
4
 10
1128.719
 20
-7358.283
 30
97.655
 70
    32
  0
VERTEX
  8
T51SSILL
 62
4
 10
1121.612
 20
-7349.701
 30
97.721
 70
    32
  0
VERTEX
  8
T51SSILL
 62
4
 10
1086.306
 20
-7291.283
 30
98.141
 70
    32
  0
VERTEX
  8
T51SSILL
 62
4
 10
1073.392
 20
-7266.009
 30
98.316
 70
    32
  0
VERTEX
  8
T51SSILL
 62
4
 10
1084.598
 20
-7263.698
 30
98.300
 70
    32
  0
VERTEX
  8
T51SSILL
 62
4
 10
1120.540
 20
-7248.933
 30
98.290
 70
    32
  0
VERTEX
  8
T51SSILL
 62
4
 10
1124.003
 20
-7248.762
 30
98.282
 70
    32
  0
VERTEX
  8
T51SSILL
 62
4
 10
1130.480
 20
-7253.342
 30
98.239
 70
    32
  0
VERTEX
  8
T51SSILL
 62
4
 10
1134.142
 20
-7259.560
 30
98.195
 70
    32
  0
VERTEX
  8
T51SSILL
 62
4
 10
1134.212
 20
-7263.510
 30
98.173
 70
    32
  0
VERTEX
  8
T51SSILL
 62
4
 10
1176.613
 20
-7335.776
 30
97.762
 70
    32
  0
VERTEX
  8
T51SSILL
 62
4
 10
1185.456
 20
-7331.780
 30
97.855
 70
    32
  0
VERTEX
  8
T51SSILL
 62
4
 10
1145.965
 20
-7263.154
 30
98.144
 70
    32
  0
VERTEX
  8
T51SSILL
 62
4
 10
1143.311
 20
-7252.384
 30
98.211
 70
    32
  0
VERTEX
  8
T51SSILL
 62
4
 10
1135.895
 20
-7242.531
 30
98.286
 70
    32
  0
VERTEX
  8
T51SSILL
 62
4
 10
1126.979
 20
-7238.080
 30
98.334
 70
    32
  0
VERTEX
  8
T51SSILL
 62
4
 10
1113.600
 20
-7240.765
 30
98.354
 70
    32
  0
VERTEX
  8
T51SSILL
 62
4
 10
1108.556
 20
-7236.927
 30
98.330
 70
    32
  0
VERTEX
  8
T51SSILL
 62
4
 10
1108.586
 20
-7225.761
 30
98.262
 70
    32
  0
VERTEX
  8
T51SSILL
 62
4
 10
1104.385
 20
-7212.957
 30
98.173
 70
    32
  0
VERTEX
  8
T51SSILL
 62
4
 10
1051.535
 20
-7127.978
 30
97.513
 70
    32
  0
VERTEX
  8
T51SSILL
 62
4
 10
1043.928
 20
-7132.567
 30
97.520
 70
    32
  0
VERTEX
  8
T51SSILL
 62
4
 10
1096.463
 20
-7216.266
 30
98.171
 70
    32
  0
VERTEX
  8
T51SSILL
 62
4
 10
1099.593
 20
-7225.357
 30
98.235
 70
    32
  0
VERTEX
  8
T51SSILL
 62
4
 10
1099.562
 20
-7233.158
 30
98.282
 70
    32
  0
VERTEX
  8
T51SSILL
 62
4
 10
1095.943
 20
-7241.739
 30
98.323
 70
    32
  0
VERTEX
  8
T51SSILL
 62
4
 10
1092.226
 20
-7246.808
 30
98.344
 70
    32
  0
VERTEX
  8
T51SSILL
 62
4
 10
1084.972
 20
-7252.096
 30
98.355
 70
    32
  0
VERTEX
  8
T51SSILL
 62
4
 10
1068.772
 20
-7257.370
 30
98.342
 70
    32
  0
VERTEX
  8
T51SSILL
 62
4
 10
1057.440
 20
-7242.833
 30
98.223
 70
    32
  0
VERTEX
  8
T51SSILL
 62
4
 10
1020.139
 20
-7176.893
 30
97.721
 70
    32
  0
VERTEX
  8
T51SSILL
 62
4
 10
1020.238
 20
-7169.677
 30
97.678
 70
    32
  0
VERTEX
  8
T51SSILL
 62
4
 10
1018.499
 20
-7163.985
 30
97.639
 70
    32
  0
VERTEX
  8
T51SSILL
 62
4
 10
1007.744
 20
-7143.601
 30
97.486
 70
    32
  0
VERTEX
  8
T51SSILL
 62
4
 10
997.357
 20
-7133.386
 30
97.395
 70
    32
  0
VERTEX
  8
T51SSILL
 62
4
 10
991.611
 20
-7125.276
 30
97.330
 70
    32
  0
VERTEX
  8
T51SSILL
 62
4
 10
999.885
 20
-7113.535
 30
97.282
 70
    32
  0
VERTEX
  8
T51SSILL
 62
4
 10
992.889
 20
-7109.926
 30
97.241
 70
    32
  0
VERTEX
  8
T51SSILL
 62
4
 10
988.784
 20
-7114.725
 30
97.259
 70
    32
  0
VERTEX
  8
T51SSILL
 62
4
 10
978.593
 20
-7114.897
 30
97.231
 70
    32
  0
VERTEX
  8
T51SSILL
 62
4
 10
965.663
 20
-7105.615
 30
97.139
 70
    32
  0
VERTEX
  8
T51SSILL
 62
4
 10
956.821
 20
-7111.526
 30
97.150
 70
    32
  0
VERTEX
  8
T51SSILL
 62
4
 10
956.921
 20
-7118.085
 30
97.190
 70
    32
  0
VERTEX
  8
T51SSILL
 62
4
 10
954.490
 20
-7123.992
 30
97.219
 70
    32
  0
VERTEX
  8
T51SSILL
 62
4
 10
960.073
 20
-7131.052
 30
97.277
 70
    32
  0
VERTEX
  8
T51SSILL
 62
4
 10
968.814
 20
-7136.038
 30
97.331
 70
    32
  0
VERTEX
  8
T51SSILL
 62
4
 10
972.271
 20
-7140.183
 30
97.366
 70
    32
  0
VERTEX
  8
T51SSILL
 62
4
 10
916.947
 20
-7224.562
 30
97.721
 70
    32
  0
VERTEX
  8
T51SSILL
 62
4
 10
914.027
 20
-7209.865
 30
97.624
 70
    32
  0
VERTEX
  8
T51SSILL
 62
4
 10
896.750
 20
-7177.465
 30
97.378
 70
    32
  0
VERTEX
  8
T51SSILL
 62
4
 10
884.113
 20
-7178.717
 30
97.348
 70
    32
  0
VERTEX
  8
T51SSILL
 62
4
 10
861.471
 20
-7146.475
 30
97.088
 70
    32
  0
VERTEX
  8
T51SSILL
 62
4
 10
863.757
 20
-7140.347
 30
97.058
 70
    32
  0
VERTEX
  8
T51SSILL
 62
4
 10
859.895
 20
-7134.786
 30
97.013
 70
    32
  0
VERTEX
  8
T51SSILL
 62
4
 10
852.971
 20
-7134.810
 30
96.993
 70
    32
  0
VERTEX
  8
T51SSILL
 62
4
 10
799.818
 20
-7059.300
 30
98.065
 70
    32
  0
VERTEX
  8
T51SSILL
 62
4
 10
800.002
 20
-7050.451
 30
97.541
 70
    32
  0
VERTEX
  8
T51SSILL
 62
4
 10
797.757
 20
-7047.193
 30
97.588
 70
    32
  0
VERTEX
  8
T51SSILL
 62
4
 10
791.345
 20
-7047.197
 30
98.252
 70
    32
  0
VERTEX
  8
T51SSILL
 62
4
 10
739.324
 20
-6973.571
 30
99.396
 70
    32
  0
VERTEX
  8
T51SSILL
 62
4
 10
740.237
 20
-6968.555
 30
99.060
 70
    32
  0
VERTEX
  8
T51SSILL
 62
4
 10
737.626
 20
-6965.538
 30
99.158
 70
    32
  0
VERTEX
  8
T51SSILL
 62
4
 10
735.132
 20
-6966.544
 30
99.418
 70
    32
  0
VERTEX
  8
T51SSILL
 62
4
 10
695.364
 20
-6907.370
 30
99.607
 70
    32
  0
VERTEX
  8
T51SSILL
 62
4
 10
689.130
 20
-6895.416
 30
99.641
 70
    32
  0
VERTEX
  8
T51SSILL
 62
4
 10
691.074
 20
-6889.506
 30
99.642
 70
    32
  0
VERTEX
  8
T51SSILL
 62
4
 10
684.759
 20
-6886.233
 30
99.666
 70
    32
  0
VERTEX
  8
T51SSILL
 62
4
 10
650.981
 20
-6818.395
 30
99.739
 70
    32
  0
VERTEX
  8
T51SSILL
 62
4
 10
651.012
 20
-6813.737
 30
99.470
 70
    32
  0
VERTEX
  8
T51SSILL
 62
4
 10
646.181
 20
-6808.762
 30
99.686
 70
    32
  0
VERTEX
  8
T51SSILL
 62
4
 10
626.976
 20
-6771.741
 30
99.563
 70
    32
  0
VERTEX
  8
T51SSILL
 62
4
 10
630.831
 20
-6762.000
 30
98.608
 70
    32
  0
VERTEX
  8
T51SSILL
 62
4
 10
645.898
 20
-6753.994
 30
96.590
 70
    32
  0
VERTEX
  8
T51SSILL
 62
4
 10
656.074
 20
-6752.002
 30
95.422
 70
    32
  0
VERTEX
  8
T51SSILL
 62
4
 10
664.042
 20
-6753.350
 30
94.674
 70
    32
  0
VERTEX
  8
T51SSILL
 62
4
 10
670.278
 20
-6757.345
 30
94.255
 70
    32
  0
VERTEX
  8
T51SSILL
 62
4
 10
678.881
 20
-6748.747
 30
94.162
 70
    32
  0
VERTEX
  8
T51SSILL
 62
4
 10
664.537
 20
-6740.976
 30
94.327
 70
    32
  0
VERTEX
  8
T51SSILL
 62
4
 10
651.032
 20
-6740.575
 30
95.306
 70
    32
  0
VERTEX
  8
T51SSILL
 62
4
 10
642.011
 20
-6742.706
 30
96.349
 70
    32
  0
VERTEX
  8
T51SSILL
 62
4
 10
624.960
 20
-6750.945
 30
98.586
 70
    32
  0
VERTEX
  8
T51SSILL
 62
4
 10
616.418
 20
-6751.388
 30
99.496
 70
    32
  0
VERTEX
  8
T51SSILL
 62
4
 10
612.768
 20
-6737.669
 30
99.091
 70
    32
  0
VERTEX
  8
T51SSILL
 62
4
 10
606.646
 20
-6731.110
 30
99.361
 70
    32
  0
VERTEX
  8
T51SSILL
 62
4
 10
605.687
 20
-6726.506
 30
99.220
 70
    32
  0
VERTEX
  8
T51SSILL
 62
4
 10
609.120
 20
-6721.448
 30
98.606
 70
    32
  0
VERTEX
  8
T51SSILL
 62
4
 10
622.074
 20
-6714.390
 30
96.913
 70
    32
  0
VERTEX
  8
T51SSILL
 62
4
 10
617.360
 20
-6706.272
 30
96.975
 70
    32
  0
VERTEX
  8
T51SSILL
 62
4
 10
602.132
 20
-6714.744
 30
98.974
 70
    32
  0
VERTEX
  8
T51SSILL
 62
4
 10
597.367
 20
-6714.244
 30
99.436
 70
    32
  0
VERTEX
  8
T51SSILL
 62
4
 10
561.831
 20
-6644.360
 30
99.460
 70
    32
  0
VERTEX
  8
T51SSILL
 62
4
 10
563.199
 20
-6632.705
 30
99.751
 70
    32
  0
VERTEX
  8
T51SSILL
 62
4
 10
571.422
 20
-6623.018
 30
99.463
 70
    32
  0
VERTEX
  8
T51SSILL
 62
4
 10
564.089
 20
-6612.735
 30
99.565
 70
    32
  0
VERTEX
  8
T51SSILL
 62
4
 10
553.425
 20
-6622.170
 30
99.914
 70
    32
  0
VERTEX
  8
T51SSILL
 62
4
 10
548.565
 20
-6618.667
 30
100.009
 70
    32
  0
VERTEX
  8
T51SSILL
 62
4
 10
508.540
 20
-6540.070
 30
100.385
 70
    32
  0
VERTEX
  8
T51SSILL
 62
4
 10
509.507
 20
-6537.334
 30
100.338
 70
    32
  0
VERTEX
  8
T51SSILL
 62
4
 10
503.551
 20
-6526.019
 30
100.397
 70
    32
  0
VERTEX
  8
T51SSILL
 62
4
 10
504.142
 20
-6515.565
 30
100.297
 70
    32
  0
VERTEX
  8
T51SSILL
 62
4
 10
506.081
 20
-6512.995
 30
100.226
 70
    32
  0
VERTEX
  8
T51SSILL
 62
4
 10
498.842
 20
-6502.933
 30
100.328
 70
    32
  0
VERTEX
  8
T51SSILL
 62
4
 10
497.437
 20
-6505.020
 30
100.381
 70
    32
  0
VERTEX
  8
T51SSILL
 62
4
 10
485.435
 20
-6495.047
 30
100.605
 70
    32
  0
VERTEX
  8
T51SSILL
 62
4
 10
412.591
 20
-6353.533
 30
101.490
 70
    32
  0
VERTEX
  8
T51SSILL
 62
4
 10
353.463
 20
-6174.061
 30
103.631
 70
    32
  0
VERTEX
  8
T51SSILL
 62
4
 10
360.214
 20
-6156.264
 30
103.607
 70
    32
  0
VERTEX
  8
T51SSILL
 62
4
 10
368.336
 20
-6151.981
 30
103.444
 70
    32
  0
VERTEX
  8
T51SSILL
 62
4
 10
389.639
 20
-6128.952
 30
103.108
 70
    32
  0
VERTEX
  8
T51SSILL
 62
4
 10
426.019
 20
-6102.771
 30
102.432
 70
    32
  0
VERTEX
  8
T51SSILL
 62
4
 10
429.702
 20
-6102.632
 30
102.344
 70
    32
  0
VERTEX
  8
T51SSILL
 62
4
 10
428.270
 20
-6128.806
 30
102.205
 70
    32
  0
VERTEX
  8
T51SSILL
 62
4
 10
435.591
 20
-6131.915
 30
102.053
 70
    32
  0
VERTEX
  8
T51SSILL
 62
4
 10
446.574
 20
-6131.479
 30
101.848
 70
    32
  0
VERTEX
  8
T51SSILL
 62
4
 10
449.978
 20
-6103.552
 30
101.909
 70
    32
  0
VERTEX
  8
T51SSILL
 62
4
 10
454.521
 20
-6096.613
 30
101.855
 70
    32
  0
VERTEX
  8
T51SSILL
 62
4
 10
465.615
 20
-6092.591
 30
101.664
 70
    32
  0
VERTEX
  8
T51SSILL
 62
4
 10
465.440
 20
-6074.402
 30
101.749
 70
    32
  0
VERTEX
  8
T51SSILL
 62
4
 10
467.564
 20
-6072.874
 30
101.716
 70
    32
  0
VERTEX
  8
T51SSILL
 62
4
 10
461.723
 20
-6064.757
 30
101.865
 70
    32
  0
VERTEX
  8
T51SSILL
 62
4
 10
459.283
 20
-6066.513
 30
101.910
 70
    32
  0
VERTEX
  8
T51SSILL
 62
4
 10
456.259
 20
-6060.913
 30
102.027
 70
    32
  0
VERTEX
  8
T51SSILL
 62
4
 10
450.918
 20
-6059.006
 30
102.171
 70
    32
  0
VERTEX
  8
T51SSILL
 62
4
 10
447.770
 20
-6053.171
 30
102.292
 70
    32
  0
VERTEX
  8
T51SSILL
 62
4
 10
442.547
 20
-6050.669
 30
102.438
 70
    32
  0
VERTEX
  8
T51SSILL
 62
4
 10
435.397
 20
-6032.791
 30
102.750
 70
    32
  0
VERTEX
  8
T51SSILL
 62
4
 10
429.677
 20
-6025.494
 30
102.945
 70
    32
  0
VERTEX
  8
T51SSILL
 62
4
 10
423.867
 20
-6012.989
 30
103.183
 70
    32
  0
VERTEX
  8
T51SSILL
 62
4
 10
419.946
 20
-6011.121
 30
103.292
 70
    32
  0
VERTEX
  8
T51SSILL
 62
4
 10
416.748
 20
-6005.815
 30
103.410
 70
    32
  0
VERTEX
  8
T51SSILL
 62
4
 10
412.724
 20
-6003.947
 30
103.501
 70
    32
  0
VERTEX
  8
T51SSILL
 62
4
 10
408.184
 20
-5997.969
 30
103.500
 70
    32
  0
VERTEX
  8
T51SSILL
 62
4
 10
410.867
 20
-5997.222
 30
103.449
 70
    32
  0
VERTEX
  8
T51SSILL
 62
4
 10
412.797
 20
-5993.974
 30
103.379
 70
    32
  0
VERTEX
  8
T51SSILL
 62
4
 10
409.732
 20
-5988.554
 30
103.361
 70
    32
  0
VERTEX
  8
T51SSILL
 62
4
 10
404.676
 20
-5985.340
 30
103.401
 70
    32
  0
VERTEX
  8
T51SSILL
 62
4
 10
400.343
 20
-5987.582
 30
103.497
 70
    32
  0
VERTEX
  8
T51SSILL
 62
4
 10
396.525
 20
-5981.978
 30
103.489
 70
    32
  0
VERTEX
  8
T51SSILL
 62
4
 10
388.890
 20
-5984.743
 30
103.643
 70
    32
  0
VERTEX
  8
T51SSILL
 62
4
 10
380.223
 20
-5993.635
 30
103.888
 70
    32
  0
VERTEX
  8
T51SSILL
 62
4
 10
383.615
 20
-5999.664
 30
103.908
 70
    32
  0
VERTEX
  8
T51SSILL
 62
4
 10
375.109
 20
-6009.328
 30
104.160
 70
    32
  0
VERTEX
  8
T51SSILL
 62
4
 10
323.775
 20
-6034.932
 30
105.281
 70
    32
  0
VERTEX
  8
T51SSILL
 62
4
 10
311.594
 20
-6037.662
 30
105.507
 70
    32
  0
VERTEX
  8
T51SSILL
 62
4
 10
307.555
 20
-6034.711
 30
105.534
 70
    32
  0
VERTEX
  8
T51SSILL
 62
4
 10
280.032
 20
-5951.862
 30
104.957
 70
    32
  0
VERTEX
  8
T51SSILL
 62
4
 10
270.809
 20
-5954.196
 30
105.131
 70
    32
  0
VERTEX
  8
T51SSILL
 62
4
 10
320.989
 20
-6106.231
 30
104.834
 70
    32
  0
VERTEX
  8
T51SSILL
 62
4
 10
312.542
 20
-6114.823
 30
104.754
 70
    32
  0
VERTEX
  8
T51SSILL
 62
4
 10
316.014
 20
-6124.105
 30
104.607
 70
    32
  0
VERTEX
  8
T51SSILL
 62
4
 10
327.670
 20
-6128.217
 30
104.493
 70
    32
  0
VERTEX
  8
T51SSILL
 62
4
 10
343.561
 20
-6174.381
 30
103.768
 70
    32
  0
VERTEX
  8
T51SSILL
 62
4
 10
342.785
 20
-6178.598
 30
103.712
 70
    32
  0
VERTEX
  8
T51SSILL
 62
4
 10
345.519
 20
-6180.320
 30
103.675
 70
    32
  0
VERTEX
  8
T51SSILL
 62
4
 10
370.175
 20
-6252.918
 30
102.661
 70
    32
  0
VERTEX
  8
T51SSILL
 62
4
 10
368.048
 20
-6258.419
 30
102.613
 70
    32
  0
VERTEX
  8
T51SSILL
 62
4
 10
373.734
 20
-6264.295
 30
102.534
 70
    32
  0
VERTEX
  8
T51SSILL
 62
4
 10
381.240
 20
-6287.180
 30
102.278
 70
    32
  0
VERTEX
  8
T51SSILL
 62
4
 10
376.843
 20
-6295.610
 30
102.208
 70
    32
  0
VERTEX
  8
T51SSILL
 62
4
 10
354.920
 20
-6289.795
 30
102.342
 70
    32
  0
VERTEX
  8
T51SSILL
 62
4
 10
347.826
 20
-6286.016
 30
102.405
 70
    32
  0
VERTEX
  8
T51SSILL
 62
4
 10
342.356
 20
-6280.536
 30
102.479
 70
    32
  0
VERTEX
  8
T51SSILL
 62
4
 10
340.081
 20
-6282.810
 30
102.464
 70
    32
  0
VERTEX
  8
T51SSILL
 62
4
 10
337.429
 20
-6292.665
 30
102.374
 70
    32
  0
VERTEX
  8
T51SSILL
 62
4
 10
344.207
 20
-6297.780
 30
102.299
 70
    32
  0
VERTEX
  8
T51SSILL
 62
4
 10
357.945
 20
-6303.070
 30
102.198
 70
    32
  0
VERTEX
  8
T51SSILL
 62
4
 10
378.920
 20
-6307.955
 30
102.076
 70
    32
  0
VERTEX
  8
T51SSILL
 62
4
 10
391.934
 20
-6319.787
 30
101.912
 70
    32
  0
VERTEX
  8
T51SSILL
 62
4
 10
398.019
 20
-6338.342
 30
101.704
 70
    32
  0
VERTEX
  8
T51SSILL
 62
4
 10
391.256
 20
-6343.689
 30
101.673
 70
    32
  0
VERTEX
  8
T51SSILL
 62
4
 10
393.451
 20
-6357.545
 30
101.526
 70
    32
  0
VERTEX
  8
T51SSILL
 62
4
 10
398.982
 20
-6368.813
 30
101.393
 70
    32
  0
VERTEX
  8
T51SSILL
 62
4
 10
409.258
 20
-6368.408
 30
101.362
 70
    32
  0
VERTEX
  8
T51SSILL
 62
4
 10
447.747
 20
-6444.540
 30
100.956
 70
    32
  0
VERTEX
  8
T51SSILL
 62
4
 10
445.846
 20
-6449.449
 30
100.945
 70
    32
  0
VERTEX
  8
T51SSILL
 62
4
 10
451.205
 20
-6450.922
 30
100.934
 70
    32
  0
VERTEX
  8
T51SSILL
 62
4
 10
460.783
 20
-6470.310
 30
100.870
 70
    32
  0
VERTEX
  8
T51SSILL
 62
4
 10
457.613
 20
-6471.917
 30
100.869
 70
    32
  0
VERTEX
  8
T51SSILL
 62
4
 10
428.974
 20
-6466.510
 30
100.917
 70
    32
  0
VERTEX
  8
T51SSILL
 62
4
 10
427.408
 20
-6475.489
 30
100.894
 70
    32
  0
VERTEX
  8
T51SSILL
 62
4
 10
462.196
 20
-6482.458
 30
100.835
 70
    32
  0
VERTEX
  8
T51SSILL
 62
4
 10
471.786
 20
-6487.607
 30
100.809
 70
    32
  0
VERTEX
  8
T51SSILL
 62
4
 10
495.173
 20
-6534.156
 30
100.583
 70
    32
  0
VERTEX
  8
T51SSILL
 62
4
 10
493.534
 20
-6540.495
 30
100.555
 70
    32
  0
VERTEX
  8
T51SSILL
 62
4
 10
499.872
 20
-6542.890
 30
100.540
 70
    32
  0
VERTEX
  8
T51SSILL
 62
4
 10
541.698
 20
-6624.627
 30
100.140
 70
    32
  0
VERTEX
  8
T51SSILL
 62
4
 10
539.745
 20
-6630.220
 30
100.155
 70
    32
  0
VERTEX
  8
T51SSILL
 62
4
 10
541.872
 20
-6633.667
 30
100.153
 70
    32
  0
VERTEX
  8
T51SSILL
 62
4
 10
547.874
 20
-6635.438
 30
100.121
 70
    32
  0
VERTEX
  8
T51SSILL
 62
4
 10
587.662
 20
-6715.067
 30
100.139
 70
    32
  0
VERTEX
  8
T51SSILL
 62
4
 10
585.046
 20
-6719.729
 30
100.164
 70
    32
  0
VERTEX
  8
T51SSILL
 62
4
 10
585.878
 20
-6722.264
 30
100.158
 70
    32
  0
VERTEX
  8
T51SSILL
 62
4
 10
591.044
 20
-6724.022
 30
100.147
 70
    32
  0
VERTEX
  8
T51SSILL
 62
4
 10
598.231
 20
-6739.299
 30
100.106
 70
    32
  0
VERTEX
  8
T51SSILL
 62
4
 10
596.795
 20
-6741.109
 30
100.105
 70
    32
  0
VERTEX
  8
T51SSILL
 62
4
 10
580.144
 20
-6747.747
 30
100.117
 70
    32
  0
VERTEX
  8
T51SSILL
 62
4
 10
584.923
 20
-6757.136
 30
100.092
 70
    32
  0
VERTEX
  8
T51SSILL
 62
4
 10
594.373
 20
-6752.246
 30
100.087
 70
    32
  0
VERTEX
  8
T51SSILL
 62
4
 10
599.940
 20
-6751.620
 30
100.080
 70
    32
  0
VERTEX
  8
T51SSILL
 62
4
 10
607.852
 20
-6753.928
 30
100.063
 70
    32
  0
VERTEX
  8
T51SSILL
 62
4
 10
637.297
 20
-6812.491
 30
99.897
 70
    32
  0
VERTEX
  8
T51SSILL
 62
4
 10
635.594
 20
-6815.858
 30
99.895
 70
    32
  0
VERTEX
  8
T51SSILL
 62
4
 10
636.324
 20
-6818.250
 30
99.890
 70
    32
  0
VERTEX
  8
T51SSILL
 62
4
 10
642.454
 20
-6821.869
 30
99.870
 70
    32
  0
VERTEX
  8
T51SSILL
 62
4
 10
676.598
 20
-6890.525
 30
99.677
 70
    32
  0
VERTEX
  8
T51SSILL
 62
4
 10
676.051
 20
-6897.490
 30
99.666
 70
    32
  0
VERTEX
  8
T51SSILL
 62
4
 10
681.369
 20
-6899.208
 30
99.652
 70
    32
  0
VERTEX
  8
T51SSILL
 62
4
 10
688.039
 20
-6912.686
 30
99.614
 70
    32
  0
VERTEX
  8
T51SSILL
 62
4
 10
727.887
 20
-6970.565
 30
99.427
 70
    32
  0
VERTEX
  8
T51SSILL
 62
4
 10
725.281
 20
-6973.643
 30
99.427
 70
    32
  0
VERTEX
  8
T51SSILL
 62
4
 10
726.798
 20
-6976.433
 30
99.419
 70
    32
  0
VERTEX
  8
T51SSILL
 62
4
 10
732.397
 20
-6977.594
 30
99.405
 70
    32
  0
VERTEX
  8
T51SSILL
 62
4
 10
778.261
 20
-7042.643
 30
99.192
 70
    32
  0
VERTEX
  8
T51SSILL
 62
4
 10
775.857
 20
-7044.747
 30
99.194
 70
    32
  0
VERTEX
  8
T51SSILL
 62
4
 10
773.471
 20
-7044.316
 30
99.200
 70
    32
  0
VERTEX
  8
T51SSILL
 62
4
 10
767.217
 20
-7039.274
 30
99.222
 70
    32
  0
VERTEX
  8
T51SSILL
 62
4
 10
758.453
 20
-7037.458
 30
99.245
 70
    32
  0
VERTEX
  8
T51SSILL
 62
4
 10
750.385
 20
-7037.182
 30
99.263
 70
    32
  0
VERTEX
  8
T51SSILL
 62
4
 10
741.976
 20
-7040.389
 30
99.276
 70
    32
  0
VERTEX
  8
T51SSILL
 62
4
 10
754.394
 20
-7053.056
 30
99.227
 70
    32
  0
VERTEX
  8
T51SSILL
 62
4
 10
753.885
 20
-7059.489
 30
99.217
 70
    32
  0
VERTEX
  8
T51SSILL
 62
4
 10
756.119
 20
-7064.332
 30
99.204
 70
    32
  0
VERTEX
  8
T51SSILL
 62
4
 10
763.354
 20
-7068.625
 30
99.181
 70
    32
  0
VERTEX
  8
T51SSILL
 62
4
 10
765.959
 20
-7072.592
 30
99.168
 70
    32
  0
VERTEX
  8
T51SSILL
 62
4
 10
775.568
 20
-7100.706
 30
99.099
 70
    32
  0
VERTEX
  8
T51SSILL
 62
4
 10
786.751
 20
-7097.129
 30
99.080
 70
    32
  0
VERTEX
  8
T51SSILL
 62
4
 10
775.799
 20
-7070.443
 30
99.150
 70
    32
  0
VERTEX
  8
T51SSILL
 62
4
 10
782.271
 20
-7065.247
 30
99.145
 70
    32
  0
VERTEX
  8
T51SSILL
 62
4
 10
793.196
 20
-7064.909
 30
99.071
 70
    32
  0
VERTEX
  8
T51SSILL
 62
4
 10
846.368
 20
-7141.249
 30
97.918
 70
    32
  0
VERTEX
  8
T51SSILL
 62
4
 10
843.944
 20
-7146.205
 30
98.452
 70
    32
  0
VERTEX
  8
T51SSILL
 62
4
 10
847.224
 20
-7151.202
 30
98.398
 70
    32
  0
VERTEX
  8
T51SSILL
 62
4
 10
852.913
 20
-7150.096
 30
97.745
 70
    32
  0
VERTEX
  8
T51SSILL
 62
4
 10
903.146
 20
-7221.320
 30
97.660
 70
    32
  0
VERTEX
  8
T51SSILL
 62
4
 10
901.255
 20
-7226.768
 30
97.687
 70
    32
  0
VERTEX
  8
T51SSILL
 62
4
 10
905.971
 20
-7232.189
 30
97.734
 70
    32
  0
VERTEX
  8
T51SSILL
 62
4
 10
909.811
 20
-7230.509
 30
97.735
 70
    32
  0
VERTEX
  8
T51SSILL
 62
4
 10
924.534
 20
-7251.652
 30
97.905
 70
    32
  0
VERTEX
  8
T51SSILL
 62
4
 10
909.000
 20
-7259.223
 30
98.161
 70
    32
  0
VERTEX
  8
T51SSILL
 62
4
 10
910.641
 20
-7268.450
 30
98.513
 70
    32
  0
VERTEX
  8
T51SSILL
 62
4
 10
929.652
 20
-7258.807
 30
97.963
 70
    32
  0
VERTEX
  8
T51SSILL
 62
4
 10
936.404
 20
-7269.411
 30
98.046
 70
    32
  0
VERTEX
  8
T51SSILL
 62
4
 10
934.608
 20
-7278.687
 30
98.097
 70
    32
  0
VERTEX
  8
T51SSILL
 62
4
 10
898.166
 20
-7284.843
 30
98.513
 70
    32
  0
VERTEX
  8
T51SSILL
 62
4
 10
901.754
 20
-7308.565
 30
98.464
 70
    32
  0
VERTEX
  8
T51SSILL
 62
4
 10
930.204
 20
-7301.767
 30
98.392
 70
    32
  0
VERTEX
  8
T51SSILL
 62
4
 10
929.709
 20
-7295.889
 30
98.186
 70
    32
  0
VERTEX
  8
T51SSILL
 62
4
 10
932.153
 20
-7291.444
 30
98.167
 70
    32
  0
VERTEX
  8
T51SSILL
 62
4
 10
939.600
 20
-7296.860
 30
98.220
 70
    32
  0
VERTEX
  8
T51SSILL
 62
4
 10
937.468
 20
-7312.350
 30
98.308
 70
    32
  0
VERTEX
  8
T51SSILL
 62
4
 10
929.913
 20
-7318.782
 30
98.385
 70
    32
  0
VERTEX
  8
T51SSILL
 62
4
 10
916.206
 20
-7319.686
 30
98.413
 70
    32
  0
VERTEX
  8
T51SSILL
 62
4
 10
916.305
 20
-7322.880
 30
98.408
 70
    32
  0
VERTEX
  8
T51SSILL
 62
4
 10
910.930
 20
-7335.032
 30
98.399
 70
    32
  0
VERTEX
  8
T51SSILL
 62
4
 10
922.806
 20
-7338.065
 30
98.367
 70
    32
  0
VERTEX
  8
T51SSILL
 62
4
 10
933.658
 20
-7344.505
 30
98.332
 70
    32
  0
VERTEX
  8
T51SSILL
 62
4
 10
928.601
 20
-7384.208
 30
98.276
 70
    32
  0
VERTEX
  8
T51SSILL
 62
4
 10
923.938
 20
-7392.001
 30
98.273
 70
    32
  0
VERTEX
  8
T51SSILL
 62
4
 10
919.778
 20
-7394.312
 30
98.278
 70
    32
  0
VERTEX
  8
T51SSILL
 62
4
 10
920.239
 20
-7401.580
 30
98.265
 70
    32
  0
VERTEX
  8
T51SSILL
 62
4
 10
926.120
 20
-7411.179
 30
98.235
 70
    32
  0
VERTEX
  8
T51SSILL
 62
4
 10
922.000
 20
-7442.380
 30
98.191
 70
    32
  0
VERTEX
  8
T51SSILL
 62
4
 10
931.571
 20
-7447.347
 30
98.161
 70
    32
  0
VERTEX
  8
T51SSILL
 62
4
 10
944.340
 20
-7541.908
 30
97.972
 70
    32
  0
VERTEX
  8
T51SSILL
 62
4
 10
951.587
 20
-7540.935
 30
97.948
 70
    32
  0
VERTEX
  8
T51SSILL
 62
4
 10
940.508
 20
-7445.265
 30
98.145
 70
    32
  0
VERTEX
  8
T51SSILL
 62
4
 10
946.317
 20
-7437.455
 30
98.141
 70
    32
  0
VERTEX
  8
T51SSILL
 62
4
 10
944.354
 20
-7432.224
 30
98.159
 70
    32
  0
VERTEX
  8
T51SSILL
 62
4
 10
946.242
 20
-7420.365
 30
98.161
 70
    32
  0
VERTEX
  8
T51SSILL
 62
4
 10
987.142
 20
-7386.886
 30
97.861
 70
    32
  0
VERTEX
  8
T51SSILL
 62
4
 10
990.997
 20
-7386.353
 30
97.854
 70
    32
  0
VERTEX
  8
T51SSILL
 62
4
 10
996.009
 20
-7391.264
 30
97.814
 70
    32
  0
VERTEX
  8
T51SSILL
 62
4
 10
997.600
 20
-7397.370
 30
97.775
 70
    32
  0
VERTEX
  8
T51SSILL
 62
4
 10
994.499
 20
-7404.979
 30
97.741
 70
    32
  0
VERTEX
  8
T51SSILL
 62
4
 10
997.017
 20
-7410.896
 30
97.701
 70
    32
  0
VERTEX
  8
T51SSILL
 62
4
 10
1002.038
 20
-7414.540
 30
97.667
 70
    32
  0
VERTEX
  8
T51SSILL
 62
4
 10
1026.967
 20
-7502.176
 30
97.111
 70
    32
  0
VERTEX
  8
T51SSILL
 62
4
 10
1022.916
 20
-7508.825
 30
97.084
 70
    32
  0
VERTEX
  8
T51SSILL
 62
4
 10
1023.457
 20
-7511.766
 30
97.066
 70
    32
  0
VERTEX
  8
T51SSILL
 62
4
 10
1030.781
 20
-7515.874
 30
97.024
 70
    32
  0
VERTEX
  8
T51SSILL
 62
4
 10
1055.498
 20
-7604.639
 30
96.461
 70
    32
  0
VERTEX
  8
T51SSILL
 62
4
 10
1053.090
 20
-7605.266
 30
96.464
 70
    32
  0
VERTEX
  8
T51SSILL
 62
4
 10
1051.571
 20
-7611.562
 30
96.433
 70
    32
  0
VERTEX
  8
T51SSILL
 62
4
 10
1058.242
 20
-7614.494
 30
96.399
 70
    32
  0
VERTEX
  8
T51SSILL
 62
4
 10
1137.312
 20
-7898.456
 30
95.607
 70
    32
  0
VERTEX
  8
T51SSILL
 62
4
 10
1135.803
 20
-7899.220
 30
95.630
 70
    32
  0
VERTEX
  8
T51SSILL
 62
4
 10
1096.579
 20
-7844.243
 30
95.697
 70
    32
  0
VERTEX
  8
T51SSILL
 62
4
 10
1103.956
 20
-7839.139
 30
95.574
 70
    32
  0
VERTEX
  8
T51SSILL
 62
4
 10
1099.220
 20
-7831.821
 30
95.577
 70
    32
  0
VERTEX
  8
T51SSILL
 62
4
 10
1091.019
 20
-7837.737
 30
95.716
 70
    32
  0
VERTEX
  8
T51SSILL
 62
4
 10
1058.167
 20
-7790.091
 30
96.063
 70
    32
  0
VERTEX
  8
T51SSILL
 62
4
 10
1052.535
 20
-7770.409
 30
96.170
 70
    32
  0
VERTEX
  8
T51SSILL
 62
4
 10
1039.819
 20
-7755.186
 30
96.379
 70
    32
  0
VERTEX
  8
T51SSILL
 62
4
 10
1035.826
 20
-7755.016
 30
96.439
 70
    32
  0
VERTEX
  8
T51SSILL
 62
4
 10
1016.980
 20
-7748.025
 30
96.732
 70
    32
  0
VERTEX
  8
T51SSILL
 62
4
 10
1009.547
 20
-7754.254
 30
96.838
 70
    32
  0
VERTEX
  8
T51SSILL
 62
4
 10
1012.402
 20
-7761.519
 30
96.787
 70
    32
  0
VERTEX
  8
T51SSILL
 62
4
 10
1013.665
 20
-7775.896
 30
96.752
 70
    32
  0
VERTEX
  8
T51SSILL
 62
4
 10
1021.822
 20
-7778.035
 30
96.626
 70
    32
  0
VERTEX
  8
T51SSILL
 62
4
 10
1029.006
 20
-7786.189
 30
96.508
 70
    32
  0
VERTEX
  8
T51SSILL
 62
4
 10
1023.531
 20
-7802.499
 30
96.573
 70
    32
  0
VERTEX
  8
T51SSILL
 62
4
 10
1025.437
 20
-7821.074
 30
96.524
 70
    32
  0
VERTEX
  8
T51SSILL
 62
4
 10
1029.287
 20
-7833.476
 30
96.452
 70
    32
  0
VERTEX
  8
T51SSILL
 62
4
 10
1046.562
 20
-7868.397
 30
96.460
 70
    32
  0
VERTEX
  8
T51SSILL
 62
4
 10
1073.349
 20
-7897.865
 30
96.356
 70
    32
  0
VERTEX
  8
T51SSILL
 62
4
 10
1084.729
 20
-7935.737
 30
96.494
 70
    32
  0
VERTEX
  8
T51SSILL
 62
4
 10
1036.866
 20
-7970.263
 30
97.073
 70
    32
  0
VERTEX
  8
T51SSILL
 62
4
 10
1040.924
 20
-7976.768
 30
97.055
 70
    32
  0
VERTEX
  8
T51SSILL
 62
4
 10
1090.104
 20
-7941.835
 30
96.474
 70
    32
  0
VERTEX
  8
T51SSILL
 62
4
 10
1120.677
 20
-7970.089
 30
96.317
 70
    32
  0
VERTEX
  8
T51SSILL
 62
4
 10
1123.870
 20
-7975.267
 30
96.317
 70
    32
  0
VERTEX
  8
T51SSILL
 62
4
 10
1121.404
 20
-7987.781
 30
96.436
 70
    32
  0
VERTEX
  8
T51SSILL
 62
4
 10
1123.090
 20
-7989.817
 30
96.430
 70
    32
  0
VERTEX
  8
T51SSILL
 62
4
 10
1129.830
 20
-7990.593
 30
96.357
 70
    32
  0
VERTEX
  8
T51SSILL
 62
4
 10
1137.617
 20
-7994.626
 30
96.294
 70
    32
  0
VERTEX
  8
T51SSILL
 62
4
 10
1142.833
 20
-8001.706
 30
96.283
 70
    32
  0
VERTEX
  8
T51SSILL
 62
4
 10
1146.273
 20
-8011.585
 30
96.314
 70
    32
  0
VERTEX
  8
T51SSILL
 62
4
 10
1150.475
 20
-8011.698
 30
96.265
 70
    32
  0
VERTEX
  8
T51SSILL
 62
4
 10
1154.776
 20
-8011.198
 30
96.211
 70
    32
  0
VERTEX
  8
T51SSILL
 62
4
 10
1156.667
 20
-7980.451
 30
95.968
 70
    32
  0
VERTEX
  8
T51SSILL
 62
4
 10
1176.835
 20
-7969.480
 30
95.652
 70
    32
  0
VERTEX
  8
T51SSILL
 62
4
 10
1189.110
 20
-7986.647
 30
95.630
 70
    32
  0
VERTEX
  8
T51SSILL
 62
4
 10
1182.775
 20
-7991.543
 30
95.740
 70
    32
  0
VERTEX
  8
T51SSILL
 62
4
 10
1187.552
 20
-7996.662
 30
95.721
 70
    32
  0
VERTEX
  8
T51SSILL
 62
4
 10
1193.717
 20
-7992.432
 30
95.618
 70
    32
  0
VERTEX
  8
T51SSILL
 62
4
 10
1200.096
 20
-8001.302
 30
95.606
 70
    32
  0
VERTEX
  8
T51SSILL
 62
4
 10
1190.357
 20
-8008.517
 30
95.773
 70
    32
  0
VERTEX
  8
T51SSILL
 62
4
 10
1194.773
 20
-8015.090
 30
95.768
 70
    32
  0
VERTEX
  8
T51SSILL
 62
4
 10
1204.738
 20
-8007.757
 30
95.598
 70
    32
  0
VERTEX
  8
T51SSILL
 62
4
 10
1264.412
 20
-8090.737
 30
95.491
 70
    32
  0
VERTEX
  8
T51SSILL
 62
4
 10
1150.681
 20
-8172.343
 30
96.524
 70
    32
  0
VERTEX
  8
T51SSILL
 62
4
 10
1154.573
 20
-8178.209
 30
96.508
 70
    32
  0
VERTEX
  8
T51SSILL
 62
4
 10
1171.109
 20
-8166.345
 30
96.516
 70
    32
  0
VERTEX
  8
T51SSILL
 62
4
 10
1173.757
 20
-8170.231
 30
96.505
 70
    32
  0
VERTEX
  8
T51SSILL
 62
4
 10
1179.797
 20
-8166.065
 30
96.508
 70
    32
  0
VERTEX
  8
T51SSILL
 62
4
 10
1176.990
 20
-8162.125
 30
96.519
 70
    32
  0
VERTEX
  8
T51SSILL
 62
4
 10
1267.315
 20
-8097.317
 30
95.504
 70
    32
  0
VERTEX
  8
T51SSILL
 62
4
 10
1390.142
 20
-8357.626
 30
95.884
 70
    32
  0
VERTEX
  8
T51SSILL
 62
4
 10
1389.999
 20
-8379.522
 30
95.837
 70
    32
  0
VERTEX
  8
T51SSILL
 62
4
 10
1387.455
 20
-8388.622
 30
95.820
 70
    32
  0
VERTEX
  8
T51SSILL
 62
4
 10
1381.668
 20
-8397.133
 30
95.808
 70
    32
  0
VERTEX
  8
T51SSILL
 62
4
 10
1223.755
 20
-8539.560
 30
95.661
 70
    32
  0
VERTEX
  8
T51SSILL
 62
4
 10
1216.298
 20
-8538.542
 30
95.671
 70
    32
  0
VERTEX
  8
T51SSILL
 62
4
 10
1204.124
 20
-8551.877
 30
95.654
 70
    32
  0
VERTEX
  8
T51SSILL
 62
4
 10
1202.714
 20
-8558.640
 30
95.641
 70
    32
  0
VERTEX
  8
T51SSILL
 62
4
 10
1186.853
 20
-8572.890
 30
95.626
 70
    32
  0
VERTEX
  8
T51SSILL
 62
4
 10
1192.425
 20
-8579.399
 30
95.607
 70
    32
  0
VERTEX
  8
T51SSILL
 62
4
 10
1208.960
 20
-8565.194
 30
95.621
 70
    32
  0
VERTEX
  8
T51SSILL
 62
4
 10
1211.356
 20
-8565.960
 30
95.617
 70
    32
  0
VERTEX
  8
T51SSILL
 62
4
 10
1223.256
 20
-8588.169
 30
95.557
 70
    32
  0
VERTEX
  8
T51SSILL
 62
4
 10
1225.094
 20
-8594.324
 30
95.542
 70
    32
  0
VERTEX
  8
T51SSILL
 62
4
 10
1225.879
 20
-8613.600
 30
95.500
 70
    32
  0
VERTEX
  8
T51SSILL
 62
4
 10
1236.686
 20
-8614.152
 30
95.486
 70
    32
  0
VERTEX
  8
T51SSILL
 62
4
 10
1244.990
 20
-8608.379
 30
95.491
 70
    32
  0
VERTEX
  8
T51SSILL
 62
4
 10
1240.038
 20
-8583.327
 30
95.550
 70
    32
  0
VERTEX
  8
T51SSILL
 62
4
 10
1234.208
 20
-8571.486
 30
95.582
 70
    32
  0
VERTEX
  8
T51SSILL
 62
4
 10
1236.642
 20
-8567.345
 30
95.588
 70
    32
  0
VERTEX
  8
T51SSILL
 62
4
 10
1226.851
 20
-8548.060
 30
95.639
 70
    32
  0
VERTEX
  8
T51SSILL
 62
4
 10
1385.986
 20
-8402.367
 30
95.792
 70
    32
  0
VERTEX
  8
T51SSILL
 62
4
 10
1395.766
 20
-8386.314
 30
95.817
 70
    32
  0
VERTEX
  8
T51SSILL
 62
4
 10
1397.352
 20
-8375.737
 30
95.838
 70
    32
  0
VERTEX
  8
T51SSILL
 62
4
 10
1429.795
 20
-8445.362
 30
95.655
 70
    32
  0
VERTEX
  8
T51SSILL
 62
4
 10
1427.352
 20
-8449.943
 30
95.648
 70
    32
  0
VERTEX
  8
T51SSILL
 62
4
 10
1422.788
 20
-8453.235
 30
95.645
 70
    32
  0
VERTEX
  8
T51SSILL
 62
4
 10
1422.834
 20
-8456.455
 30
95.638
 70
    32
  0
VERTEX
  8
T51SSILL
 62
4
 10
1429.436
 20
-8462.752
 30
95.618
 70
    32
  0
VERTEX
  8
T51SSILL
 62
4
 10
1433.673
 20
-8458.938
 30
95.622
 70
    32
  0
VERTEX
  8
T51SSILL
 62
4
 10
1437.034
 20
-8459.006
 30
95.619
 70
    32
  0
VERTEX
  8
T51SSILL
 62
4
 10
1443.561
 20
-8473.164
 30
95.582
 70
    32
  0
VERTEX
  8
T51SSILL
 62
4
 10
1449.556
 20
-8470.263
 30
95.582
 70
    32
  0
VERTEX
  8
T51SSILL
 62
4
 10
1273.349
 20
-8093.506
 30
95.406
 70
    32
  0
VERTEX
  8
T51SSILL
 62
4
 10
1317.850
 20
-8061.297
 30
95.799
 70
    32
  0
VERTEX
  8
T51SSILL
 62
4
 10
1313.097
 20
-8054.967
 30
95.786
 70
    32
  0
VERTEX
  8
T51SSILL
 62
4
 10
1270.534
 20
-8085.996
 30
95.385
 70
    32
  0
VERTEX
  8
T51SSILL
 62
4
 10
1263.937
 20
-8076.551
 30
95.395
 70
    32
  0
VERTEX
  8
T51SSILL
 62
4
 10
1265.498
 20
-8069.245
 30
95.324
 70
    32
  0
VERTEX
  8
T51SSILL
 62
4
 10
1260.335
 20
-8066.897
 30
95.368
 70
    32
  0
VERTEX
  8
T51SSILL
 62
4
 10
1257.910
 20
-8068.646
 30
95.409
 70
    32
  0
VERTEX
  8
T51SSILL
 62
4
 10
1254.443
 20
-8063.991
 30
95.416
 70
    32
  0
VERTEX
  8
T51SSILL
 62
4
 10
1257.601
 20
-8061.605
 30
95.362
 70
    32
  0
VERTEX
  8
T51SSILL
 62
4
 10
1254.084
 20
-8054.925
 30
95.356
 70
    32
  0
VERTEX
  8
T51SSILL
 62
4
 10
1249.722
 20
-8057.747
 30
95.427
 70
    32
  0
VERTEX
  8
T51SSILL
 62
4
 10
1240.497
 20
-8039.247
 30
95.403
 70
    32
  0
VERTEX
  8
T51SSILL
 62
4
 10
1235.213
 20
-8034.927
 30
95.434
 70
    32
  0
VERTEX
  8
T51SSILL
 62
4
 10
1212.362
 20
-7998.520
 30
95.442
 70
    32
  0
SEQEND
  8
T51SSILL
  0
POLYLINE
  8
T51SSILL
 62
3
 66
     1
 70
     8
  0
VERTEX
  8
T51SSILL
 62
3
 10
340.004
 20
-6212.859
 30
104.500
 70
    32
  0
VERTEX
  8
T51SSILL
 62
3
 10
351.959
 20
-6218.729
 30
104.000
 70
    32
  0
VERTEX
  8
T51SSILL
 62
3
 10
354.339
 20
-6207.045
 30
103.500
 70
    32
  0
SEQEND
  8
T51SSILL
  0
POLYLINE
  8
T51SSILL
 62
3
 66
     1
 70
     8
  0
VERTEX
  8
T51SSILL
 62
3
 10
369.436
 20
-6254.540
 30
103.500
 70
    32
  0
VERTEX
  8
T51SSILL
 62
3
 10
361.036
 20
-6241.019
 30
103.500
 70
    32
  0
VERTEX
  8
T51SSILL
 62
3
 10
350.665
 20
-6230.714
 30
104.000
 70
    32
  0
VERTEX
  8
T51SSILL
 62
3
 10
335.567
 20
-6222.503
 30
104.500
 70
    32
  0
SEQEND
  8
T51SSILL
  0
LINE
  8
T51SSILL
 62
3
 10
335.567
 20
-6222.503
 30
104.500
 11
340.004
 21
-6212.859
 31
104.500
  0
TEXT
  8
T51SSILL
 62
3
 10
302.321
 20
-6221.478
 30
102.432
 40
0.200
  1
U
 50
-139.259
 41
 1.0 
  0
ENDSEC
  0
EOF
