999
********************************
999
*   DXF File - Entities Only   *
999
*        3D Data Format        *
999
*     Output from ENVISAGE     *
999
*     24-Dec-2007 12:19:23     *
999
********************************
  0
SECTION 
  2
HEADER
  9
$ACADVER
  1
AC1009
  9
$EXTMIN
 10
-290000.000
 20
-250000.000
 30
-4000.000
  9
$EXTMAX
 10
5000000.000
 20
600000.000
 30
6000.000
  0
ENDSEC
  0
SECTION
  2
ENTITIES
  0
POLYLINE
  8
T51STIM
 62
6
 66
     1
 70
     9
  0
VERTEX
  8
T51STIM
 62
6
 10
1020.041
 20
-7752.548
 30
1000.000
 70
    32
  0
VERTEX
  8
T51STIM
 62
6
 10
1034.162
 20
-7772.098
 30
1000.000
 70
    32
  0
VERTEX
  8
T51STIM
 62
6
 10
1065.662
 20
-7827.488
 30
1000.000
 70
    32
  0
VERTEX
  8
T51STIM
 62
6
 10
1089.559
 20
-7843.779
 30
1000.000
 70
    32
  0
VERTEX
  8
T51STIM
 62
6
 10
1085.214
 20
-7850.838
 30
1000.000
 70
    32
  0
VERTEX
  8
T51STIM
 62
6
 10
1060.774
 20
-7834.004
 30
1000.000
 70
    32
  0
VERTEX
  8
T51STIM
 62
6
 10
1048.826
 20
-7812.826
 30
1000.000
 70
    32
  0
VERTEX
  8
T51STIM
 62
6
 10
1042.308
 20
-7817.170
 30
1000.000
 70
    32
  0
VERTEX
  8
T51STIM
 62
6
 10
1036.334
 20
-7805.766
 30
1000.000
 70
    32
  0
VERTEX
  8
T51STIM
 62
6
 10
1042.308
 20
-7802.508
 30
1000.000
 70
    32
  0
VERTEX
  8
T51STIM
 62
6
 10
1027.644
 20
-7776.985
 30
1000.000
 70
    32
  0
VERTEX
  8
T51STIM
 62
6
 10
1012.437
 20
-7757.979
 30
1000.000
 70
    32
  0
SEQEND
  8
T51STIM
  0
POLYLINE
  8
T51STIM
 62
6
 66
     1
 70
     9
  0
VERTEX
  8
T51STIM
 62
6
 10
3916.466
 20
-8292.259
 30
1000.000
 70
    32
  0
VERTEX
  8
T51STIM
 62
6
 10
3921.170
 20
-8296.965
 30
1000.000
 70
    32
  0
VERTEX
  8
T51STIM
 62
6
 10
3915.290
 20
-8301.084
 30
1000.000
 70
    32
  0
VERTEX
  8
T51STIM
 62
6
 10
3912.350
 20
-8294.612
 30
1000.000
 70
    32
  0
SEQEND
  8
T51STIM
  0
POLYLINE
  8
T51STIM
 62
6
 66
     1
 70
     9
  0
VERTEX
  8
T51STIM
 62
6
 10
4211.667
 20
-8451.686
 30
1000.000
 70
    32
  0
VERTEX
  8
T51STIM
 62
6
 10
4321.632
 20
-8605.819
 30
1000.000
 70
    32
  0
VERTEX
  8
T51STIM
 62
6
 10
4315.751
 20
-8609.937
 30
1000.000
 70
    32
  0
VERTEX
  8
T51STIM
 62
6
 10
4268.707
 20
-8544.637
 30
1000.000
 70
    32
  0
VERTEX
  8
T51STIM
 62
6
 10
4268.707
 20
-8558.168
 30
1000.000
 70
    32
  0
VERTEX
  8
T51STIM
 62
6
 10
4266.943
 20
-8563.462
 30
1000.000
 70
    32
  0
VERTEX
  8
T51STIM
 62
6
 10
4260.475
 20
-8562.874
 30
1000.000
 70
    32
  0
VERTEX
  8
T51STIM
 62
6
 10
4259.299
 20
-8551.696
 30
1000.000
 70
    32
  0
VERTEX
  8
T51STIM
 62
6
 10
4258.710
 20
-8537.577
 30
1000.000
 70
    32
  0
VERTEX
  8
T51STIM
 62
6
 10
4254.006
 20
-8524.046
 30
1000.000
 70
    32
  0
VERTEX
  8
T51STIM
 62
6
 10
4247.537
 20
-8515.222
 30
1000.000
 70
    32
  0
VERTEX
  8
T51STIM
 62
6
 10
4242.833
 20
-8518.752
 30
1000.000
 70
    32
  0
VERTEX
  8
T51STIM
 62
6
 10
4236.364
 20
-8508.162
 30
1000.000
 70
    32
  0
VERTEX
  8
T51STIM
 62
6
 10
4240.481
 20
-8505.221
 30
1000.000
 70
    32
  0
VERTEX
  8
T51STIM
 62
6
 10
4212.255
 20
-8465.806
 30
1000.000
 70
    32
  0
VERTEX
  8
T51STIM
 62
6
 10
4208.138
 20
-8469.924
 30
1000.000
 70
    32
  0
VERTEX
  8
T51STIM
 62
6
 10
4203.434
 20
-8464.041
 30
1000.000
 70
    32
  0
VERTEX
  8
T51STIM
 62
6
 10
4209.314
 20
-8460.511
 30
1000.000
 70
    32
  0
VERTEX
  8
T51STIM
 62
6
 10
4205.786
 20
-8455.216
 30
1000.000
 70
    32
  0
SEQEND
  8
T51STIM
  0
POLYLINE
  8
T51STIM
 62
6
 66
     1
 70
     9
  0
VERTEX
  8
T51STIM
 62
6
 10
4532.897
 20
-8080.263
 30
1000.000
 70
    32
  0
VERTEX
  8
T51STIM
 62
6
 10
4512.012
 20
-8095.226
 30
1000.000
 70
    32
  0
VERTEX
  8
T51STIM
 62
6
 10
4516.065
 20
-8100.838
 30
1000.000
 70
    32
  0
VERTEX
  8
T51STIM
 62
6
 10
4537.573
 20
-8086.497
 30
1000.000
 70
    32
  0
SEQEND
  8
T51STIM
  0
POLYLINE
  8
T51STIM
 62
6
 66
     1
 70
     9
  0
VERTEX
  8
T51STIM
 62
6
 10
5034.614
 20
-8432.108
 30
1000.000
 70
    32
  0
VERTEX
  8
T51STIM
 62
6
 10
5084.866
 20
-8396.237
 30
1000.000
 70
    32
  0
VERTEX
  8
T51STIM
 62
6
 10
5102.781
 20
-8421.172
 30
1000.000
 70
    32
  0
VERTEX
  8
T51STIM
 62
6
 10
5109.773
 20
-8415.923
 30
1000.000
 70
    32
  0
VERTEX
  8
T51STIM
 62
6
 10
5091.420
 20
-8390.550
 30
1000.000
 70
    32
  0
VERTEX
  8
T51STIM
 62
6
 10
5107.588
 20
-8379.614
 30
1000.000
 70
    32
  0
VERTEX
  8
T51STIM
 62
6
 10
5101.907
 20
-8373.052
 30
1000.000
 70
    32
  0
VERTEX
  8
T51STIM
 62
6
 10
5087.050
 20
-8384.864
 30
1000.000
 70
    32
  0
VERTEX
  8
T51STIM
 62
6
 10
5084.428
 20
-8381.364
 30
1000.000
 70
    32
  0
VERTEX
  8
T51STIM
 62
6
 10
5077.874
 20
-8386.176
 30
1000.000
 70
    32
  0
VERTEX
  8
T51STIM
 62
6
 10
5080.059
 20
-8389.675
 30
1000.000
 70
    32
  0
VERTEX
  8
T51STIM
 62
6
 10
5029.807
 20
-8425.984
 30
1000.000
 70
    32
  0
SEQEND
  8
T51STIM
  0
POLYLINE
  8
T51STIM
 62
6
 66
     1
 70
     9
  0
VERTEX
  8
T51STIM
 62
6
 10
5119.823
 20
-8637.271
 30
1000.000
 70
    32
  0
VERTEX
  8
T51STIM
 62
6
 10
5122.882
 20
-8613.212
 30
1000.000
 70
    32
  0
VERTEX
  8
T51STIM
 62
6
 10
5135.117
 20
-8615.399
 30
1000.000
 70
    32
  0
VERTEX
  8
T51STIM
 62
6
 10
5135.991
 20
-8608.837
 30
1000.000
 70
    32
  0
VERTEX
  8
T51STIM
 62
6
 10
5124.630
 20
-8607.087
 30
1000.000
 70
    32
  0
VERTEX
  8
T51STIM
 62
6
 10
5125.941
 20
-8599.651
 30
1000.000
 70
    32
  0
VERTEX
  8
T51STIM
 62
6
 10
5130.748
 20
-8596.589
 30
1000.000
 70
    32
  0
VERTEX
  8
T51STIM
 62
6
 10
5125.067
 20
-8590.902
 30
1000.000
 70
    32
  0
VERTEX
  8
T51STIM
 62
6
 10
5118.076
 20
-8598.776
 30
1000.000
 70
    32
  0
VERTEX
  8
T51STIM
 62
6
 10
5115.017
 20
-8610.587
 30
1000.000
 70
    32
  0
VERTEX
  8
T51STIM
 62
6
 10
5108.899
 20
-8609.712
 30
1000.000
 70
    32
  0
VERTEX
  8
T51STIM
 62
6
 10
5107.151
 20
-8622.398
 30
1000.000
 70
    32
  0
VERTEX
  8
T51STIM
 62
6
 10
5113.269
 20
-8624.148
 30
1000.000
 70
    32
  0
VERTEX
  8
T51STIM
 62
6
 10
5111.521
 20
-8635.959
 30
1000.000
 70
    32
  0
SEQEND
  8
T51STIM
  0
POLYLINE
  8
T51STIM
 62
6
 66
     1
 70
     9
  0
VERTEX
  8
T51STIM
 62
6
 10
5851.169
 20
-7584.652
 30
1000.000
 70
    32
  0
VERTEX
  8
T51STIM
 62
6
 10
5888.314
 20
-7557.752
 30
1000.000
 70
    32
  0
VERTEX
  8
T51STIM
 62
6
 10
5900.157
 20
-7544.839
 30
1000.000
 70
    32
  0
VERTEX
  8
T51STIM
 62
6
 10
5905.540
 20
-7550.757
 30
1000.000
 70
    32
  0
VERTEX
  8
T51STIM
 62
6
 10
5889.929
 20
-7566.898
 30
1000.000
 70
    32
  0
VERTEX
  8
T51STIM
 62
6
 10
5873.241
 20
-7578.734
 30
1000.000
 70
    32
  0
VERTEX
  8
T51STIM
 62
6
 10
5878.085
 20
-7585.190
 30
1000.000
 70
    32
  0
VERTEX
  8
T51STIM
 62
6
 10
5864.627
 20
-7594.336
 30
1000.000
 70
    32
  0
VERTEX
  8
T51STIM
 62
6
 10
5859.782
 20
-7587.342
 30
1000.000
 70
    32
  0
VERTEX
  8
T51STIM
 62
6
 10
5854.399
 20
-7592.184
 30
1000.000
 70
    32
  0
SEQEND
  8
T51STIM
  0
POLYLINE
  8
T51STIM
 62
6
 66
     1
 70
     9
  0
VERTEX
  8
T51STIM
 62
6
 10
5907.155
 20
-7680.956
 30
1000.000
 70
    32
  0
VERTEX
  8
T51STIM
 62
6
 10
5942.685
 20
-7655.132
 30
1000.000
 70
    32
  0
VERTEX
  8
T51STIM
 62
6
 10
5938.378
 20
-7647.600
 30
1000.000
 70
    32
  0
VERTEX
  8
T51STIM
 62
6
 10
5933.533
 20
-7650.827
 30
1000.000
 70
    32
  0
VERTEX
  8
T51STIM
 62
6
 10
5918.460
 20
-7627.155
 30
1000.000
 70
    32
  0
VERTEX
  8
T51STIM
 62
6
 10
5913.615
 20
-7630.921
 30
1000.000
 70
    32
  0
VERTEX
  8
T51STIM
 62
6
 10
5908.232
 20
-7620.699
 30
1000.000
 70
    32
  0
VERTEX
  8
T51STIM
 62
6
 10
5891.543
 20
-7631.997
 30
1000.000
 70
    32
  0
VERTEX
  8
T51STIM
 62
6
 10
5901.772
 20
-7648.675
 30
1000.000
 70
    32
  0
VERTEX
  8
T51STIM
 62
6
 10
5907.155
 20
-7644.371
 30
1000.000
 70
    32
  0
VERTEX
  8
T51STIM
 62
6
 10
5918.998
 20
-7661.588
 30
1000.000
 70
    32
  0
VERTEX
  8
T51STIM
 62
6
 10
5901.772
 20
-7675.038
 30
1000.000
 70
    32
  0
SEQEND
  8
T51STIM
  0
POLYLINE
  8
T51STIM
 62
6
 66
     1
 70
     9
  0
VERTEX
  8
T51STIM
 62
6
 10
5865.704
 20
-7824.605
 30
1000.000
 70
    32
  0
VERTEX
  8
T51STIM
 62
6
 10
5871.087
 20
-7832.675
 30
1000.000
 70
    32
  0
VERTEX
  8
T51STIM
 62
6
 10
5840.941
 20
-7854.196
 30
1000.000
 70
    32
  0
VERTEX
  8
T51STIM
 62
6
 10
5833.404
 20
-7845.588
 30
1000.000
 70
    32
  0
VERTEX
  8
T51STIM
 62
6
 10
5838.249
 20
-7842.360
 30
1000.000
 70
    32
  0
VERTEX
  8
T51STIM
 62
6
 10
5836.634
 20
-7836.979
 30
1000.000
 70
    32
  0
VERTEX
  8
T51STIM
 62
6
 10
5845.247
 20
-7831.061
 30
1000.000
 70
    32
  0
VERTEX
  8
T51STIM
 62
6
 10
5848.477
 20
-7836.979
 30
1000.000
 70
    32
  0
SEQEND
  8
T51STIM
  0
POLYLINE
  8
T51STIM
 62
6
 66
     1
 70
     9
  0
VERTEX
  8
T51STIM
 62
6
 10
5922.766
 20
-7918.757
 30
1000.000
 70
    32
  0
VERTEX
  8
T51STIM
 62
6
 10
5917.383
 20
-7912.839
 30
1000.000
 70
    32
  0
VERTEX
  8
T51STIM
 62
6
 10
5894.774
 20
-7928.980
 30
1000.000
 70
    32
  0
VERTEX
  8
T51STIM
 62
6
 10
5891.543
 20
-7924.137
 30
1000.000
 70
    32
  0
VERTEX
  8
T51STIM
 62
6
 10
5881.315
 20
-7932.208
 30
1000.000
 70
    32
  0
VERTEX
  8
T51STIM
 62
6
 10
5884.545
 20
-7936.512
 30
1000.000
 70
    32
  0
VERTEX
  8
T51STIM
 62
6
 10
5876.470
 20
-7941.892
 30
1000.000
 70
    32
  0
VERTEX
  8
T51STIM
 62
6
 10
5879.700
 20
-7949.962
 30
1000.000
 70
    32
  0
VERTEX
  8
T51STIM
 62
6
 10
5901.233
 20
-7934.360
 30
1000.000
 70
    32
  0
SEQEND
  8
T51STIM
  0
ENDSEC
  0
EOF
