999
********************************
999
*   DXF File - Entities Only   *
999
*        3D Data Format        *
999
*     Output from ENVISAGE     *
999
*     24-Dec-2007 12:20:01     *
999
********************************
  0
SECTION 
  2
HEADER
  9
$ACADVER
  1
AC1009
  9
$EXTMIN
 10
-290000.000
 20
-250000.000
 30
-4000.000
  9
$EXTMAX
 10
5000000.000
 20
600000.000
 30
6000.000
  0
ENDSEC
  0
SECTION
  2
ENTITIES
  0
POLYLINE
  8
T53SSILL
 62
7
 66
     1
 70
     9
  0
VERTEX
  8
T53SSILL
 62
7
 10
1258.299
 20
-7464.148
 30
-51.366
 70
    32
  0
VERTEX
  8
T53SSILL
 62
7
 10
1258.025
 20
-7463.775
 30
-51.365
 70
    32
  0
SEQEND
  8
T53SSILL
  0
POLYLINE
  8
T53SSILL
 62
7
 66
     1
 70
     9
  0
VERTEX
  8
T53SSILL
 62
7
 10
4190.375
 20
-8684.942
 30
-59.780
 70
    32
  0
VERTEX
  8
T53SSILL
 62
7
 10
4190.664
 20
-8693.718
 30
-59.738
 70
    32
  0
VERTEX
  8
T53SSILL
 62
7
 10
4196.185
 20
-8705.592
 30
-59.699
 70
    32
  0
VERTEX
  8
T53SSILL
 62
7
 10
4211.370
 20
-8714.164
 30
-59.705
 70
    32
  0
VERTEX
  8
T53SSILL
 62
7
 10
4215.293
 20
-8711.158
 30
-59.732
 70
    32
  0
VERTEX
  8
T53SSILL
 62
7
 10
4217.449
 20
-8704.755
 30
-59.769
 70
    32
  0
VERTEX
  8
T53SSILL
 62
7
 10
4212.843
 20
-8696.451
 30
-59.795
 70
    32
  0
VERTEX
  8
T53SSILL
 62
7
 10
4210.686
 20
-8674.395
 30
-59.894
 70
    32
  0
VERTEX
  8
T53SSILL
 62
7
 10
4212.002
 20
-8672.593
 30
-59.907
 70
    32
  0
VERTEX
  8
T53SSILL
 62
7
 10
4219.317
 20
-8670.097
 30
-59.942
 70
    32
  0
VERTEX
  8
T53SSILL
 62
7
 10
4220.541
 20
-8663.600
 30
-59.977
 70
    32
  0
SEQEND
  8
T53SSILL
  0
POLYLINE
  8
T53SSILL
 62
7
 66
     1
 70
     9
  0
VERTEX
  8
T53SSILL
 62
7
 10
4362.778
 20
-8720.884
 30
-60.146
 70
    32
  0
VERTEX
  8
T53SSILL
 62
7
 10
4353.004
 20
-8736.815
 30
-60.039
 70
    32
  0
VERTEX
  8
T53SSILL
 62
7
 10
4320.238
 20
-8761.196
 30
-59.820
 70
    32
  0
VERTEX
  8
T53SSILL
 62
7
 10
4320.492
 20
-8757.445
 30
-59.838
 70
    32
  0
VERTEX
  8
T53SSILL
 62
7
 10
4329.010
 20
-8748.574
 30
-59.908
 70
    32
  0
VERTEX
  8
T53SSILL
 62
7
 10
4330.200
 20
-8743.400
 30
-59.936
 70
    32
  0
VERTEX
  8
T53SSILL
 62
7
 10
4321.640
 20
-8719.187
 30
-60.026
 70
    32
  0
VERTEX
  8
T53SSILL
 62
7
 10
4330.469
 20
-8713.341
 30
-60.081
 70
    32
  0
VERTEX
  8
T53SSILL
 62
7
 10
4338.041
 20
-8715.316
 30
-60.096
 70
    32
  0
VERTEX
  8
T53SSILL
 62
7
 10
4349.977
 20
-8709.426
 30
-60.161
 70
    32
  0
VERTEX
  8
T53SSILL
 62
7
 10
4361.511
 20
-8718.646
 30
-60.153
 70
    32
  0
SEQEND
  8
T53SSILL
  0
POLYLINE
  8
T53SSILL
 62
7
 66
     1
 70
     9
  0
VERTEX
  8
T53SSILL
 62
7
 10
4460.226
 20
-8671.503
 30
-60.688
 70
    32
  0
VERTEX
  8
T53SSILL
 62
7
 10
4457.287
 20
-8674.675
 30
-60.664
 70
    32
  0
VERTEX
  8
T53SSILL
 62
7
 10
4466.348
 20
-8699.289
 30
-60.574
 70
    32
  0
VERTEX
  8
T53SSILL
 62
7
 10
4468.049
 20
-8699.702
 30
-60.577
 70
    32
  0
VERTEX
  8
T53SSILL
 62
7
 10
4471.884
 20
-8694.595
 30
-60.614
 70
    32
  0
VERTEX
  8
T53SSILL
 62
7
 10
4475.071
 20
-8680.966
 30
-60.689
 70
    32
  0
VERTEX
  8
T53SSILL
 62
7
 10
4468.986
 20
-8673.931
 30
-60.704
 70
    32
  0
VERTEX
  8
T53SSILL
 62
7
 10
4463.840
 20
-8673.694
 30
-60.689
 70
    32
  0
SEQEND
  8
T53SSILL
  0
POLYLINE
  8
T53SSILL
 62
7
 66
     1
 70
     9
  0
VERTEX
  8
T53SSILL
 62
7
 10
4501.764
 20
-8725.507
 30
-60.559
 70
    32
  0
VERTEX
  8
T53SSILL
 62
7
 10
4490.821
 20
-8713.160
 30
-60.584
 70
    32
  0
VERTEX
  8
T53SSILL
 62
7
 10
4486.684
 20
-8710.691
 30
-60.583
 70
    32
  0
VERTEX
  8
T53SSILL
 62
7
 10
4480.052
 20
-8710.646
 30
-60.562
 70
    32
  0
VERTEX
  8
T53SSILL
 62
7
 10
4478.236
 20
-8711.288
 30
-60.553
 70
    32
  0
VERTEX
  8
T53SSILL
 62
7
 10
4477.646
 20
-8713.655
 30
-60.540
 70
    32
  0
VERTEX
  8
T53SSILL
 62
7
 10
4479.684
 20
-8719.565
 30
-60.518
 70
    32
  0
VERTEX
  8
T53SSILL
 62
7
 10
4490.937
 20
-8725.955
 30
-60.523
 70
    32
  0
VERTEX
  8
T53SSILL
 62
7
 10
4498.287
 20
-8726.248
 30
-60.544
 70
    32
  0
SEQEND
  8
T53SSILL
  0
POLYLINE
  8
T53SSILL
 62
7
 66
     1
 70
     9
  0
VERTEX
  8
T53SSILL
 62
7
 10
4307.506
 20
-8245.223
 30
-59.530
 70
    32
  0
VERTEX
  8
T53SSILL
 62
7
 10
4205.119
 20
-8270.244
 30
-59.516
 70
    32
  0
VERTEX
  8
T53SSILL
 62
7
 10
4204.735
 20
-8272.897
 30
-59.530
 70
    32
  0
VERTEX
  8
T53SSILL
 62
7
 10
4312.742
 20
-8282.389
 30
-59.736
 70
    32
  0
VERTEX
  8
T53SSILL
 62
7
 10
4305.935
 20
-8268.409
 30
-59.652
 70
    32
  0
VERTEX
  8
T53SSILL
 62
7
 10
4305.770
 20
-8258.141
 30
-59.597
 70
    32
  0
VERTEX
  8
T53SSILL
 62
7
 10
4307.550
 20
-8249.086
 30
-59.551
 70
    32
  0
SEQEND
  8
T53SSILL
  0
POLYLINE
  8
T53SSILL
 62
7
 66
     1
 70
     9
  0
VERTEX
  8
T53SSILL
 62
7
 10
4404.775
 20
-8230.818
 30
-59.594
 70
    32
  0
VERTEX
  8
T53SSILL
 62
7
 10
4408.243
 20
-8228.254
 30
-59.585
 70
    32
  0
VERTEX
  8
T53SSILL
 62
7
 10
4387.781
 20
-8192.278
 30
-59.363
 70
    32
  0
VERTEX
  8
T53SSILL
 62
7
 10
4319.849
 20
-8242.500
 30
-59.534
 70
    32
  0
VERTEX
  8
T53SSILL
 62
7
 10
4314.479
 20
-8253.352
 30
-59.584
 70
    32
  0
VERTEX
  8
T53SSILL
 62
7
 10
4313.061
 20
-8260.635
 30
-59.621
 70
    32
  0
VERTEX
  8
T53SSILL
 62
7
 10
4314.440
 20
-8268.200
 30
-59.663
 70
    32
  0
VERTEX
  8
T53SSILL
 62
7
 10
4321.697
 20
-8283.267
 30
-59.754
 70
    32
  0
VERTEX
  8
T53SSILL
 62
7
 10
4436.017
 20
-8294.140
 30
-59.977
 70
    32
  0
VERTEX
  8
T53SSILL
 62
7
 10
4442.976
 20
-8289.557
 30
-59.962
 70
    32
  0
VERTEX
  8
T53SSILL
 62
7
 10
4411.843
 20
-8233.852
 30
-59.620
 70
    32
  0
VERTEX
  8
T53SSILL
 62
7
 10
4407.999
 20
-8235.810
 30
-59.625
 70
    32
  0
SEQEND
  8
T53SSILL
  0
POLYLINE
  8
T53SSILL
 62
7
 66
     1
 70
     9
  0
VERTEX
  8
T53SSILL
 62
7
 10
4414.662
 20
-8393.573
 30
-60.477
 70
    32
  0
VERTEX
  8
T53SSILL
 62
7
 10
4410.427
 20
-8397.669
 30
-60.493
 70
    32
  0
VERTEX
  8
T53SSILL
 62
7
 10
4412.725
 20
-8400.111
 30
-60.509
 70
    32
  0
VERTEX
  8
T53SSILL
 62
7
 10
4475.942
 20
-8354.435
 30
-60.357
 70
    32
  0
VERTEX
  8
T53SSILL
 62
7
 10
4464.330
 20
-8351.549
 30
-60.324
 70
    32
  0
VERTEX
  8
T53SSILL
 62
7
 10
4455.895
 20
-8346.558
 30
-60.286
 70
    32
  0
VERTEX
  8
T53SSILL
 62
7
 10
4433.846
 20
-8310.160
 30
-60.059
 70
    32
  0
VERTEX
  8
T53SSILL
 62
7
 10
4439.855
 20
-8305.663
 30
-60.044
 70
    32
  0
VERTEX
  8
T53SSILL
 62
7
 10
4447.667
 20
-8318.745
 30
-60.125
 70
    32
  0
VERTEX
  8
T53SSILL
 62
7
 10
4448.785
 20
-8319.431
 30
-60.130
 70
    32
  0
VERTEX
  8
T53SSILL
 62
7
 10
4453.858
 20
-8315.460
 30
-60.117
 70
    32
  0
VERTEX
  8
T53SSILL
 62
7
 10
4466.987
 20
-8336.836
 30
-60.250
 70
    32
  0
VERTEX
  8
T53SSILL
 62
7
 10
4465.778
 20
-8342.793
 30
-60.280
 70
    32
  0
VERTEX
  8
T53SSILL
 62
7
 10
4478.358
 20
-8346.600
 30
-60.318
 70
    32
  0
VERTEX
  8
T53SSILL
 62
7
 10
4488.553
 20
-8345.757
 30
-60.328
 70
    32
  0
VERTEX
  8
T53SSILL
 62
7
 10
4536.488
 20
-8310.458
 30
-60.209
 70
    32
  0
VERTEX
  8
T53SSILL
 62
7
 10
4345.649
 20
-8294.135
 30
-59.847
 70
    32
  0
VERTEX
  8
T53SSILL
 62
7
 10
4345.271
 20
-8297.247
 30
-59.863
 70
    32
  0
VERTEX
  8
T53SSILL
 62
7
 10
4351.016
 20
-8308.819
 30
-59.933
 70
    32
  0
VERTEX
  8
T53SSILL
 62
7
 10
4352.087
 20
-8316.711
 30
-59.976
 70
    32
  0
VERTEX
  8
T53SSILL
 62
7
 10
4366.759
 20
-8333.534
 30
-60.087
 70
    32
  0
VERTEX
  8
T53SSILL
 62
7
 10
4361.827
 20
-8338.284
 30
-60.106
 70
    32
  0
VERTEX
  8
T53SSILL
 62
7
 10
4372.859
 20
-8354.855
 30
-60.210
 70
    32
  0
VERTEX
  8
T53SSILL
 62
7
 10
4375.618
 20
-8352.222
 30
-60.200
 70
    32
  0
SEQEND
  8
T53SSILL
  0
POLYLINE
  8
T53SSILL
 62
7
 66
     1
 70
     9
  0
VERTEX
  8
T53SSILL
 62
7
 10
4374.020
 20
-8713.106
 30
-60.219
 70
    32
  0
VERTEX
  8
T53SSILL
 62
7
 10
4369.548
 20
-8723.861
 30
-60.153
 70
    32
  0
VERTEX
  8
T53SSILL
 62
7
 10
4357.810
 20
-8742.813
 30
-60.025
 70
    32
  0
VERTEX
  8
T53SSILL
 62
7
 10
4341.963
 20
-8755.488
 30
-59.915
 70
    32
  0
VERTEX
  8
T53SSILL
 62
7
 10
4345.355
 20
-8761.516
 30
-59.897
 70
    32
  0
VERTEX
  8
T53SSILL
 62
7
 10
4359.833
 20
-8775.029
 30
-59.877
 70
    32
  0
VERTEX
  8
T53SSILL
 62
7
 10
4370.846
 20
-8792.952
 30
-59.825
 70
    32
  0
VERTEX
  8
T53SSILL
 62
7
 10
4376.276
 20
-8794.502
 30
-59.835
 70
    32
  0
VERTEX
  8
T53SSILL
 62
7
 10
4384.102
 20
-8792.724
 30
-59.868
 70
    32
  0
VERTEX
  8
T53SSILL
 62
7
 10
4384.869
 20
-8788.932
 30
-59.888
 70
    32
  0
VERTEX
  8
T53SSILL
 62
7
 10
4379.863
 20
-8751.912
 30
-60.051
 70
    32
  0
VERTEX
  8
T53SSILL
 62
7
 10
4381.023
 20
-8746.543
 30
-60.080
 70
    32
  0
VERTEX
  8
T53SSILL
 62
7
 10
4376.540
 20
-8728.520
 30
-60.153
 70
    32
  0
SEQEND
  8
T53SSILL
  0
POLYLINE
  8
T53SSILL
 62
7
 66
     1
 70
     9
  0
VERTEX
  8
T53SSILL
 62
7
 10
4320.859
 20
-8619.320
 30
-60.503
 70
    32
  0
VERTEX
  8
T53SSILL
 62
7
 10
4317.078
 20
-8618.113
 30
-60.497
 70
    32
  0
VERTEX
  8
T53SSILL
 62
7
 10
4317.110
 20
-8607.810
 30
-60.547
 70
    32
  0
VERTEX
  8
T53SSILL
 62
7
 10
4309.343
 20
-8605.866
 30
-60.532
 70
    32
  0
VERTEX
  8
T53SSILL
 62
7
 10
4266.600
 20
-8636.151
 30
-60.252
 70
    32
  0
VERTEX
  8
T53SSILL
 62
7
 10
4263.747
 20
-8632.444
 30
-60.261
 70
    32
  0
VERTEX
  8
T53SSILL
 62
7
 10
4237.913
 20
-8651.355
 30
-60.090
 70
    32
  0
VERTEX
  8
T53SSILL
 62
7
 10
4238.177
 20
-8652.791
 30
-60.084
 70
    32
  0
VERTEX
  8
T53SSILL
 62
7
 10
4241.578
 20
-8653.618
 30
-60.090
 70
    32
  0
VERTEX
  8
T53SSILL
 62
7
 10
4253.905
 20
-8651.779
 30
-60.138
 70
    32
  0
VERTEX
  8
T53SSILL
 62
7
 10
4258.668
 20
-8653.911
 30
-60.142
 70
    32
  0
VERTEX
  8
T53SSILL
 62
7
 10
4265.617
 20
-8664.445
 30
-60.113
 70
    32
  0
VERTEX
  8
T53SSILL
 62
7
 10
4266.779
 20
-8672.167
 30
-60.080
 70
    32
  0
VERTEX
  8
T53SSILL
 62
7
 10
4270.154
 20
-8676.152
 30
-60.071
 70
    32
  0
VERTEX
  8
T53SSILL
 62
7
 10
4281.569
 20
-8683.834
 30
-60.070
 70
    32
  0
VERTEX
  8
T53SSILL
 62
7
 10
4282.179
 20
-8686.214
 30
-60.061
 70
    32
  0
VERTEX
  8
T53SSILL
 62
7
 10
4277.510
 20
-8692.888
 30
-60.014
 70
    32
  0
VERTEX
  8
T53SSILL
 62
7
 10
4262.467
 20
-8684.973
 30
-60.005
 70
    32
  0
VERTEX
  8
T53SSILL
 62
7
 10
4245.965
 20
-8697.681
 30
-59.892
 70
    32
  0
VERTEX
  8
T53SSILL
 62
7
 10
4243.237
 20
-8698.105
 30
-59.882
 70
    32
  0
VERTEX
  8
T53SSILL
 62
7
 10
4229.833
 20
-8709.692
 30
-59.784
 70
    32
  0
VERTEX
  8
T53SSILL
 62
7
 10
4255.814
 20
-8708.640
 30
-59.871
 70
    32
  0
VERTEX
  8
T53SSILL
 62
7
 10
4278.932
 20
-8718.173
 30
-59.897
 70
    32
  0
VERTEX
  8
T53SSILL
 62
7
 10
4282.326
 20
-8717.924
 30
-59.909
 70
    32
  0
VERTEX
  8
T53SSILL
 62
7
 10
4285.037
 20
-8716.105
 30
-59.926
 70
    32
  0
VERTEX
  8
T53SSILL
 62
7
 10
4297.334
 20
-8694.592
 30
-60.068
 70
    32
  0
VERTEX
  8
T53SSILL
 62
7
 10
4295.033
 20
-8677.507
 30
-60.143
 70
    32
  0
VERTEX
  8
T53SSILL
 62
7
 10
4302.659
 20
-8673.166
 30
-60.187
 70
    32
  0
VERTEX
  8
T53SSILL
 62
7
 10
4309.958
 20
-8692.865
 30
-60.116
 70
    32
  0
VERTEX
  8
T53SSILL
 62
7
 10
4315.733
 20
-8700.987
 30
-60.095
 70
    32
  0
VERTEX
  8
T53SSILL
 62
7
 10
4321.858
 20
-8703.666
 30
-60.101
 70
    32
  0
VERTEX
  8
T53SSILL
 62
7
 10
4331.921
 20
-8700.622
 30
-60.147
 70
    32
  0
VERTEX
  8
T53SSILL
 62
7
 10
4341.203
 20
-8694.347
 30
-60.206
 70
    32
  0
VERTEX
  8
T53SSILL
 62
7
 10
4345.301
 20
-8695.545
 30
-60.213
 70
    32
  0
VERTEX
  8
T53SSILL
 62
7
 10
4351.637
 20
-8700.346
 30
-60.210
 70
    32
  0
VERTEX
  8
T53SSILL
 62
7
 10
4362.623
 20
-8701.948
 30
-60.237
 70
    32
  0
VERTEX
  8
T53SSILL
 62
7
 10
4369.988
 20
-8700.283
 30
-60.268
 70
    32
  0
VERTEX
  8
T53SSILL
 62
7
 10
4353.710
 20
-8622.148
 30
-60.592
 70
    32
  0
VERTEX
  8
T53SSILL
 62
7
 10
4345.396
 20
-8617.455
 30
-60.589
 70
    32
  0
VERTEX
  8
T53SSILL
 62
7
 10
4339.729
 20
-8611.313
 30
-60.600
 70
    32
  0
VERTEX
  8
T53SSILL
 62
7
 10
4337.958
 20
-8595.582
 30
-60.670
 70
    32
  0
VERTEX
  8
T53SSILL
 62
7
 10
4341.240
 20
-8594.872
 30
-60.684
 70
    32
  0
VERTEX
  8
T53SSILL
 62
7
 10
4345.927
 20
-8589.592
 30
-60.724
 70
    32
  0
VERTEX
  8
T53SSILL
 62
7
 10
4344.890
 20
-8580.373
 30
-60.765
 70
    32
  0
VERTEX
  8
T53SSILL
 62
7
 10
4331.594
 20
-8589.828
 30
-60.678
 70
    32
  0
VERTEX
  8
T53SSILL
 62
7
 10
4332.319
 20
-8596.021
 30
-60.651
 70
    32
  0
VERTEX
  8
T53SSILL
 62
7
 10
4327.326
 20
-8600.870
 30
-60.612
 70
    32
  0
VERTEX
  8
T53SSILL
 62
7
 10
4347.967
 20
-8676.010
 30
-60.315
 70
    32
  0
VERTEX
  8
T53SSILL
 62
7
 10
4338.710
 20
-8677.687
 30
-60.278
 70
    32
  0
SEQEND
  8
T53SSILL
  0
POLYLINE
  8
T53SSILL
 62
7
 66
     1
 70
     9
  0
VERTEX
  8
T53SSILL
 62
7
 10
4432.095
 20
-8686.662
 30
-60.527
 70
    32
  0
VERTEX
  8
T53SSILL
 62
7
 10
4437.800
 20
-8688.207
 30
-60.538
 70
    32
  0
VERTEX
  8
T53SSILL
 62
7
 10
4450.443
 20
-8682.247
 30
-60.606
 70
    32
  0
VERTEX
  8
T53SSILL
 62
7
 10
4439.826
 20
-8661.228
 30
-60.674
 70
    32
  0
VERTEX
  8
T53SSILL
 62
7
 10
4432.276
 20
-8663.242
 30
-60.640
 70
    32
  0
VERTEX
  8
T53SSILL
 62
7
 10
4427.296
 20
-8652.282
 30
-60.677
 70
    32
  0
VERTEX
  8
T53SSILL
 62
7
 10
4428.229
 20
-8647.506
 30
-60.703
 70
    32
  0
VERTEX
  8
T53SSILL
 62
7
 10
4393.642
 20
-8574.059
 30
-60.948
 70
    32
  0
VERTEX
  8
T53SSILL
 62
7
 10
4392.915
 20
-8558.885
 30
-61.019
 70
    32
  0
VERTEX
  8
T53SSILL
 62
7
 10
4397.383
 20
-8555.275
 30
-61.050
 70
    32
  0
VERTEX
  8
T53SSILL
 62
7
 10
4396.374
 20
-8542.899
 30
-61.106
 70
    32
  0
VERTEX
  8
T53SSILL
 62
7
 10
4354.111
 20
-8573.708
 30
-60.826
 70
    32
  0
VERTEX
  8
T53SSILL
 62
7
 10
4352.213
 20
-8583.823
 30
-60.772
 70
    32
  0
VERTEX
  8
T53SSILL
 62
7
 10
4353.261
 20
-8587.731
 30
-60.756
 70
    32
  0
VERTEX
  8
T53SSILL
 62
7
 10
4357.622
 20
-8590.365
 30
-60.757
 70
    32
  0
VERTEX
  8
T53SSILL
 62
7
 10
4361.419
 20
-8598.595
 30
-60.729
 70
    32
  0
VERTEX
  8
T53SSILL
 62
7
 10
4361.361
 20
-8601.558
 30
-60.715
 70
    32
  0
VERTEX
  8
T53SSILL
 62
7
 10
4357.430
 20
-8603.487
 30
-60.693
 70
    32
  0
VERTEX
  8
T53SSILL
 62
7
 10
4357.539
 20
-8605.466
 30
-60.684
 70
    32
  0
VERTEX
  8
T53SSILL
 62
7
 10
4375.699
 20
-8690.053
 30
-60.335
 70
    32
  0
VERTEX
  8
T53SSILL
 62
7
 10
4385.561
 20
-8704.683
 30
-60.295
 70
    32
  0
VERTEX
  8
T53SSILL
 62
7
 10
4393.084
 20
-8710.697
 30
-60.290
 70
    32
  0
VERTEX
  8
T53SSILL
 62
7
 10
4404.050
 20
-8717.291
 30
-60.292
 70
    32
  0
VERTEX
  8
T53SSILL
 62
7
 10
4412.938
 20
-8712.594
 30
-60.343
 70
    32
  0
VERTEX
  8
T53SSILL
 62
7
 10
4425.127
 20
-8727.301
 30
-60.310
 70
    32
  0
VERTEX
  8
T53SSILL
 62
7
 10
4431.517
 20
-8730.657
 30
-60.314
 70
    32
  0
VERTEX
  8
T53SSILL
 62
7
 10
4447.862
 20
-8728.990
 30
-60.373
 70
    32
  0
VERTEX
  8
T53SSILL
 62
7
 10
4455.428
 20
-8724.260
 30
-60.420
 70
    32
  0
VERTEX
  8
T53SSILL
 62
7
 10
4460.724
 20
-8716.490
 30
-60.474
 70
    32
  0
VERTEX
  8
T53SSILL
 62
7
 10
4458.132
 20
-8710.866
 30
-60.492
 70
    32
  0
VERTEX
  8
T53SSILL
 62
7
 10
4459.920
 20
-8704.401
 30
-60.529
 70
    32
  0
VERTEX
  8
T53SSILL
 62
7
 10
4451.720
 20
-8703.522
 30
-60.508
 70
    32
  0
VERTEX
  8
T53SSILL
 62
7
 10
4448.118
 20
-8700.131
 30
-60.513
 70
    32
  0
VERTEX
  8
T53SSILL
 62
7
 10
4434.198
 20
-8699.425
 30
-60.473
 70
    32
  0
VERTEX
  8
T53SSILL
 62
7
 10
4433.672
 20
-8695.795
 30
-60.488
 70
    32
  0
VERTEX
  8
T53SSILL
 62
7
 10
4429.697
 20
-8690.905
 30
-60.499
 70
    32
  0
SEQEND
  8
T53SSILL
  0
POLYLINE
  8
T53SSILL
 62
7
 66
     1
 70
     9
  0
VERTEX
  8
T53SSILL
 62
7
 10
1199.978
 20
-7504.518
 30
-50.860
 70
    32
  0
VERTEX
  8
T53SSILL
 62
7
 10
1178.031
 20
-7503.938
 30
-50.697
 70
    32
  0
VERTEX
  8
T53SSILL
 62
7
 10
1155.106
 20
-7510.554
 30
-50.510
 70
    32
  0
VERTEX
  8
T53SSILL
 62
7
 10
1148.319
 20
-7518.062
 30
-50.441
 70
    32
  0
VERTEX
  8
T53SSILL
 62
7
 10
1141.264
 20
-7522.362
 30
-50.377
 70
    32
  0
VERTEX
  8
T53SSILL
 62
7
 10
1142.726
 20
-7535.124
 30
-50.357
 70
    32
  0
VERTEX
  8
T53SSILL
 62
7
 10
1148.766
 20
-7538.267
 30
-50.394
 70
    32
  0
VERTEX
  8
T53SSILL
 62
7
 10
1160.531
 20
-7530.510
 30
-50.501
 70
    32
  0
VERTEX
  8
T53SSILL
 62
7
 10
1168.543
 20
-7527.812
 30
-50.568
 70
    32
  0
SEQEND
  8
T53SSILL
  0
POLYLINE
  8
T53SSILL
 62
7
 66
     1
 70
     9
  0
VERTEX
  8
T53SSILL
 62
7
 10
1104.530
 20
-7284.037
 30
-50.689
 70
    32
  0
VERTEX
  8
T53SSILL
 62
7
 10
1076.684
 20
-7328.152
 30
-50.373
 70
    32
  0
VERTEX
  8
T53SSILL
 62
7
 10
1085.726
 20
-7356.025
 30
-50.372
 70
    32
  0
VERTEX
  8
T53SSILL
 62
7
 10
1093.557
 20
-7352.872
 30
-50.438
 70
    32
  0
VERTEX
  8
T53SSILL
 62
7
 10
1119.121
 20
-7313.241
 30
-50.727
 70
    32
  0
VERTEX
  8
T53SSILL
 62
7
 10
1117.533
 20
-7302.067
 30
-50.742
 70
    32
  0
VERTEX
  8
T53SSILL
 62
7
 10
1107.462
 20
-7287.500
 30
-50.703
 70
    32
  0
SEQEND
  8
T53SSILL
  0
POLYLINE
  8
T53SSILL
 62
7
 66
     1
 70
     9
  0
VERTEX
  8
T53SSILL
 62
7
 10
1341.711
 20
-8140.531
 30
-51.731
 70
    32
  0
VERTEX
  8
T53SSILL
 62
7
 10
1346.579
 20
-8137.919
 30
-51.746
 70
    32
  0
VERTEX
  8
T53SSILL
 62
7
 10
1323.683
 20
-8060.420
 30
-51.623
 70
    32
  0
VERTEX
  8
T53SSILL
 62
7
 10
1318.718
 20
-8066.006
 30
-51.609
 70
    32
  0
VERTEX
  8
T53SSILL
 62
7
 10
1312.875
 20
-8101.154
 30
-51.609
 70
    32
  0
SEQEND
  8
T53SSILL
  0
POLYLINE
  8
T53SSILL
 62
7
 66
     1
 70
     9
  0
VERTEX
  8
T53SSILL
 62
7
 10
1058.043
 20
-7745.129
 30
-50.223
 70
    32
  0
VERTEX
  8
T53SSILL
 62
7
 10
1063.965
 20
-7740.927
 30
-50.239
 70
    32
  0
VERTEX
  8
T53SSILL
 62
7
 10
1066.691
 20
-7742.380
 30
-50.251
 70
    32
  0
VERTEX
  8
T53SSILL
 62
7
 10
1081.953
 20
-7756.049
 30
-50.330
 70
    32
  0
VERTEX
  8
T53SSILL
 62
7
 10
1094.151
 20
-7771.514
 30
-50.399
 70
    32
  0
VERTEX
  8
T53SSILL
 62
7
 10
1095.163
 20
-7773.290
 30
-50.405
 70
    32
  0
VERTEX
  8
T53SSILL
 62
7
 10
1087.740
 20
-7786.064
 30
-50.396
 70
    32
  0
SEQEND
  8
T53SSILL
  0
POLYLINE
  8
T53SSILL
 62
7
 66
     1
 70
     9
  0
VERTEX
  8
T53SSILL
 62
7
 10
536.164
 20
-6290.812
 30
-49.347
 70
    32
  0
VERTEX
  8
T53SSILL
 62
7
 10
536.252
 20
-6294.998
 30
-49.356
 70
    32
  0
VERTEX
  8
T53SSILL
 62
7
 10
543.911
 20
-6298.606
 30
-49.355
 70
    32
  0
VERTEX
  8
T53SSILL
 62
7
 10
548.783
 20
-6307.675
 30
-49.368
 70
    32
  0
VERTEX
  8
T53SSILL
 62
7
 10
547.662
 20
-6310.816
 30
-49.376
 70
    32
  0
VERTEX
  8
T53SSILL
 62
7
 10
550.658
 20
-6323.183
 30
-49.398
 70
    32
  0
VERTEX
  8
T53SSILL
 62
7
 10
537.995
 20
-6339.907
 30
-49.448
 70
    32
  0
VERTEX
  8
T53SSILL
 62
7
 10
531.881
 20
-6355.147
 30
-49.487
 70
    32
  0
VERTEX
  8
T53SSILL
 62
7
 10
521.529
 20
-6374.519
 30
-49.540
 70
    32
  0
VERTEX
  8
T53SSILL
 62
7
 10
514.168
 20
-6381.006
 30
-49.562
 70
    32
  0
VERTEX
  8
T53SSILL
 62
7
 10
508.263
 20
-6375.426
 30
-49.557
 70
    32
  0
VERTEX
  8
T53SSILL
 62
7
 10
495.594
 20
-6320.009
 30
-49.455
 70
    32
  0
VERTEX
  8
T53SSILL
 62
7
 10
501.135
 20
-6303.682
 30
-49.415
 70
    32
  0
VERTEX
  8
T53SSILL
 62
7
 10
508.636
 20
-6291.032
 30
-49.379
 70
    32
  0
VERTEX
  8
T53SSILL
 62
7
 10
512.510
 20
-6286.380
 30
-49.365
 70
    32
  0
VERTEX
  8
T53SSILL
 62
7
 10
526.978
 20
-6276.008
 30
-49.327
 70
    32
  0
SEQEND
  8
T53SSILL
  0
POLYLINE
  8
T53SSILL
 62
7
 66
     1
 70
     9
  0
VERTEX
  8
T53SSILL
 62
7
 10
4400.984
 20
-8183.350
 30
-59.335
 70
    32
  0
VERTEX
  8
T53SSILL
 62
7
 10
4398.422
 20
-8197.758
 30
-59.408
 70
    32
  0
VERTEX
  8
T53SSILL
 62
7
 10
4453.250
 20
-8292.048
 30
-59.991
 70
    32
  0
VERTEX
  8
T53SSILL
 62
7
 10
4460.663
 20
-8296.050
 30
-60.023
 70
    32
  0
VERTEX
  8
T53SSILL
 62
7
 10
4856.769
 20
-8332.895
 30
-60.791
 70
    32
  0
VERTEX
  8
T53SSILL
 62
7
 10
4645.242
 20
-8038.164
 30
-59.118
 70
    32
  0
VERTEX
  8
T53SSILL
 62
7
 10
4636.168
 20
-8031.535
 30
-59.089
 70
    32
  0
VERTEX
  8
T53SSILL
 62
7
 10
4626.432
 20
-8029.291
 30
-59.070
 70
    32
  0
VERTEX
  8
T53SSILL
 62
7
 10
4618.689
 20
-8030.086
 30
-59.062
 70
    32
  0
VERTEX
  8
T53SSILL
 62
7
 10
4610.844
 20
-8033.568
 30
-59.061
 70
    32
  0
VERTEX
  8
T53SSILL
 62
7
 10
4484.204
 20
-8123.862
 30
-59.137
 70
    32
  0
SEQEND
  8
T53SSILL
  0
POLYLINE
  8
T53SSILL
 62
7
 66
     1
 70
     9
  0
VERTEX
  8
T53SSILL
 62
7
 10
5295.637
 20
-8925.133
 30
-60.994
 70
    32
  0
VERTEX
  8
T53SSILL
 62
7
 10
5280.878
 20
-8920.176
 30
-60.996
 70
    32
  0
VERTEX
  8
T53SSILL
 62
7
 10
5273.735
 20
-8914.212
 30
-61.000
 70
    32
  0
VERTEX
  8
T53SSILL
 62
7
 10
5257.007
 20
-8891.012
 30
-61.018
 70
    32
  0
VERTEX
  8
T53SSILL
 62
7
 10
5240.220
 20
-8904.114
 30
-61.003
 70
    32
  0
VERTEX
  8
T53SSILL
 62
7
 10
5234.326
 20
-8904.482
 30
-61.002
 70
    32
  0
VERTEX
  8
T53SSILL
 62
7
 10
5232.861
 20
-8902.832
 30
-61.003
 70
    32
  0
VERTEX
  8
T53SSILL
 62
7
 10
5224.684
 20
-8891.698
 30
-61.012
 70
    32
  0
VERTEX
  8
T53SSILL
 62
7
 10
5222.083
 20
-8873.492
 30
-61.028
 70
    32
  0
VERTEX
  8
T53SSILL
 62
7
 10
5222.422
 20
-8868.828
 30
-61.032
 70
    32
  0
VERTEX
  8
T53SSILL
 62
7
 10
5226.043
 20
-8860.917
 30
-61.040
 70
    32
  0
VERTEX
  8
T53SSILL
 62
7
 10
5216.583
 20
-8844.138
 30
-61.041
 70
    32
  0
VERTEX
  8
T53SSILL
 62
7
 10
5205.616
 20
-8829.597
 30
-61.043
 70
    32
  0
VERTEX
  8
T53SSILL
 62
7
 10
5172.426
 20
-8802.834
 30
-61.050
 70
    32
  0
VERTEX
  8
T53SSILL
 62
7
 10
5152.082
 20
-8769.578
 30
-61.053
 70
    32
  0
VERTEX
  8
T53SSILL
 62
7
 10
5132.962
 20
-8746.419
 30
-61.057
 70
    32
  0
VERTEX
  8
T53SSILL
 62
7
 10
5116.561
 20
-8720.438
 30
-61.060
 70
    32
  0
VERTEX
  8
T53SSILL
 62
7
 10
5115.510
 20
-8696.104
 30
-61.060
 70
    32
  0
VERTEX
  8
T53SSILL
 62
7
 10
5100.207
 20
-8672.601
 30
-61.063
 70
    32
  0
VERTEX
  8
T53SSILL
 62
7
 10
5096.156
 20
-8677.750
 30
-61.064
 70
    32
  0
VERTEX
  8
T53SSILL
 62
7
 10
5094.963
 20
-8724.385
 30
-61.064
 70
    32
  0
VERTEX
  8
T53SSILL
 62
7
 10
5245.948
 20
-8933.187
 30
-60.978
 70
    32
  0
VERTEX
  8
T53SSILL
 62
7
 10
5257.545
 20
-8940.088
 30
-60.977
 70
    32
  0
VERTEX
  8
T53SSILL
 62
7
 10
5270.586
 20
-8940.722
 30
-60.976
 70
    32
  0
VERTEX
  8
T53SSILL
 62
7
 10
5278.320
 20
-8937.533
 30
-60.980
 70
    32
  0
SEQEND
  8
T53SSILL
  0
POLYLINE
  8
T53SSILL
 62
7
 66
     1
 70
     9
  0
VERTEX
  8
T53SSILL
 62
7
 10
6259.319
 20
-8429.954
 30
-60.788
 70
    32
  0
VERTEX
  8
T53SSILL
 62
7
 10
6254.886
 20
-8437.016
 30
-60.786
 70
    32
  0
VERTEX
  8
T53SSILL
 62
7
 10
6243.424
 20
-8430.543
 30
-60.788
 70
    32
  0
VERTEX
  8
T53SSILL
 62
7
 10
6254.951
 20
-8408.956
 30
-60.795
 70
    32
  0
VERTEX
  8
T53SSILL
 62
7
 10
6255.192
 20
-8399.145
 30
-60.798
 70
    32
  0
VERTEX
  8
T53SSILL
 62
7
 10
6188.762
 20
-8307.116
 30
-60.839
 70
    32
  0
VERTEX
  8
T53SSILL
 62
7
 10
6175.065
 20
-8305.183
 30
-60.844
 70
    32
  0
VERTEX
  8
T53SSILL
 62
7
 10
6004.218
 20
-8427.453
 30
-60.878
 70
    32
  0
VERTEX
  8
T53SSILL
 62
7
 10
6002.005
 20
-8434.194
 30
-60.875
 70
    32
  0
VERTEX
  8
T53SSILL
 62
7
 10
6007.860
 20
-8441.814
 30
-60.869
 70
    32
  0
VERTEX
  8
T53SSILL
 62
7
 10
5996.031
 20
-8450.871
 30
-60.869
 70
    32
  0
VERTEX
  8
T53SSILL
 62
7
 10
5989.475
 20
-8441.917
 30
-60.876
 70
    32
  0
VERTEX
  8
T53SSILL
 62
7
 10
5984.634
 20
-8441.390
 30
-60.878
 70
    32
  0
VERTEX
  8
T53SSILL
 62
7
 10
5951.450
 20
-8465.382
 30
-60.878
 70
    32
  0
VERTEX
  8
T53SSILL
 62
7
 10
5950.850
 20
-8468.247
 30
-60.877
 70
    32
  0
VERTEX
  8
T53SSILL
 62
7
 10
5955.881
 20
-8480.272
 30
-60.869
 70
    32
  0
VERTEX
  8
T53SSILL
 62
7
 10
5950.390
 20
-8484.563
 30
-60.868
 70
    32
  0
VERTEX
  8
T53SSILL
 62
7
 10
5946.402
 20
-8485.906
 30
-60.869
 70
    32
  0
VERTEX
  8
T53SSILL
 62
7
 10
5940.164
 20
-8478.974
 30
-60.875
 70
    32
  0
VERTEX
  8
T53SSILL
 62
7
 10
5935.713
 20
-8476.367
 30
-60.878
 70
    32
  0
VERTEX
  8
T53SSILL
 62
7
 10
5911.338
 20
-8493.904
 30
-60.879
 70
    32
  0
VERTEX
  8
T53SSILL
 62
7
 10
5919.631
 20
-8507.110
 30
-60.868
 70
    32
  0
VERTEX
  8
T53SSILL
 62
7
 10
5913.215
 20
-8513.635
 30
-60.868
 70
    32
  0
VERTEX
  8
T53SSILL
 62
7
 10
5903.301
 20
-8499.618
 30
-60.879
 70
    32
  0
VERTEX
  8
T53SSILL
 62
7
 10
5841.259
 20
-8543.992
 30
-60.895
 70
    32
  0
VERTEX
  8
T53SSILL
 62
7
 10
5837.001
 20
-8553.508
 30
-60.893
 70
    32
  0
VERTEX
  8
T53SSILL
 62
7
 10
5837.014
 20
-8563.730
 30
-60.885
 70
    32
  0
VERTEX
  8
T53SSILL
 62
7
 10
5892.899
 20
-8642.706
 30
-60.808
 70
    32
  0
VERTEX
  8
T53SSILL
 62
7
 10
5886.670
 20
-8647.303
 30
-60.808
 70
    32
  0
VERTEX
  8
T53SSILL
 62
7
 10
5833.663
 20
-8571.327
 30
-60.883
 70
    32
  0
VERTEX
  8
T53SSILL
 62
7
 10
5824.419
 20
-8566.136
 30
-60.901
 70
    32
  0
VERTEX
  8
T53SSILL
 62
7
 10
5811.687
 20
-8565.143
 30
-60.920
 70
    32
  0
VERTEX
  8
T53SSILL
 62
7
 10
5337.572
 20
-8906.068
 30
-61.021
 70
    32
  0
VERTEX
  8
T53SSILL
 62
7
 10
5327.809
 20
-8913.872
 30
-61.010
 70
    32
  0
VERTEX
  8
T53SSILL
 62
7
 10
5316.918
 20
-8933.768
 30
-60.990
 70
    32
  0
VERTEX
  8
T53SSILL
 62
7
 10
5316.013
 20
-8950.541
 30
-60.975
 70
    32
  0
VERTEX
  8
T53SSILL
 62
7
 10
5321.937
 20
-8967.893
 30
-60.968
 70
    32
  0
VERTEX
  8
T53SSILL
 62
7
 10
5398.931
 20
-9074.110
 30
-61.076
 70
    32
  0
VERTEX
  8
T53SSILL
 62
7
 10
5561.030
 20
-9300.232
 30
-60.684
 70
    32
  0
VERTEX
  8
T53SSILL
 62
7
 10
5567.398
 20
-9305.899
 30
-60.671
 70
    32
  0
VERTEX
  8
T53SSILL
 62
7
 10
5579.638
 20
-9309.561
 30
-60.650
 70
    32
  0
VERTEX
  8
T53SSILL
 62
7
 10
5589.912
 20
-9308.425
 30
-60.636
 70
    32
  0
VERTEX
  8
T53SSILL
 62
7
 10
5661.762
 20
-9258.028
 30
-60.574
 70
    32
  0
VERTEX
  8
T53SSILL
 62
7
 10
5786.952
 20
-9168.294
 30
-60.573
 70
    32
  0
VERTEX
  8
T53SSILL
 62
7
 10
5791.294
 20
-9173.956
 30
-60.570
 70
    32
  0
VERTEX
  8
T53SSILL
 62
7
 10
5741.748
 20
-9209.321
 30
-60.569
 70
    32
  0
VERTEX
  8
T53SSILL
 62
7
 10
5741.104
 20
-9210.809
 30
-60.569
 70
    32
  0
VERTEX
  8
T53SSILL
 62
7
 10
5743.754
 20
-9214.761
 30
-60.566
 70
    32
  0
VERTEX
  8
T53SSILL
 62
7
 10
5737.930
 20
-9221.358
 30
-60.564
 70
    32
  0
VERTEX
  8
T53SSILL
 62
7
 10
5732.445
 20
-9223.291
 30
-60.565
 70
    32
  0
VERTEX
  8
T53SSILL
 62
7
 10
5727.341
 20
-9219.603
 30
-60.569
 70
    32
  0
VERTEX
  8
T53SSILL
 62
7
 10
5597.769
 20
-9311.975
 30
-60.622
 70
    32
  0
VERTEX
  8
T53SSILL
 62
7
 10
5584.425
 20
-9316.200
 30
-60.638
 70
    32
  0
VERTEX
  8
T53SSILL
 62
7
 10
5571.470
 20
-9314.950
 30
-60.657
 70
    32
  0
VERTEX
  8
T53SSILL
 62
7
 10
5626.110
 20
-9389.088
 30
-60.519
 70
    32
  0
VERTEX
  8
T53SSILL
 62
7
 10
5814.364
 20
-9651.279
 30
-59.748
 70
    32
  0
VERTEX
  8
T53SSILL
 62
7
 10
5819.403
 20
-9655.216
 30
-59.754
 70
    32
  0
VERTEX
  8
T53SSILL
 62
7
 10
5827.583
 20
-9657.022
 30
-59.758
 70
    32
  0
VERTEX
  8
T53SSILL
 62
7
 10
5833.420
 20
-9655.847
 30
-59.762
 70
    32
  0
VERTEX
  8
T53SSILL
 62
7
 10
6298.282
 20
-9329.659
 30
-60.165
 70
    32
  0
VERTEX
  8
T53SSILL
 62
7
 10
6302.652
 20
-9325.601
 30
-60.170
 70
    32
  0
VERTEX
  8
T53SSILL
 62
7
 10
6307.629
 20
-9317.287
 30
-60.176
 70
    32
  0
VERTEX
  8
T53SSILL
 62
7
 10
6343.607
 20
-9101.390
 30
-60.278
 70
    32
  0
VERTEX
  8
T53SSILL
 62
7
 10
6339.043
 20
-9094.900
 30
-60.278
 70
    32
  0
VERTEX
  8
T53SSILL
 62
7
 10
6289.107
 20
-9130.157
 30
-60.235
 70
    32
  0
VERTEX
  8
T53SSILL
 62
7
 10
6284.351
 20
-9123.602
 30
-60.234
 70
    32
  0
VERTEX
  8
T53SSILL
 62
7
 10
6359.093
 20
-9070.627
 30
-60.299
 70
    32
  0
VERTEX
  8
T53SSILL
 62
7
 10
6364.457
 20
-9063.969
 30
-60.305
 70
    32
  0
VERTEX
  8
T53SSILL
 62
7
 10
6452.364
 20
-8678.220
 30
-60.480
 70
    32
  0
VERTEX
  8
T53SSILL
 62
7
 10
6448.148
 20
-8666.917
 30
-60.537
 70
    32
  0
VERTEX
  8
T53SSILL
 62
7
 10
6299.844
 20
-8461.003
 30
-60.776
 70
    32
  0
VERTEX
  8
T53SSILL
 62
7
 10
6293.143
 20
-8465.942
 30
-60.775
 70
    32
  0
VERTEX
  8
T53SSILL
 62
7
 10
6289.528
 20
-8461.047
 30
-60.777
 70
    32
  0
VERTEX
  8
T53SSILL
 62
7
 10
6296.257
 20
-8456.034
 30
-60.778
 70
    32
  0
VERTEX
  8
T53SSILL
 62
7
 10
6266.714
 20
-8415.106
 30
-60.792
 70
    32
  0
VERTEX
  8
T53SSILL
 62
7
 10
6262.040
 20
-8416.281
 30
-60.792
 70
    32
  0
VERTEX
  8
T53SSILL
 62
7
 10
6255.950
 20
-8428.340
 30
-60.788
 70
    32
  0
SEQEND
  8
T53SSILL
  0
POLYLINE
  8
T53SSILL
 62
7
 66
     1
 70
     9
  0
VERTEX
  8
T53SSILL
 62
7
 10
5642.651
 20
-9428.191
 30
-60.496
 70
    32
  0
VERTEX
  8
T53SSILL
 62
7
 10
5641.878
 20
-9443.195
 30
-60.483
 70
    32
  0
VERTEX
  8
T53SSILL
 62
7
 10
5634.685
 20
-9460.362
 30
-60.444
 70
    32
  0
VERTEX
  8
T53SSILL
 62
7
 10
5625.472
 20
-9470.562
 30
-60.439
 70
    32
  0
VERTEX
  8
T53SSILL
 62
7
 10
5608.128
 20
-9482.111
 30
-60.457
 70
    32
  0
VERTEX
  8
T53SSILL
 62
7
 10
5604.821
 20
-9492.405
 30
-60.430
 70
    32
  0
VERTEX
  8
T53SSILL
 62
7
 10
5596.808
 20
-9500.826
 30
-60.439
 70
    32
  0
VERTEX
  8
T53SSILL
 62
7
 10
5593.487
 20
-9507.276
 30
-60.421
 70
    32
  0
VERTEX
  8
T53SSILL
 62
7
 10
5590.046
 20
-9527.690
 30
-60.374
 70
    32
  0
VERTEX
  8
T53SSILL
 62
7
 10
5599.911
 20
-9555.435
 30
-60.328
 70
    32
  0
VERTEX
  8
T53SSILL
 62
7
 10
5608.634
 20
-9560.028
 30
-60.328
 70
    32
  0
VERTEX
  8
T53SSILL
 62
7
 10
5623.002
 20
-9580.548
 30
-60.052
 70
    32
  0
VERTEX
  8
T53SSILL
 62
7
 10
5612.644
 20
-9588.631
 30
-60.273
 70
    32
  0
VERTEX
  8
T53SSILL
 62
7
 10
5643.055
 20
-9666.188
 30
-59.668
 70
    32
  0
VERTEX
  8
T53SSILL
 62
7
 10
5661.984
 20
-9674.264
 30
-59.543
 70
    32
  0
VERTEX
  8
T53SSILL
 62
7
 10
5658.447
 20
-9684.840
 30
-59.516
 70
    32
  0
VERTEX
  8
T53SSILL
 62
7
 10
5652.014
 20
-9682.718
 30
-59.546
 70
    32
  0
VERTEX
  8
T53SSILL
 62
7
 10
5649.420
 20
-9684.109
 30
-59.550
 70
    32
  0
VERTEX
  8
T53SSILL
 62
7
 10
5695.375
 20
-9805.091
 30
-59.598
 70
    32
  0
VERTEX
  8
T53SSILL
 62
7
 10
5730.021
 20
-9860.648
 30
-59.623
 70
    32
  0
VERTEX
  8
T53SSILL
 62
7
 10
5744.183
 20
-9857.647
 30
-59.633
 70
    32
  0
VERTEX
  8
T53SSILL
 62
7
 10
5744.827
 20
-9866.305
 30
-59.630
 70
    32
  0
VERTEX
  8
T53SSILL
 62
7
 10
5739.165
 20
-9868.009
 30
-59.626
 70
    32
  0
VERTEX
  8
T53SSILL
 62
7
 10
5737.804
 20
-9871.341
 30
-59.624
 70
    32
  0
VERTEX
  8
T53SSILL
 62
7
 10
5752.313
 20
-9892.196
 30
-59.624
 70
    32
  0
VERTEX
  8
T53SSILL
 62
7
 10
5759.093
 20
-9901.106
 30
-59.625
 70
    32
  0
VERTEX
  8
T53SSILL
 62
7
 10
5779.517
 20
-9912.358
 30
-59.633
 70
    32
  0
VERTEX
  8
T53SSILL
 62
7
 10
5799.299
 20
-9913.629
 30
-59.645
 70
    32
  0
VERTEX
  8
T53SSILL
 62
7
 10
5810.956
 20
-9910.960
 30
-59.653
 70
    32
  0
VERTEX
  8
T53SSILL
 62
7
 10
5895.067
 20
-9850.317
 30
-59.726
 70
    32
  0
VERTEX
  8
T53SSILL
 62
7
 10
5901.881
 20
-9841.913
 30
-59.734
 70
    32
  0
VERTEX
  8
T53SSILL
 62
7
 10
5908.402
 20
-9827.232
 30
-59.743
 70
    32
  0
VERTEX
  8
T53SSILL
 62
7
 10
5910.424
 20
-9814.486
 30
-59.749
 70
    32
  0
VERTEX
  8
T53SSILL
 62
7
 10
5909.113
 20
-9802.583
 30
-59.753
 70
    32
  0
VERTEX
  8
T53SSILL
 62
7
 10
5905.471
 20
-9794.628
 30
-59.754
 70
    32
  0
VERTEX
  8
T53SSILL
 62
7
 10
5752.860
 20
-9582.611
 30
-59.565
 70
    32
  0
VERTEX
  8
T53SSILL
 62
7
 10
5643.644
 20
-9430.881
 30
-60.495
 70
    32
  0
SEQEND
  8
T53SSILL
  0
POLYLINE
  8
T53SSILL
 62
7
 66
     1
 70
     9
  0
VERTEX
  8
T53SSILL
 62
7
 10
1258.025
 20
-7463.775
 30
-51.365
 70
    32
  0
VERTEX
  8
T53SSILL
 62
7
 10
1239.781
 20
-7444.006
 30
-51.307
 70
    32
  0
VERTEX
  8
T53SSILL
 62
7
 10
1235.634
 20
-7449.576
 30
-51.262
 70
    32
  0
VERTEX
  8
T53SSILL
 62
7
 10
1232.331
 20
-7459.138
 30
-51.214
 70
    32
  0
VERTEX
  8
T53SSILL
 62
7
 10
1234.513
 20
-7465.552
 30
-51.214
 70
    32
  0
VERTEX
  8
T53SSILL
 62
7
 10
1243.407
 20
-7475.274
 30
-51.257
 70
    32
  0
VERTEX
  8
T53SSILL
 62
7
 10
1256.922
 20
-7474.687
 30
-51.359
 70
    32
  0
VERTEX
  8
T53SSILL
 62
7
 10
1260.231
 20
-7469.623
 30
-51.373
 70
    32
  0
VERTEX
  8
T53SSILL
 62
7
 10
1258.299
 20
-7464.148
 30
-51.366
 70
    32
  0
SEQEND
  8
T53SSILL
  0
POLYLINE
  8
T53SSILL
 62
7
 66
     1
 70
     9
  0
VERTEX
  8
T53SSILL
 62
7
 10
1002.895
 20
-7177.654
 30
-50.192
 70
    32
  0
VERTEX
  8
T53SSILL
 62
7
 10
988.189
 20
-7185.344
 30
-50.063
 70
    32
  0
VERTEX
  8
T53SSILL
 62
7
 10
978.755
 20
-7198.324
 30
-49.621
 70
    32
  0
VERTEX
  8
T53SSILL
 62
7
 10
973.642
 20
-7222.849
 30
-48.856
 70
    32
  0
VERTEX
  8
T53SSILL
 62
7
 10
978.237
 20
-7234.635
 30
-48.851
 70
    32
  0
VERTEX
  8
T53SSILL
 62
7
 10
1007.421
 20
-7249.620
 30
-50.048
 70
    32
  0
VERTEX
  8
T53SSILL
 62
7
 10
1043.819
 20
-7268.309
 30
-50.274
 70
    32
  0
VERTEX
  8
T53SSILL
 62
7
 10
1046.268
 20
-7266.401
 30
-50.297
 70
    32
  0
VERTEX
  8
T53SSILL
 62
7
 10
1029.102
 20
-7212.606
 30
-50.301
 70
    32
  0
VERTEX
  8
T53SSILL
 62
7
 10
1023.434
 20
-7205.652
 30
-50.276
 70
    32
  0
VERTEX
  8
T53SSILL
 62
7
 10
1015.568
 20
-7202.371
 30
-50.226
 70
    32
  0
SEQEND
  8
T53SSILL
  0
POLYLINE
  8
T53SSILL
 62
7
 66
     1
 70
     9
  0
VERTEX
  8
T53SSILL
 62
7
 10
961.583
 20
-7429.265
 30
-50.002
 70
    32
  0
VERTEX
  8
T53SSILL
 62
7
 10
957.140
 20
-7432.636
 30
-49.988
 70
    32
  0
VERTEX
  8
T53SSILL
 62
7
 10
946.449
 20
-7425.551
 30
-49.972
 70
    32
  0
VERTEX
  8
T53SSILL
 62
7
 10
882.302
 20
-7326.047
 30
-49.950
 70
    32
  0
VERTEX
  8
T53SSILL
 62
7
 10
884.062
 20
-7314.982
 30
-49.968
 70
    32
  0
VERTEX
  8
T53SSILL
 62
7
 10
887.466
 20
-7307.652
 30
-49.984
 70
    32
  0
VERTEX
  8
T53SSILL
 62
7
 10
891.652
 20
-7303.482
 30
-49.999
 70
    32
  0
VERTEX
  8
T53SSILL
 62
7
 10
957.463
 20
-7260.093
 30
-47.260
 70
    32
  0
VERTEX
  8
T53SSILL
 62
7
 10
969.495
 20
-7252.160
 30
-48.042
 70
    32
  0
VERTEX
  8
T53SSILL
 62
7
 10
979.411
 20
-7248.615
 30
-48.626
 70
    32
  0
VERTEX
  8
T53SSILL
 62
7
 10
1014.664
 20
-7267.350
 30
-50.059
 70
    32
  0
VERTEX
  8
T53SSILL
 62
7
 10
1041.885
 20
-7281.816
 30
-50.227
 70
    32
  0
VERTEX
  8
T53SSILL
 62
7
 10
1055.945
 20
-7298.727
 30
-50.290
 70
    32
  0
VERTEX
  8
T53SSILL
 62
7
 10
1061.745
 20
-7316.651
 30
-50.289
 70
    32
  0
VERTEX
  8
T53SSILL
 62
7
 10
1059.279
 20
-7325.708
 30
-50.249
 70
    32
  0
VERTEX
  8
T53SSILL
 62
7
 10
1042.348
 20
-7335.118
 30
-50.099
 70
    32
  0
VERTEX
  8
T53SSILL
 62
7
 10
1034.030
 20
-7337.983
 30
-49.612
 70
    32
  0
VERTEX
  8
T53SSILL
 62
7
 10
1032.324
 20
-7342.090
 30
-49.440
 70
    32
  0
VERTEX
  8
T53SSILL
 62
7
 10
1032.987
 20
-7344.788
 30
-49.419
 70
    32
  0
VERTEX
  8
T53SSILL
 62
7
 10
1035.701
 20
-7349.384
 30
-49.465
 70
    32
  0
VERTEX
  8
T53SSILL
 62
7
 10
1053.862
 20
-7342.861
 30
-50.166
 70
    32
  0
VERTEX
  8
T53SSILL
 62
7
 10
1064.764
 20
-7341.556
 30
-50.251
 70
    32
  0
VERTEX
  8
T53SSILL
 62
7
 10
1073.390
 20
-7349.718
 30
-50.295
 70
    32
  0
VERTEX
  8
T53SSILL
 62
7
 10
1129.037
 20
-7518.270
 30
-50.296
 70
    32
  0
VERTEX
  8
T53SSILL
 62
7
 10
1131.289
 20
-7531.660
 30
-50.280
 70
    32
  0
VERTEX
  8
T53SSILL
 62
7
 10
1131.639
 20
-7537.223
 30
-50.269
 70
    32
  0
VERTEX
  8
T53SSILL
 62
7
 10
1127.655
 20
-7545.857
 30
-50.183
 70
    32
  0
VERTEX
  8
T53SSILL
 62
7
 10
1114.754
 20
-7545.335
 30
-50.203
 70
    32
  0
VERTEX
  8
T53SSILL
 62
7
 10
1114.769
 20
-7535.332
 30
-50.160
 70
    32
  0
VERTEX
  8
T53SSILL
 62
7
 10
1098.549
 20
-7530.438
 30
-50.185
 70
    32
  0
VERTEX
  8
T53SSILL
 62
7
 10
1092.310
 20
-7531.065
 30
-50.170
 70
    32
  0
VERTEX
  8
T53SSILL
 62
7
 10
1084.556
 20
-7536.208
 30
-50.147
 70
    32
  0
VERTEX
  8
T53SSILL
 62
7
 10
1078.132
 20
-7547.951
 30
-50.118
 70
    32
  0
VERTEX
  8
T53SSILL
 62
7
 10
1084.296
 20
-7551.112
 30
-50.128
 70
    32
  0
VERTEX
  8
T53SSILL
 62
7
 10
1118.809
 20
-7557.292
 30
-50.198
 70
    32
  0
VERTEX
  8
T53SSILL
 62
7
 10
1119.312
 20
-7563.512
 30
-50.191
 70
    32
  0
VERTEX
  8
T53SSILL
 62
7
 10
1059.700
 20
-7606.611
 30
-50.024
 70
    32
  0
VERTEX
  8
T53SSILL
 62
7
 10
972.374
 20
-7466.254
 30
-49.981
 70
    32
  0
VERTEX
  8
T53SSILL
 62
7
 10
972.469
 20
-7455.314
 30
-49.994
 70
    32
  0
VERTEX
  8
T53SSILL
 62
7
 10
961.440
 20
-7438.045
 30
-49.991
 70
    32
  0
VERTEX
  8
T53SSILL
 62
7
 10
965.645
 20
-7435.397
 30
-50.003
 70
    32
  0
SEQEND
  8
T53SSILL
  0
POLYLINE
  8
T53SSILL
 62
7
 66
     1
 70
     9
  0
VERTEX
  8
T53SSILL
 62
7
 10
782.699
 20
-7074.575
 30
-47.158
 70
    32
  0
VERTEX
  8
T53SSILL
 62
7
 10
780.458
 20
-7073.724
 30
-47.196
 70
    32
  0
VERTEX
  8
T53SSILL
 62
7
 10
771.813
 20
-7079.593
 30
-47.979
 70
    32
  0
VERTEX
  8
T53SSILL
 62
7
 10
765.149
 20
-7087.859
 30
-48.652
 70
    32
  0
VERTEX
  8
T53SSILL
 62
7
 10
760.562
 20
-7096.951
 30
-49.136
 70
    32
  0
VERTEX
  8
T53SSILL
 62
7
 10
757.789
 20
-7114.584
 30
-49.761
 70
    32
  0
VERTEX
  8
T53SSILL
 62
7
 10
760.505
 20
-7130.036
 30
-50.044
 70
    32
  0
VERTEX
  8
T53SSILL
 62
7
 10
870.614
 20
-7307.012
 30
-49.947
 70
    32
  0
VERTEX
  8
T53SSILL
 62
7
 10
876.145
 20
-7306.739
 30
-49.960
 70
    32
  0
VERTEX
  8
T53SSILL
 62
7
 10
884.730
 20
-7296.594
 30
-49.992
 70
    32
  0
VERTEX
  8
T53SSILL
 62
7
 10
952.655
 20
-7251.961
 30
-47.179
 70
    32
  0
VERTEX
  8
T53SSILL
 62
7
 10
964.890
 20
-7243.792
 30
-47.976
 70
    32
  0
VERTEX
  8
T53SSILL
 62
7
 10
966.620
 20
-7240.765
 30
-48.127
 70
    32
  0
VERTEX
  8
T53SSILL
 62
7
 10
936.662
 20
-7224.909
 30
-46.908
 70
    32
  0
VERTEX
  8
T53SSILL
 62
7
 10
871.270
 20
-7190.300
 30
-47.772
 70
    32
  0
VERTEX
  8
T53SSILL
 62
7
 10
852.261
 20
-7149.284
 30
-47.221
 70
    32
  0
VERTEX
  8
T53SSILL
 62
7
 10
846.928
 20
-7150.699
 30
-47.401
 70
    32
  0
VERTEX
  8
T53SSILL
 62
7
 10
836.001
 20
-7163.011
 30
-48.015
 70
    32
  0
VERTEX
  8
T53SSILL
 62
7
 10
822.324
 20
-7173.780
 30
-48.663
 70
    32
  0
VERTEX
  8
T53SSILL
 62
7
 10
818.987
 20
-7178.280
 30
-48.869
 70
    32
  0
VERTEX
  8
T53SSILL
 62
7
 10
803.721
 20
-7186.079
 30
-49.483
 70
    32
  0
VERTEX
  8
T53SSILL
 62
7
 10
797.878
 20
-7176.837
 30
-49.401
 70
    32
  0
VERTEX
  8
T53SSILL
 62
7
 10
806.948
 20
-7170.896
 30
-49.002
 70
    32
  0
VERTEX
  8
T53SSILL
 62
7
 10
806.233
 20
-7167.015
 30
-48.921
 70
    32
  0
VERTEX
  8
T53SSILL
 62
7
 10
812.626
 20
-7162.465
 30
-48.631
 70
    32
  0
VERTEX
  8
T53SSILL
 62
7
 10
816.434
 20
-7161.799
 30
-48.511
 70
    32
  0
VERTEX
  8
T53SSILL
 62
7
 10
816.755
 20
-7159.132
 30
-48.433
 70
    32
  0
VERTEX
  8
T53SSILL
 62
7
 10
822.616
 20
-7155.369
 30
-48.178
 70
    32
  0
VERTEX
  8
T53SSILL
 62
7
 10
827.052
 20
-7156.727
 30
-48.093
 70
    32
  0
VERTEX
  8
T53SSILL
 62
7
 10
832.341
 20
-7151.648
 30
-47.819
 70
    32
  0
VERTEX
  8
T53SSILL
 62
7
 10
838.893
 20
-7142.623
 30
-47.408
 70
    32
  0
VERTEX
  8
T53SSILL
 62
7
 10
843.228
 20
-7129.794
 30
-46.959
 70
    32
  0
VERTEX
  8
T53SSILL
 62
7
 10
811.273
 20
-7060.848
 30
-46.032
 70
    32
  0
VERTEX
  8
T53SSILL
 62
7
 10
801.656
 20
-7061.209
 30
-46.300
 70
    32
  0
SEQEND
  8
T53SSILL
  0
POLYLINE
  8
T53SSILL
 62
3
 66
     1
 70
     9
  0
VERTEX
  8
T53SSILL
 62
3
 10
504.348
 20
-6463.962
 30
-49.625
 70
    32
  0
VERTEX
  8
T53SSILL
 62
3
 10
477.176
 20
-6441.662
 30
-43.646
 70
    32
  0
VERTEX
  8
T53SSILL
 62
3
 10
480.497
 20
-6431.437
 30
-42.864
 70
    32
  0
VERTEX
  8
T53SSILL
 62
3
 10
505.864
 20
-6452.270
 30
-49.625
 70
    32
  0
SEQEND
  8
T53SSILL
  0
POLYLINE
  8
T53SSILL
 62
3
 66
     1
 70
     9
  0
VERTEX
  8
T53SSILL
 62
3
 10
741.841
 20
-7170.065
 30
-50.120
 70
    32
  0
VERTEX
  8
T53SSILL
 62
3
 10
764.104
 20
-7207.920
 30
-43.041
 70
    32
  0
VERTEX
  8
T53SSILL
 62
3
 10
774.731
 20
-7203.383
 30
-42.784
 70
    32
  0
VERTEX
  8
T53SSILL
 62
3
 10
752.748
 20
-7163.963
 30
-50.138
 70
    32
  0
SEQEND
  8
T53SSILL
  0
POLYLINE
  8
T53SSILL
 62
3
 66
     1
 70
     9
  0
VERTEX
  8
T53SSILL
 62
3
 10
692.326
 20
-7100.819
 30
-50.512
 70
    32
  0
VERTEX
  8
T53SSILL
 62
3
 10
672.605
 20
-7076.658
 30
-58.868
 70
    32
  0
VERTEX
  8
T53SSILL
 62
3
 10
679.485
 20
-7070.684
 30
-59.044
 70
    32
  0
VERTEX
  8
T53SSILL
 62
3
 10
694.935
 20
-7090.043
 30
-52.685
 70
    32
  0
VERTEX
  8
T53SSILL
 62
3
 10
700.954
 20
-7095.752
 30
-50.528
 70
    32
  0
SEQEND
  8
T53SSILL
  0
TEXT
  8
T53SSILL
 62
7
 10
4906.549
 20
-7942.743
 30
-59.761
 40
0.200
  1
5300
 50
-54.306
 41
 1.0 
  0
TEXT
  8
T53SSILL
 62
3
 10
732.755
 20
-7202.595
 30
-47.823
 40
0.200
  1
U
 50
-59.540
 41
 1.0 
  0
TEXT
  8
T53SSILL
 62
3
 10
474.251
 20
-6483.580
 30
-45.908
 40
0.200
  1
U
 41
 1.0 
  0
TEXT
  8
T53SSILL
 62
3
 10
681.555
 20
-7087.623
 30
-55.076
 40
0.200
  1
D
 50
-50.778
 41
 1.0 
  0
TEXT
  8
T53SSILL
 62
7
 10
935.502
 20
-6666.971
 30
-46.293
 40
0.200
  1
5300
 50
-54.306
 41
 1.0 
  0
POLYLINE
  8
T53SSILL
 62
7
 66
     1
 70
     9
  0
VERTEX
  8
T53SSILL
 62
7
 10
1200.960
 20
-7942.996
 30
-51.059
 70
    32
  0
VERTEX
  8
T53SSILL
 62
7
 10
1281.036
 20
-8055.563
 30
-51.473
 70
    32
  0
VERTEX
  8
T53SSILL
 62
7
 10
1287.900
 20
-8050.388
 30
-51.494
 70
    32
  0
VERTEX
  8
T53SSILL
 62
7
 10
1293.897
 20
-8059.375
 30
-51.520
 70
    32
  0
VERTEX
  8
T53SSILL
 62
7
 10
1286.865
 20
-8064.774
 30
-51.499
 70
    32
  0
VERTEX
  8
T53SSILL
 62
7
 10
1306.760
 20
-8092.464
 30
-51.583
 70
    32
  0
VERTEX
  8
T53SSILL
 62
7
 10
1310.714
 20
-8067.663
 30
-51.582
 70
    32
  0
VERTEX
  8
T53SSILL
 62
7
 10
1309.214
 20
-8058.797
 30
-51.572
 70
    32
  0
VERTEX
  8
T53SSILL
 62
7
 10
1302.056
 20
-8036.297
 30
-51.534
 70
    32
  0
VERTEX
  8
T53SSILL
 62
7
 10
1298.946
 20
-8031.019
 30
-51.521
 70
    32
  0
VERTEX
  8
T53SSILL
 62
7
 10
1289.890
 20
-8024.147
 30
-51.485
 70
    32
  0
VERTEX
  8
T53SSILL
 62
7
 10
1290.541
 20
-8013.256
 30
-51.481
 70
    32
  0
VERTEX
  8
T53SSILL
 62
7
 10
1288.507
 20
-8007.665
 30
-51.471
 70
    32
  0
VERTEX
  8
T53SSILL
 62
7
 10
1292.150
 20
-8002.348
 30
-51.481
 70
    32
  0
VERTEX
  8
T53SSILL
 62
7
 10
1299.830
 20
-7998.976
 30
-51.505
 70
    32
  0
VERTEX
  8
T53SSILL
 62
7
 10
1178.833
 20
-7807.592
 30
-50.775
 70
    32
  0
VERTEX
  8
T53SSILL
 62
7
 10
1159.416
 20
-7793.674
 30
-50.680
 70
    32
  0
VERTEX
  8
T53SSILL
 62
7
 10
1149.174
 20
-7800.969
 30
-50.652
 70
    32
  0
VERTEX
  8
T53SSILL
 62
7
 10
1150.536
 20
-7807.455
 30
-50.667
 70
    32
  0
VERTEX
  8
T53SSILL
 62
7
 10
1129.105
 20
-7822.701
 30
-50.608
 70
    32
  0
VERTEX
  8
T53SSILL
 62
7
 10
1117.939
 20
-7805.769
 30
-50.540
 70
    32
  0
VERTEX
  8
T53SSILL
 62
7
 10
1140.182
 20
-7790.609
 30
-50.602
 70
    32
  0
VERTEX
  8
T53SSILL
 62
7
 10
1144.636
 20
-7795.495
 30
-50.627
 70
    32
  0
VERTEX
  8
T53SSILL
 62
7
 10
1162.795
 20
-7782.834
 30
-50.677
 70
    32
  0
VERTEX
  8
T53SSILL
 62
7
 10
1094.437
 20
-7673.361
 30
-50.255
 70
    32
  0
VERTEX
  8
T53SSILL
 62
7
 10
1086.619
 20
-7674.352
 30
-50.227
 70
    32
  0
VERTEX
  8
T53SSILL
 62
7
 10
1075.192
 20
-7687.096
 30
-50.202
 70
    32
  0
VERTEX
  8
T53SSILL
 62
7
 10
1070.583
 20
-7686.191
 30
-50.183
 70
    32
  0
VERTEX
  8
T53SSILL
 62
7
 10
1066.369
 20
-7682.430
 30
-50.162
 70
    32
  0
VERTEX
  8
T53SSILL
 62
7
 10
1077.463
 20
-7665.935
 30
-50.180
 70
    32
  0
VERTEX
  8
T53SSILL
 62
7
 10
1081.790
 20
-7653.041
 30
-50.177
 70
    32
  0
VERTEX
  8
T53SSILL
 62
7
 10
1058.620
 20
-7616.097
 30
-50.034
 70
    32
  0
VERTEX
  8
T53SSILL
 62
7
 10
1012.351
 20
-7649.912
 30
-49.908
 70
    32
  0
VERTEX
  8
T53SSILL
 62
7
 10
1007.293
 20
-7658.791
 30
-49.902
 70
    32
  0
VERTEX
  8
T53SSILL
 62
7
 10
1007.797
 20
-7675.558
 30
-49.929
 70
    32
  0
VERTEX
  8
T53SSILL
 62
7
 10
1039.054
 20
-7718.751
 30
-50.111
 70
    32
  0
VERTEX
  8
T53SSILL
 62
7
 10
1078.720
 20
-7711.352
 30
-50.251
 70
    32
  0
VERTEX
  8
T53SSILL
 62
7
 10
1081.194
 20
-7703.721
 30
-50.250
 70
    32
  0
VERTEX
  8
T53SSILL
 62
7
 10
1086.731
 20
-7707.214
 30
-50.276
 70
    32
  0
VERTEX
  8
T53SSILL
 62
7
 10
1097.961
 20
-7744.014
 30
-50.373
 70
    32
  0
VERTEX
  8
T53SSILL
 62
7
 10
1117.776
 20
-7758.196
 30
-50.469
 70
    32
  0
VERTEX
  8
T53SSILL
 62
7
 10
1114.684
 20
-7783.154
 30
-50.494
 70
    32
  0
VERTEX
  8
T53SSILL
 62
7
 10
1095.808
 20
-7796.956
 30
-50.443
 70
    32
  0
VERTEX
  8
T53SSILL
 62
7
 10
1120.357
 20
-7831.224
 30
-50.587
 70
    32
  0
VERTEX
  8
T53SSILL
 62
7
 10
1133.173
 20
-7835.281
 30
-50.642
 70
    32
  0
VERTEX
  8
T53SSILL
 62
7
 10
1155.572
 20
-7861.455
 30
-50.766
 70
    32
  0
VERTEX
  8
T53SSILL
 62
7
 10
1185.718
 20
-7885.288
 30
-50.916
 70
    32
  0
VERTEX
  8
T53SSILL
 62
7
 10
1193.443
 20
-7897.708
 30
-50.963
 70
    32
  0
VERTEX
  8
T53SSILL
 62
7
 10
1196.006
 20
-7908.423
 30
-50.989
 70
    32
  0
VERTEX
  8
T53SSILL
 62
7
 10
1192.703
 20
-7915.012
 30
-50.986
 70
    32
  0
VERTEX
  8
T53SSILL
 62
7
 10
1204.779
 20
-7934.974
 30
-51.061
 70
    32
  0
SEQEND
  8
T53SSILL
  0
POLYLINE
  8
T53SSILL
 62
7
 66
     1
 70
     9
  0
VERTEX
  8
T53SSILL
 62
7
 10
1217.433
 20
-7487.691
 30
-51.032
 70
    32
  0
VERTEX
  8
T53SSILL
 62
7
 10
1201.585
 20
-7494.663
 30
-50.896
 70
    32
  0
VERTEX
  8
T53SSILL
 62
7
 10
1179.498
 20
-7495.723
 30
-50.729
 70
    32
  0
VERTEX
  8
T53SSILL
 62
7
 10
1173.895
 20
-7491.200
 30
-50.698
 70
    32
  0
VERTEX
  8
T53SSILL
 62
7
 10
1212.339
 20
-7452.138
 30
-51.081
 70
    32
  0
VERTEX
  8
T53SSILL
 62
7
 10
1215.994
 20
-7462.097
 30
-51.084
 70
    32
  0
VERTEX
  8
T53SSILL
 62
7
 10
1225.577
 20
-7460.855
 30
-51.159
 70
    32
  0
VERTEX
  8
T53SSILL
 62
7
 10
1225.117
 20
-7470.000
 30
-51.133
 70
    32
  0
VERTEX
  8
T53SSILL
 62
7
 10
1216.019
 20
-7475.213
 30
-51.052
 70
    32
  0
SEQEND
  8
T53SSILL
  0
POLYLINE
  8
T53SSILL
 62
7
 66
     1
 70
     9
  0
VERTEX
  8
T53SSILL
 62
7
 10
476.079
 20
-6023.678
 30
-48.594
 70
    32
  0
VERTEX
  8
T53SSILL
 62
7
 10
442.071
 20
-6092.796
 30
-49.039
 70
    32
  0
VERTEX
  8
T53SSILL
 62
7
 10
438.305
 20
-6096.033
 30
-49.051
 70
    32
  0
VERTEX
  8
T53SSILL
 62
7
 10
427.501
 20
-6048.099
 30
-48.962
 70
    32
  0
VERTEX
  8
T53SSILL
 62
7
 10
428.395
 20
-6041.420
 30
-48.947
 70
    32
  0
VERTEX
  8
T53SSILL
 62
7
 10
450.783
 20
-6007.344
 30
-48.673
 70
    32
  0
VERTEX
  8
T53SSILL
 62
7
 10
462.863
 20
-6003.390
 30
-48.575
 70
    32
  0
VERTEX
  8
T53SSILL
 62
7
 10
472.429
 20
-6009.986
 30
-48.547
 70
    32
  0
SEQEND
  8
T53SSILL
  0
POLYLINE
  8
T53SSILL
 62
7
 66
     1
 70
     9
  0
VERTEX
  8
T53SSILL
 62
7
 10
845.221
 20
-6970.451
 30
-47.402
 70
    32
  0
VERTEX
  8
T53SSILL
 62
7
 10
836.022
 20
-6973.132
 30
-46.873
 70
    32
  0
VERTEX
  8
T53SSILL
 62
7
 10
813.825
 20
-6974.806
 30
-45.695
 70
    32
  0
VERTEX
  8
T53SSILL
 62
7
 10
785.349
 20
-6968.969
 30
-44.348
 70
    32
  0
VERTEX
  8
T53SSILL
 62
7
 10
772.435
 20
-6966.321
 30
-44.627
 70
    32
  0
VERTEX
  8
T53SSILL
 62
7
 10
770.305
 20
-6960.642
 30
-44.537
 70
    32
  0
VERTEX
  8
T53SSILL
 62
7
 10
765.934
 20
-6959.077
 30
-44.614
 70
    32
  0
VERTEX
  8
T53SSILL
 62
7
 10
765.375
 20
-6958.845
 30
-44.623
 70
    32
  0
VERTEX
  8
T53SSILL
 62
7
 10
763.708
 20
-6950.217
 30
-44.444
 70
    32
  0
VERTEX
  8
T53SSILL
 62
7
 10
772.235
 20
-6946.786
 30
-44.126
 70
    32
  0
VERTEX
  8
T53SSILL
 62
7
 10
805.775
 20
-6933.293
 30
-46.130
 70
    32
  0
VERTEX
  8
T53SSILL
 62
7
 10
823.212
 20
-6929.540
 30
-47.105
 70
    32
  0
VERTEX
  8
T53SSILL
 62
7
 10
833.082
 20
-6952.082
 30
-47.152
 70
    32
  0
VERTEX
  8
T53SSILL
 62
7
 10
837.619
 20
-6956.886
 30
-47.288
 70
    32
  0
SEQEND
  8
T53SSILL
  0
POLYLINE
  8
T53SSILL
 62
7
 66
     1
 70
     9
  0
VERTEX
  8
T53SSILL
 62
7
 10
891.901
 20
-7061.400
 30
-47.947
 70
    32
  0
VERTEX
  8
T53SSILL
 62
7
 10
856.361
 20
-7078.591
 30
-45.764
 70
    32
  0
VERTEX
  8
T53SSILL
 62
7
 10
852.090
 20
-7081.858
 30
-45.477
 70
    32
  0
VERTEX
  8
T53SSILL
 62
7
 10
845.672
 20
-7086.767
 30
-45.777
 70
    32
  0
VERTEX
  8
T53SSILL
 62
7
 10
834.019
 20
-7088.842
 30
-46.145
 70
    32
  0
VERTEX
  8
T53SSILL
 62
7
 10
819.318
 20
-7055.052
 30
-45.665
 70
    32
  0
VERTEX
  8
T53SSILL
 62
7
 10
823.520
 20
-7045.818
 30
-45.312
 70
    32
  0
VERTEX
  8
T53SSILL
 62
7
 10
827.136
 20
-7043.713
 30
-45.160
 70
    32
  0
VERTEX
  8
T53SSILL
 62
7
 10
829.456
 20
-7038.562
 30
-45.196
 70
    32
  0
VERTEX
  8
T53SSILL
 62
7
 10
869.530
 20
-7009.756
 30
-47.850
 70
    32
  0
VERTEX
  8
T53SSILL
 62
7
 10
881.632
 20
-7015.645
 30
-48.353
 70
    32
  0
VERTEX
  8
T53SSILL
 62
7
 10
888.231
 20
-7024.588
 30
-48.511
 70
    32
  0
VERTEX
  8
T53SSILL
 62
7
 10
894.445
 20
-7034.219
 30
-48.634
 70
    32
  0
VERTEX
  8
T53SSILL
 62
7
 10
895.699
 20
-7041.250
 30
-48.554
 70
    32
  0
VERTEX
  8
T53SSILL
 62
7
 10
893.962
 20
-7056.274
 30
-48.158
 70
    32
  0
SEQEND
  8
T53SSILL
  0
POLYLINE
  8
T53SSILL
 62
7
 66
     1
 70
     9
  0
VERTEX
  8
T53SSILL
 62
7
 10
866.011
 20
-7003.703
 30
-47.793
 70
    32
  0
VERTEX
  8
T53SSILL
 62
7
 10
860.642
 20
-7007.531
 30
-47.438
 70
    32
  0
VERTEX
  8
T53SSILL
 62
7
 10
855.931
 20
-7000.561
 30
-47.338
 70
    32
  0
VERTEX
  8
T53SSILL
 62
7
 10
833.570
 20
-7016.018
 30
-45.870
 70
    32
  0
VERTEX
  8
T53SSILL
 62
7
 10
838.656
 20
-7023.375
 30
-45.981
 70
    32
  0
VERTEX
  8
T53SSILL
 62
7
 10
828.655
 20
-7030.396
 30
-45.322
 70
    32
  0
VERTEX
  8
T53SSILL
 62
7
 10
812.573
 20
-7036.562
 30
-45.367
 70
    32
  0
VERTEX
  8
T53SSILL
 62
7
 10
798.628
 20
-7005.207
 30
-44.930
 70
    32
  0
VERTEX
  8
T53SSILL
 62
7
 10
790.291
 20
-7010.091
 30
-45.281
 70
    32
  0
VERTEX
  8
T53SSILL
 62
7
 10
803.728
 20
-7039.339
 30
-45.677
 70
    32
  0
VERTEX
  8
T53SSILL
 62
7
 10
804.058
 20
-7048.691
 30
-45.911
 70
    32
  0
VERTEX
  8
T53SSILL
 62
7
 10
765.218
 20
-7077.370
 30
-48.362
 70
    32
  0
VERTEX
  8
T53SSILL
 62
7
 10
753.523
 20
-7096.111
 30
-49.476
 70
    32
  0
VERTEX
  8
T53SSILL
 62
7
 10
751.309
 20
-7114.865
 30
-50.102
 70
    32
  0
VERTEX
  8
T53SSILL
 62
7
 10
739.819
 20
-7096.539
 30
-50.192
 70
    32
  0
VERTEX
  8
T53SSILL
 62
7
 10
738.569
 20
-7088.569
 30
-50.039
 70
    32
  0
VERTEX
  8
T53SSILL
 62
7
 10
733.377
 20
-7086.263
 30
-50.243
 70
    32
  0
VERTEX
  8
T53SSILL
 62
7
 10
682.108
 20
-7005.658
 30
-50.618
 70
    32
  0
VERTEX
  8
T53SSILL
 62
7
 10
682.860
 20
-6991.201
 30
-50.161
 70
    32
  0
VERTEX
  8
T53SSILL
 62
7
 10
688.738
 20
-6982.763
 30
-49.635
 70
    32
  0
VERTEX
  8
T53SSILL
 62
7
 10
695.302
 20
-6977.958
 30
-49.183
 70
    32
  0
VERTEX
  8
T53SSILL
 62
7
 10
705.376
 20
-6973.684
 30
-48.579
 70
    32
  0
VERTEX
  8
T53SSILL
 62
7
 10
713.498
 20
-6970.416
 30
-48.097
 70
    32
  0
VERTEX
  8
T53SSILL
 62
7
 10
741.993
 20
-6967.266
 30
-46.507
 70
    32
  0
VERTEX
  8
T53SSILL
 62
7
 10
751.338
 20
-6968.566
 30
-45.685
 70
    32
  0
VERTEX
  8
T53SSILL
 62
7
 10
760.710
 20
-6970.377
 30
-45.048
 70
    32
  0
VERTEX
  8
T53SSILL
 62
7
 10
781.685
 20
-6980.250
 30
-44.739
 70
    32
  0
VERTEX
  8
T53SSILL
 62
7
 10
801.315
 20
-6984.212
 30
-44.858
 70
    32
  0
VERTEX
  8
T53SSILL
 62
7
 10
819.105
 20
-6984.619
 30
-45.767
 70
    32
  0
VERTEX
  8
T53SSILL
 62
7
 10
850.108
 20
-6981.421
 30
-47.429
 70
    32
  0
SEQEND
  8
T53SSILL
  0
POLYLINE
  8
T53SSILL
 62
7
 66
     1
 70
     9
  0
VERTEX
  8
T53SSILL
 62
7
 10
825.241
 20
-6907.636
 30
-47.658
 70
    32
  0
VERTEX
  8
T53SSILL
 62
7
 10
821.441
 20
-6872.430
 30
-48.182
 70
    32
  0
VERTEX
  8
T53SSILL
 62
7
 10
824.227
 20
-6863.191
 30
-48.514
 70
    32
  0
VERTEX
  8
T53SSILL
 62
7
 10
829.125
 20
-6855.182
 30
-48.931
 70
    32
  0
VERTEX
  8
T53SSILL
 62
7
 10
834.309
 20
-6852.304
 30
-49.257
 70
    32
  0
VERTEX
  8
T53SSILL
 62
7
 10
836.284
 20
-6848.622
 30
-49.434
 70
    32
  0
VERTEX
  8
T53SSILL
 62
7
 10
840.639
 20
-6849.075
 30
-49.649
 70
    32
  0
VERTEX
  8
T53SSILL
 62
7
 10
843.851
 20
-6862.446
 30
-49.541
 70
    32
  0
VERTEX
  8
T53SSILL
 62
7
 10
837.844
 20
-6866.309
 30
-49.152
 70
    32
  0
VERTEX
  8
T53SSILL
 62
7
 10
832.719
 20
-6873.513
 30
-48.741
 70
    32
  0
VERTEX
  8
T53SSILL
 62
7
 10
834.584
 20
-6877.360
 30
-48.758
 70
    32
  0
VERTEX
  8
T53SSILL
 62
7
 10
841.496
 20
-6882.683
 30
-49.005
 70
    32
  0
VERTEX
  8
T53SSILL
 62
7
 10
842.753
 20
-6890.031
 30
-48.920
 70
    32
  0
VERTEX
  8
T53SSILL
 62
7
 10
841.028
 20
-6897.379
 30
-48.681
 70
    32
  0
VERTEX
  8
T53SSILL
 62
7
 10
850.840
 20
-6916.711
 30
-48.791
 70
    32
  0
VERTEX
  8
T53SSILL
 62
7
 10
849.249
 20
-6925.672
 30
-48.526
 70
    32
  0
VERTEX
  8
T53SSILL
 62
7
 10
849.633
 20
-6936.914
 30
-48.315
 70
    32
  0
VERTEX
  8
T53SSILL
 62
7
 10
871.974
 20
-6960.741
 30
-48.979
 70
    32
  0
VERTEX
  8
T53SSILL
 62
7
 10
874.425
 20
-6979.741
 30
-48.717
 70
    32
  0
VERTEX
  8
T53SSILL
 62
7
 10
877.021
 20
-6983.412
 30
-48.775
 70
    32
  0
VERTEX
  8
T53SSILL
 62
7
 10
885.527
 20
-6989.793
 30
-49.083
 70
    32
  0
VERTEX
  8
T53SSILL
 62
7
 10
921.634
 20
-6964.056
 30
-50.110
 70
    32
  0
VERTEX
  8
T53SSILL
 62
7
 10
925.982
 20
-6969.177
 30
-50.130
 70
    32
  0
VERTEX
  8
T53SSILL
 62
7
 10
890.778
 20
-6994.482
 30
-49.258
 70
    32
  0
VERTEX
  8
T53SSILL
 62
7
 10
893.854
 20
-7012.466
 30
-49.048
 70
    32
  0
VERTEX
  8
T53SSILL
 62
7
 10
899.749
 20
-7012.834
 30
-49.344
 70
    32
  0
VERTEX
  8
T53SSILL
 62
7
 10
911.595
 20
-7035.792
 30
-49.485
 70
    32
  0
VERTEX
  8
T53SSILL
 62
7
 10
917.812
 20
-7073.219
 30
-49.040
 70
    32
  0
VERTEX
  8
T53SSILL
 62
7
 10
941.324
 20
-7087.819
 30
-49.953
 70
    32
  0
VERTEX
  8
T53SSILL
 62
7
 10
959.971
 20
-7108.206
 30
-50.042
 70
    32
  0
VERTEX
  8
T53SSILL
 62
7
 10
985.089
 20
-7124.824
 30
-50.189
 70
    32
  0
VERTEX
  8
T53SSILL
 62
7
 10
995.134
 20
-7133.666
 30
-50.242
 70
    32
  0
VERTEX
  8
T53SSILL
 62
7
 10
981.689
 20
-7145.875
 30
-50.111
 70
    32
  0
VERTEX
  8
T53SSILL
 62
7
 10
932.818
 20
-7109.158
 30
-49.078
 70
    32
  0
VERTEX
  8
T53SSILL
 62
7
 10
918.485
 20
-7102.159
 30
-48.482
 70
    32
  0
VERTEX
  8
T53SSILL
 62
7
 10
915.026
 20
-7097.689
 30
-48.396
 70
    32
  0
VERTEX
  8
T53SSILL
 62
7
 10
901.803
 20
-7101.120
 30
-47.644
 70
    32
  0
VERTEX
  8
T53SSILL
 62
7
 10
896.889
 20
-7094.974
 30
-47.517
 70
    32
  0
VERTEX
  8
T53SSILL
 62
7
 10
901.614
 20
-7080.586
 30
-48.055
 70
    32
  0
VERTEX
  8
T53SSILL
 62
7
 10
894.170
 20
-7073.067
 30
-47.825
 70
    32
  0
VERTEX
  8
T53SSILL
 62
7
 10
862.114
 20
-7087.325
 30
-45.882
 70
    32
  0
VERTEX
  8
T53SSILL
 62
7
 10
851.639
 20
-7095.344
 30
-45.839
 70
    32
  0
VERTEX
  8
T53SSILL
 62
7
 10
848.411
 20
-7102.764
 30
-46.118
 70
    32
  0
VERTEX
  8
T53SSILL
 62
7
 10
846.727
 20
-7114.981
 30
-46.480
 70
    32
  0
VERTEX
  8
T53SSILL
 62
7
 10
876.600
 20
-7181.556
 30
-47.402
 70
    32
  0
VERTEX
  8
T53SSILL
 62
7
 10
898.867
 20
-7192.443
 30
-47.084
 70
    32
  0
VERTEX
  8
T53SSILL
 62
7
 10
914.290
 20
-7187.068
 30
-46.529
 70
    32
  0
VERTEX
  8
T53SSILL
 62
7
 10
929.908
 20
-7181.626
 30
-47.445
 70
    32
  0
VERTEX
  8
T53SSILL
 62
7
 10
936.816
 20
-7188.194
 30
-47.667
 70
    32
  0
VERTEX
  8
T53SSILL
 62
7
 10
920.693
 20
-7197.943
 30
-46.639
 70
    32
  0
VERTEX
  8
T53SSILL
 62
7
 10
918.425
 20
-7201.585
 30
-46.795
 70
    32
  0
VERTEX
  8
T53SSILL
 62
7
 10
947.209
 20
-7219.107
 30
-47.570
 70
    32
  0
VERTEX
  8
T53SSILL
 62
7
 10
958.961
 20
-7224.646
 30
-48.062
 70
    32
  0
VERTEX
  8
T53SSILL
 62
7
 10
963.904
 20
-7222.554
 30
-48.360
 70
    32
  0
VERTEX
  8
T53SSILL
 62
7
 10
973.337
 20
-7174.672
 30
-49.825
 70
    32
  0
VERTEX
  8
T53SSILL
 62
7
 10
981.423
 20
-7176.862
 30
-50.033
 70
    32
  0
VERTEX
  8
T53SSILL
 62
7
 10
990.000
 20
-7169.249
 30
-50.116
 70
    32
  0
VERTEX
  8
T53SSILL
 62
7
 10
997.403
 20
-7165.572
 30
-50.180
 70
    32
  0
VERTEX
  8
T53SSILL
 62
7
 10
994.786
 20
-7156.622
 30
-50.183
 70
    32
  0
VERTEX
  8
T53SSILL
 62
7
 10
1007.090
 20
-7151.543
 30
-50.287
 70
    32
  0
VERTEX
  8
T53SSILL
 62
7
 10
1026.132
 20
-7176.437
 30
-50.368
 70
    32
  0
VERTEX
  8
T53SSILL
 62
7
 10
1029.019
 20
-7183.212
 30
-50.373
 70
    32
  0
VERTEX
  8
T53SSILL
 62
7
 10
1033.131
 20
-7194.798
 30
-50.375
 70
    32
  0
VERTEX
  8
T53SSILL
 62
7
 10
1031.600
 20
-7197.349
 30
-50.358
 70
    32
  0
VERTEX
  8
T53SSILL
 62
7
 10
1071.237
 20
-7314.624
 30
-50.365
 70
    32
  0
VERTEX
  8
T53SSILL
 62
7
 10
1075.368
 20
-7314.117
 30
-50.397
 70
    32
  0
VERTEX
  8
T53SSILL
 62
7
 10
1094.560
 20
-7283.120
 30
-50.617
 70
    32
  0
VERTEX
  8
T53SSILL
 62
7
 10
1083.921
 20
-7267.430
 30
-50.576
 70
    32
  0
VERTEX
  8
T53SSILL
 62
7
 10
1092.492
 20
-7258.613
 30
-50.662
 70
    32
  0
VERTEX
  8
T53SSILL
 62
7
 10
1096.613
 20
-7257.345
 30
-50.696
 70
    32
  0
VERTEX
  8
T53SSILL
 62
7
 10
1100.736
 20
-7261.017
 30
-50.718
 70
    32
  0
VERTEX
  8
T53SSILL
 62
7
 10
1107.541
 20
-7262.061
 30
-50.766
 70
    32
  0
VERTEX
  8
T53SSILL
 62
7
 10
1116.762
 20
-7248.594
 30
-50.868
 70
    32
  0
VERTEX
  8
T53SSILL
 62
7
 10
1123.703
 20
-7253.711
 30
-50.907
 70
    32
  0
VERTEX
  8
T53SSILL
 62
7
 10
1114.748
 20
-7267.092
 30
-50.808
 70
    32
  0
VERTEX
  8
T53SSILL
 62
7
 10
1119.768
 20
-7276.474
 30
-50.822
 70
    32
  0
VERTEX
  8
T53SSILL
 62
7
 10
1129.424
 20
-7287.833
 30
-50.866
 70
    32
  0
VERTEX
  8
T53SSILL
 62
7
 10
1149.992
 20
-7298.650
 30
-50.993
 70
    32
  0
VERTEX
  8
T53SSILL
 62
7
 10
1147.477
 20
-7303.900
 30
-50.962
 70
    32
  0
VERTEX
  8
T53SSILL
 62
7
 10
1139.748
 20
-7311.770
 30
-50.884
 70
    32
  0
VERTEX
  8
T53SSILL
 62
7
 10
1135.669
 20
-7310.701
 30
-50.857
 70
    32
  0
VERTEX
  8
T53SSILL
 62
7
 10
1129.364
 20
-7312.584
 30
-50.805
 70
    32
  0
VERTEX
  8
T53SSILL
 62
7
 10
1098.227
 20
-7362.013
 30
-50.450
 70
    32
  0
VERTEX
  8
T53SSILL
 62
7
 10
1089.765
 20
-7370.530
 30
-50.366
 70
    32
  0
VERTEX
  8
T53SSILL
 62
7
 10
1129.843
 20
-7491.545
 30
-50.368
 70
    32
  0
VERTEX
  8
T53SSILL
 62
7
 10
1141.010
 20
-7498.830
 30
-50.433
 70
    32
  0
VERTEX
  8
T53SSILL
 62
7
 10
1156.689
 20
-7496.106
 30
-50.557
 70
    32
  0
VERTEX
  8
T53SSILL
 62
7
 10
1211.607
 20
-7439.432
 30
-51.107
 70
    32
  0
VERTEX
  8
T53SSILL
 62
7
 10
1215.291
 20
-7430.689
 30
-51.156
 70
    32
  0
VERTEX
  8
T53SSILL
 62
7
 10
1215.260
 20
-7426.758
 30
-51.166
 70
    32
  0
VERTEX
  8
T53SSILL
 62
7
 10
1210.287
 20
-7414.597
 30
-51.158
 70
    32
  0
VERTEX
  8
T53SSILL
 62
7
 10
1205.875
 20
-7413.224
 30
-51.129
 70
    32
  0
VERTEX
  8
T53SSILL
 62
7
 10
1197.062
 20
-7414.532
 30
-51.060
 70
    32
  0
VERTEX
  8
T53SSILL
 62
7
 10
1197.596
 20
-7395.363
 30
-51.111
 70
    32
  0
VERTEX
  8
T53SSILL
 62
7
 10
1183.234
 20
-7364.728
 30
-51.079
 70
    32
  0
VERTEX
  8
T53SSILL
 62
7
 10
1183.146
 20
-7359.522
 30
-51.091
 70
    32
  0
VERTEX
  8
T53SSILL
 62
7
 10
1193.591
 20
-7349.220
 30
-51.161
 70
    32
  0
VERTEX
  8
T53SSILL
 62
7
 10
1169.392
 20
-7269.754
 30
-51.079
 70
    32
  0
VERTEX
  8
T53SSILL
 62
7
 10
1176.116
 20
-7267.515
 30
-51.098
 70
    32
  0
VERTEX
  8
T53SSILL
 62
7
 10
1203.851
 20
-7358.709
 30
-51.192
 70
    32
  0
VERTEX
  8
T53SSILL
 62
7
 10
1214.723
 20
-7375.764
 30
-51.226
 70
    32
  0
VERTEX
  8
T53SSILL
 62
7
 10
1226.626
 20
-7388.987
 30
-51.263
 70
    32
  0
VERTEX
  8
T53SSILL
 62
7
 10
1226.218
 20
-7392.471
 30
-51.262
 70
    32
  0
VERTEX
  8
T53SSILL
 62
7
 10
1219.350
 20
-7400.916
 30
-51.243
 70
    32
  0
VERTEX
  8
T53SSILL
 62
7
 10
1219.781
 20
-7405.541
 30
-51.245
 70
    32
  0
VERTEX
  8
T53SSILL
 62
7
 10
1236.596
 20
-7411.096
 30
-51.295
 70
    32
  0
VERTEX
  8
T53SSILL
 62
7
 10
1247.408
 20
-7432.258
 30
-51.330
 70
    32
  0
VERTEX
  8
T53SSILL
 62
7
 10
1261.224
 20
-7435.074
 30
-51.371
 70
    32
  0
VERTEX
  8
T53SSILL
 62
7
 10
1275.443
 20
-7455.492
 30
-51.415
 70
    32
  0
VERTEX
  8
T53SSILL
 62
7
 10
1280.245
 20
-7467.120
 30
-51.431
 70
    32
  0
VERTEX
  8
T53SSILL
 62
7
 10
1272.092
 20
-7483.536
 30
-51.409
 70
    32
  0
VERTEX
  8
T53SSILL
 62
7
 10
1258.440
 20
-7485.432
 30
-51.344
 70
    32
  0
VERTEX
  8
T53SSILL
 62
7
 10
1255.943
 20
-7488.912
 30
-51.317
 70
    32
  0
VERTEX
  8
T53SSILL
 62
7
 10
1261.065
 20
-7502.172
 30
-51.322
 70
    32
  0
VERTEX
  8
T53SSILL
 62
7
 10
1238.241
 20
-7509.373
 30
-51.134
 70
    32
  0
VERTEX
  8
T53SSILL
 62
7
 10
1234.075
 20
-7504.745
 30
-51.114
 70
    32
  0
VERTEX
  8
T53SSILL
 62
7
 10
1231.754
 20
-7497.993
 30
-51.114
 70
    32
  0
VERTEX
  8
T53SSILL
 62
7
 10
1223.701
 20
-7495.998
 30
-51.058
 70
    32
  0
VERTEX
  8
T53SSILL
 62
7
 10
1199.973
 20
-7513.636
 30
-50.838
 70
    32
  0
VERTEX
  8
T53SSILL
 62
7
 10
1198.089
 20
-7525.410
 30
-50.794
 70
    32
  0
VERTEX
  8
T53SSILL
 62
7
 10
1186.911
 20
-7531.057
 30
-50.697
 70
    32
  0
VERTEX
  8
T53SSILL
 62
7
 10
1182.134
 20
-7526.731
 30
-50.672
 70
    32
  0
VERTEX
  8
T53SSILL
 62
7
 10
1170.741
 20
-7536.191
 30
-50.563
 70
    32
  0
VERTEX
  8
T53SSILL
 62
7
 10
1170.940
 20
-7544.391
 30
-50.545
 70
    32
  0
VERTEX
  8
T53SSILL
 62
7
 10
1154.977
 20
-7559.293
 30
-50.389
 70
    32
  0
VERTEX
  8
T53SSILL
 62
7
 10
1146.251
 20
-7553.839
 30
-50.337
 70
    32
  0
VERTEX
  8
T53SSILL
 62
7
 10
1142.873
 20
-7555.220
 30
-50.308
 70
    32
  0
VERTEX
  8
T53SSILL
 62
7
 10
1146.845
 20
-7582.172
 30
-50.320
 70
    32
  0
VERTEX
  8
T53SSILL
 62
7
 10
1145.584
 20
-7601.545
 30
-50.344
 70
    32
  0
VERTEX
  8
T53SSILL
 62
7
 10
1131.899
 20
-7604.892
 30
-50.297
 70
    32
  0
VERTEX
  8
T53SSILL
 62
7
 10
1125.219
 20
-7576.196
 30
-50.229
 70
    32
  0
VERTEX
  8
T53SSILL
 62
7
 10
1125.773
 20
-7570.518
 30
-50.223
 70
    32
  0
VERTEX
  8
T53SSILL
 62
7
 10
1113.272
 20
-7581.012
 30
-50.191
 70
    32
  0
VERTEX
  8
T53SSILL
 62
7
 10
1120.643
 20
-7590.755
 30
-50.233
 70
    32
  0
VERTEX
  8
T53SSILL
 62
7
 10
1112.242
 20
-7596.812
 30
-50.210
 70
    32
  0
VERTEX
  8
T53SSILL
 62
7
 10
1105.294
 20
-7587.197
 30
-50.169
 70
    32
  0
VERTEX
  8
T53SSILL
 62
7
 10
1081.166
 20
-7604.140
 30
-50.102
 70
    32
  0
VERTEX
  8
T53SSILL
 62
7
 10
1091.999
 20
-7628.471
 30
-50.180
 70
    32
  0
VERTEX
  8
T53SSILL
 62
7
 10
1106.391
 20
-7652.715
 30
-50.270
 70
    32
  0
VERTEX
  8
T53SSILL
 62
7
 10
1102.491
 20
-7658.323
 30
-50.264
 70
    32
  0
VERTEX
  8
T53SSILL
 62
7
 10
1095.741
 20
-7663.937
 30
-50.246
 70
    32
  0
VERTEX
  8
T53SSILL
 62
7
 10
1307.405
 20
-8000.604
 30
-51.532
 70
    32
  0
VERTEX
  8
T53SSILL
 62
7
 10
1311.580
 20
-8004.347
 30
-51.548
 70
    32
  0
VERTEX
  8
T53SSILL
 62
7
 10
1317.376
 20
-8003.716
 30
-51.568
 70
    32
  0
VERTEX
  8
T53SSILL
 62
7
 10
1360.582
 20
-7970.754
 30
-51.697
 70
    32
  0
VERTEX
  8
T53SSILL
 62
7
 10
1364.625
 20
-7975.354
 30
-51.714
 70
    32
  0
VERTEX
  8
T53SSILL
 62
7
 10
1323.311
 20
-8006.716
 30
-51.590
 70
    32
  0
VERTEX
  8
T53SSILL
 62
7
 10
1336.581
 20
-8021.353
 30
-51.644
 70
    32
  0
VERTEX
  8
T53SSILL
 62
7
 10
1385.869
 20
-7986.514
 30
-51.793
 70
    32
  0
VERTEX
  8
T53SSILL
 62
7
 10
1390.617
 20
-7992.922
 30
-51.813
 70
    32
  0
VERTEX
  8
T53SSILL
 62
7
 10
1337.874
 20
-8029.846
 30
-51.653
 70
    32
  0
VERTEX
  8
T53SSILL
 62
7
 10
1338.340
 20
-8037.960
 30
-51.660
 70
    32
  0
VERTEX
  8
T53SSILL
 62
7
 10
1332.065
 20
-8042.126
 30
-51.641
 70
    32
  0
VERTEX
  8
T53SSILL
 62
7
 10
1329.071
 20
-8050.912
 30
-51.636
 70
    32
  0
VERTEX
  8
T53SSILL
 62
7
 10
1364.117
 20
-8171.543
 30
-51.826
 70
    32
  0
VERTEX
  8
T53SSILL
 62
7
 10
1382.010
 20
-8193.090
 30
-51.900
 70
    32
  0
VERTEX
  8
T53SSILL
 62
7
 10
1385.070
 20
-8192.129
 30
-51.910
 70
    32
  0
VERTEX
  8
T53SSILL
 62
7
 10
1424.837
 20
-8093.442
 30
-51.989
 70
    32
  0
VERTEX
  8
T53SSILL
 62
7
 10
1420.964
 20
-8082.323
 30
-51.969
 70
    32
  0
VERTEX
  8
T53SSILL
 62
7
 10
1420.627
 20
-8063.804
 30
-51.957
 70
    32
  0
VERTEX
  8
T53SSILL
 62
7
 10
1426.937
 20
-8059.750
 30
-51.977
 70
    32
  0
VERTEX
  8
T53SSILL
 62
7
 10
1450.888
 20
-7999.432
 30
-52.024
 70
    32
  0
VERTEX
  8
T53SSILL
 62
7
 10
1451.784
 20
-7988.616
 30
-52.021
 70
    32
  0
VERTEX
  8
T53SSILL
 62
7
 10
1523.701
 20
-7800.874
 30
-52.192
 70
    32
  0
VERTEX
  8
T53SSILL
 62
7
 10
1559.722
 20
-7722.928
 30
-52.287
 70
    32
  0
VERTEX
  8
T53SSILL
 62
7
 10
1573.536
 20
-7728.643
 30
-52.329
 70
    32
  0
VERTEX
  8
T53SSILL
 62
7
 10
1542.365
 20
-7802.217
 30
-52.247
 70
    32
  0
VERTEX
  8
T53SSILL
 62
7
 10
1444.870
 20
-8067.356
 30
-52.043
 70
    32
  0
VERTEX
  8
T53SSILL
 62
7
 10
1394.118
 20
-8193.620
 30
-51.942
 70
    32
  0
VERTEX
  8
T53SSILL
 62
7
 10
1397.722
 20
-8215.492
 30
-51.967
 70
    32
  0
VERTEX
  8
T53SSILL
 62
7
 10
1622.465
 20
-8529.485
 30
-52.921
 70
    32
  0
VERTEX
  8
T53SSILL
 62
7
 10
1641.184
 20
-8539.503
 30
-52.991
 70
    32
  0
VERTEX
  8
T53SSILL
 62
7
 10
1651.636
 20
-8554.268
 30
-53.035
 70
    32
  0
VERTEX
  8
T53SSILL
 62
7
 10
1645.148
 20
-8560.978
 30
-53.017
 70
    32
  0
VERTEX
  8
T53SSILL
 62
7
 10
1750.166
 20
-8708.117
 30
-53.463
 70
    32
  0
VERTEX
  8
T53SSILL
 62
7
 10
1759.185
 20
-8701.764
 30
-53.490
 70
    32
  0
VERTEX
  8
T53SSILL
 62
7
 10
1764.564
 20
-8708.103
 30
-53.512
 70
    32
  0
VERTEX
  8
T53SSILL
 62
7
 10
1755.209
 20
-8714.914
 30
-53.484
 70
    32
  0
VERTEX
  8
T53SSILL
 62
7
 10
1842.326
 20
-8832.058
 30
-53.901
 70
    32
  0
VERTEX
  8
T53SSILL
 62
7
 10
1860.886
 20
-8840.610
 30
-54.010
 70
    32
  0
VERTEX
  8
T53SSILL
 62
7
 10
1877.101
 20
-8841.332
 30
-54.045
 70
    32
  0
VERTEX
  8
T53SSILL
 62
7
 10
2641.928
 20
-8651.449
 30
-56.251
 70
    32
  0
VERTEX
  8
T53SSILL
 62
7
 10
2646.919
 20
-8640.245
 30
-56.242
 70
    32
  0
VERTEX
  8
T53SSILL
 62
7
 10
2677.799
 20
-8624.944
 30
-56.286
 70
    32
  0
VERTEX
  8
T53SSILL
 62
7
 10
2690.114
 20
-8635.380
 30
-56.335
 70
    32
  0
VERTEX
  8
T53SSILL
 62
7
 10
2696.572
 20
-8638.008
 30
-56.355
 70
    32
  0
VERTEX
  8
T53SSILL
 62
7
 10
3615.088
 20
-8409.234
 30
-58.424
 70
    32
  0
VERTEX
  8
T53SSILL
 62
7
 10
3614.269
 20
-8404.874
 30
-58.418
 70
    32
  0
VERTEX
  8
T53SSILL
 62
7
 10
3556.486
 20
-8326.613
 30
-58.197
 70
    32
  0
VERTEX
  8
T53SSILL
 62
7
 10
3550.314
 20
-8325.353
 30
-58.180
 70
    32
  0
VERTEX
  8
T53SSILL
 62
7
 10
3547.222
 20
-8323.057
 30
-58.170
 70
    32
  0
VERTEX
  8
T53SSILL
 62
7
 10
3550.207
 20
-8317.601
 30
-58.173
 70
    32
  0
VERTEX
  8
T53SSILL
 62
7
 10
3540.496
 20
-8304.183
 30
-58.136
 70
    32
  0
VERTEX
  8
T53SSILL
 62
7
 10
3527.979
 20
-8299.776
 30
-58.099
 70
    32
  0
VERTEX
  8
T53SSILL
 62
7
 10
3520.323
 20
-8285.573
 30
-58.066
 70
    32
  0
VERTEX
  8
T53SSILL
 62
7
 10
3520.577
 20
-8277.792
 30
-58.060
 70
    32
  0
VERTEX
  8
T53SSILL
 62
7
 10
3500.955
 20
-8248.983
 30
-57.989
 70
    32
  0
VERTEX
  8
T53SSILL
 62
7
 10
3495.426
 20
-8248.805
 30
-57.979
 70
    32
  0
VERTEX
  8
T53SSILL
 62
7
 10
3490.739
 20
-8242.596
 30
-57.972
 70
    32
  0
VERTEX
  8
T53SSILL
 62
7
 10
3494.036
 20
-8239.446
 30
-57.978
 70
    32
  0
VERTEX
  8
T53SSILL
 62
7
 10
3446.031
 20
-8172.332
 30
-57.894
 70
    32
  0
VERTEX
  8
T53SSILL
 62
7
 10
3436.899
 20
-8172.741
 30
-57.869
 70
    32
  0
VERTEX
  8
T53SSILL
 62
7
 10
3416.882
 20
-8141.654
 30
-57.780
 70
    32
  0
VERTEX
  8
T53SSILL
 62
7
 10
3419.421
 20
-8135.978
 30
-57.768
 70
    32
  0
VERTEX
  8
T53SSILL
 62
7
 10
3390.048
 20
-8092.207
 30
-57.612
 70
    32
  0
VERTEX
  8
T53SSILL
 62
7
 10
3385.541
 20
-8095.573
 30
-57.615
 70
    32
  0
VERTEX
  8
T53SSILL
 62
7
 10
3380.765
 20
-8089.049
 30
-57.591
 70
    32
  0
VERTEX
  8
T53SSILL
 62
7
 10
3385.618
 20
-8085.870
 30
-57.589
 70
    32
  0
VERTEX
  8
T53SSILL
 62
7
 10
3335.719
 20
-8016.342
 30
-57.336
 70
    32
  0
VERTEX
  8
T53SSILL
 62
7
 10
3332.075
 20
-8019.104
 30
-57.339
 70
    32
  0
VERTEX
  8
T53SSILL
 62
7
 10
3326.904
 20
-8012.321
 30
-57.314
 70
    32
  0
VERTEX
  8
T53SSILL
 62
7
 10
3331.030
 20
-8009.329
 30
-57.311
 70
    32
  0
VERTEX
  8
T53SSILL
 62
7
 10
3308.770
 20
-7978.259
 30
-57.198
 70
    32
  0
VERTEX
  8
T53SSILL
 62
7
 10
3301.868
 20
-7978.047
 30
-57.188
 70
    32
  0
VERTEX
  8
T53SSILL
 62
7
 10
3298.120
 20
-7973.913
 30
-57.172
 70
    32
  0
VERTEX
  8
T53SSILL
 62
7
 10
3290.245
 20
-7961.730
 30
-57.129
 70
    32
  0
VERTEX
  8
T53SSILL
 62
7
 10
3291.940
 20
-7955.721
 30
-57.115
 70
    32
  0
VERTEX
  8
T53SSILL
 62
7
 10
3280.706
 20
-7939.348
 30
-57.056
 70
    32
  0
VERTEX
  8
T53SSILL
 62
7
 10
3277.171
 20
-7941.498
 30
-57.057
 70
    32
  0
VERTEX
  8
T53SSILL
 62
7
 10
3271.374
 20
-7933.973
 30
-57.030
 70
    32
  0
VERTEX
  8
T53SSILL
 62
7
 10
3274.974
 20
-7931.456
 30
-57.028
 70
    32
  0
VERTEX
  8
T53SSILL
 62
7
 10
3224.226
 20
-7861.021
 30
-56.771
 70
    32
  0
VERTEX
  8
T53SSILL
 62
7
 10
3220.222
 20
-7864.034
 30
-56.774
 70
    32
  0
VERTEX
  8
T53SSILL
 62
7
 10
3214.418
 20
-7856.193
 30
-56.745
 70
    32
  0
VERTEX
  8
T53SSILL
 62
7
 10
3218.544
 20
-7853.201
 30
-56.743
 70
    32
  0
VERTEX
  8
T53SSILL
 62
7
 10
3164.084
 20
-7778.071
 30
-56.469
 70
    32
  0
VERTEX
  8
T53SSILL
 62
7
 10
3159.505
 20
-7781.487
 30
-56.472
 70
    32
  0
VERTEX
  8
T53SSILL
 62
7
 10
3154.132
 20
-7774.416
 30
-56.446
 70
    32
  0
VERTEX
  8
T53SSILL
 62
7
 10
3158.740
 20
-7771.194
 30
-56.443
 70
    32
  0
VERTEX
  8
T53SSILL
 62
7
 10
3146.557
 20
-7753.769
 30
-56.380
 70
    32
  0
VERTEX
  8
T53SSILL
 62
7
 10
3140.345
 20
-7753.931
 30
-56.373
 70
    32
  0
VERTEX
  8
T53SSILL
 62
7
 10
3136.884
 20
-7751.741
 30
-56.362
 70
    32
  0
VERTEX
  8
T53SSILL
 62
7
 10
3122.214
 20
-7728.765
 30
-56.281
 70
    32
  0
VERTEX
  8
T53SSILL
 62
7
 10
3123.915
 20
-7723.073
 30
-56.268
 70
    32
  0
VERTEX
  8
T53SSILL
 62
7
 10
3110.085
 20
-7703.905
 30
-56.198
 70
    32
  0
VERTEX
  8
T53SSILL
 62
7
 10
3104.951
 20
-7707.602
 30
-56.201
 70
    32
  0
VERTEX
  8
T53SSILL
 62
7
 10
3100.153
 20
-7701.201
 30
-56.178
 70
    32
  0
VERTEX
  8
T53SSILL
 62
7
 10
3105.331
 20
-7697.259
 30
-56.174
 70
    32
  0
VERTEX
  8
T53SSILL
 62
7
 10
3056.035
 20
-7629.668
 30
-55.927
 70
    32
  0
VERTEX
  8
T53SSILL
 62
7
 10
3051.139
 20
-7633.091
 30
-55.930
 70
    32
  0
VERTEX
  8
T53SSILL
 62
7
 10
3046.543
 20
-7626.978
 30
-55.907
 70
    32
  0
VERTEX
  8
T53SSILL
 62
7
 10
3051.482
 20
-7623.310
 30
-55.904
 70
    32
  0
VERTEX
  8
T53SSILL
 62
7
 10
3031.099
 20
-7595.537
 30
-55.802
 70
    32
  0
VERTEX
  8
T53SSILL
 62
7
 10
3037.234
 20
-7590.819
 30
-55.798
 70
    32
  0
VERTEX
  8
T53SSILL
 62
7
 10
3057.372
 20
-7618.548
 30
-55.899
 70
    32
  0
VERTEX
  8
T53SSILL
 62
7
 10
3062.081
 20
-7615.470
 30
-55.897
 70
    32
  0
VERTEX
  8
T53SSILL
 62
7
 10
3066.461
 20
-7621.734
 30
-55.920
 70
    32
  0
VERTEX
  8
T53SSILL
 62
7
 10
3061.846
 20
-7624.640
 30
-55.921
 70
    32
  0
VERTEX
  8
T53SSILL
 62
7
 10
3110.840
 20
-7691.799
 30
-56.166
 70
    32
  0
VERTEX
  8
T53SSILL
 62
7
 10
3115.772
 20
-7688.887
 30
-56.165
 70
    32
  0
VERTEX
  8
T53SSILL
 62
7
 10
3120.821
 20
-7695.648
 30
-56.190
 70
    32
  0
VERTEX
  8
T53SSILL
 62
7
 10
3116.335
 20
-7698.892
 30
-56.193
 70
    32
  0
VERTEX
  8
T53SSILL
 62
7
 10
3164.645
 20
-7765.993
 30
-56.437
 70
    32
  0
VERTEX
  8
T53SSILL
 62
7
 10
3170.045
 20
-7762.217
 30
-56.434
 70
    32
  0
VERTEX
  8
T53SSILL
 62
7
 10
3175.346
 20
-7769.339
 30
-56.460
 70
    32
  0
VERTEX
  8
T53SSILL
 62
7
 10
3169.852
 20
-7773.287
 30
-56.463
 70
    32
  0
VERTEX
  8
T53SSILL
 62
7
 10
3225.247
 20
-7849.908
 30
-56.743
 70
    32
  0
VERTEX
  8
T53SSILL
 62
7
 10
3228.415
 20
-7847.693
 30
-56.741
 70
    32
  0
VERTEX
  8
T53SSILL
 62
7
 10
3231.593
 20
-7852.546
 30
-56.758
 70
    32
  0
VERTEX
  8
T53SSILL
 62
7
 10
3229.490
 20
-7855.517
 30
-56.763
 70
    32
  0
VERTEX
  8
T53SSILL
 62
7
 10
3280.619
 20
-7926.651
 30
-57.022
 70
    32
  0
VERTEX
  8
T53SSILL
 62
7
 10
3284.285
 20
-7923.767
 30
-57.019
 70
    32
  0
VERTEX
  8
T53SSILL
 62
7
 10
3289.952
 20
-7932.026
 30
-57.049
 70
    32
  0
VERTEX
  8
T53SSILL
 62
7
 10
3286.208
 20
-7934.643
 30
-57.051
 70
    32
  0
VERTEX
  8
T53SSILL
 62
7
 10
3336.315
 20
-8004.776
 30
-57.306
 70
    32
  0
VERTEX
  8
T53SSILL
 62
7
 10
3339.736
 20
-8001.849
 30
-57.302
 70
    32
  0
VERTEX
  8
T53SSILL
 62
7
 10
3345.065
 20
-8009.164
 30
-57.329
 70
    32
  0
VERTEX
  8
T53SSILL
 62
7
 10
3341.343
 20
-8011.660
 30
-57.331
 70
    32
  0
VERTEX
  8
T53SSILL
 62
7
 10
3390.659
 20
-8081.274
 30
-57.583
 70
    32
  0
VERTEX
  8
T53SSILL
 62
7
 10
3394.497
 20
-8078.483
 30
-57.581
 70
    32
  0
VERTEX
  8
T53SSILL
 62
7
 10
3399.373
 20
-8085.151
 30
-57.605
 70
    32
  0
VERTEX
  8
T53SSILL
 62
7
 10
3395.723
 20
-8087.596
 30
-57.607
 70
    32
  0
VERTEX
  8
T53SSILL
 62
7
 10
3396.941
 20
-8091.786
 30
-57.620
 70
    32
  0
VERTEX
  8
T53SSILL
 62
7
 10
3445.891
 20
-8160.071
 30
-57.868
 70
    32
  0
VERTEX
  8
T53SSILL
 62
7
 10
3450.950
 20
-8160.778
 30
-57.876
 70
    32
  0
VERTEX
  8
T53SSILL
 62
7
 10
3454.491
 20
-8164.963
 30
-57.892
 70
    32
  0
VERTEX
  8
T53SSILL
 62
7
 10
3451.136
 20
-8167.112
 30
-57.894
 70
    32
  0
VERTEX
  8
T53SSILL
 62
7
 10
3499.411
 20
-8234.484
 30
-57.995
 70
    32
  0
VERTEX
  8
T53SSILL
 62
7
 10
3503.302
 20
-8234.750
 30
-58.010
 70
    32
  0
VERTEX
  8
T53SSILL
 62
7
 10
3506.650
 20
-8239.463
 30
-58.015
 70
    32
  0
VERTEX
  8
T53SSILL
 62
7
 10
3504.406
 20
-8241.609
 30
-58.003
 70
    32
  0
VERTEX
  8
T53SSILL
 62
7
 10
3554.246
 20
-8311.976
 30
-58.178
 70
    32
  0
VERTEX
  8
T53SSILL
 62
7
 10
3561.536
 20
-8315.177
 30
-58.200
 70
    32
  0
VERTEX
  8
T53SSILL
 62
7
 10
3561.473
 20
-8321.874
 30
-58.206
 70
    32
  0
VERTEX
  8
T53SSILL
 62
7
 10
3619.228
 20
-8400.052
 30
-58.427
 70
    32
  0
VERTEX
  8
T53SSILL
 62
7
 10
3628.018
 20
-8403.304
 30
-58.453
 70
    32
  0
VERTEX
  8
T53SSILL
 62
7
 10
3635.272
 20
-8403.921
 30
-58.472
 70
    32
  0
VERTEX
  8
T53SSILL
 62
7
 10
3804.776
 20
-8362.697
 30
-58.994
 70
    32
  0
VERTEX
  8
T53SSILL
 62
7
 10
3808.777
 20
-8353.655
 30
-59.033
 70
    32
  0
VERTEX
  8
T53SSILL
 62
7
 10
3832.405
 20
-8347.831
 30
-59.148
 70
    32
  0
VERTEX
  8
T53SSILL
 62
7
 10
3838.453
 20
-8353.953
 30
-59.160
 70
    32
  0
VERTEX
  8
T53SSILL
 62
7
 10
3895.888
 20
-8339.755
 30
-59.441
 70
    32
  0
VERTEX
  8
T53SSILL
 62
7
 10
4136.269
 20
-8280.333
 30
-59.471
 70
    32
  0
VERTEX
  8
T53SSILL
 62
7
 10
4316.276
 20
-8235.198
 30
-59.489
 70
    32
  0
VERTEX
  8
T53SSILL
 62
7
 10
4410.335
 20
-8167.666
 30
-59.264
 70
    32
  0
VERTEX
  8
T53SSILL
 62
7
 10
4397.754
 20
-8163.294
 30
-59.223
 70
    32
  0
VERTEX
  8
T53SSILL
 62
7
 10
4380.027
 20
-8152.530
 30
-59.140
 70
    32
  0
VERTEX
  8
T53SSILL
 62
7
 10
4374.980
 20
-8156.252
 30
-59.153
 70
    32
  0
VERTEX
  8
T53SSILL
 62
7
 10
4369.736
 20
-8149.033
 30
-59.106
 70
    32
  0
VERTEX
  8
T53SSILL
 62
7
 10
4373.696
 20
-8146.072
 30
-59.096
 70
    32
  0
VERTEX
  8
T53SSILL
 62
7
 10
4375.297
 20
-8142.291
 30
-59.078
 70
    32
  0
VERTEX
  8
T53SSILL
 62
7
 10
4374.798
 20
-8137.028
 30
-59.050
 70
    32
  0
VERTEX
  8
T53SSILL
 62
7
 10
4370.411
 20
-8130.592
 30
-59.009
 70
    32
  0
VERTEX
  8
T53SSILL
 62
7
 10
4379.410
 20
-8112.360
 30
-58.968
 70
    32
  0
VERTEX
  8
T53SSILL
 62
7
 10
4389.939
 20
-8112.494
 30
-58.982
 70
    32
  0
VERTEX
  8
T53SSILL
 62
7
 10
4398.143
 20
-8118.464
 30
-59.009
 70
    32
  0
VERTEX
  8
T53SSILL
 62
7
 10
4393.468
 20
-8149.526
 30
-59.143
 70
    32
  0
VERTEX
  8
T53SSILL
 62
7
 10
4400.641
 20
-8156.326
 30
-59.190
 70
    32
  0
VERTEX
  8
T53SSILL
 62
7
 10
4417.849
 20
-8159.692
 30
-59.233
 70
    32
  0
VERTEX
  8
T53SSILL
 62
7
 10
4423.027
 20
-8158.243
 30
-59.232
 70
    32
  0
VERTEX
  8
T53SSILL
 62
7
 10
4492.513
 20
-8108.768
 30
-59.107
 70
    32
  0
VERTEX
  8
T53SSILL
 62
7
 10
4367.269
 20
-8089.396
 30
-58.890
 70
    32
  0
VERTEX
  8
T53SSILL
 62
7
 10
4328.891
 20
-8117.114
 30
-58.915
 70
    32
  0
VERTEX
  8
T53SSILL
 62
7
 10
4324.309
 20
-8129.187
 30
-58.941
 70
    32
  0
VERTEX
  8
T53SSILL
 62
7
 10
4307.689
 20
-8143.018
 30
-58.985
 70
    32
  0
VERTEX
  8
T53SSILL
 62
7
 10
4299.865
 20
-8148.636
 30
-59.003
 70
    32
  0
VERTEX
  8
T53SSILL
 62
7
 10
4284.727
 20
-8149.011
 30
-58.984
 70
    32
  0
VERTEX
  8
T53SSILL
 62
7
 10
4187.609
 20
-8219.153
 30
-59.218
 70
    32
  0
VERTEX
  8
T53SSILL
 62
7
 10
4182.715
 20
-8213.811
 30
-59.183
 70
    32
  0
VERTEX
  8
T53SSILL
 62
7
 10
4277.609
 20
-8145.944
 30
-58.957
 70
    32
  0
VERTEX
  8
T53SSILL
 62
7
 10
4271.304
 20
-8132.433
 30
-58.880
 70
    32
  0
VERTEX
  8
T53SSILL
 62
7
 10
4251.571
 20
-8114.673
 30
-58.806
 70
    32
  0
VERTEX
  8
T53SSILL
 62
7
 10
4248.084
 20
-8109.778
 30
-58.788
 70
    32
  0
VERTEX
  8
T53SSILL
 62
7
 10
4246.226
 20
-8101.418
 30
-58.763
 70
    32
  0
VERTEX
  8
T53SSILL
 62
7
 10
4250.467
 20
-8033.663
 30
-58.587
 70
    32
  0
VERTEX
  8
T53SSILL
 62
7
 10
4177.519
 20
-7887.579
 30
-58.098
 70
    32
  0
VERTEX
  8
T53SSILL
 62
7
 10
4183.850
 20
-7884.749
 30
-58.098
 70
    32
  0
VERTEX
  8
T53SSILL
 62
7
 10
4252.977
 20
-8021.448
 30
-58.557
 70
    32
  0
VERTEX
  8
T53SSILL
 62
7
 10
4254.979
 20
-8019.836
 30
-58.555
 70
    32
  0
VERTEX
  8
T53SSILL
 62
7
 10
4277.738
 20
-8021.794
 30
-58.591
 70
    32
  0
VERTEX
  8
T53SSILL
 62
7
 10
4283.041
 20
-8039.500
 30
-58.645
 70
    32
  0
VERTEX
  8
T53SSILL
 62
7
 10
4275.884
 20
-8064.321
 30
-58.703
 70
    32
  0
VERTEX
  8
T53SSILL
 62
7
 10
4281.735
 20
-8076.842
 30
-58.744
 70
    32
  0
VERTEX
  8
T53SSILL
 62
7
 10
4294.856
 20
-8082.323
 30
-58.776
 70
    32
  0
VERTEX
  8
T53SSILL
 62
7
 10
4306.333
 20
-8099.818
 30
-58.838
 70
    32
  0
VERTEX
  8
T53SSILL
 62
7
 10
4319.224
 20
-8092.614
 30
-58.836
 70
    32
  0
VERTEX
  8
T53SSILL
 62
7
 10
4326.581
 20
-8091.902
 30
-58.844
 70
    32
  0
VERTEX
  8
T53SSILL
 62
7
 10
4323.983
 20
-8098.525
 30
-58.858
 70
    32
  0
VERTEX
  8
T53SSILL
 62
7
 10
4329.956
 20
-8108.170
 30
-58.892
 70
    32
  0
VERTEX
  8
T53SSILL
 62
7
 10
4347.497
 20
-8095.230
 30
-58.880
 70
    32
  0
VERTEX
  8
T53SSILL
 62
7
 10
4346.439
 20
-8088.065
 30
-58.859
 70
    32
  0
VERTEX
  8
T53SSILL
 62
7
 10
4351.015
 20
-8087.243
 30
-58.863
 70
    32
  0
VERTEX
  8
T53SSILL
 62
7
 10
4353.863
 20
-8090.332
 30
-58.875
 70
    32
  0
VERTEX
  8
T53SSILL
 62
7
 10
4365.991
 20
-8081.476
 30
-58.867
 70
    32
  0
VERTEX
  8
T53SSILL
 62
7
 10
4493.292
 20
-8102.137
 30
-59.091
 70
    32
  0
VERTEX
  8
T53SSILL
 62
7
 10
4506.900
 20
-8099.340
 30
-59.101
 70
    32
  0
VERTEX
  8
T53SSILL
 62
7
 10
4605.109
 20
-8027.990
 30
-59.038
 70
    32
  0
VERTEX
  8
T53SSILL
 62
7
 10
4616.296
 20
-8022.610
 30
-59.038
 70
    32
  0
VERTEX
  8
T53SSILL
 62
7
 10
4626.339
 20
-8021.436
 30
-59.049
 70
    32
  0
VERTEX
  8
T53SSILL
 62
7
 10
4635.026
 20
-8022.939
 30
-59.064
 70
    32
  0
VERTEX
  8
T53SSILL
 62
7
 10
4493.098
 20
-7826.353
 30
-58.348
 70
    32
  0
VERTEX
  8
T53SSILL
 62
7
 10
4478.661
 20
-7837.408
 30
-58.359
 70
    32
  0
VERTEX
  8
T53SSILL
 62
7
 10
4473.545
 20
-7830.796
 30
-58.334
 70
    32
  0
VERTEX
  8
T53SSILL
 62
7
 10
4488.889
 20
-7819.999
 30
-58.325
 70
    32
  0
VERTEX
  8
T53SSILL
 62
7
 10
4486.109
 20
-7816.686
 30
-58.313
 70
    32
  0
VERTEX
  8
T53SSILL
 62
7
 10
4492.679
 20
-7810.827
 30
-58.306
 70
    32
  0
VERTEX
  8
T53SSILL
 62
7
 10
4563.362
 20
-7907.312
 30
-58.659
 70
    32
  0
VERTEX
  8
T53SSILL
 62
7
 10
4565.184
 20
-7899.162
 30
-58.639
 70
    32
  0
VERTEX
  8
T53SSILL
 62
7
 10
4571.525
 20
-7890.433
 30
-58.624
 70
    32
  0
VERTEX
  8
T53SSILL
 62
7
 10
4619.942
 20
-7855.312
 30
-58.593
 70
    32
  0
VERTEX
  8
T53SSILL
 62
7
 10
4625.164
 20
-7862.020
 30
-58.618
 70
    32
  0
VERTEX
  8
T53SSILL
 62
7
 10
4575.654
 20
-7898.097
 30
-58.650
 70
    32
  0
VERTEX
  8
T53SSILL
 62
7
 10
4570.068
 20
-7910.296
 30
-58.675
 70
    32
  0
VERTEX
  8
T53SSILL
 62
7
 10
4573.194
 20
-7923.186
 30
-58.714
 70
    32
  0
VERTEX
  8
T53SSILL
 62
7
 10
4901.884
 20
-8381.512
 30
-61.116
 70
    32
  0
VERTEX
  8
T53SSILL
 62
7
 10
5028.246
 20
-8559.366
 30
-61.076
 70
    32
  0
VERTEX
  8
T53SSILL
 62
7
 10
5031.974
 20
-8545.753
 30
-61.075
 70
    32
  0
VERTEX
  8
T53SSILL
 62
7
 10
5038.692
 20
-8537.711
 30
-61.074
 70
    32
  0
VERTEX
  8
T53SSILL
 62
7
 10
5182.474
 20
-8434.130
 30
-61.054
 70
    32
  0
VERTEX
  8
T53SSILL
 62
7
 10
5186.629
 20
-8440.017
 30
-61.053
 70
    32
  0
VERTEX
  8
T53SSILL
 62
7
 10
5045.456
 20
-8540.103
 30
-61.073
 70
    32
  0
VERTEX
  8
T53SSILL
 62
7
 10
5037.218
 20
-8552.268
 30
-61.075
 70
    32
  0
VERTEX
  8
T53SSILL
 62
7
 10
5035.500
 20
-8560.948
 30
-61.075
 70
    32
  0
VERTEX
  8
T53SSILL
 62
7
 10
5036.545
 20
-8570.078
 30
-61.075
 70
    32
  0
VERTEX
  8
T53SSILL
 62
7
 10
5117.533
 20
-8683.007
 30
-61.060
 70
    32
  0
VERTEX
  8
T53SSILL
 62
7
 10
5120.756
 20
-8683.772
 30
-61.059
 70
    32
  0
VERTEX
  8
T53SSILL
 62
7
 10
5134.056
 20
-8676.275
 30
-61.057
 70
    32
  0
VERTEX
  8
T53SSILL
 62
7
 10
5138.717
 20
-8675.295
 30
-61.056
 70
    32
  0
VERTEX
  8
T53SSILL
 62
7
 10
5145.466
 20
-8678.690
 30
-61.055
 70
    32
  0
VERTEX
  8
T53SSILL
 62
7
 10
5152.008
 20
-8690.286
 30
-61.053
 70
    32
  0
VERTEX
  8
T53SSILL
 62
7
 10
5160.106
 20
-8717.680
 30
-61.052
 70
    32
  0
VERTEX
  8
T53SSILL
 62
7
 10
5182.103
 20
-8750.351
 30
-61.048
 70
    32
  0
VERTEX
  8
T53SSILL
 62
7
 10
5209.101
 20
-8764.813
 30
-61.043
 70
    32
  0
VERTEX
  8
T53SSILL
 62
7
 10
5216.732
 20
-8775.808
 30
-61.041
 70
    32
  0
VERTEX
  8
T53SSILL
 62
7
 10
5221.505
 20
-8790.172
 30
-61.041
 70
    32
  0
VERTEX
  8
T53SSILL
 62
7
 10
5222.383
 20
-8802.294
 30
-61.040
 70
    32
  0
VERTEX
  8
T53SSILL
 62
7
 10
5230.898
 20
-8814.606
 30
-61.039
 70
    32
  0
VERTEX
  8
T53SSILL
 62
7
 10
5229.825
 20
-8834.371
 30
-61.039
 70
    32
  0
VERTEX
  8
T53SSILL
 62
7
 10
5245.879
 20
-8856.094
 30
-61.036
 70
    32
  0
VERTEX
  8
T53SSILL
 62
7
 10
5249.467
 20
-8855.152
 30
-61.035
 70
    32
  0
VERTEX
  8
T53SSILL
 62
7
 10
5254.622
 20
-8861.403
 30
-61.034
 70
    32
  0
VERTEX
  8
T53SSILL
 62
7
 10
5265.711
 20
-8888.525
 30
-61.022
 70
    32
  0
VERTEX
  8
T53SSILL
 62
7
 10
5277.708
 20
-8906.476
 30
-61.008
 70
    32
  0
VERTEX
  8
T53SSILL
 62
7
 10
5284.465
 20
-8912.951
 30
-61.003
 70
    32
  0
VERTEX
  8
T53SSILL
 62
7
 10
5297.129
 20
-8917.175
 30
-61.002
 70
    32
  0
VERTEX
  8
T53SSILL
 62
7
 10
5308.000
 20
-8915.809
 30
-61.005
 70
    32
  0
VERTEX
  8
T53SSILL
 62
7
 10
5328.380
 20
-8902.139
 30
-61.021
 70
    32
  0
VERTEX
  8
T53SSILL
 62
7
 10
5568.485
 20
-8728.859
 30
-60.985
 70
    32
  0
VERTEX
  8
T53SSILL
 62
7
 10
5563.944
 20
-8722.762
 30
-60.983
 70
    32
  0
VERTEX
  8
T53SSILL
 62
7
 10
5573.303
 20
-8715.743
 30
-60.981
 70
    32
  0
VERTEX
  8
T53SSILL
 62
7
 10
5577.862
 20
-8722.135
 30
-60.984
 70
    32
  0
VERTEX
  8
T53SSILL
 62
7
 10
5591.897
 20
-8712.072
 30
-60.982
 70
    32
  0
VERTEX
  8
T53SSILL
 62
7
 10
5576.544
 20
-8690.325
 30
-60.976
 70
    32
  0
VERTEX
  8
T53SSILL
 62
7
 10
5585.995
 20
-8683.568
 30
-60.974
 70
    32
  0
VERTEX
  8
T53SSILL
 62
7
 10
5600.989
 20
-8705.552
 30
-60.980
 70
    32
  0
VERTEX
  8
T53SSILL
 62
7
 10
5619.122
 20
-8692.550
 30
-60.978
 70
    32
  0
VERTEX
  8
T53SSILL
 62
7
 10
5608.294
 20
-8678.324
 30
-60.973
 70
    32
  0
VERTEX
  8
T53SSILL
 62
7
 10
5617.444
 20
-8671.466
 30
-60.971
 70
    32
  0
VERTEX
  8
T53SSILL
 62
7
 10
5628.154
 20
-8686.074
 30
-60.977
 70
    32
  0
VERTEX
  8
T53SSILL
 62
7
 10
5885.016
 20
-8501.892
 30
-60.884
 70
    32
  0
VERTEX
  8
T53SSILL
 62
7
 10
5889.237
 20
-8495.590
 30
-60.886
 70
    32
  0
VERTEX
  8
T53SSILL
 62
7
 10
5890.486
 20
-8489.934
 30
-60.889
 70
    32
  0
VERTEX
  8
T53SSILL
 62
7
 10
5891.318
 20
-8482.110
 30
-60.892
 70
    32
  0
VERTEX
  8
T53SSILL
 62
7
 10
5890.190
 20
-8477.656
 30
-60.895
 70
    32
  0
VERTEX
  8
T53SSILL
 62
7
 10
5868.446
 20
-8444.640
 30
-60.923
 70
    32
  0
VERTEX
  8
T53SSILL
 62
7
 10
5887.345
 20
-8430.637
 30
-60.920
 70
    32
  0
VERTEX
  8
T53SSILL
 62
7
 10
5897.591
 20
-8445.920
 30
-60.909
 70
    32
  0
VERTEX
  8
T53SSILL
 62
7
 10
5886.385
 20
-8454.017
 30
-60.909
 70
    32
  0
VERTEX
  8
T53SSILL
 62
7
 10
5897.852
 20
-8471.238
 30
-60.896
 70
    32
  0
VERTEX
  8
T53SSILL
 62
7
 10
5904.823
 20
-8476.280
 30
-60.890
 70
    32
  0
VERTEX
  8
T53SSILL
 62
7
 10
5915.443
 20
-8478.080
 30
-60.885
 70
    32
  0
VERTEX
  8
T53SSILL
 62
7
 10
5921.385
 20
-8476.786
 30
-60.884
 70
    32
  0
VERTEX
  8
T53SSILL
 62
7
 10
6024.985
 20
-8402.464
 30
-60.878
 70
    32
  0
VERTEX
  8
T53SSILL
 62
7
 10
6029.113
 20
-8392.598
 30
-60.878
 70
    32
  0
VERTEX
  8
T53SSILL
 62
7
 10
6025.570
 20
-8376.354
 30
-60.883
 70
    32
  0
VERTEX
  8
T53SSILL
 62
7
 10
6031.714
 20
-8371.616
 30
-60.881
 70
    32
  0
VERTEX
  8
T53SSILL
 62
7
 10
6038.947
 20
-8386.080
 30
-60.876
 70
    32
  0
VERTEX
  8
T53SSILL
 62
7
 10
6043.288
 20
-8389.617
 30
-60.874
 70
    32
  0
VERTEX
  8
T53SSILL
 62
7
 10
6169.201
 20
-8298.955
 30
-60.848
 70
    32
  0
VERTEX
  8
T53SSILL
 62
7
 10
6170.741
 20
-8287.020
 30
-60.849
 70
    32
  0
VERTEX
  8
T53SSILL
 62
7
 10
6168.988
 20
-8279.472
 30
-60.851
 70
    32
  0
VERTEX
  8
T53SSILL
 62
7
 10
6146.421
 20
-8246.951
 30
-60.865
 70
    32
  0
VERTEX
  8
T53SSILL
 62
7
 10
6143.180
 20
-8257.757
 30
-60.864
 70
    32
  0
VERTEX
  8
T53SSILL
 62
7
 10
6136.759
 20
-8268.286
 30
-60.865
 70
    32
  0
VERTEX
  8
T53SSILL
 62
7
 10
6097.503
 20
-8295.882
 30
-60.873
 70
    32
  0
VERTEX
  8
T53SSILL
 62
7
 10
6092.854
 20
-8290.134
 30
-60.876
 70
    32
  0
VERTEX
  8
T53SSILL
 62
7
 10
6104.026
 20
-8281.604
 30
-60.873
 70
    32
  0
VERTEX
  8
T53SSILL
 62
7
 10
6099.561
 20
-8274.828
 30
-60.876
 70
    32
  0
VERTEX
  8
T53SSILL
 62
7
 10
6118.640
 20
-8261.399
 30
-60.872
 70
    32
  0
VERTEX
  8
T53SSILL
 62
7
 10
6122.807
 20
-8267.071
 30
-60.870
 70
    32
  0
VERTEX
  8
T53SSILL
 62
7
 10
6133.143
 20
-8258.295
 30
-60.868
 70
    32
  0
VERTEX
  8
T53SSILL
 62
7
 10
6137.662
 20
-8246.458
 30
-60.868
 70
    32
  0
VERTEX
  8
T53SSILL
 62
7
 10
6137.440
 20
-8236.398
 30
-60.870
 70
    32
  0
VERTEX
  8
T53SSILL
 62
7
 10
6135.909
 20
-8231.689
 30
-60.872
 70
    32
  0
VERTEX
  8
T53SSILL
 62
7
 10
5781.589
 20
-7740.737
 30
-60.056
 70
    32
  0
VERTEX
  8
T53SSILL
 62
7
 10
5776.898
 20
-7731.800
 30
-60.033
 70
    32
  0
VERTEX
  8
T53SSILL
 62
7
 10
5775.419
 20
-7715.373
 30
-60.006
 70
    32
  0
VERTEX
  8
T53SSILL
 62
7
 10
5776.598
 20
-7709.567
 30
-59.999
 70
    32
  0
VERTEX
  8
T53SSILL
 62
7
 10
5783.167
 20
-7698.368
 30
-59.994
 70
    32
  0
VERTEX
  8
T53SSILL
 62
7
 10
5794.006
 20
-7689.091
 30
-60.000
 70
    32
  0
VERTEX
  8
T53SSILL
 62
7
 10
5793.979
 20
-7677.991
 30
-59.983
 70
    32
  0
VERTEX
  8
T53SSILL
 62
7
 10
5813.715
 20
-7667.279
 30
-60.003
 70
    32
  0
VERTEX
  8
T53SSILL
 62
7
 10
5824.113
 20
-7667.351
 30
-60.022
 70
    32
  0
VERTEX
  8
T53SSILL
 62
7
 10
5853.501
 20
-7646.835
 30
-60.045
 70
    32
  0
VERTEX
  8
T53SSILL
 62
7
 10
5858.058
 20
-7653.874
 30
-60.064
 70
    32
  0
VERTEX
  8
T53SSILL
 62
7
 10
5826.112
 20
-7676.258
 30
-60.039
 70
    32
  0
VERTEX
  8
T53SSILL
 62
7
 10
5824.329
 20
-7682.864
 30
-60.046
 70
    32
  0
VERTEX
  8
T53SSILL
 62
7
 10
5822.009
 20
-7685.327
 30
-60.046
 70
    32
  0
VERTEX
  8
T53SSILL
 62
7
 10
5811.406
 20
-7686.859
 30
-60.028
 70
    32
  0
VERTEX
  8
T53SSILL
 62
7
 10
5793.848
 20
-7699.667
 30
-60.016
 70
    32
  0
VERTEX
  8
T53SSILL
 62
7
 10
5785.579
 20
-7708.957
 30
-60.015
 70
    32
  0
VERTEX
  8
T53SSILL
 62
7
 10
5783.598
 20
-7717.607
 30
-60.024
 70
    32
  0
VERTEX
  8
T53SSILL
 62
7
 10
5785.387
 20
-7730.124
 30
-60.047
 70
    32
  0
VERTEX
  8
T53SSILL
 62
7
 10
5803.994
 20
-7757.763
 30
-60.123
 70
    32
  0
VERTEX
  8
T53SSILL
 62
7
 10
5806.265
 20
-7747.332
 30
-60.111
 70
    32
  0
VERTEX
  8
T53SSILL
 62
7
 10
5810.439
 20
-7740.654
 30
-60.109
 70
    32
  0
VERTEX
  8
T53SSILL
 62
7
 10
5817.360
 20
-7734.076
 30
-60.111
 70
    32
  0
VERTEX
  8
T53SSILL
 62
7
 10
5980.126
 20
-7617.087
 30
-60.232
 70
    32
  0
VERTEX
  8
T53SSILL
 62
7
 10
5984.809
 20
-7624.058
 30
-60.252
 70
    32
  0
VERTEX
  8
T53SSILL
 62
7
 10
5822.716
 20
-7739.273
 30
-60.129
 70
    32
  0
VERTEX
  8
T53SSILL
 62
7
 10
5815.584
 20
-7747.016
 30
-60.128
 70
    32
  0
VERTEX
  8
T53SSILL
 62
7
 10
5812.260
 20
-7756.372
 30
-60.136
 70
    32
  0
VERTEX
  8
T53SSILL
 62
7
 10
5812.099
 20
-7762.057
 30
-60.144
 70
    32
  0
VERTEX
  8
T53SSILL
 62
7
 10
5814.537
 20
-7770.957
 30
-60.163
 70
    32
  0
VERTEX
  8
T53SSILL
 62
7
 10
5827.489
 20
-7789.850
 30
-60.215
 70
    32
  0
VERTEX
  8
T53SSILL
 62
7
 10
5840.794
 20
-7780.889
 30
-60.226
 70
    32
  0
VERTEX
  8
T53SSILL
 62
7
 10
5845.307
 20
-7787.295
 30
-60.244
 70
    32
  0
VERTEX
  8
T53SSILL
 62
7
 10
5831.916
 20
-7796.434
 30
-60.233
 70
    32
  0
VERTEX
  8
T53SSILL
 62
7
 10
5864.663
 20
-7842.491
 30
-60.364
 70
    32
  0
VERTEX
  8
T53SSILL
 62
7
 10
5866.276
 20
-7832.790
 30
-60.352
 70
    32
  0
VERTEX
  8
T53SSILL
 62
7
 10
5872.210
 20
-7822.638
 30
-60.348
 70
    32
  0
VERTEX
  8
T53SSILL
 62
7
 10
5991.335
 20
-7737.060
 30
-60.436
 70
    32
  0
VERTEX
  8
T53SSILL
 62
7
 10
5989.350
 20
-7730.848
 30
-60.423
 70
    32
  0
VERTEX
  8
T53SSILL
 62
7
 10
5982.579
 20
-7727.643
 30
-60.406
 70
    32
  0
VERTEX
  8
T53SSILL
 62
7
 10
5980.577
 20
-7723.948
 30
-60.396
 70
    32
  0
VERTEX
  8
T53SSILL
 62
7
 10
5981.022
 20
-7719.230
 30
-60.390
 70
    32
  0
VERTEX
  8
T53SSILL
 62
7
 10
6013.410
 20
-7713.100
 30
-60.440
 70
    32
  0
VERTEX
  8
T53SSILL
 62
7
 10
6019.198
 20
-7708.337
 30
-60.444
 70
    32
  0
VERTEX
  8
T53SSILL
 62
7
 10
6020.627
 20
-7710.017
 30
-60.449
 70
    32
  0
VERTEX
  8
T53SSILL
 62
7
 10
6026.917
 20
-7710.044
 30
-60.460
 70
    32
  0
VERTEX
  8
T53SSILL
 62
7
 10
6048.365
 20
-7693.530
 30
-60.475
 70
    32
  0
VERTEX
  8
T53SSILL
 62
7
 10
6052.513
 20
-7700.247
 30
-60.492
 70
    32
  0
VERTEX
  8
T53SSILL
 62
7
 10
6002.706
 20
-7738.413
 30
-60.459
 70
    32
  0
VERTEX
  8
T53SSILL
 62
7
 10
5883.039
 20
-7823.267
 30
-60.368
 70
    32
  0
VERTEX
  8
T53SSILL
 62
7
 10
5876.015
 20
-7831.148
 30
-60.367
 70
    32
  0
VERTEX
  8
T53SSILL
 62
7
 10
5872.740
 20
-7839.132
 30
-60.374
 70
    32
  0
VERTEX
  8
T53SSILL
 62
7
 10
5871.972
 20
-7844.175
 30
-60.380
 70
    32
  0
VERTEX
  8
T53SSILL
 62
7
 10
5875.419
 20
-7856.966
 30
-60.406
 70
    32
  0
VERTEX
  8
T53SSILL
 62
7
 10
5983.020
 20
-8006.800
 30
-60.832
 70
    32
  0
VERTEX
  8
T53SSILL
 62
7
 10
5985.620
 20
-7997.226
 30
-60.823
 70
    32
  0
VERTEX
  8
T53SSILL
 62
7
 10
5994.640
 20
-7984.019
 30
-60.819
 70
    32
  0
VERTEX
  8
T53SSILL
 62
7
 10
6297.812
 20
-7766.896
 30
-60.942
 70
    32
  0
VERTEX
  8
T53SSILL
 62
7
 10
6302.410
 20
-7758.473
 30
-60.942
 70
    32
  0
VERTEX
  8
T53SSILL
 62
7
 10
6305.406
 20
-7747.721
 30
-60.943
 70
    32
  0
VERTEX
  8
T53SSILL
 62
7
 10
6276.356
 20
-7609.987
 30
-60.968
 70
    32
  0
VERTEX
  8
T53SSILL
 62
7
 10
6273.001
 20
-7610.687
 30
-60.969
 70
    32
  0
VERTEX
  8
T53SSILL
 62
7
 10
6270.695
 20
-7598.603
 30
-60.971
 70
    32
  0
VERTEX
  8
T53SSILL
 62
7
 10
6273.814
 20
-7597.933
 30
-60.971
 70
    32
  0
VERTEX
  8
T53SSILL
 62
7
 10
6266.338
 20
-7562.490
 30
-60.977
 70
    32
  0
VERTEX
  8
T53SSILL
 62
7
 10
6274.943
 20
-7560.878
 30
-60.977
 70
    32
  0
VERTEX
  8
T53SSILL
 62
7
 10
6281.334
 20
-7590.123
 30
-60.971
 70
    32
  0
VERTEX
  8
T53SSILL
 62
7
 10
6291.820
 20
-7585.398
 30
-60.971
 70
    32
  0
VERTEX
  8
T53SSILL
 62
7
 10
6299.199
 20
-7584.092
 30
-60.970
 70
    32
  0
VERTEX
  8
T53SSILL
 62
7
 10
6300.839
 20
-7582.470
 30
-60.970
 70
    32
  0
VERTEX
  8
T53SSILL
 62
7
 10
6300.897
 20
-7573.686
 30
-60.971
 70
    32
  0
VERTEX
  8
T53SSILL
 62
7
 10
6304.708
 20
-7569.689
 30
-60.972
 70
    32
  0
VERTEX
  8
T53SSILL
 62
7
 10
6310.207
 20
-7571.987
 30
-60.971
 70
    32
  0
VERTEX
  8
T53SSILL
 62
7
 10
6312.105
 20
-7574.979
 30
-60.970
 70
    32
  0
VERTEX
  8
T53SSILL
 62
7
 10
6313.583
 20
-7588.720
 30
-60.968
 70
    32
  0
VERTEX
  8
T53SSILL
 62
7
 10
6311.037
 20
-7595.759
 30
-60.967
 70
    32
  0
VERTEX
  8
T53SSILL
 62
7
 10
6307.730
 20
-7600.257
 30
-60.966
 70
    32
  0
VERTEX
  8
T53SSILL
 62
7
 10
6297.886
 20
-7605.848
 30
-60.967
 70
    32
  0
VERTEX
  8
T53SSILL
 62
7
 10
6292.547
 20
-7612.611
 30
-60.966
 70
    32
  0
VERTEX
  8
T53SSILL
 62
7
 10
6286.573
 20
-7614.098
 30
-60.967
 70
    32
  0
VERTEX
  8
T53SSILL
 62
7
 10
6293.335
 20
-7645.043
 30
-60.961
 70
    32
  0
VERTEX
  8
T53SSILL
 62
7
 10
6315.106
 20
-7629.090
 30
-60.961
 70
    32
  0
VERTEX
  8
T53SSILL
 62
7
 10
6318.472
 20
-7635.525
 30
-60.959
 70
    32
  0
VERTEX
  8
T53SSILL
 62
7
 10
6297.192
 20
-7650.533
 30
-60.960
 70
    32
  0
VERTEX
  8
T53SSILL
 62
7
 10
6300.458
 20
-7662.984
 30
-60.957
 70
    32
  0
VERTEX
  8
T53SSILL
 62
7
 10
6297.075
 20
-7663.956
 30
-60.957
 70
    32
  0
VERTEX
  8
T53SSILL
 62
7
 10
6309.342
 20
-7720.884
 30
-60.947
 70
    32
  0
VERTEX
  8
T53SSILL
 62
7
 10
6317.465
 20
-7712.385
 30
-60.947
 70
    32
  0
VERTEX
  8
T53SSILL
 62
7
 10
6310.701
 20
-7670.188
 30
-60.955
 70
    32
  0
VERTEX
  8
T53SSILL
 62
7
 10
6333.753
 20
-7655.583
 30
-60.955
 70
    32
  0
VERTEX
  8
T53SSILL
 62
7
 10
6339.196
 20
-7653.666
 30
-60.954
 70
    32
  0
VERTEX
  8
T53SSILL
 62
7
 10
6343.875
 20
-7659.632
 30
-60.953
 70
    32
  0
VERTEX
  8
T53SSILL
 62
7
 10
6337.962
 20
-7687.236
 30
-60.949
 70
    32
  0
VERTEX
  8
T53SSILL
 62
7
 10
6338.764
 20
-7703.972
 30
-60.946
 70
    32
  0
VERTEX
  8
T53SSILL
 62
7
 10
6348.338
 20
-7716.181
 30
-60.943
 70
    32
  0
VERTEX
  8
T53SSILL
 62
7
 10
6353.513
 20
-7726.351
 30
-60.941
 70
    32
  0
VERTEX
  8
T53SSILL
 62
7
 10
6392.210
 20
-7697.970
 30
-60.941
 70
    32
  0
VERTEX
  8
T53SSILL
 62
7
 10
6396.962
 20
-7704.040
 30
-60.939
 70
    32
  0
VERTEX
  8
T53SSILL
 62
7
 10
6342.228
 20
-7742.819
 30
-60.939
 70
    32
  0
VERTEX
  8
T53SSILL
 62
7
 10
6345.371
 20
-7749.541
 30
-60.938
 70
    32
  0
VERTEX
  8
T53SSILL
 62
7
 10
6351.462
 20
-7754.735
 30
-60.937
 70
    32
  0
VERTEX
  8
T53SSILL
 62
7
 10
6358.034
 20
-7758.544
 30
-60.935
 70
    32
  0
VERTEX
  8
T53SSILL
 62
7
 10
6371.697
 20
-7760.824
 30
-60.933
 70
    32
  0
VERTEX
  8
T53SSILL
 62
7
 10
6377.443
 20
-7768.866
 30
-60.931
 70
    32
  0
VERTEX
  8
T53SSILL
 62
7
 10
6365.730
 20
-7778.500
 30
-60.931
 70
    32
  0
VERTEX
  8
T53SSILL
 62
7
 10
6333.951
 20
-7795.692
 30
-60.932
 70
    32
  0
VERTEX
  8
T53SSILL
 62
7
 10
6329.832
 20
-7800.154
 30
-60.933
 70
    32
  0
VERTEX
  8
T53SSILL
 62
7
 10
6319.493
 20
-7784.399
 30
-60.936
 70
    32
  0
VERTEX
  8
T53SSILL
 62
7
 10
6310.018
 20
-7793.174
 30
-60.937
 70
    32
  0
VERTEX
  8
T53SSILL
 62
7
 10
6304.485
 20
-7795.833
 30
-60.937
 70
    32
  0
VERTEX
  8
T53SSILL
 62
7
 10
6298.807
 20
-7789.307
 30
-60.939
 70
    32
  0
VERTEX
  8
T53SSILL
 62
7
 10
6303.026
 20
-7782.973
 30
-60.939
 70
    32
  0
VERTEX
  8
T53SSILL
 62
7
 10
6314.751
 20
-7777.924
 30
-60.938
 70
    32
  0
VERTEX
  8
T53SSILL
 62
7
 10
6316.620
 20
-7775.450
 30
-60.938
 70
    32
  0
VERTEX
  8
T53SSILL
 62
7
 10
6311.570
 20
-7769.439
 30
-60.939
 70
    32
  0
VERTEX
  8
T53SSILL
 62
7
 10
6311.192
 20
-7765.814
 30
-60.940
 70
    32
  0
VERTEX
  8
T53SSILL
 62
7
 10
6274.677
 20
-7791.538
 30
-60.942
 70
    32
  0
VERTEX
  8
T53SSILL
 62
7
 10
6369.819
 20
-7865.143
 30
-60.918
 70
    32
  0
VERTEX
  8
T53SSILL
 62
7
 10
6365.569
 20
-7871.725
 30
-60.918
 70
    32
  0
VERTEX
  8
T53SSILL
 62
7
 10
6279.665
 20
-7805.327
 30
-60.940
 70
    32
  0
VERTEX
  8
T53SSILL
 62
7
 10
6271.374
 20
-7802.754
 30
-60.941
 70
    32
  0
VERTEX
  8
T53SSILL
 62
7
 10
6260.692
 20
-7803.849
 30
-60.943
 70
    32
  0
VERTEX
  8
T53SSILL
 62
7
 10
6254.308
 20
-7806.279
 30
-60.944
 70
    32
  0
VERTEX
  8
T53SSILL
 62
7
 10
6163.470
 20
-7871.019
 30
-60.949
 70
    32
  0
VERTEX
  8
T53SSILL
 62
7
 10
6240.617
 20
-7934.238
 30
-60.929
 70
    32
  0
VERTEX
  8
T53SSILL
 62
7
 10
6233.923
 20
-7939.049
 30
-60.929
 70
    32
  0
VERTEX
  8
T53SSILL
 62
7
 10
6162.066
 20
-7879.514
 30
-60.948
 70
    32
  0
VERTEX
  8
T53SSILL
 62
7
 10
6149.690
 20
-7882.161
 30
-60.949
 70
    32
  0
VERTEX
  8
T53SSILL
 62
7
 10
5998.596
 20
-7990.855
 30
-60.837
 70
    32
  0
VERTEX
  8
T53SSILL
 62
7
 10
5992.711
 20
-7999.635
 30
-60.839
 70
    32
  0
VERTEX
  8
T53SSILL
 62
7
 10
5990.825
 20
-8013.438
 30
-60.857
 70
    32
  0
VERTEX
  8
T53SSILL
 62
7
 10
5992.006
 20
-8019.419
 30
-60.868
 70
    32
  0
VERTEX
  8
T53SSILL
 62
7
 10
6042.830
 20
-8089.412
 30
-60.932
 70
    32
  0
VERTEX
  8
T53SSILL
 62
7
 10
6044.681
 20
-8080.306
 30
-60.934
 70
    32
  0
VERTEX
  8
T53SSILL
 62
7
 10
6048.604
 20
-8072.154
 30
-60.936
 70
    32
  0
VERTEX
  8
T53SSILL
 62
7
 10
6052.341
 20
-8068.276
 30
-60.936
 70
    32
  0
VERTEX
  8
T53SSILL
 62
7
 10
6051.812
 20
-8058.068
 30
-60.939
 70
    32
  0
VERTEX
  8
T53SSILL
 62
7
 10
6050.331
 20
-8053.180
 30
-60.941
 70
    32
  0
VERTEX
  8
T53SSILL
 62
7
 10
6043.855
 20
-8048.064
 30
-60.943
 70
    32
  0
VERTEX
  8
T53SSILL
 62
7
 10
6038.577
 20
-8031.477
 30
-60.948
 70
    32
  0
VERTEX
  8
T53SSILL
 62
7
 10
6042.425
 20
-8019.384
 30
-60.949
 70
    32
  0
VERTEX
  8
T53SSILL
 62
7
 10
6038.128
 20
-8013.904
 30
-60.945
 70
    32
  0
VERTEX
  8
T53SSILL
 62
7
 10
6030.214
 20
-8014.956
 30
-60.932
 70
    32
  0
VERTEX
  8
T53SSILL
 62
7
 10
6025.967
 20
-8008.540
 30
-60.914
 70
    32
  0
VERTEX
  8
T53SSILL
 62
7
 10
6030.261
 20
-8007.301
 30
-60.920
 70
    32
  0
VERTEX
  8
T53SSILL
 62
7
 10
6048.782
 20
-8009.918
 30
-60.949
 70
    32
  0
VERTEX
  8
T53SSILL
 62
7
 10
6058.096
 20
-8030.509
 30
-60.945
 70
    32
  0
VERTEX
  8
T53SSILL
 62
7
 10
6062.119
 20
-8044.496
 30
-60.940
 70
    32
  0
VERTEX
  8
T53SSILL
 62
7
 10
6070.212
 20
-8054.681
 30
-60.936
 70
    32
  0
VERTEX
  8
T53SSILL
 62
7
 10
6082.511
 20
-8045.695
 30
-60.936
 70
    32
  0
VERTEX
  8
T53SSILL
 62
7
 10
6087.978
 20
-8052.169
 30
-60.933
 70
    32
  0
VERTEX
  8
T53SSILL
 62
7
 10
6076.032
 20
-8060.485
 30
-60.933
 70
    32
  0
VERTEX
  8
T53SSILL
 62
7
 10
6075.666
 20
-8075.771
 30
-60.929
 70
    32
  0
VERTEX
  8
T53SSILL
 62
7
 10
6073.048
 20
-8080.289
 30
-60.928
 70
    32
  0
VERTEX
  8
T53SSILL
 62
7
 10
6070.269
 20
-8081.460
 30
-60.928
 70
    32
  0
VERTEX
  8
T53SSILL
 62
7
 10
6058.307
 20
-8073.012
 30
-60.933
 70
    32
  0
VERTEX
  8
T53SSILL
 62
7
 10
6056.768
 20
-8074.512
 30
-60.933
 70
    32
  0
VERTEX
  8
T53SSILL
 62
7
 10
6050.667
 20
-8086.461
 30
-60.931
 70
    32
  0
VERTEX
  8
T53SSILL
 62
7
 10
6050.474
 20
-8095.841
 30
-60.929
 70
    32
  0
VERTEX
  8
T53SSILL
 62
7
 10
6052.462
 20
-8102.866
 30
-60.926
 70
    32
  0
VERTEX
  8
T53SSILL
 62
7
 10
6102.216
 20
-8171.906
 30
-60.896
 70
    32
  0
VERTEX
  8
T53SSILL
 62
7
 10
6105.418
 20
-8159.086
 30
-60.899
 70
    32
  0
VERTEX
  8
T53SSILL
 62
7
 10
6114.926
 20
-8147.947
 30
-60.900
 70
    32
  0
VERTEX
  8
T53SSILL
 62
7
 10
6167.196
 20
-8110.726
 30
-60.899
 70
    32
  0
VERTEX
  8
T53SSILL
 62
7
 10
6172.132
 20
-8116.516
 30
-60.896
 70
    32
  0
VERTEX
  8
T53SSILL
 62
7
 10
6115.357
 20
-8157.846
 30
-60.897
 70
    32
  0
VERTEX
  8
T53SSILL
 62
7
 10
6109.678
 20
-8170.914
 30
-60.894
 70
    32
  0
VERTEX
  8
T53SSILL
 62
7
 10
6109.232
 20
-8176.375
 30
-60.893
 70
    32
  0
VERTEX
  8
T53SSILL
 62
7
 10
6111.579
 20
-8185.013
 30
-60.890
 70
    32
  0
VERTEX
  8
T53SSILL
 62
7
 10
6453.860
 20
-8662.794
 30
-60.532
 70
    32
  0
VERTEX
  8
T53SSILL
 62
7
 10
6459.055
 20
-8676.307
 30
-60.463
 70
    32
  0
VERTEX
  8
T53SSILL
 62
7
 10
6459.248
 20
-8688.123
 30
-60.466
 70
    32
  0
VERTEX
  8
T53SSILL
 62
7
 10
6375.816
 20
-9050.327
 30
-60.317
 70
    32
  0
VERTEX
  8
T53SSILL
 62
7
 10
6369.965
 20
-9069.054
 30
-60.306
 70
    32
  0
VERTEX
  8
T53SSILL
 62
7
 10
6363.033
 20
-9077.318
 30
-60.299
 70
    32
  0
VERTEX
  8
T53SSILL
 62
7
 10
6366.326
 20
-9083.065
 30
-60.299
 70
    32
  0
VERTEX
  8
T53SSILL
 62
7
 10
6359.484
 20
-9089.743
 30
-60.292
 70
    32
  0
VERTEX
  8
T53SSILL
 62
7
 10
6352.062
 20
-9100.400
 30
-60.284
 70
    32
  0
VERTEX
  8
T53SSILL
 62
7
 10
6316.248
 20
-9315.229
 30
-60.182
 70
    32
  0
VERTEX
  8
T53SSILL
 62
7
 10
6312.013
 20
-9326.342
 30
-60.175
 70
    32
  0
VERTEX
  8
T53SSILL
 62
7
 10
6308.251
 20
-9332.223
 30
-60.170
 70
    32
  0
VERTEX
  8
T53SSILL
 62
7
 10
6100.312
 20
-9478.387
 30
-59.990
 70
    32
  0
VERTEX
  8
T53SSILL
 62
7
 10
5843.887
 20
-9663.209
 30
-59.766
 70
    32
  0
VERTEX
  8
T53SSILL
 62
7
 10
5838.127
 20
-9674.788
 30
-59.758
 70
    32
  0
VERTEX
  8
T53SSILL
 62
7
 10
5837.402
 20
-9677.644
 30
-59.756
 70
    32
  0
VERTEX
  8
T53SSILL
 62
7
 10
6043.975
 20
-9964.015
 30
-59.774
 70
    32
  0
VERTEX
  8
T53SSILL
 62
7
 10
6032.220
 20
-9972.526
 30
-59.764
 70
    32
  0
VERTEX
  8
T53SSILL
 62
7
 10
5918.623
 20
-9814.406
 30
-59.754
 70
    32
  0
VERTEX
  8
T53SSILL
 62
7
 10
5917.039
 20
-9829.797
 30
-59.747
 70
    32
  0
VERTEX
  8
T53SSILL
 62
7
 10
5913.309
 20
-9839.526
 30
-59.742
 70
    32
  0
VERTEX
  8
T53SSILL
 62
7
 10
5908.346
 20
-9848.637
 30
-59.735
 70
    32
  0
VERTEX
  8
T53SSILL
 62
7
 10
5899.522
 20
-9857.004
 30
-59.727
 70
    32
  0
VERTEX
  8
T53SSILL
 62
7
 10
5731.865
 20
-9977.427
 30
-59.524
 70
    32
  0
VERTEX
  8
T53SSILL
 62
7
 10
5729.076
 20
-9980.615
 30
-59.517
 70
    32
  0
VERTEX
  8
T53SSILL
 62
7
 10
5729.648
 20
-9990.649
 30
-59.509
 70
    32
  0
VERTEX
  8
T53SSILL
 62
7
 10
5728.378
 20
-9992.040
 30
-59.505
 70
    32
  0
VERTEX
  8
T53SSILL
 62
7
 10
5724.478
 20
-9994.628
 30
-59.497
 70
    32
  0
VERTEX
  8
T53SSILL
 62
7
 10
5703.741
 20
-9997.376
 30
-59.465
 70
    32
  0
VERTEX
  8
T53SSILL
 62
7
 10
5686.696
 20
-10009.473
 30
-59.429
 70
    32
  0
VERTEX
  8
T53SSILL
 62
7
 10
5682.153
 20
-10003.403
 30
-59.428
 70
    32
  0
VERTEX
  8
T53SSILL
 62
7
 10
5795.589
 20
-9921.472
 30
-59.640
 70
    32
  0
VERTEX
  8
T53SSILL
 62
7
 10
5784.093
 20
-9921.266
 30
-59.633
 70
    32
  0
VERTEX
  8
T53SSILL
 62
7
 10
5770.660
 20
-9918.767
 30
-59.626
 70
    32
  0
VERTEX
  8
T53SSILL
 62
7
 10
5759.505
 20
-9912.691
 30
-59.621
 70
    32
  0
VERTEX
  8
T53SSILL
 62
7
 10
5748.953
 20
-9901.978
 30
-59.617
 70
    32
  0
VERTEX
  8
T53SSILL
 62
7
 10
5741.049
 20
-9907.013
 30
-59.601
 70
    32
  0
VERTEX
  8
T53SSILL
 62
7
 10
5733.601
 20
-9896.621
 30
-59.599
 70
    32
  0
VERTEX
  8
T53SSILL
 62
7
 10
5731.414
 20
-9897.818
 30
-59.595
 70
    32
  0
VERTEX
  8
T53SSILL
 62
7
 10
5727.575
 20
-9892.542
 30
-59.594
 70
    32
  0
VERTEX
  8
T53SSILL
 62
7
 10
5729.815
 20
-9891.416
 30
-59.599
 70
    32
  0
VERTEX
  8
T53SSILL
 62
7
 10
5726.839
 20
-9887.587
 30
-59.598
 70
    32
  0
VERTEX
  8
T53SSILL
 62
7
 10
5734.955
 20
-9882.393
 30
-59.614
 70
    32
  0
VERTEX
  8
T53SSILL
 62
7
 10
5710.831
 20
-9849.133
 30
-59.609
 70
    32
  0
VERTEX
  8
T53SSILL
 62
7
 10
5686.891
 20
-9808.468
 30
-59.600
 70
    32
  0
VERTEX
  8
T53SSILL
 62
7
 10
5638.582
 20
-9678.897
 30
-59.638
 70
    32
  0
VERTEX
  8
T53SSILL
 62
7
 10
5634.086
 20
-9678.187
 30
-59.603
 70
    32
  0
VERTEX
  8
T53SSILL
 62
7
 10
5636.826
 20
-9670.961
 30
-59.715
 70
    32
  0
VERTEX
  8
T53SSILL
 62
7
 10
5581.971
 20
-9527.788
 30
-60.365
 70
    32
  0
VERTEX
  8
T53SSILL
 62
7
 10
5584.049
 20
-9512.468
 30
-60.399
 70
    32
  0
VERTEX
  8
T53SSILL
 62
7
 10
5588.436
 20
-9497.732
 30
-60.435
 70
    32
  0
VERTEX
  8
T53SSILL
 62
7
 10
5587.203
 20
-9496.232
 30
-60.437
 70
    32
  0
VERTEX
  8
T53SSILL
 62
7
 10
5531.906
 20
-9535.639
 30
-60.293
 70
    32
  0
VERTEX
  8
T53SSILL
 62
7
 10
5534.987
 20
-9540.491
 30
-60.266
 70
    32
  0
VERTEX
  8
T53SSILL
 62
7
 10
5537.736
 20
-9541.957
 30
-60.275
 70
    32
  0
VERTEX
  8
T53SSILL
 62
7
 10
5535.097
 20
-9554.173
 30
-60.105
 70
    32
  0
VERTEX
  8
T53SSILL
 62
7
 10
5513.980
 20
-9548.175
 30
-59.970
 70
    32
  0
VERTEX
  8
T53SSILL
 62
7
 10
5499.069
 20
-9560.327
 30
-59.681
 70
    32
  0
VERTEX
  8
T53SSILL
 62
7
 10
5490.644
 20
-9574.671
 30
-59.572
 70
    32
  0
VERTEX
  8
T53SSILL
 62
7
 10
5488.092
 20
-9588.034
 30
-59.500
 70
    32
  0
VERTEX
  8
T53SSILL
 62
7
 10
5487.982
 20
-9593.182
 30
-59.475
 70
    32
  0
VERTEX
  8
T53SSILL
 62
7
 10
5509.115
 20
-9600.379
 30
-59.506
 70
    32
  0
VERTEX
  8
T53SSILL
 62
7
 10
5506.074
 20
-9608.822
 30
-59.456
 70
    32
  0
VERTEX
  8
T53SSILL
 62
7
 10
5493.517
 20
-9612.054
 30
-59.401
 70
    32
  0
VERTEX
  8
T53SSILL
 62
7
 10
5524.751
 20
-9676.882
 30
-59.379
 70
    32
  0
VERTEX
  8
T53SSILL
 62
7
 10
5550.917
 20
-9695.509
 30
-59.411
 70
    32
  0
VERTEX
  8
T53SSILL
 62
7
 10
5540.606
 20
-9709.393
 30
-59.432
 70
    32
  0
VERTEX
  8
T53SSILL
 62
7
 10
5550.321
 20
-9728.110
 30
-59.463
 70
    32
  0
VERTEX
  8
T53SSILL
 62
7
 10
5542.542
 20
-9731.400
 30
-59.467
 70
    32
  0
VERTEX
  8
T53SSILL
 62
7
 10
5484.684
 20
-9611.287
 30
-59.377
 70
    32
  0
VERTEX
  8
T53SSILL
 62
7
 10
5480.329
 20
-9593.404
 30
-59.450
 70
    32
  0
VERTEX
  8
T53SSILL
 62
7
 10
5480.373
 20
-9584.782
 30
-59.491
 70
    32
  0
VERTEX
  8
T53SSILL
 62
7
 10
5483.844
 20
-9568.970
 30
-59.578
 70
    32
  0
VERTEX
  8
T53SSILL
 62
7
 10
5469.623
 20
-9578.953
 30
-59.486
 70
    32
  0
VERTEX
  8
T53SSILL
 62
7
 10
5465.415
 20
-9572.743
 30
-59.502
 70
    32
  0
VERTEX
  8
T53SSILL
 62
7
 10
5508.784
 20
-9541.823
 30
-59.995
 70
    32
  0
VERTEX
  8
T53SSILL
 62
7
 10
5510.094
 20
-9536.217
 30
-60.074
 70
    32
  0
VERTEX
  8
T53SSILL
 62
7
 10
5516.035
 20
-9537.387
 30
-60.118
 70
    32
  0
VERTEX
  8
T53SSILL
 62
7
 10
5625.270
 20
-9460.582
 30
-60.477
 70
    32
  0
VERTEX
  8
T53SSILL
 62
7
 10
5631.397
 20
-9450.819
 30
-60.489
 70
    32
  0
VERTEX
  8
T53SSILL
 62
7
 10
5635.979
 20
-9435.167
 30
-60.494
 70
    32
  0
VERTEX
  8
T53SSILL
 62
7
 10
5636.164
 20
-9423.779
 30
-60.497
 70
    32
  0
VERTEX
  8
T53SSILL
 62
7
 10
5635.026
 20
-9417.710
 30
-60.501
 70
    32
  0
VERTEX
  8
T53SSILL
 62
7
 10
5603.297
 20
-9372.524
 30
-60.565
 70
    32
  0
VERTEX
  8
T53SSILL
 62
7
 10
5593.292
 20
-9360.978
 30
-60.589
 70
    32
  0
VERTEX
  8
T53SSILL
 62
7
 10
5589.683
 20
-9360.283
 30
-60.595
 70
    32
  0
VERTEX
  8
T53SSILL
 62
7
 10
5582.902
 20
-9397.027
 30
-60.575
 70
    32
  0
VERTEX
  8
T53SSILL
 62
7
 10
5575.775
 20
-9390.500
 30
-60.590
 70
    32
  0
VERTEX
  8
T53SSILL
 62
7
 10
5580.722
 20
-9365.499
 30
-60.603
 70
    32
  0
VERTEX
  8
T53SSILL
 62
7
 10
5449.109
 20
-9467.302
 30
-60.295
 70
    32
  0
VERTEX
  8
T53SSILL
 62
7
 10
5444.428
 20
-9461.486
 30
-60.318
 70
    32
  0
VERTEX
  8
T53SSILL
 62
7
 10
5579.030
 20
-9357.849
 30
-60.612
 70
    32
  0
VERTEX
  8
T53SSILL
 62
7
 10
5582.621
 20
-9345.222
 30
-60.617
 70
    32
  0
VERTEX
  8
T53SSILL
 62
7
 10
5344.332
 20
-9011.174
 30
-61.009
 70
    32
  0
VERTEX
  8
T53SSILL
 62
7
 10
5343.890
 20
-9016.577
 30
-61.019
 70
    32
  0
VERTEX
  8
T53SSILL
 62
7
 10
5338.030
 20
-9029.703
 30
-61.049
 70
    32
  0
VERTEX
  8
T53SSILL
 62
7
 10
5322.740
 20
-9043.329
 30
-61.087
 70
    32
  0
VERTEX
  8
T53SSILL
 62
7
 10
5326.913
 20
-9050.761
 30
-61.076
 70
    32
  0
VERTEX
  8
T53SSILL
 62
7
 10
5336.472
 20
-9052.037
 30
-61.083
 70
    32
  0
VERTEX
  8
T53SSILL
 62
7
 10
5345.462
 20
-9064.542
 30
-61.067
 70
    32
  0
VERTEX
  8
T53SSILL
 62
7
 10
5356.450
 20
-9067.275
 30
-61.073
 70
    32
  0
VERTEX
  8
T53SSILL
 62
7
 10
5358.796
 20
-9082.367
 30
-61.044
 70
    32
  0
VERTEX
  8
T53SSILL
 62
7
 10
5355.300
 20
-9090.735
 30
-61.024
 70
    32
  0
VERTEX
  8
T53SSILL
 62
7
 10
5351.032
 20
-9093.844
 30
-61.013
 70
    32
  0
VERTEX
  8
T53SSILL
 62
7
 10
5343.312
 20
-9095.589
 30
-61.001
 70
    32
  0
VERTEX
  8
T53SSILL
 62
7
 10
5334.456
 20
-9100.505
 30
-60.982
 70
    32
  0
VERTEX
  8
T53SSILL
 62
7
 10
5318.796
 20
-9094.353
 30
-60.979
 70
    32
  0
VERTEX
  8
T53SSILL
 62
7
 10
5315.279
 20
-9088.960
 30
-60.986
 70
    32
  0
VERTEX
  8
T53SSILL
 62
7
 10
5312.398
 20
-9077.689
 30
-61.006
 70
    32
  0
VERTEX
  8
T53SSILL
 62
7
 10
5310.283
 20
-9076.199
 30
-61.007
 70
    32
  0
VERTEX
  8
T53SSILL
 62
7
 10
5314.101
 20
-9063.290
 30
-61.037
 70
    32
  0
VERTEX
  8
T53SSILL
 62
7
 10
5310.550
 20
-9051.421
 30
-61.058
 70
    32
  0
VERTEX
  8
T53SSILL
 62
7
 10
5268.433
 20
-9081.204
 30
-60.954
 70
    32
  0
VERTEX
  8
T53SSILL
 62
7
 10
5264.309
 20
-9075.717
 30
-60.961
 70
    32
  0
VERTEX
  8
T53SSILL
 62
7
 10
5308.417
 20
-9043.773
 30
-61.071
 70
    32
  0
VERTEX
  8
T53SSILL
 62
7
 10
5304.384
 20
-9035.794
 30
-61.083
 70
    32
  0
VERTEX
  8
T53SSILL
 62
7
 10
5302.620
 20
-9027.757
 30
-61.085
 70
    32
  0
VERTEX
  8
T53SSILL
 62
7
 10
5306.147
 20
-9024.105
 30
-61.075
 70
    32
  0
VERTEX
  8
T53SSILL
 62
7
 10
5314.126
 20
-9033.516
 30
-61.083
 70
    32
  0
VERTEX
  8
T53SSILL
 62
7
 10
5318.409
 20
-9036.126
 30
-61.083
 70
    32
  0
VERTEX
  8
T53SSILL
 62
7
 10
5331.669
 20
-9026.676
 30
-61.051
 70
    32
  0
VERTEX
  8
T53SSILL
 62
7
 10
5337.229
 20
-9013.445
 30
-61.021
 70
    32
  0
VERTEX
  8
T53SSILL
 62
7
 10
5337.133
 20
-9003.820
 30
-61.004
 70
    32
  0
VERTEX
  8
T53SSILL
 62
7
 10
5335.395
 20
-8998.739
 30
-60.996
 70
    32
  0
VERTEX
  8
T53SSILL
 62
7
 10
5317.433
 20
-8974.486
 30
-60.973
 70
    32
  0
VERTEX
  8
T53SSILL
 62
7
 10
5309.484
 20
-8956.788
 30
-60.968
 70
    32
  0
VERTEX
  8
T53SSILL
 62
7
 10
5308.418
 20
-8940.179
 30
-60.983
 70
    32
  0
VERTEX
  8
T53SSILL
 62
7
 10
5313.174
 20
-8922.376
 30
-61.000
 70
    32
  0
VERTEX
  8
T53SSILL
 62
7
 10
5265.895
 20
-8956.272
 30
-60.997
 70
    32
  0
VERTEX
  8
T53SSILL
 62
7
 10
5260.896
 20
-8949.353
 30
-60.990
 70
    32
  0
VERTEX
  8
T53SSILL
 62
7
 10
5249.255
 20
-8945.900
 30
-60.997
 70
    32
  0
VERTEX
  8
T53SSILL
 62
7
 10
5239.379
 20
-8937.920
 30
-60.994
 70
    32
  0
VERTEX
  8
T53SSILL
 62
7
 10
5157.845
 20
-8824.852
 30
-61.052
 70
    32
  0
VERTEX
  8
T53SSILL
 62
7
 10
5150.641
 20
-8828.743
 30
-61.053
 70
    32
  0
VERTEX
  8
T53SSILL
 62
7
 10
5145.811
 20
-8825.553
 30
-61.054
 70
    32
  0
VERTEX
  8
T53SSILL
 62
7
 10
5145.926
 20
-8822.491
 30
-61.054
 70
    32
  0
VERTEX
  8
T53SSILL
 62
7
 10
5093.886
 20
-8814.133
 30
-61.058
 70
    32
  0
VERTEX
  8
T53SSILL
 62
7
 10
5085.545
 20
-8814.032
 30
-61.057
 70
    32
  0
VERTEX
  8
T53SSILL
 62
7
 10
5073.689
 20
-8815.701
 30
-61.053
 70
    32
  0
VERTEX
  8
T53SSILL
 62
7
 10
5062.511
 20
-8820.606
 30
-61.047
 70
    32
  0
VERTEX
  8
T53SSILL
 62
7
 10
4907.221
 20
-8932.222
 30
-60.887
 70
    32
  0
VERTEX
  8
T53SSILL
 62
7
 10
4902.590
 20
-8926.692
 30
-60.893
 70
    32
  0
VERTEX
  8
T53SSILL
 62
7
 10
4913.237
 20
-8918.427
 30
-60.921
 70
    32
  0
VERTEX
  8
T53SSILL
 62
7
 10
4913.650
 20
-8915.030
 30
-60.929
 70
    32
  0
VERTEX
  8
T53SSILL
 62
7
 10
4911.208
 20
-8910.039
 30
-60.936
 70
    32
  0
VERTEX
  8
T53SSILL
 62
7
 10
4912.451
 20
-8907.448
 30
-60.943
 70
    32
  0
VERTEX
  8
T53SSILL
 62
7
 10
4924.476
 20
-8896.946
 30
-60.977
 70
    32
  0
VERTEX
  8
T53SSILL
 62
7
 10
4933.149
 20
-8896.025
 30
-60.987
 70
    32
  0
VERTEX
  8
T53SSILL
 62
7
 10
4939.563
 20
-8899.122
 30
-60.988
 70
    32
  0
VERTEX
  8
T53SSILL
 62
7
 10
4941.743
 20
-8898.359
 30
-60.991
 70
    32
  0
VERTEX
  8
T53SSILL
 62
7
 10
5062.275
 20
-8811.526
 30
-61.055
 70
    32
  0
VERTEX
  8
T53SSILL
 62
7
 10
5073.510
 20
-8808.012
 30
-61.060
 70
    32
  0
VERTEX
  8
T53SSILL
 62
7
 10
5091.877
 20
-8806.501
 30
-61.064
 70
    32
  0
VERTEX
  8
T53SSILL
 62
7
 10
5141.925
 20
-8813.827
 30
-61.055
 70
    32
  0
VERTEX
  8
T53SSILL
 62
7
 10
5146.769
 20
-8808.851
 30
-61.054
 70
    32
  0
VERTEX
  8
T53SSILL
 62
7
 10
5088.000
 20
-8726.551
 30
-61.065
 70
    32
  0
VERTEX
  8
T53SSILL
 62
7
 10
5089.080
 20
-8657.410
 30
-61.065
 70
    32
  0
VERTEX
  8
T53SSILL
 62
7
 10
4936.077
 20
-8444.180
 30
-61.100
 70
    32
  0
VERTEX
  8
T53SSILL
 62
7
 10
4921.903
 20
-8453.879
 30
-61.102
 70
    32
  0
VERTEX
  8
T53SSILL
 62
7
 10
4917.451
 20
-8447.538
 30
-61.103
 70
    32
  0
VERTEX
  8
T53SSILL
 62
7
 10
4931.727
 20
-8437.462
 30
-61.102
 70
    32
  0
VERTEX
  8
T53SSILL
 62
7
 10
4862.111
 20
-8340.376
 30
-60.838
 70
    32
  0
VERTEX
  8
T53SSILL
 62
7
 10
4845.501
 20
-8339.020
 30
-60.807
 70
    32
  0
VERTEX
  8
T53SSILL
 62
7
 10
4830.150
 20
-8344.014
 30
-60.812
 70
    32
  0
VERTEX
  8
T53SSILL
 62
7
 10
4799.733
 20
-8365.376
 30
-60.882
 70
    32
  0
VERTEX
  8
T53SSILL
 62
7
 10
4794.628
 20
-8359.693
 30
-60.844
 70
    32
  0
VERTEX
  8
T53SSILL
 62
7
 10
4826.573
 20
-8337.038
 30
-60.769
 70
    32
  0
VERTEX
  8
T53SSILL
 62
7
 10
4693.786
 20
-8325.323
 30
-60.515
 70
    32
  0
VERTEX
  8
T53SSILL
 62
7
 10
4511.311
 20
-8456.945
 30
-60.955
 70
    32
  0
VERTEX
  8
T53SSILL
 62
7
 10
4521.654
 20
-8473.384
 30
-61.058
 70
    32
  0
VERTEX
  8
T53SSILL
 62
7
 10
4554.067
 20
-8470.229
 30
-61.088
 70
    32
  0
VERTEX
  8
T53SSILL
 62
7
 10
4567.656
 20
-8474.426
 30
-61.130
 70
    32
  0
VERTEX
  8
T53SSILL
 62
7
 10
4578.702
 20
-8481.394
 30
-61.163
 70
    32
  0
VERTEX
  8
T53SSILL
 62
7
 10
4586.175
 20
-8477.871
 30
-61.162
 70
    32
  0
VERTEX
  8
T53SSILL
 62
7
 10
4606.696
 20
-8483.101
 30
-61.158
 70
    32
  0
VERTEX
  8
T53SSILL
 62
7
 10
4611.599
 20
-8495.806
 30
-61.155
 70
    32
  0
VERTEX
  8
T53SSILL
 62
7
 10
4609.747
 20
-8498.430
 30
-61.155
 70
    32
  0
VERTEX
  8
T53SSILL
 62
7
 10
4600.737
 20
-8503.983
 30
-61.156
 70
    32
  0
VERTEX
  8
T53SSILL
 62
7
 10
4595.435
 20
-8505.419
 30
-61.157
 70
    32
  0
VERTEX
  8
T53SSILL
 62
7
 10
4593.338
 20
-8509.146
 30
-61.157
 70
    32
  0
VERTEX
  8
T53SSILL
 62
7
 10
4608.319
 20
-8532.542
 30
-61.153
 70
    32
  0
VERTEX
  8
T53SSILL
 62
7
 10
4601.825
 20
-8540.375
 30
-61.154
 70
    32
  0
VERTEX
  8
T53SSILL
 62
7
 10
4575.732
 20
-8511.197
 30
-61.160
 70
    32
  0
VERTEX
  8
T53SSILL
 62
7
 10
4568.527
 20
-8493.662
 30
-61.164
 70
    32
  0
VERTEX
  8
T53SSILL
 62
7
 10
4558.627
 20
-8487.132
 30
-61.166
 70
    32
  0
VERTEX
  8
T53SSILL
 62
7
 10
4553.191
 20
-8485.459
 30
-61.168
 70
    32
  0
VERTEX
  8
T53SSILL
 62
7
 10
4540.290
 20
-8484.334
 30
-61.143
 70
    32
  0
VERTEX
  8
T53SSILL
 62
7
 10
4536.287
 20
-8482.495
 30
-61.127
 70
    32
  0
VERTEX
  8
T53SSILL
 62
7
 10
4527.532
 20
-8483.573
 30
-61.121
 70
    32
  0
VERTEX
  8
T53SSILL
 62
7
 10
4520.410
 20
-8491.640
 30
-61.153
 70
    32
  0
VERTEX
  8
T53SSILL
 62
7
 10
4521.250
 20
-8502.722
 30
-61.171
 70
    32
  0
VERTEX
  8
T53SSILL
 62
7
 10
4513.078
 20
-8501.576
 30
-61.173
 70
    32
  0
VERTEX
  8
T53SSILL
 62
7
 10
4511.849
 20
-8491.629
 30
-61.141
 70
    32
  0
VERTEX
  8
T53SSILL
 62
7
 10
4508.045
 20
-8482.322
 30
-61.086
 70
    32
  0
VERTEX
  8
T53SSILL
 62
7
 10
4491.030
 20
-8475.591
 30
-61.025
 70
    32
  0
VERTEX
  8
T53SSILL
 62
7
 10
4411.056
 20
-8532.350
 30
-61.189
 70
    32
  0
VERTEX
  8
T53SSILL
 62
7
 10
4407.011
 20
-8540.205
 30
-61.152
 70
    32
  0
VERTEX
  8
T53SSILL
 62
7
 10
4405.085
 20
-8572.956
 30
-60.989
 70
    32
  0
VERTEX
  8
T53SSILL
 62
7
 10
4432.273
 20
-8630.671
 30
-60.797
 70
    32
  0
VERTEX
  8
T53SSILL
 62
7
 10
4436.557
 20
-8631.521
 30
-60.806
 70
    32
  0
VERTEX
  8
T53SSILL
 62
7
 10
4440.332
 20
-8639.874
 30
-60.778
 70
    32
  0
VERTEX
  8
T53SSILL
 62
7
 10
4446.520
 20
-8647.053
 30
-60.763
 70
    32
  0
VERTEX
  8
T53SSILL
 62
7
 10
4477.968
 20
-8668.301
 30
-60.759
 70
    32
  0
VERTEX
  8
T53SSILL
 62
7
 10
4479.452
 20
-8659.887
 30
-60.804
 70
    32
  0
VERTEX
  8
T53SSILL
 62
7
 10
4472.012
 20
-8644.401
 30
-60.855
 70
    32
  0
VERTEX
  8
T53SSILL
 62
7
 10
4465.297
 20
-8639.220
 30
-60.859
 70
    32
  0
VERTEX
  8
T53SSILL
 62
7
 10
4462.329
 20
-8632.457
 30
-60.882
 70
    32
  0
VERTEX
  8
T53SSILL
 62
7
 10
4458.390
 20
-8613.831
 30
-60.959
 70
    32
  0
VERTEX
  8
T53SSILL
 62
7
 10
4453.152
 20
-8608.899
 30
-60.967
 70
    32
  0
VERTEX
  8
T53SSILL
 62
7
 10
4454.623
 20
-8601.685
 30
-61.006
 70
    32
  0
VERTEX
  8
T53SSILL
 62
7
 10
4463.165
 20
-8596.044
 30
-61.060
 70
    32
  0
VERTEX
  8
T53SSILL
 62
7
 10
4480.792
 20
-8618.247
 30
-61.008
 70
    32
  0
VERTEX
  8
T53SSILL
 62
7
 10
4491.504
 20
-8623.723
 30
-61.015
 70
    32
  0
VERTEX
  8
T53SSILL
 62
7
 10
4493.312
 20
-8626.875
 30
-61.006
 70
    32
  0
VERTEX
  8
T53SSILL
 62
7
 10
4491.233
 20
-8639.931
 30
-60.937
 70
    32
  0
VERTEX
  8
T53SSILL
 62
7
 10
4492.800
 20
-8660.244
 30
-60.844
 70
    32
  0
VERTEX
  8
T53SSILL
 62
7
 10
4495.349
 20
-8666.872
 30
-60.820
 70
    32
  0
VERTEX
  8
T53SSILL
 62
7
 10
4505.721
 20
-8663.501
 30
-60.869
 70
    32
  0
VERTEX
  8
T53SSILL
 62
7
 10
4509.592
 20
-8675.032
 30
-60.826
 70
    32
  0
VERTEX
  8
T53SSILL
 62
7
 10
4501.385
 20
-8682.058
 30
-60.766
 70
    32
  0
VERTEX
  8
T53SSILL
 62
7
 10
4504.019
 20
-8687.436
 30
-60.748
 70
    32
  0
VERTEX
  8
T53SSILL
 62
7
 10
4502.621
 20
-8688.970
 30
-60.737
 70
    32
  0
VERTEX
  8
T53SSILL
 62
7
 10
4505.172
 20
-8699.710
 30
-60.693
 70
    32
  0
VERTEX
  8
T53SSILL
 62
7
 10
4511.975
 20
-8715.974
 30
-60.636
 70
    32
  0
VERTEX
  8
T53SSILL
 62
7
 10
4525.140
 20
-8715.161
 30
-60.681
 70
    32
  0
VERTEX
  8
T53SSILL
 62
7
 10
4533.947
 20
-8719.937
 30
-60.686
 70
    32
  0
VERTEX
  8
T53SSILL
 62
7
 10
4545.319
 20
-8718.884
 30
-60.727
 70
    32
  0
VERTEX
  8
T53SSILL
 62
7
 10
4553.062
 20
-8722.469
 30
-60.734
 70
    32
  0
VERTEX
  8
T53SSILL
 62
7
 10
4561.110
 20
-8722.373
 30
-60.759
 70
    32
  0
VERTEX
  8
T53SSILL
 62
7
 10
4561.605
 20
-8716.069
 30
-60.791
 70
    32
  0
VERTEX
  8
T53SSILL
 62
7
 10
4570.895
 20
-8714.982
 30
-60.825
 70
    32
  0
VERTEX
  8
T53SSILL
 62
7
 10
4572.865
 20
-8719.425
 30
-60.810
 70
    32
  0
VERTEX
  8
T53SSILL
 62
7
 10
4594.191
 20
-8717.320
 30
-60.887
 70
    32
  0
VERTEX
  8
T53SSILL
 62
7
 10
4594.083
 20
-8725.980
 30
-60.845
 70
    32
  0
VERTEX
  8
T53SSILL
 62
7
 10
4571.021
 20
-8728.094
 30
-60.763
 70
    32
  0
VERTEX
  8
T53SSILL
 62
7
 10
4571.182
 20
-8739.126
 30
-60.710
 70
    32
  0
VERTEX
  8
T53SSILL
 62
7
 10
4561.686
 20
-8740.684
 30
-60.673
 70
    32
  0
VERTEX
  8
T53SSILL
 62
7
 10
4555.372
 20
-8730.132
 30
-60.704
 70
    32
  0
VERTEX
  8
T53SSILL
 62
7
 10
4500.809
 20
-8736.033
 30
-60.505
 70
    32
  0
VERTEX
  8
T53SSILL
 62
7
 10
4490.181
 20
-8748.785
 30
-60.411
 70
    32
  0
VERTEX
  8
T53SSILL
 62
7
 10
4534.977
 20
-8842.676
 30
-60.100
 70
    32
  0
VERTEX
  8
T53SSILL
 62
7
 10
4540.775
 20
-8845.046
 30
-60.106
 70
    32
  0
VERTEX
  8
T53SSILL
 62
7
 10
4546.730
 20
-8850.226
 30
-60.100
 70
    32
  0
VERTEX
  8
T53SSILL
 62
7
 10
4557.121
 20
-8852.360
 30
-60.122
 70
    32
  0
VERTEX
  8
T53SSILL
 62
7
 10
4567.389
 20
-8859.343
 30
-60.121
 70
    32
  0
VERTEX
  8
T53SSILL
 62
7
 10
4572.561
 20
-8857.180
 30
-60.147
 70
    32
  0
VERTEX
  8
T53SSILL
 62
7
 10
4577.459
 20
-8867.873
 30
-60.111
 70
    32
  0
VERTEX
  8
T53SSILL
 62
7
 10
4574.855
 20
-8872.430
 30
-60.081
 70
    32
  0
VERTEX
  8
T53SSILL
 62
7
 10
4578.589
 20
-8885.899
 30
-60.028
 70
    32
  0
VERTEX
  8
T53SSILL
 62
7
 10
4581.501
 20
-8890.754
 30
-60.014
 70
    32
  0
VERTEX
  8
T53SSILL
 62
7
 10
4587.592
 20
-8894.755
 30
-60.014
 70
    32
  0
VERTEX
  8
T53SSILL
 62
7
 10
4586.932
 20
-8906.154
 30
-59.957
 70
    32
  0
VERTEX
  8
T53SSILL
 62
7
 10
4626.184
 20
-8945.985
 30
-59.889
 70
    32
  0
VERTEX
  8
T53SSILL
 62
7
 10
4646.886
 20
-8949.228
 30
-59.938
 70
    32
  0
VERTEX
  8
T53SSILL
 62
7
 10
4644.190
 20
-8963.698
 30
-59.860
 70
    32
  0
VERTEX
  8
T53SSILL
 62
7
 10
4654.003
 20
-8974.265
 30
-59.840
 70
    32
  0
VERTEX
  8
T53SSILL
 62
7
 10
4648.666
 20
-8979.885
 30
-59.796
 70
    32
  0
VERTEX
  8
T53SSILL
 62
7
 10
4627.121
 20
-8958.412
 30
-59.832
 70
    32
  0
VERTEX
  8
T53SSILL
 62
7
 10
4616.815
 20
-8955.028
 30
-59.816
 70
    32
  0
VERTEX
  8
T53SSILL
 62
7
 10
4617.436
 20
-8947.227
 30
-59.855
 70
    32
  0
VERTEX
  8
T53SSILL
 62
7
 10
4539.739
 20
-8869.157
 30
-59.987
 70
    32
  0
VERTEX
  8
T53SSILL
 62
7
 10
4472.886
 20
-8729.484
 30
-60.449
 70
    32
  0
VERTEX
  8
T53SSILL
 62
7
 10
4466.593
 20
-8728.548
 30
-60.434
 70
    32
  0
VERTEX
  8
T53SSILL
 62
7
 10
4462.334
 20
-8730.928
 30
-60.409
 70
    32
  0
VERTEX
  8
T53SSILL
 62
7
 10
4456.525
 20
-8738.738
 30
-60.354
 70
    32
  0
VERTEX
  8
T53SSILL
 62
7
 10
4464.125
 20
-8766.014
 30
-60.246
 70
    32
  0
VERTEX
  8
T53SSILL
 62
7
 10
4459.281
 20
-8773.354
 30
-60.196
 70
    32
  0
VERTEX
  8
T53SSILL
 62
7
 10
4445.135
 20
-8772.484
 30
-60.156
 70
    32
  0
VERTEX
  8
T53SSILL
 62
7
 10
4433.273
 20
-8767.824
 30
-60.141
 70
    32
  0
VERTEX
  8
T53SSILL
 62
7
 10
4421.653
 20
-8774.463
 30
-60.073
 70
    32
  0
VERTEX
  8
T53SSILL
 62
7
 10
4408.039
 20
-8769.319
 30
-60.055
 70
    32
  0
VERTEX
  8
T53SSILL
 62
7
 10
4405.233
 20
-8763.090
 30
-60.076
 70
    32
  0
VERTEX
  8
T53SSILL
 62
7
 10
4409.014
 20
-8759.427
 30
-60.106
 70
    32
  0
VERTEX
  8
T53SSILL
 62
7
 10
4392.074
 20
-8732.408
 30
-60.182
 70
    32
  0
VERTEX
  8
T53SSILL
 62
7
 10
4386.097
 20
-8732.221
 30
-60.165
 70
    32
  0
VERTEX
  8
T53SSILL
 62
7
 10
4393.396
 20
-8742.181
 30
-60.140
 70
    32
  0
VERTEX
  8
T53SSILL
 62
7
 10
4400.131
 20
-8756.979
 30
-60.090
 70
    32
  0
VERTEX
  8
T53SSILL
 62
7
 10
4409.698
 20
-8784.587
 30
-59.987
 70
    32
  0
VERTEX
  8
T53SSILL
 62
7
 10
4409.802
 20
-8803.451
 30
-59.897
 70
    32
  0
VERTEX
  8
T53SSILL
 62
7
 10
4411.846
 20
-8811.196
 30
-59.866
 70
    32
  0
VERTEX
  8
T53SSILL
 62
7
 10
4420.529
 20
-8825.690
 30
-59.823
 70
    32
  0
VERTEX
  8
T53SSILL
 62
7
 10
4423.476
 20
-8838.204
 30
-59.772
 70
    32
  0
VERTEX
  8
T53SSILL
 62
7
 10
4423.244
 20
-8845.944
 30
-59.735
 70
    32
  0
VERTEX
  8
T53SSILL
 62
7
 10
4432.108
 20
-8857.496
 30
-59.707
 70
    32
  0
VERTEX
  8
T53SSILL
 62
7
 10
4426.054
 20
-8859.636
 30
-59.678
 70
    32
  0
VERTEX
  8
T53SSILL
 62
7
 10
4419.482
 20
-8869.720
 30
-59.609
 70
    32
  0
VERTEX
  8
T53SSILL
 62
7
 10
4492.874
 20
-8977.211
 30
-59.322
 70
    32
  0
VERTEX
  8
T53SSILL
 62
7
 10
4487.153
 20
-8981.324
 30
-59.284
 70
    32
  0
VERTEX
  8
T53SSILL
 62
7
 10
4407.369
 20
-8867.295
 30
-59.582
 70
    32
  0
VERTEX
  8
T53SSILL
 62
7
 10
4403.773
 20
-8861.629
 30
-59.598
 70
    32
  0
VERTEX
  8
T53SSILL
 62
7
 10
4402.621
 20
-8853.466
 30
-59.634
 70
    32
  0
VERTEX
  8
T53SSILL
 62
7
 10
4396.540
 20
-8844.913
 30
-59.656
 70
    32
  0
VERTEX
  8
T53SSILL
 62
7
 10
4378.488
 20
-8824.852
 30
-59.696
 70
    32
  0
VERTEX
  8
T53SSILL
 62
7
 10
4363.333
 20
-8811.605
 30
-59.712
 70
    32
  0
VERTEX
  8
T53SSILL
 62
7
 10
4354.469
 20
-8800.053
 30
-59.740
 70
    32
  0
VERTEX
  8
T53SSILL
 62
7
 10
4345.071
 20
-8793.533
 30
-59.742
 70
    32
  0
VERTEX
  8
T53SSILL
 62
7
 10
4335.602
 20
-8777.325
 30
-59.790
 70
    32
  0
VERTEX
  8
T53SSILL
 62
7
 10
4333.876
 20
-8769.571
 30
-59.822
 70
    32
  0
VERTEX
  8
T53SSILL
 62
7
 10
4329.553
 20
-8764.463
 30
-59.833
 70
    32
  0
VERTEX
  8
T53SSILL
 62
7
 10
4254.131
 20
-8819.018
 30
-59.335
 70
    32
  0
VERTEX
  8
T53SSILL
 62
7
 10
4248.962
 20
-8812.972
 30
-59.348
 70
    32
  0
VERTEX
  8
T53SSILL
 62
7
 10
4307.224
 20
-8771.769
 30
-59.728
 70
    32
  0
VERTEX
  8
T53SSILL
 62
7
 10
4298.940
 20
-8769.082
 30
-59.715
 70
    32
  0
VERTEX
  8
T53SSILL
 62
7
 10
4296.886
 20
-8757.906
 30
-59.762
 70
    32
  0
VERTEX
  8
T53SSILL
 62
7
 10
4306.758
 20
-8750.482
 30
-59.829
 70
    32
  0
VERTEX
  8
T53SSILL
 62
7
 10
4306.484
 20
-8746.995
 30
-59.845
 70
    32
  0
VERTEX
  8
T53SSILL
 62
7
 10
4303.466
 20
-8742.299
 30
-59.858
 70
    32
  0
VERTEX
  8
T53SSILL
 62
7
 10
4296.370
 20
-8735.985
 30
-59.866
 70
    32
  0
VERTEX
  8
T53SSILL
 62
7
 10
4284.806
 20
-8731.837
 30
-59.850
 70
    32
  0
VERTEX
  8
T53SSILL
 62
7
 10
4280.908
 20
-8731.872
 30
-59.837
 70
    32
  0
VERTEX
  8
T53SSILL
 62
7
 10
4266.899
 20
-8736.602
 30
-59.771
 70
    32
  0
VERTEX
  8
T53SSILL
 62
7
 10
4264.518
 20
-8742.850
 30
-59.733
 70
    32
  0
VERTEX
  8
T53SSILL
 62
7
 10
4263.626
 20
-8760.268
 30
-59.647
 70
    32
  0
VERTEX
  8
T53SSILL
 62
7
 10
4255.076
 20
-8761.380
 30
-59.615
 70
    32
  0
VERTEX
  8
T53SSILL
 62
7
 10
4251.867
 20
-8748.308
 30
-59.668
 70
    32
  0
VERTEX
  8
T53SSILL
 62
7
 10
4243.858
 20
-8735.980
 30
-59.702
 70
    32
  0
VERTEX
  8
T53SSILL
 62
7
 10
4240.261
 20
-8734.544
 30
-59.697
 70
    32
  0
VERTEX
  8
T53SSILL
 62
7
 10
4233.718
 20
-8739.351
 30
-59.654
 70
    32
  0
VERTEX
  8
T53SSILL
 62
7
 10
4229.651
 20
-8739.743
 30
-59.639
 70
    32
  0
VERTEX
  8
T53SSILL
 62
7
 10
4217.884
 20
-8735.194
 30
-59.624
 70
    32
  0
VERTEX
  8
T53SSILL
 62
7
 10
4213.632
 20
-8729.785
 30
-59.637
 70
    32
  0
VERTEX
  8
T53SSILL
 62
7
 10
4207.609
 20
-8730.258
 30
-59.616
 70
    32
  0
VERTEX
  8
T53SSILL
 62
7
 10
4204.632
 20
-8733.607
 30
-59.591
 70
    32
  0
VERTEX
  8
T53SSILL
 62
7
 10
4203.090
 20
-8748.058
 30
-59.516
 70
    32
  0
VERTEX
  8
T53SSILL
 62
7
 10
4213.146
 20
-8764.275
 30
-59.470
 70
    32
  0
VERTEX
  8
T53SSILL
 62
7
 10
4207.586
 20
-8773.471
 30
-59.408
 70
    32
  0
VERTEX
  8
T53SSILL
 62
7
 10
4197.089
 20
-8776.674
 30
-59.360
 70
    32
  0
VERTEX
  8
T53SSILL
 62
7
 10
4190.518
 20
-8786.440
 30
-59.293
 70
    32
  0
VERTEX
  8
T53SSILL
 62
7
 10
4181.086
 20
-8789.143
 30
-59.250
 70
    32
  0
VERTEX
  8
T53SSILL
 62
7
 10
4174.560
 20
-8782.268
 30
-59.263
 70
    32
  0
VERTEX
  8
T53SSILL
 62
7
 10
4170.078
 20
-8750.450
 30
-59.402
 70
    32
  0
VERTEX
  8
T53SSILL
 62
7
 10
4170.226
 20
-8747.641
 30
-59.416
 70
    32
  0
VERTEX
  8
T53SSILL
 62
7
 10
4174.624
 20
-8742.389
 30
-59.455
 70
    32
  0
VERTEX
  8
T53SSILL
 62
7
 10
4177.054
 20
-8733.635
 30
-59.504
 70
    32
  0
VERTEX
  8
T53SSILL
 62
7
 10
4177.637
 20
-8728.240
 30
-59.532
 70
    32
  0
VERTEX
  8
T53SSILL
 62
7
 10
4175.952
 20
-8727.096
 30
-59.532
 70
    32
  0
VERTEX
  8
T53SSILL
 62
7
 10
4174.522
 20
-8715.430
 30
-59.584
 70
    32
  0
VERTEX
  8
T53SSILL
 62
7
 10
4171.058
 20
-8711.309
 30
-59.593
 70
    32
  0
VERTEX
  8
T53SSILL
 62
7
 10
4171.421
 20
-8715.624
 30
-59.573
 70
    32
  0
VERTEX
  8
T53SSILL
 62
7
 10
4167.742
 20
-8723.789
 30
-59.522
 70
    32
  0
VERTEX
  8
T53SSILL
 62
7
 10
4159.415
 20
-8724.613
 30
-59.492
 70
    32
  0
VERTEX
  8
T53SSILL
 62
7
 10
4154.732
 20
-8718.085
 30
-59.509
 70
    32
  0
VERTEX
  8
T53SSILL
 62
7
 10
4146.726
 20
-8718.320
 30
-59.483
 70
    32
  0
VERTEX
  8
T53SSILL
 62
7
 10
4141.443
 20
-8711.248
 30
-59.500
 70
    32
  0
VERTEX
  8
T53SSILL
 62
7
 10
4168.249
 20
-8691.751
 30
-59.678
 70
    32
  0
VERTEX
  8
T53SSILL
 62
7
 10
4160.701
 20
-8680.295
 30
-59.709
 70
    32
  0
VERTEX
  8
T53SSILL
 62
7
 10
4156.381
 20
-8643.974
 30
-59.870
 70
    32
  0
VERTEX
  8
T53SSILL
 62
7
 10
4164.059
 20
-8641.752
 30
-59.905
 70
    32
  0
VERTEX
  8
T53SSILL
 62
7
 10
4169.350
 20
-8643.202
 30
-59.914
 70
    32
  0
VERTEX
  8
T53SSILL
 62
7
 10
4174.231
 20
-8645.985
 30
-59.916
 70
    32
  0
VERTEX
  8
T53SSILL
 62
7
 10
4177.165
 20
-8650.859
 30
-59.902
 70
    32
  0
VERTEX
  8
T53SSILL
 62
7
 10
4191.355
 20
-8640.937
 30
-59.994
 70
    32
  0
VERTEX
  8
T53SSILL
 62
7
 10
4198.243
 20
-8648.986
 30
-59.977
 70
    32
  0
VERTEX
  8
T53SSILL
 62
7
 10
4179.022
 20
-8665.780
 30
-59.836
 70
    32
  0
VERTEX
  8
T53SSILL
 62
7
 10
4181.912
 20
-8675.737
 30
-59.797
 70
    32
  0
VERTEX
  8
T53SSILL
 62
7
 10
4186.927
 20
-8678.975
 30
-59.798
 70
    32
  0
VERTEX
  8
T53SSILL
 62
7
 10
4220.082
 20
-8654.929
 30
-60.017
 70
    32
  0
VERTEX
  8
T53SSILL
 62
7
 10
4219.120
 20
-8652.993
 30
-60.023
 70
    32
  0
VERTEX
  8
T53SSILL
 62
7
 10
4216.668
 20
-8653.013
 30
-60.015
 70
    32
  0
VERTEX
  8
T53SSILL
 62
7
 10
4210.942
 20
-8655.720
 30
-59.984
 70
    32
  0
VERTEX
  8
T53SSILL
 62
7
 10
4205.680
 20
-8650.881
 30
-59.991
 70
    32
  0
VERTEX
  8
T53SSILL
 62
7
 10
4202.260
 20
-8646.389
 30
-60.002
 70
    32
  0
VERTEX
  8
T53SSILL
 62
7
 10
4201.218
 20
-8639.354
 30
-60.033
 70
    32
  0
VERTEX
  8
T53SSILL
 62
7
 10
4203.089
 20
-8634.742
 30
-60.061
 70
    32
  0
VERTEX
  8
T53SSILL
 62
7
 10
4223.983
 20
-8625.497
 30
-60.170
 70
    32
  0
VERTEX
  8
T53SSILL
 62
7
 10
4226.787
 20
-8626.210
 30
-60.176
 70
    32
  0
VERTEX
  8
T53SSILL
 62
7
 10
4234.560
 20
-8645.231
 30
-60.109
 70
    32
  0
VERTEX
  8
T53SSILL
 62
7
 10
4263.450
 20
-8623.752
 30
-60.302
 70
    32
  0
VERTEX
  8
T53SSILL
 62
7
 10
4257.682
 20
-8618.413
 30
-60.310
 70
    32
  0
VERTEX
  8
T53SSILL
 62
7
 10
4263.843
 20
-8611.551
 30
-60.362
 70
    32
  0
VERTEX
  8
T53SSILL
 62
7
 10
4267.530
 20
-8613.814
 30
-60.363
 70
    32
  0
VERTEX
  8
T53SSILL
 62
7
 10
4277.447
 20
-8612.300
 30
-60.401
 70
    32
  0
VERTEX
  8
T53SSILL
 62
7
 10
4278.829
 20
-8613.345
 30
-60.400
 70
    32
  0
VERTEX
  8
T53SSILL
 62
7
 10
4315.338
 20
-8587.000
 30
-60.641
 70
    32
  0
VERTEX
  8
T53SSILL
 62
7
 10
4315.376
 20
-8582.482
 30
-60.663
 70
    32
  0
VERTEX
  8
T53SSILL
 62
7
 10
4313.547
 20
-8578.871
 30
-60.674
 70
    32
  0
VERTEX
  8
T53SSILL
 62
7
 10
4303.389
 20
-8569.803
 30
-60.686
 70
    32
  0
VERTEX
  8
T53SSILL
 62
7
 10
4255.991
 20
-8501.377
 30
-60.654
 70
    32
  0
VERTEX
  8
T53SSILL
 62
7
 10
4263.072
 20
-8496.470
 30
-60.662
 70
    32
  0
VERTEX
  8
T53SSILL
 62
7
 10
4310.010
 20
-8560.671
 30
-60.751
 70
    32
  0
VERTEX
  8
T53SSILL
 62
7
 10
4314.187
 20
-8563.558
 30
-60.750
 70
    32
  0
VERTEX
  8
T53SSILL
 62
7
 10
4320.385
 20
-8563.734
 30
-60.768
 70
    32
  0
VERTEX
  8
T53SSILL
 62
7
 10
4325.661
 20
-8566.879
 30
-60.770
 70
    32
  0
VERTEX
  8
T53SSILL
 62
7
 10
4332.646
 20
-8566.773
 30
-60.792
 70
    32
  0
VERTEX
  8
T53SSILL
 62
7
 10
4339.424
 20
-8569.971
 30
-60.798
 70
    32
  0
VERTEX
  8
T53SSILL
 62
7
 10
4369.955
 20
-8548.438
 30
-60.997
 70
    32
  0
VERTEX
  8
T53SSILL
 62
7
 10
4376.653
 20
-8533.411
 30
-61.090
 70
    32
  0
VERTEX
  8
T53SSILL
 62
7
 10
4395.027
 20
-8530.523
 30
-61.161
 70
    32
  0
VERTEX
  8
T53SSILL
 62
7
 10
4483.755
 20
-8467.276
 30
-60.970
 70
    32
  0
VERTEX
  8
T53SSILL
 62
7
 10
4482.540
 20
-8462.734
 30
-60.944
 70
    32
  0
VERTEX
  8
T53SSILL
 62
7
 10
4461.486
 20
-8429.246
 30
-60.735
 70
    32
  0
VERTEX
  8
T53SSILL
 62
7
 10
4460.558
 20
-8424.926
 30
-60.711
 70
    32
  0
VERTEX
  8
T53SSILL
 62
7
 10
4463.263
 20
-8422.800
 30
-60.703
 70
    32
  0
VERTEX
  8
T53SSILL
 62
7
 10
4472.952
 20
-8422.139
 30
-60.714
 70
    32
  0
VERTEX
  8
T53SSILL
 62
7
 10
4477.971
 20
-8423.242
 30
-60.727
 70
    32
  0
VERTEX
  8
T53SSILL
 62
7
 10
4480.498
 20
-8425.743
 30
-60.744
 70
    32
  0
VERTEX
  8
T53SSILL
 62
7
 10
4489.187
 20
-8440.791
 30
-60.837
 70
    32
  0
VERTEX
  8
T53SSILL
 62
7
 10
4491.396
 20
-8456.445
 30
-60.924
 70
    32
  0
VERTEX
  8
T53SSILL
 62
7
 10
4493.968
 20
-8460.145
 30
-60.947
 70
    32
  0
VERTEX
  8
T53SSILL
 62
7
 10
4549.742
 20
-8419.521
 30
-60.811
 70
    32
  0
VERTEX
  8
T53SSILL
 62
7
 10
4545.065
 20
-8413.431
 30
-60.771
 70
    32
  0
VERTEX
  8
T53SSILL
 62
7
 10
4565.003
 20
-8398.515
 30
-60.720
 70
    32
  0
VERTEX
  8
T53SSILL
 62
7
 10
4569.460
 20
-8404.896
 30
-60.761
 70
    32
  0
VERTEX
  8
T53SSILL
 62
7
 10
4682.137
 20
-8323.939
 30
-60.491
 70
    32
  0
VERTEX
  8
T53SSILL
 62
7
 10
4549.322
 20
-8311.907
 30
-60.235
 70
    32
  0
VERTEX
  8
T53SSILL
 62
7
 10
4418.202
 20
-8405.930
 30
-60.548
 70
    32
  0
VERTEX
  8
T53SSILL
 62
7
 10
4422.867
 20
-8410.886
 30
-60.581
 70
    32
  0
VERTEX
  8
T53SSILL
 62
7
 10
4409.212
 20
-8423.504
 30
-60.629
 70
    32
  0
VERTEX
  8
T53SSILL
 62
7
 10
4402.691
 20
-8416.775
 30
-60.584
 70
    32
  0
VERTEX
  8
T53SSILL
 62
7
 10
4378.436
 20
-8433.734
 30
-60.639
 70
    32
  0
VERTEX
  8
T53SSILL
 62
7
 10
4373.350
 20
-8428.262
 30
-60.603
 70
    32
  0
VERTEX
  8
T53SSILL
 62
7
 10
4397.258
 20
-8411.169
 30
-60.546
 70
    32
  0
VERTEX
  8
T53SSILL
 62
7
 10
4387.434
 20
-8400.858
 30
-60.477
 70
    32
  0
VERTEX
  8
T53SSILL
 62
7
 10
4383.365
 20
-8405.235
 30
-60.494
 70
    32
  0
VERTEX
  8
T53SSILL
 62
7
 10
4352.940
 20
-8373.871
 30
-60.283
 70
    32
  0
VERTEX
  8
T53SSILL
 62
7
 10
4357.399
 20
-8369.614
 30
-60.267
 70
    32
  0
VERTEX
  8
T53SSILL
 62
7
 10
4348.551
 20
-8359.793
 30
-60.201
 70
    32
  0
VERTEX
  8
T53SSILL
 62
7
 10
4352.493
 20
-8355.907
 30
-60.186
 70
    32
  0
VERTEX
  8
T53SSILL
 62
7
 10
4334.864
 20
-8336.752
 30
-60.059
 70
    32
  0
VERTEX
  8
T53SSILL
 62
7
 10
4343.163
 20
-8329.133
 30
-60.030
 70
    32
  0
VERTEX
  8
T53SSILL
 62
7
 10
4341.335
 20
-8323.494
 30
-59.997
 70
    32
  0
VERTEX
  8
T53SSILL
 62
7
 10
4337.078
 20
-8320.248
 30
-59.974
 70
    32
  0
VERTEX
  8
T53SSILL
 62
7
 10
4328.084
 20
-8318.858
 30
-59.953
 70
    32
  0
VERTEX
  8
T53SSILL
 62
7
 10
4321.731
 20
-8313.425
 30
-59.915
 70
    32
  0
VERTEX
  8
T53SSILL
 62
7
 10
4319.577
 20
-8309.332
 30
-59.890
 70
    32
  0
VERTEX
  8
T53SSILL
 62
7
 10
4317.887
 20
-8297.985
 30
-59.827
 70
    32
  0
VERTEX
  8
T53SSILL
 62
7
 10
4319.030
 20
-8295.574
 30
-59.816
 70
    32
  0
VERTEX
  8
T53SSILL
 62
7
 10
4309.622
 20
-8290.742
 30
-59.776
 70
    32
  0
VERTEX
  8
T53SSILL
 62
7
 10
4173.359
 20
-8277.909
 30
-59.511
 70
    32
  0
VERTEX
  8
T53SSILL
 62
7
 10
4060.672
 20
-8306.326
 30
-59.501
 70
    32
  0
VERTEX
  8
T53SSILL
 62
7
 10
4051.446
 20
-8314.125
 30
-59.529
 70
    32
  0
VERTEX
  8
T53SSILL
 62
7
 10
4036.342
 20
-8317.727
 30
-59.526
 70
    32
  0
VERTEX
  8
T53SSILL
 62
7
 10
4036.912
 20
-8322.449
 30
-59.552
 70
    32
  0
VERTEX
  8
T53SSILL
 62
7
 10
4041.463
 20
-8329.632
 30
-59.597
 70
    32
  0
VERTEX
  8
T53SSILL
 62
7
 10
4033.672
 20
-8335.129
 30
-59.615
 70
    32
  0
VERTEX
  8
T53SSILL
 62
7
 10
4031.326
 20
-8331.191
 30
-59.591
 70
    32
  0
VERTEX
  8
T53SSILL
 62
7
 10
4027.404
 20
-8329.730
 30
-59.578
 70
    32
  0
VERTEX
  8
T53SSILL
 62
7
 10
4027.589
 20
-8326.701
 30
-59.562
 70
    32
  0
VERTEX
  8
T53SSILL
 62
7
 10
4023.710
 20
-8321.239
 30
-59.527
 70
    32
  0
VERTEX
  8
T53SSILL
 62
7
 10
4013.243
 20
-8323.744
 30
-59.525
 70
    32
  0
VERTEX
  8
T53SSILL
 62
7
 10
4012.247
 20
-8318.359
 30
-59.495
 70
    32
  0
VERTEX
  8
T53SSILL
 62
7
 10
3845.945
 20
-8359.682
 30
-59.179
 70
    32
  0
VERTEX
  8
T53SSILL
 62
7
 10
3843.236
 20
-8364.302
 30
-59.157
 70
    32
  0
VERTEX
  8
T53SSILL
 62
7
 10
3821.692
 20
-8369.981
 30
-59.050
 70
    32
  0
VERTEX
  8
T53SSILL
 62
7
 10
3818.570
 20
-8366.767
 30
-59.044
 70
    32
  0
VERTEX
  8
T53SSILL
 62
7
 10
1878.642
 20
-8848.399
 30
-54.031
 70
    32
  0
VERTEX
  8
T53SSILL
 62
7
 10
1868.130
 20
-8849.083
 30
-54.006
 70
    32
  0
VERTEX
  8
T53SSILL
 62
7
 10
1854.750
 20
-8846.736
 30
-53.982
 70
    32
  0
VERTEX
  8
T53SSILL
 62
7
 10
1842.078
 20
-8840.121
 30
-53.952
 70
    32
  0
VERTEX
  8
T53SSILL
 62
7
 10
1828.270
 20
-8827.789
 30
-53.828
 70
    32
  0
VERTEX
  8
T53SSILL
 62
7
 10
1808.399
 20
-8800.701
 30
-53.716
 70
    32
  0
VERTEX
  8
T53SSILL
 62
7
 10
1784.725
 20
-8817.644
 30
-53.645
 70
    32
  0
VERTEX
  8
T53SSILL
 62
7
 10
1777.031
 20
-8807.215
 30
-53.612
 70
    32
  0
VERTEX
  8
T53SSILL
 62
7
 10
1782.402
 20
-8803.637
 30
-53.629
 70
    32
  0
VERTEX
  8
T53SSILL
 62
7
 10
1784.835
 20
-8806.993
 30
-53.639
 70
    32
  0
VERTEX
  8
T53SSILL
 62
7
 10
1803.480
 20
-8793.919
 30
-53.695
 70
    32
  0
VERTEX
  8
T53SSILL
 62
7
 10
1749.570
 20
-8719.715
 30
-53.467
 70
    32
  0
VERTEX
  8
T53SSILL
 62
7
 10
1740.430
 20
-8725.761
 30
-53.439
 70
    32
  0
VERTEX
  8
T53SSILL
 62
7
 10
1736.023
 20
-8718.584
 30
-53.420
 70
    32
  0
VERTEX
  8
T53SSILL
 62
7
 10
1744.515
 20
-8712.478
 30
-53.446
 70
    32
  0
VERTEX
  8
T53SSILL
 62
7
 10
1632.825
 20
-8556.910
 30
-52.972
 70
    32
  0
VERTEX
  8
T53SSILL
 62
7
 10
1623.544
 20
-8563.358
 30
-52.944
 70
    32
  0
VERTEX
  8
T53SSILL
 62
7
 10
1618.472
 20
-8556.894
 30
-52.923
 70
    32
  0
VERTEX
  8
T53SSILL
 62
7
 10
1628.003
 20
-8549.825
 30
-52.951
 70
    32
  0
VERTEX
  8
T53SSILL
 62
7
 10
1595.228
 20
-8503.171
 30
-52.812
 70
    32
  0
VERTEX
  8
T53SSILL
 62
7
 10
1571.738
 20
-8537.950
 30
-52.751
 70
    32
  0
VERTEX
  8
T53SSILL
 62
7
 10
1573.870
 20
-8546.039
 30
-52.763
 70
    32
  0
VERTEX
  8
T53SSILL
 62
7
 10
1564.846
 20
-8559.494
 30
-52.740
 70
    32
  0
VERTEX
  8
T53SSILL
 62
7
 10
1552.890
 20
-8549.257
 30
-52.693
 70
    32
  0
VERTEX
  8
T53SSILL
 62
7
 10
1590.305
 20
-8496.953
 30
-52.791
 70
    32
  0
VERTEX
  8
T53SSILL
 62
7
 10
1546.059
 20
-8435.666
 30
-52.604
 70
    32
  0
VERTEX
  8
T53SSILL
 62
7
 10
1536.114
 20
-8426.794
 30
-52.564
 70
    32
  0
VERTEX
  8
T53SSILL
 62
7
 10
1529.156
 20
-8422.974
 30
-52.538
 70
    32
  0
VERTEX
  8
T53SSILL
 62
7
 10
1511.314
 20
-8418.892
 30
-52.475
 70
    32
  0
VERTEX
  8
T53SSILL
 62
7
 10
1498.956
 20
-8418.898
 30
-52.432
 70
    32
  0
VERTEX
  8
T53SSILL
 62
7
 10
1493.124
 20
-8421.042
 30
-52.414
 70
    32
  0
VERTEX
  8
T53SSILL
 62
7
 10
1446.196
 20
-8453.472
 30
-52.271
 70
    32
  0
VERTEX
  8
T53SSILL
 62
7
 10
1449.584
 20
-8458.320
 30
-52.286
 70
    32
  0
VERTEX
  8
T53SSILL
 62
7
 10
1443.839
 20
-8462.419
 30
-52.268
 70
    32
  0
VERTEX
  8
T53SSILL
 62
7
 10
1440.312
 20
-8457.680
 30
-52.254
 70
    32
  0
VERTEX
  8
T53SSILL
 62
7
 10
1400.670
 20
-8486.253
 30
-52.134
 70
    32
  0
VERTEX
  8
T53SSILL
 62
7
 10
1396.626
 20
-8480.576
 30
-52.117
 70
    32
  0
VERTEX
  8
T53SSILL
 62
7
 10
1428.199
 20
-8458.279
 30
-52.212
 70
    32
  0
VERTEX
  8
T53SSILL
 62
7
 10
1423.688
 20
-8452.297
 30
-52.193
 70
    32
  0
VERTEX
  8
T53SSILL
 62
7
 10
1432.238
 20
-8446.203
 30
-52.219
 70
    32
  0
VERTEX
  8
T53SSILL
 62
7
 10
1436.487
 20
-8452.280
 30
-52.237
 70
    32
  0
VERTEX
  8
T53SSILL
 62
7
 10
1483.271
 20
-8418.391
 30
-52.378
 70
    32
  0
VERTEX
  8
T53SSILL
 62
7
 10
1493.755
 20
-8413.463
 30
-52.411
 70
    32
  0
VERTEX
  8
T53SSILL
 62
7
 10
1506.260
 20
-8411.655
 30
-52.453
 70
    32
  0
VERTEX
  8
T53SSILL
 62
7
 10
1518.065
 20
-8412.087
 30
-52.494
 70
    32
  0
VERTEX
  8
T53SSILL
 62
7
 10
1531.669
 20
-8415.927
 30
-52.543
 70
    32
  0
VERTEX
  8
T53SSILL
 62
7
 10
1488.312
 20
-8355.622
 30
-52.359
 70
    32
  0
VERTEX
  8
T53SSILL
 62
7
 10
1434.367
 20
-8347.530
 30
-52.169
 70
    32
  0
VERTEX
  8
T53SSILL
 62
7
 10
1254.082
 20
-8478.112
 30
-51.626
 70
    32
  0
VERTEX
  8
T53SSILL
 62
7
 10
1248.077
 20
-8487.137
 30
-51.611
 70
    32
  0
VERTEX
  8
T53SSILL
 62
7
 10
1246.917
 20
-8493.337
 30
-51.611
 70
    32
  0
VERTEX
  8
T53SSILL
 62
7
 10
1248.005
 20
-8501.242
 30
-51.619
 70
    32
  0
VERTEX
  8
T53SSILL
 62
7
 10
1253.702
 20
-8512.129
 30
-51.645
 70
    32
  0
VERTEX
  8
T53SSILL
 62
7
 10
1263.218
 20
-8516.059
 30
-51.680
 70
    32
  0
VERTEX
  8
T53SSILL
 62
7
 10
1276.060
 20
-8534.551
 30
-51.734
 70
    32
  0
VERTEX
  8
T53SSILL
 62
7
 10
1283.561
 20
-8526.140
 30
-51.755
 70
    32
  0
VERTEX
  8
T53SSILL
 62
7
 10
1296.654
 20
-8517.124
 30
-51.795
 70
    32
  0
VERTEX
  8
T53SSILL
 62
7
 10
1304.437
 20
-8528.944
 30
-51.829
 70
    32
  0
VERTEX
  8
T53SSILL
 62
7
 10
1290.533
 20
-8537.928
 30
-51.786
 70
    32
  0
VERTEX
  8
T53SSILL
 62
7
 10
1282.677
 20
-8545.608
 30
-51.764
 70
    32
  0
VERTEX
  8
T53SSILL
 62
7
 10
1289.143
 20
-8559.595
 30
-51.794
 70
    32
  0
VERTEX
  8
T53SSILL
 62
7
 10
1287.666
 20
-8571.216
 30
-51.796
 70
    32
  0
VERTEX
  8
T53SSILL
 62
7
 10
1334.039
 20
-8649.812
 30
-52.000
 70
    32
  0
VERTEX
  8
T53SSILL
 62
7
 10
1326.543
 20
-8654.398
 30
-51.977
 70
    32
  0
VERTEX
  8
T53SSILL
 62
7
 10
1287.009
 20
-8586.571
 30
-51.802
 70
    32
  0
VERTEX
  8
T53SSILL
 62
7
 10
1279.300
 20
-8581.660
 30
-51.773
 70
    32
  0
VERTEX
  8
T53SSILL
 62
7
 10
1248.356
 20
-8534.905
 30
-51.640
 70
    32
  0
VERTEX
  8
T53SSILL
 62
7
 10
1250.771
 20
-8525.463
 30
-51.642
 70
    32
  0
VERTEX
  8
T53SSILL
 62
7
 10
1242.464
 20
-8511.136
 30
-51.606
 70
    32
  0
VERTEX
  8
T53SSILL
 62
7
 10
1236.597
 20
-8490.381
 30
-51.573
 70
    32
  0
VERTEX
  8
T53SSILL
 62
7
 10
1234.234
 20
-8492.364
 30
-51.566
 70
    32
  0
VERTEX
  8
T53SSILL
 62
7
 10
1230.794
 20
-8486.883
 30
-51.551
 70
    32
  0
VERTEX
  8
T53SSILL
 62
7
 10
1230.099
 20
-8473.641
 30
-51.541
 70
    32
  0
VERTEX
  8
T53SSILL
 62
7
 10
1210.673
 20
-8449.541
 30
-51.461
 70
    32
  0
VERTEX
  8
T53SSILL
 62
7
 10
1205.218
 20
-8453.298
 30
-51.444
 70
    32
  0
VERTEX
  8
T53SSILL
 62
7
 10
1199.999
 20
-8445.854
 30
-51.422
 70
    32
  0
VERTEX
  8
T53SSILL
 62
7
 10
1205.138
 20
-8442.123
 30
-51.437
 70
    32
  0
VERTEX
  8
T53SSILL
 62
7
 10
1191.693
 20
-8422.977
 30
-51.380
 70
    32
  0
VERTEX
  8
T53SSILL
 62
7
 10
1196.631
 20
-8419.292
 30
-51.395
 70
    32
  0
VERTEX
  8
T53SSILL
 62
7
 10
1210.305
 20
-8438.145
 30
-51.453
 70
    32
  0
VERTEX
  8
T53SSILL
 62
7
 10
1220.043
 20
-8430.997
 30
-51.482
 70
    32
  0
VERTEX
  8
T53SSILL
 62
7
 10
1225.619
 20
-8438.609
 30
-51.506
 70
    32
  0
VERTEX
  8
T53SSILL
 62
7
 10
1216.045
 20
-8445.963
 30
-51.477
 70
    32
  0
VERTEX
  8
T53SSILL
 62
7
 10
1230.636
 20
-8463.969
 30
-51.538
 70
    32
  0
VERTEX
  8
T53SSILL
 62
7
 10
1241.157
 20
-8467.890
 30
-51.576
 70
    32
  0
VERTEX
  8
T53SSILL
 62
7
 10
1250.844
 20
-8468.201
 30
-51.609
 70
    32
  0
VERTEX
  8
T53SSILL
 62
7
 10
1259.235
 20
-8466.166
 30
-51.637
 70
    32
  0
VERTEX
  8
T53SSILL
 62
7
 10
1358.382
 20
-8394.646
 30
-51.936
 70
    32
  0
VERTEX
  8
T53SSILL
 62
7
 10
1374.920
 20
-8376.496
 30
-51.982
 70
    32
  0
VERTEX
  8
T53SSILL
 62
7
 10
1374.935
 20
-8370.978
 30
-51.979
 70
    32
  0
VERTEX
  8
T53SSILL
 62
7
 10
1387.880
 20
-8361.067
 30
-52.018
 70
    32
  0
VERTEX
  8
T53SSILL
 62
7
 10
1416.730
 20
-8351.939
 30
-52.111
 70
    32
  0
VERTEX
  8
T53SSILL
 62
7
 10
1435.159
 20
-8338.024
 30
-52.166
 70
    32
  0
VERTEX
  8
T53SSILL
 62
7
 10
1467.716
 20
-8338.549
 30
-52.278
 70
    32
  0
VERTEX
  8
T53SSILL
 62
7
 10
1472.613
 20
-8333.661
 30
-52.292
 70
    32
  0
VERTEX
  8
T53SSILL
 62
7
 10
1421.930
 20
-8263.534
 30
-52.078
 70
    32
  0
VERTEX
  8
T53SSILL
 62
7
 10
1394.667
 20
-8236.903
 30
-51.969
 70
    32
  0
VERTEX
  8
T53SSILL
 62
7
 10
1379.324
 20
-8228.595
 30
-51.911
 70
    32
  0
VERTEX
  8
T53SSILL
 62
7
 10
1352.582
 20
-8221.220
 30
-51.815
 70
    32
  0
VERTEX
  8
T53SSILL
 62
7
 10
1338.505
 20
-8220.900
 30
-51.767
 70
    32
  0
VERTEX
  8
T53SSILL
 62
7
 10
1323.289
 20
-8222.831
 30
-51.716
 70
    32
  0
VERTEX
  8
T53SSILL
 62
7
 10
1208.808
 20
-8260.076
 30
-51.344
 70
    32
  0
VERTEX
  8
T53SSILL
 62
7
 10
1210.843
 20
-8265.770
 30
-51.355
 70
    32
  0
VERTEX
  8
T53SSILL
 62
7
 10
1196.257
 20
-8270.911
 30
-51.307
 70
    32
  0
VERTEX
  8
T53SSILL
 62
7
 10
1194.470
 20
-8265.246
 30
-51.298
 70
    32
  0
VERTEX
  8
T53SSILL
 62
7
 10
937.886
 20
-8356.022
 30
-50.470
 70
    32
  0
VERTEX
  8
T53SSILL
 62
7
 10
937.024
 20
-8361.901
 30
-50.471
 70
    32
  0
VERTEX
  8
T53SSILL
 62
7
 10
926.760
 20
-8365.816
 30
-50.438
 70
    32
  0
VERTEX
  8
T53SSILL
 62
7
 10
919.164
 20
-8363.164
 30
-50.410
 70
    32
  0
VERTEX
  8
T53SSILL
 62
7
 10
790.852
 20
-8407.779
 30
-49.995
 70
    32
  0
VERTEX
  8
T53SSILL
 62
7
 10
787.111
 20
-8414.003
 30
-49.986
 70
    32
  0
VERTEX
  8
T53SSILL
 62
7
 10
774.707
 20
-8417.981
 30
-49.946
 70
    32
  0
VERTEX
  8
T53SSILL
 62
7
 10
766.944
 20
-8416.616
 30
-49.919
 70
    32
  0
VERTEX
  8
T53SSILL
 62
7
 10
628.527
 20
-8464.333
 30
-49.471
 70
    32
  0
VERTEX
  8
T53SSILL
 62
7
 10
628.055
 20
-8468.275
 30
-49.472
 70
    32
  0
VERTEX
  8
T53SSILL
 62
7
 10
616.027
 20
-8473.240
 30
-49.433
 70
    32
  0
VERTEX
  8
T53SSILL
 62
7
 10
610.602
 20
-8470.606
 30
-49.413
 70
    32
  0
VERTEX
  8
T53SSILL
 62
7
 10
468.639
 20
-8520.616
 30
-48.955
 70
    32
  0
VERTEX
  8
T53SSILL
 62
7
 10
469.164
 20
-8524.460
 30
-48.959
 70
    32
  0
VERTEX
  8
T53SSILL
 62
7
 10
452.881
 20
-8530.107
 30
-48.906
 70
    32
  0
VERTEX
  8
T53SSILL
 62
7
 10
449.791
 20
-8527.429
 30
-48.894
 70
    32
  0
VERTEX
  8
T53SSILL
 62
7
 10
307.069
 20
-8577.917
 30
-48.434
 70
    32
  0
VERTEX
  8
T53SSILL
 62
7
 10
305.941
 20
-8582.110
 30
-48.432
 70
    32
  0
VERTEX
  8
T53SSILL
 62
7
 10
293.826
 20
-8586.354
 30
-48.393
 70
    32
  0
VERTEX
  8
T53SSILL
 62
7
 10
289.965
 20
-8583.877
 30
-48.379
 70
    32
  0
VERTEX
  8
T53SSILL
 62
7
 10
156.895
 20
-8631.059
 30
-47.949
 70
    32
  0
VERTEX
  8
T53SSILL
 62
7
 10
147.390
 20
-8638.447
 30
-47.921
 70
    32
  0
VERTEX
  8
T53SSILL
 62
7
 10
146.591
 20
-8644.490
 30
-47.922
 70
    32
  0
VERTEX
  8
T53SSILL
 62
7
 10
134.121
 20
-8649.529
 30
-47.882
 70
    32
  0
VERTEX
  8
T53SSILL
 62
7
 10
124.176
 20
-8642.693
 30
-47.844
 70
    32
  0
VERTEX
  8
T53SSILL
 62
7
 10
5.617
 20
-8683.776
 30
-47.461
 70
    32
  0
VERTEX
  8
T53SSILL
 62
7
 10
1.793
 20
-8695.206
 30
-47.454
 70
    32
  0
VERTEX
  8
T53SSILL
 62
7
 10
-13.685
 20
-8699.510
 30
-47.403
 70
    32
  0
VERTEX
  8
T53SSILL
 62
7
 10
-17.007
 20
-8695.980
 30
-47.390
 70
    32
  0
VERTEX
  8
T53SSILL
 62
7
 10
-23.766
 20
-8694.043
 30
-47.366
 70
    32
  0
VERTEX
  8
T53SSILL
 62
7
 10
-143.412
 20
-8735.729
 30
-46.979
 70
    32
  0
VERTEX
  8
T53SSILL
 62
7
 10
-147.744
 20
-8748.293
 30
-46.972
 70
    32
  0
VERTEX
  8
T53SSILL
 62
7
 10
-164.340
 20
-8755.093
 30
-46.919
 70
    32
  0
VERTEX
  8
T53SSILL
 62
7
 10
-177.804
 20
-8747.907
 30
-46.868
 70
    32
  0
VERTEX
  8
T53SSILL
 62
7
 10
-281.283
 20
-8784.519
 30
-46.534
 70
    32
  0
VERTEX
  8
T53SSILL
 62
7
 10
-285.098
 20
-8793.374
 30
-46.526
 70
    32
  0
VERTEX
  8
T53SSILL
 62
7
 10
-304.583
 20
-8803.758
 30
-46.466
 70
    32
  0
VERTEX
  8
T53SSILL
 62
7
 10
-310.682
 20
-8794.015
 30
-46.439
 70
    32
  0
VERTEX
  8
T53SSILL
 62
7
 10
-454.173
 20
-8843.931
 30
-45.975
 70
    32
  0
VERTEX
  8
T53SSILL
 62
7
 10
-459.795
 20
-8850.301
 30
-45.960
 70
    32
  0
VERTEX
  8
T53SSILL
 62
7
 10
-458.046
 20
-8857.866
 30
-45.970
 70
    32
  0
VERTEX
  8
T53SSILL
 62
7
 10
-472.233
 20
-8860.204
 30
-45.923
 70
    32
  0
VERTEX
  8
T53SSILL
 62
7
 10
-478.298
 20
-8852.355
 30
-45.897
 70
    32
  0
VERTEX
  8
T53SSILL
 62
7
 10
-831.542
 20
-8974.983
 30
-44.894
 70
    32
  0
VERTEX
  8
T53SSILL
 62
7
 10
-838.550
 20
-8986.229
 30
-44.918
 70
    32
  0
VERTEX
  8
T53SSILL
 62
7
 10
-847.047
 20
-8985.985
 30
-44.886
 70
    32
  0
VERTEX
  8
T53SSILL
 62
7
 10
-856.985
 20
-8988.444
 30
-44.861
 70
    32
  0
VERTEX
  8
T53SSILL
 62
7
 10
-861.168
 20
-8985.528
 30
-44.833
 70
    32
  0
VERTEX
  8
T53SSILL
 62
7
 10
-1019.990
 20
-9041.412
 30
-44.504
 70
    32
  0
VERTEX
  8
T53SSILL
 62
7
 10
-1027.020
 20
-9054.193
 30
-44.534
 70
    32
  0
VERTEX
  8
T53SSILL
 62
7
 10
-1041.677
 20
-9059.495
 30
-44.504
 70
    32
  0
VERTEX
  8
T53SSILL
 62
7
 10
-1044.041
 20
-9052.284
 30
-44.465
 70
    32
  0
VERTEX
  8
T53SSILL
 62
7
 10
-1053.307
 20
-9052.936
 30
-44.434
 70
    32
  0
VERTEX
  8
T53SSILL
 62
7
 10
-1233.123
 20
-9115.163
 30
-44.057
 70
    32
  0
VERTEX
  8
T53SSILL
 62
7
 10
-1237.316
 20
-9121.982
 30
-44.072
 70
    32
  0
VERTEX
  8
T53SSILL
 62
7
 10
-1258.497
 20
-9128.786
 30
-44.025
 70
    32
  0
VERTEX
  8
T53SSILL
 62
7
 10
-1266.511
 20
-9126.547
 30
-43.986
 70
    32
  0
VERTEX
  8
T53SSILL
 62
7
 10
-1422.821
 20
-9181.204
 30
-43.681
 70
    32
  0
VERTEX
  8
T53SSILL
 62
7
 10
-1426.436
 20
-9192.902
 30
-43.736
 70
    32
  0
VERTEX
  8
T53SSILL
 62
7
 10
-1440.108
 20
-9198.800
 30
-43.721
 70
    32
  0
VERTEX
  8
T53SSILL
 62
7
 10
-1453.644
 20
-9191.923
 30
-43.686
 70
    32
  0
VERTEX
  8
T53SSILL
 62
7
 10
-1607.955
 20
-9245.493
 30
-43.714
 70
    32
  0
VERTEX
  8
T53SSILL
 62
7
 10
-1614.430
 20
-9254.206
 30
-43.710
 70
    32
  0
VERTEX
  8
T53SSILL
 62
7
 10
-1629.334
 20
-9258.773
 30
-43.713
 70
    32
  0
VERTEX
  8
T53SSILL
 62
7
 10
-1642.799
 20
-9257.765
 30
-43.720
 70
    32
  0
VERTEX
  8
T53SSILL
 62
7
 10
-1750.248
 20
-9294.796
 30
-43.739
 70
    32
  0
VERTEX
  8
T53SSILL
 62
7
 10
-1751.387
 20
-9302.227
 30
-43.734
 70
    32
  0
VERTEX
  8
T53SSILL
 62
7
 10
-1756.599
 20
-9309.264
 30
-43.732
 70
    32
  0
VERTEX
  8
T53SSILL
 62
7
 10
-1768.925
 20
-9313.457
 30
-43.734
 70
    32
  0
VERTEX
  8
T53SSILL
 62
7
 10
-1776.779
 20
-9304.706
 30
-43.744
 70
    32
  0
VERTEX
  8
T53SSILL
 62
7
 10
-1945.581
 20
-9363.722
 30
-43.774
 70
    32
  0
VERTEX
  8
T53SSILL
 62
7
 10
-1948.253
 20
-9371.055
 30
-43.769
 70
    32
  0
VERTEX
  8
T53SSILL
 62
7
 10
-1969.291
 20
-9378.315
 30
-43.764
 70
    32
  0
VERTEX
  8
T53SSILL
 62
7
 10
-1976.645
 20
-9374.809
 30
-43.764
 70
    32
  0
VERTEX
  8
T53SSILL
 62
7
 10
-2180.291
 20
-9446.098
 30
-43.691
 70
    32
  0
VERTEX
  8
T53SSILL
 62
7
 10
-2181.356
 20
-9455.279
 30
-43.687
 70
    32
  0
VERTEX
  8
T53SSILL
 62
7
 10
-2197.164
 20
-9463.543
 30
-43.680
 70
    32
  0
VERTEX
  8
T53SSILL
 62
7
 10
-2204.688
 20
-9454.671
 30
-43.683
 70
    32
  0
VERTEX
  8
T53SSILL
 62
7
 10
-2367.950
 20
-9511.678
 30
-43.625
 70
    32
  0
VERTEX
  8
T53SSILL
 62
7
 10
-2372.621
 20
-9519.174
 30
-43.620
 70
    32
  0
VERTEX
  8
T53SSILL
 62
7
 10
-2389.186
 20
-9524.063
 30
-43.615
 70
    32
  0
VERTEX
  8
T53SSILL
 62
7
 10
-2397.556
 20
-9522.142
 30
-43.614
 70
    32
  0
VERTEX
  8
T53SSILL
 62
7
 10
-2527.620
 20
-9567.755
 30
-43.568
 70
    32
  0
VERTEX
  8
T53SSILL
 62
7
 10
-2534.368
 20
-9556.356
 30
-43.571
 70
    32
  0
VERTEX
  8
T53SSILL
 62
7
 10
-2512.224
 20
-9544.951
 30
-43.581
 70
    32
  0
VERTEX
  8
T53SSILL
 62
7
 10
-2500.477
 20
-9541.997
 30
-43.585
 70
    32
  0
VERTEX
  8
T53SSILL
 62
7
 10
-2488.628
 20
-9543.966
 30
-43.586
 70
    32
  0
VERTEX
  8
T53SSILL
 62
7
 10
-1568.964
 20
-9222.734
 30
-43.714
 70
    32
  0
VERTEX
  8
T53SSILL
 62
7
 10
-1550.973
 20
-9208.626
 30
-43.716
 70
    32
  0
VERTEX
  8
T53SSILL
 62
7
 10
-1543.244
 20
-9213.681
 30
-43.709
 70
    32
  0
VERTEX
  8
T53SSILL
 62
7
 10
-920.585
 20
-8997.147
 30
-44.670
 70
    32
  0
VERTEX
  8
T53SSILL
 62
7
 10
-947.666
 20
-8990.595
 30
-44.544
 70
    32
  0
VERTEX
  8
T53SSILL
 62
7
 10
-965.736
 20
-8981.877
 30
-44.441
 70
    32
  0
VERTEX
  8
T53SSILL
 62
7
 10
-987.700
 20
-8963.443
 30
-44.282
 70
    32
  0
VERTEX
  8
T53SSILL
 62
7
 10
-998.310
 20
-8949.776
 30
-44.185
 70
    32
  0
VERTEX
  8
T53SSILL
 62
7
 10
-1009.584
 20
-8927.040
 30
-44.076
 70
    32
  0
VERTEX
  8
T53SSILL
 62
7
 10
-1059.898
 20
-8792.588
 30
-43.922
 70
    32
  0
VERTEX
  8
T53SSILL
 62
7
 10
-1066.994
 20
-8786.603
 30
-43.938
 70
    32
  0
VERTEX
  8
T53SSILL
 62
7
 10
-1083.793
 20
-8751.402
 30
-44.013
 70
    32
  0
VERTEX
  8
T53SSILL
 62
7
 10
-1121.849
 20
-8718.743
 30
-44.099
 70
    32
  0
VERTEX
  8
T53SSILL
 62
7
 10
-1158.782
 20
-8676.811
 30
-44.200
 70
    32
  0
VERTEX
  8
T53SSILL
 62
7
 10
-1203.001
 20
-8559.291
 30
-44.441
 70
    32
  0
VERTEX
  8
T53SSILL
 62
7
 10
-1196.128
 20
-8556.804
 30
-44.440
 70
    32
  0
VERTEX
  8
T53SSILL
 62
7
 10
-1150.025
 20
-8669.573
 30
-44.207
 70
    32
  0
VERTEX
  8
T53SSILL
 62
7
 10
-1115.137
 20
-8710.198
 30
-44.109
 70
    32
  0
VERTEX
  8
T53SSILL
 62
7
 10
-1085.743
 20
-8737.911
 30
-44.038
 70
    32
  0
VERTEX
  8
T53SSILL
 62
7
 10
-1081.246
 20
-8735.448
 30
-44.039
 70
    32
  0
VERTEX
  8
T53SSILL
 62
7
 10
-1091.910
 20
-8706.445
 30
-44.099
 70
    32
  0
VERTEX
  8
T53SSILL
 62
7
 10
-1084.661
 20
-8699.931
 30
-44.105
 70
    32
  0
VERTEX
  8
T53SSILL
 62
7
 10
-998.444
 20
-8930.847
 30
-44.128
 70
    32
  0
VERTEX
  8
T53SSILL
 62
7
 10
-987.756
 20
-8949.919
 30
-44.223
 70
    32
  0
VERTEX
  8
T53SSILL
 62
7
 10
-968.272
 20
-8969.491
 30
-44.378
 70
    32
  0
VERTEX
  8
T53SSILL
 62
7
 10
-942.325
 20
-8983.103
 30
-44.531
 70
    32
  0
VERTEX
  8
T53SSILL
 62
7
 10
-928.628
 20
-8986.409
 30
-44.594
 70
    32
  0
VERTEX
  8
T53SSILL
 62
7
 10
-911.791
 20
-8988.108
 30
-44.662
 70
    32
  0
VERTEX
  8
T53SSILL
 62
7
 10
-897.627
 20
-8987.306
 30
-44.710
 70
    32
  0
VERTEX
  8
T53SSILL
 62
7
 10
-676.302
 20
-8909.443
 30
-45.251
 70
    32
  0
VERTEX
  8
T53SSILL
 62
7
 10
-667.953
 20
-8902.977
 30
-45.276
 70
    32
  0
VERTEX
  8
T53SSILL
 62
7
 10
-666.823
 20
-8896.587
 30
-45.276
 70
    32
  0
VERTEX
  8
T53SSILL
 62
7
 10
-654.859
 20
-8893.275
 30
-45.315
 70
    32
  0
VERTEX
  8
T53SSILL
 62
7
 10
-640.614
 20
-8899.021
 30
-45.367
 70
    32
  0
VERTEX
  8
T53SSILL
 62
7
 10
336.479
 20
-8557.857
 30
-48.523
 70
    32
  0
VERTEX
  8
T53SSILL
 62
7
 10
339.594
 20
-8551.966
 30
-48.530
 70
    32
  0
VERTEX
  8
T53SSILL
 62
7
 10
357.428
 20
-8544.222
 30
-48.587
 70
    32
  0
VERTEX
  8
T53SSILL
 62
7
 10
360.360
 20
-8549.689
 30
-48.600
 70
    32
  0
VERTEX
  8
T53SSILL
 62
7
 10
1066.648
 20
-8299.261
 30
-50.879
 70
    32
  0
VERTEX
  8
T53SSILL
 62
7
 10
1063.300
 20
-8287.458
 30
-50.861
 70
    32
  0
VERTEX
  8
T53SSILL
 62
7
 10
1041.787
 20
-8275.958
 30
-50.780
 70
    32
  0
VERTEX
  8
T53SSILL
 62
7
 10
1036.839
 20
-8263.662
 30
-50.756
 70
    32
  0
VERTEX
  8
T53SSILL
 62
7
 10
1032.140
 20
-8257.330
 30
-50.736
 70
    32
  0
VERTEX
  8
T53SSILL
 62
7
 10
1013.354
 20
-8253.201
 30
-50.669
 70
    32
  0
VERTEX
  8
T53SSILL
 62
7
 10
1005.914
 20
-8248.979
 30
-50.641
 70
    32
  0
VERTEX
  8
T53SSILL
 62
7
 10
999.073
 20
-8237.993
 30
-50.612
 70
    32
  0
VERTEX
  8
T53SSILL
 62
7
 10
998.302
 20
-8219.904
 30
-50.598
 70
    32
  0
VERTEX
  8
T53SSILL
 62
7
 10
994.576
 20
-8214.514
 30
-50.582
 70
    32
  0
VERTEX
  8
T53SSILL
 62
7
 10
998.790
 20
-8209.555
 30
-50.594
 70
    32
  0
VERTEX
  8
T53SSILL
 62
7
 10
1015.384
 20
-8217.676
 30
-50.656
 70
    32
  0
VERTEX
  8
T53SSILL
 62
7
 10
1033.805
 20
-8222.057
 30
-50.721
 70
    32
  0
VERTEX
  8
T53SSILL
 62
7
 10
1033.847
 20
-8233.330
 30
-50.728
 70
    32
  0
VERTEX
  8
T53SSILL
 62
7
 10
1046.829
 20
-8248.683
 30
-50.782
 70
    32
  0
VERTEX
  8
T53SSILL
 62
7
 10
1052.242
 20
-8252.153
 30
-50.802
 70
    32
  0
VERTEX
  8
T53SSILL
 62
7
 10
1059.416
 20
-8252.253
 30
-50.827
 70
    32
  0
VERTEX
  8
T53SSILL
 62
7
 10
1072.104
 20
-8261.889
 30
-50.876
 70
    32
  0
VERTEX
  8
T53SSILL
 62
7
 10
1077.543
 20
-8277.074
 30
-50.904
 70
    32
  0
VERTEX
  8
T53SSILL
 62
7
 10
1102.946
 20
-8285.777
 30
-50.996
 70
    32
  0
VERTEX
  8
T53SSILL
 62
7
 10
1317.463
 20
-8213.058
 30
-51.690
 70
    32
  0
VERTEX
  8
T53SSILL
 62
7
 10
1337.360
 20
-8210.793
 30
-51.757
 70
    32
  0
VERTEX
  8
T53SSILL
 62
7
 10
1356.592
 20
-8212.089
 30
-51.824
 70
    32
  0
VERTEX
  8
T53SSILL
 62
7
 10
1377.263
 20
-8217.190
 30
-51.898
 70
    32
  0
VERTEX
  8
T53SSILL
 62
7
 10
1395.381
 20
-8226.448
 30
-51.965
 70
    32
  0
VERTEX
  8
T53SSILL
 62
7
 10
1371.840
 20
-8193.162
 30
-51.865
 70
    32
  0
VERTEX
  8
T53SSILL
 62
7
 10
1363.613
 20
-8192.707
 30
-51.836
 70
    32
  0
VERTEX
  8
T53SSILL
 62
7
 10
1310.216
 20
-8117.874
 30
-51.610
 70
    32
  0
VERTEX
  8
T53SSILL
 62
7
 10
1293.041
 20
-8098.933
 30
-51.540
 70
    32
  0
VERTEX
  8
T53SSILL
 62
7
 10
1281.113
 20
-8090.710
 30
-51.494
 70
    32
  0
VERTEX
  8
T53SSILL
 62
7
 10
1258.945
 20
-8086.981
 30
-51.416
 70
    32
  0
VERTEX
  8
T53SSILL
 62
7
 10
1051.413
 20
-8236.472
 30
-50.790
 70
    32
  0
VERTEX
  8
T53SSILL
 62
7
 10
1047.027
 20
-8229.816
 30
-50.771
 70
    32
  0
VERTEX
  8
T53SSILL
 62
7
 10
1068.231
 20
-8214.556
 30
-50.835
 70
    32
  0
VERTEX
  8
T53SSILL
 62
7
 10
1063.646
 20
-8208.855
 30
-50.816
 70
    32
  0
VERTEX
  8
T53SSILL
 62
7
 10
1084.130
 20
-8194.265
 30
-50.878
 70
    32
  0
VERTEX
  8
T53SSILL
 62
7
 10
1088.413
 20
-8200.032
 30
-50.896
 70
    32
  0
VERTEX
  8
T53SSILL
 62
7
 10
1255.483
 20
-8079.794
 30
-51.400
 70
    32
  0
VERTEX
  8
T53SSILL
 62
7
 10
1286.063
 20
-8082.767
 30
-51.506
 70
    32
  0
VERTEX
  8
T53SSILL
 62
7
 10
1286.785
 20
-8076.025
 30
-51.505
 70
    32
  0
VERTEX
  8
T53SSILL
 62
7
 10
1283.450
 20
-8071.979
 30
-51.491
 70
    32
  0
VERTEX
  8
T53SSILL
 62
7
 10
1277.942
 20
-8076.002
 30
-51.475
 70
    32
  0
VERTEX
  8
T53SSILL
 62
7
 10
1272.375
 20
-8069.194
 30
-51.452
 70
    32
  0
VERTEX
  8
T53SSILL
 62
7
 10
1278.247
 20
-8064.919
 30
-51.469
 70
    32
  0
VERTEX
  8
T53SSILL
 62
7
 10
1213.578
 20
-7974.640
 30
-51.154
 70
    32
  0
VERTEX
  8
T53SSILL
 62
7
 10
1210.272
 20
-7976.710
 30
-51.144
 70
    32
  0
VERTEX
  8
T53SSILL
 62
7
 10
1207.576
 20
-7972.653
 30
-51.128
 70
    32
  0
VERTEX
  8
T53SSILL
 62
7
 10
1202.029
 20
-7975.841
 30
-51.111
 70
    32
  0
VERTEX
  8
T53SSILL
 62
7
 10
1188.294
 20
-7957.996
 30
-51.033
 70
    32
  0
VERTEX
  8
T53SSILL
 62
7
 10
1191.787
 20
-7951.059
 30
-51.036
 70
    32
  0
VERTEX
  8
T53SSILL
 62
7
 10
1185.912
 20
-7943.495
 30
-51.002
 70
    32
  0
VERTEX
  8
T53SSILL
 62
7
 10
1181.108
 20
-7926.580
 30
-50.959
 70
    32
  0
VERTEX
  8
T53SSILL
 62
7
 10
1165.323
 20
-7908.105
 30
-50.872
 70
    32
  0
VERTEX
  8
T53SSILL
 62
7
 10
1156.123
 20
-7914.572
 30
-50.846
 70
    32
  0
VERTEX
  8
T53SSILL
 62
7
 10
1151.547
 20
-7908.263
 30
-50.819
 70
    32
  0
VERTEX
  8
T53SSILL
 62
7
 10
1160.887
 20
-7901.376
 30
-50.845
 70
    32
  0
VERTEX
  8
T53SSILL
 62
7
 10
1155.381
 20
-7893.879
 30
-50.813
 70
    32
  0
VERTEX
  8
T53SSILL
 62
7
 10
1150.165
 20
-7897.701
 30
-50.799
 70
    32
  0
VERTEX
  8
T53SSILL
 62
7
 10
1144.973
 20
-7891.279
 30
-50.769
 70
    32
  0
VERTEX
  8
T53SSILL
 62
7
 10
1149.777
 20
-7887.188
 30
-50.782
 70
    32
  0
VERTEX
  8
T53SSILL
 62
7
 10
1133.291
 20
-7865.978
 30
-50.687
 70
    32
  0
VERTEX
  8
T53SSILL
 62
7
 10
1122.968
 20
-7862.250
 30
-50.643
 70
    32
  0
VERTEX
  8
T53SSILL
 62
7
 10
1117.943
 20
-7855.605
 30
-50.614
 70
    32
  0
VERTEX
  8
T53SSILL
 62
7
 10
1120.239
 20
-7847.559
 30
-50.611
 70
    32
  0
VERTEX
  8
T53SSILL
 62
7
 10
1032.405
 20
-7724.524
 30
-50.611
 70
    32
  0
VERTEX
  8
T53SSILL
 62
7
 10
928.874
 20
-7578.985
 30
-49.745
 70
    32
  0
VERTEX
  8
T53SSILL
 62
7
 10
935.474
 20
-7574.207
 30
-49.766
 70
    32
  0
VERTEX
  8
T53SSILL
 62
7
 10
999.713
 20
-7663.708
 30
-49.880
 70
    32
  0
VERTEX
  8
T53SSILL
 62
7
 10
1001.830
 20
-7655.247
 30
-49.876
 70
    32
  0
VERTEX
  8
T53SSILL
 62
7
 10
1009.096
 20
-7643.335
 30
-49.886
 70
    32
  0
VERTEX
  8
T53SSILL
 62
7
 10
1055.280
 20
-7610.333
 30
-50.013
 70
    32
  0
VERTEX
  8
T53SSILL
 62
7
 10
960.244
 20
-7461.175
 30
-49.960
 70
    32
  0
VERTEX
  8
T53SSILL
 62
7
 10
954.238
 20
-7456.069
 30
-49.953
 70
    32
  0
VERTEX
  8
T53SSILL
 62
7
 10
944.901
 20
-7451.437
 30
-49.937
 70
    32
  0
VERTEX
  8
T53SSILL
 62
7
 10
931.248
 20
-7450.218
 30
-49.908
 70
    32
  0
VERTEX
  8
T53SSILL
 62
7
 10
925.333
 20
-7453.338
 30
-49.891
 70
    32
  0
VERTEX
  8
T53SSILL
 62
7
 10
918.530
 20
-7443.186
 30
-49.888
 70
    32
  0
VERTEX
  8
T53SSILL
 62
7
 10
919.756
 20
-7435.773
 30
-49.900
 70
    32
  0
VERTEX
  8
T53SSILL
 62
7
 10
893.321
 20
-7423.692
 30
-49.856
 70
    32
  0
VERTEX
  8
T53SSILL
 62
7
 10
887.922
 20
-7423.979
 30
-49.843
 70
    32
  0
VERTEX
  8
T53SSILL
 62
7
 10
853.000
 20
-7406.785
 30
-49.786
 70
    32
  0
VERTEX
  8
T53SSILL
 62
7
 10
781.920
 20
-7365.979
 30
-49.676
 70
    32
  0
VERTEX
  8
T53SSILL
 62
7
 10
793.376
 20
-7350.586
 30
-49.721
 70
    32
  0
VERTEX
  8
T53SSILL
 62
7
 10
927.052
 20
-7428.576
 30
-49.925
 70
    32
  0
VERTEX
  8
T53SSILL
 62
7
 10
935.116
 20
-7420.310
 30
-49.953
 70
    32
  0
VERTEX
  8
T53SSILL
 62
7
 10
849.287
 20
-7286.962
 30
-49.924
 70
    32
  0
VERTEX
  8
T53SSILL
 62
7
 10
838.227
 20
-7286.535
 30
-49.900
 70
    32
  0
VERTEX
  8
T53SSILL
 62
7
 10
833.677
 20
-7274.503
 30
-49.904
 70
    32
  0
VERTEX
  8
T53SSILL
 62
7
 10
834.367
 20
-7264.445
 30
-49.918
 70
    32
  0
VERTEX
  8
T53SSILL
 62
7
 10
749.081
 20
-7129.860
 30
-50.309
 70
    32
  0
VERTEX
  8
T53SSILL
 62
7
 10
746.986
 20
-7130.878
 30
-50.306
 70
    32
  0
VERTEX
  8
T53SSILL
 62
7
 10
746.130
 20
-7152.998
 30
-50.199
 70
    32
  0
VERTEX
  8
T53SSILL
 62
7
 10
752.748
 20
-7163.963
 30
-50.138
 70
    32
  0
VERTEX
  8
T53SSILL
 62
7
 10
741.841
 20
-7170.065
 30
-50.120
 70
    32
  0
VERTEX
  8
T53SSILL
 62
7
 10
730.433
 20
-7154.269
 30
-50.209
 70
    32
  0
VERTEX
  8
T53SSILL
 62
7
 10
721.946
 20
-7149.156
 30
-50.244
 70
    32
  0
VERTEX
  8
T53SSILL
 62
7
 10
715.847
 20
-7152.155
 30
-50.236
 70
    32
  0
VERTEX
  8
T53SSILL
 62
7
 10
710.197
 20
-7144.301
 30
-50.280
 70
    32
  0
VERTEX
  8
T53SSILL
 62
7
 10
722.286
 20
-7135.789
 30
-50.309
 70
    32
  0
VERTEX
  8
T53SSILL
 62
7
 10
692.326
 20
-7100.819
 30
-50.512
 70
    32
  0
VERTEX
  8
T53SSILL
 62
7
 10
700.954
 20
-7095.752
 30
-50.528
 70
    32
  0
VERTEX
  8
T53SSILL
 62
7
 10
730.595
 20
-7130.368
 30
-50.326
 70
    32
  0
VERTEX
  8
T53SSILL
 62
7
 10
744.898
 20
-7122.096
 30
-50.351
 70
    32
  0
VERTEX
  8
T53SSILL
 62
7
 10
739.056
 20
-7113.251
 30
-50.401
 70
    32
  0
VERTEX
  8
T53SSILL
 62
7
 10
724.141
 20
-7100.324
 30
-50.480
 70
    32
  0
VERTEX
  8
T53SSILL
 62
7
 10
707.979
 20
-7066.448
 30
-50.664
 70
    32
  0
VERTEX
  8
T53SSILL
 62
7
 10
647.517
 20
-6971.665
 30
-50.554
 70
    32
  0
VERTEX
  8
T53SSILL
 62
7
 10
639.299
 20
-6934.743
 30
-50.416
 70
    32
  0
VERTEX
  8
T53SSILL
 62
7
 10
636.809
 20
-6932.172
 30
-50.384
 70
    32
  0
VERTEX
  8
T53SSILL
 62
7
 10
632.015
 20
-6907.519
 30
-50.242
 70
    32
  0
VERTEX
  8
T53SSILL
 62
7
 10
625.843
 20
-6899.990
 30
-50.158
 70
    32
  0
VERTEX
  8
T53SSILL
 62
7
 10
625.162
 20
-6888.310
 30
-50.105
 70
    32
  0
VERTEX
  8
T53SSILL
 62
7
 10
626.496
 20
-6883.997
 30
-50.099
 70
    32
  0
VERTEX
  8
T53SSILL
 62
7
 10
586.732
 20
-6727.245
 30
-49.779
 70
    32
  0
VERTEX
  8
T53SSILL
 62
7
 10
583.661
 20
-6725.387
 30
-49.781
 70
    32
  0
VERTEX
  8
T53SSILL
 62
7
 10
580.922
 20
-6716.169
 30
-49.800
 70
    32
  0
VERTEX
  8
T53SSILL
 62
7
 10
583.079
 20
-6713.853
 30
-49.807
 70
    32
  0
VERTEX
  8
T53SSILL
 62
7
 10
546.446
 20
-6569.569
 30
-49.754
 70
    32
  0
VERTEX
  8
T53SSILL
 62
7
 10
542.079
 20
-6564.544
 30
-49.728
 70
    32
  0
VERTEX
  8
T53SSILL
 62
7
 10
542.999
 20
-6557.422
 30
-49.726
 70
    32
  0
VERTEX
  8
T53SSILL
 62
7
 10
532.379
 20
-6513.503
 30
-49.708
 70
    32
  0
VERTEX
  8
T53SSILL
 62
7
 10
528.690
 20
-6510.893
 30
-49.699
 70
    32
  0
VERTEX
  8
T53SSILL
 62
7
 10
528.673
 20
-6508.668
 30
-49.700
 70
    32
  0
VERTEX
  8
T53SSILL
 62
7
 10
530.931
 20
-6506.816
 30
-49.708
 70
    32
  0
VERTEX
  8
T53SSILL
 62
7
 10
523.926
 20
-6480.029
 30
-49.700
 70
    32
  0
VERTEX
  8
T53SSILL
 62
7
 10
504.348
 20
-6463.962
 30
-49.625
 70
    32
  0
VERTEX
  8
T53SSILL
 62
7
 10
505.864
 20
-6452.270
 30
-49.625
 70
    32
  0
VERTEX
  8
T53SSILL
 62
7
 10
519.793
 20
-6463.701
 30
-49.696
 70
    32
  0
VERTEX
  8
T53SSILL
 62
7
 10
506.460
 20
-6412.648
 30
-49.603
 70
    32
  0
VERTEX
  8
T53SSILL
 62
7
 10
500.968
 20
-6407.534
 30
-49.574
 70
    32
  0
VERTEX
  8
T53SSILL
 62
7
 10
496.023
 20
-6397.575
 30
-49.544
 70
    32
  0
VERTEX
  8
T53SSILL
 62
7
 10
494.234
 20
-6388.031
 30
-49.529
 70
    32
  0
VERTEX
  8
T53SSILL
 62
7
 10
498.580
 20
-6381.248
 30
-49.546
 70
    32
  0
VERTEX
  8
T53SSILL
 62
7
 10
481.722
 20
-6315.573
 30
-49.425
 70
    32
  0
VERTEX
  8
T53SSILL
 62
7
 10
478.661
 20
-6314.986
 30
-49.410
 70
    32
  0
VERTEX
  8
T53SSILL
 62
7
 10
476.821
 20
-6308.034
 30
-49.397
 70
    32
  0
VERTEX
  8
T53SSILL
 62
7
 10
479.559
 20
-6305.005
 30
-49.408
 70
    32
  0
VERTEX
  8
T53SSILL
 62
7
 10
475.144
 20
-6284.994
 30
-49.375
 70
    32
  0
VERTEX
  8
T53SSILL
 62
7
 10
468.000
 20
-6278.231
 30
-49.336
 70
    32
  0
VERTEX
  8
T53SSILL
 62
7
 10
460.658
 20
-6274.158
 30
-49.299
 70
    32
  0
VERTEX
  8
T53SSILL
 62
7
 10
441.557
 20
-6267.198
 30
-49.203
 70
    32
  0
VERTEX
  8
T53SSILL
 62
7
 10
417.641
 20
-6264.888
 30
-49.088
 70
    32
  0
VERTEX
  8
T53SSILL
 62
7
 10
403.390
 20
-6271.076
 30
-49.024
 70
    32
  0
VERTEX
  8
T53SSILL
 62
7
 10
386.007
 20
-6269.373
 30
-48.940
 70
    32
  0
VERTEX
  8
T53SSILL
 62
7
 10
382.822
 20
-6262.746
 30
-48.921
 70
    32
  0
VERTEX
  8
T53SSILL
 62
7
 10
380.003
 20
-6261.504
 30
-48.907
 70
    32
  0
VERTEX
  8
T53SSILL
 62
7
 10
361.622
 20
-6258.795
 30
-48.817
 70
    32
  0
VERTEX
  8
T53SSILL
 62
7
 10
363.520
 20
-6248.561
 30
-48.820
 70
    32
  0
VERTEX
  8
T53SSILL
 62
7
 10
375.746
 20
-6250.111
 30
-48.879
 70
    32
  0
VERTEX
  8
T53SSILL
 62
7
 10
384.778
 20
-6243.322
 30
-48.918
 70
    32
  0
VERTEX
  8
T53SSILL
 62
7
 10
384.052
 20
-6238.603
 30
-48.912
 70
    32
  0
VERTEX
  8
T53SSILL
 62
7
 10
393.644
 20
-6232.224
 30
-48.953
 70
    32
  0
VERTEX
  8
T53SSILL
 62
7
 10
405.648
 20
-6231.624
 30
-49.010
 70
    32
  0
VERTEX
  8
T53SSILL
 62
7
 10
409.036
 20
-6241.032
 30
-49.032
 70
    32
  0
VERTEX
  8
T53SSILL
 62
7
 10
420.649
 20
-6254.052
 30
-49.096
 70
    32
  0
VERTEX
  8
T53SSILL
 62
7
 10
461.769
 20
-6260.410
 30
-49.296
 70
    32
  0
VERTEX
  8
T53SSILL
 62
7
 10
465.485
 20
-6251.286
 30
-49.308
 70
    32
  0
VERTEX
  8
T53SSILL
 62
7
 10
459.047
 20
-6220.375
 30
-49.258
 70
    32
  0
VERTEX
  8
T53SSILL
 62
7
 10
429.662
 20
-6104.076
 30
-49.046
 70
    32
  0
VERTEX
  8
T53SSILL
 62
7
 10
424.342
 20
-6099.411
 30
-49.017
 70
    32
  0
VERTEX
  8
T53SSILL
 62
7
 10
421.340
 20
-6090.903
 30
-48.998
 70
    32
  0
VERTEX
  8
T53SSILL
 62
7
 10
425.445
 20
-6087.388
 30
-49.015
 70
    32
  0
VERTEX
  8
T53SSILL
 62
7
 10
410.378
 20
-6027.757
 30
-48.906
 70
    32
  0
VERTEX
  8
T53SSILL
 62
7
 10
403.960
 20
-6024.303
 30
-48.874
 70
    32
  0
VERTEX
  8
T53SSILL
 62
7
 10
397.996
 20
-6018.337
 30
-48.842
 70
    32
  0
VERTEX
  8
T53SSILL
 62
7
 10
386.618
 20
-6017.108
 30
-48.787
 70
    32
  0
VERTEX
  8
T53SSILL
 62
7
 10
377.774
 20
-6005.640
 30
-48.738
 70
    32
  0
VERTEX
  8
T53SSILL
 62
7
 10
360.784
 20
-5996.609
 30
-48.653
 70
    32
  0
VERTEX
  8
T53SSILL
 62
7
 10
365.061
 20
-5989.354
 30
-48.669
 70
    32
  0
VERTEX
  8
T53SSILL
 62
7
 10
394.998
 20
-6004.182
 30
-48.819
 70
    32
  0
VERTEX
  8
T53SSILL
 62
7
 10
400.698
 20
-5998.611
 30
-48.842
 70
    32
  0
VERTEX
  8
T53SSILL
 62
7
 10
396.586
 20
-5991.921
 30
-48.819
 70
    32
  0
VERTEX
  8
T53SSILL
 62
7
 10
396.719
 20
-5990.233
 30
-48.818
 70
    32
  0
VERTEX
  8
T53SSILL
 62
7
 10
400.955
 20
-5987.999
 30
-48.837
 70
    32
  0
VERTEX
  8
T53SSILL
 62
7
 10
380.205
 20
-5903.555
 30
-48.685
 70
    32
  0
VERTEX
  8
T53SSILL
 62
7
 10
374.199
 20
-5895.487
 30
-48.602
 70
    32
  0
VERTEX
  8
T53SSILL
 62
7
 10
372.601
 20
-5888.263
 30
-48.565
 70
    32
  0
VERTEX
  8
T53SSILL
 62
7
 10
376.425
 20
-5886.521
 30
-48.597
 70
    32
  0
VERTEX
  8
T53SSILL
 62
7
 10
352.800
 20
-5786.044
 30
-48.099
 70
    32
  0
VERTEX
  8
T53SSILL
 62
7
 10
349.361
 20
-5784.315
 30
-48.074
 70
    32
  0
VERTEX
  8
T53SSILL
 62
7
 10
347.701
 20
-5780.851
 30
-48.054
 70
    32
  0
VERTEX
  8
T53SSILL
 62
7
 10
350.352
 20
-5776.739
 30
-48.059
 70
    32
  0
VERTEX
  8
T53SSILL
 62
7
 10
326.328
 20
-5679.109
 30
-47.645
 70
    32
  0
VERTEX
  8
T53SSILL
 62
7
 10
321.021
 20
-5676.461
 30
-47.605
 70
    32
  0
VERTEX
  8
T53SSILL
 62
7
 10
318.728
 20
-5667.369
 30
-47.566
 70
    32
  0
VERTEX
  8
T53SSILL
 62
7
 10
321.984
 20
-5662.596
 30
-47.573
 70
    32
  0
VERTEX
  8
T53SSILL
 62
7
 10
310.235
 20
-5614.514
 30
-47.370
 70
    32
  0
VERTEX
  8
T53SSILL
 62
7
 10
296.821
 20
-5607.022
 30
-47.268
 70
    32
  0
VERTEX
  8
T53SSILL
 62
7
 10
292.526
 20
-5606.353
 30
-47.240
 70
    32
  0
VERTEX
  8
T53SSILL
 62
7
 10
278.478
 20
-5615.857
 30
-47.180
 70
    32
  0
VERTEX
  8
T53SSILL
 62
7
 10
274.469
 20
-5616.176
 30
-47.157
 70
    32
  0
VERTEX
  8
T53SSILL
 62
7
 10
271.177
 20
-5613.904
 30
-47.131
 70
    32
  0
VERTEX
  8
T53SSILL
 62
7
 10
267.131
 20
-5608.812
 30
-47.092
 70
    32
  0
VERTEX
  8
T53SSILL
 62
7
 10
262.004
 20
-5594.502
 30
-47.022
 70
    32
  0
VERTEX
  8
T53SSILL
 62
7
 10
267.868
 20
-5591.958
 30
-47.050
 70
    32
  0
VERTEX
  8
T53SSILL
 62
7
 10
269.294
 20
-5583.097
 30
-47.035
 70
    32
  0
VERTEX
  8
T53SSILL
 62
7
 10
259.609
 20
-5574.374
 30
-46.952
 70
    32
  0
VERTEX
  8
T53SSILL
 62
7
 10
256.921
 20
-5574.698
 30
-46.000
 70
    32
  0
VERTEX
  8
T53SSILL
 62
7
 10
222.036
 20
-5580.672
 30
-46.000
 70
    32
  0
VERTEX
  8
T53SSILL
 62
7
 10
220.406
 20
-5581.708
 30
-46.000
 70
    32
  0
VERTEX
  8
T53SSILL
 62
7
 10
215.147
 20
-5590.737
 30
-46.000
 70
    32
  0
VERTEX
  8
T53SSILL
 62
7
 10
225.046
 20
-5594.831
 30
-46.000
 70
    32
  0
VERTEX
  8
T53SSILL
 62
7
 10
228.762
 20
-5606.961
 30
-46.000
 70
    32
  0
VERTEX
  8
T53SSILL
 62
7
 10
224.220
 20
-5616.258
 30
-46.000
 70
    32
  0
VERTEX
  8
T53SSILL
 62
7
 10
213.732
 20
-5620.582
 30
-46.000
 70
    32
  0
VERTEX
  8
T53SSILL
 62
7
 10
207.349
 20
-5608.862
 30
-46.000
 70
    32
  0
VERTEX
  8
T53SSILL
 62
7
 10
201.274
 20
-5599.391
 30
-46.000
 70
    32
  0
VERTEX
  8
T53SSILL
 62
7
 10
195.409
 20
-5600.906
 30
-46.000
 70
    32
  0
VERTEX
  8
T53SSILL
 62
7
 10
189.968
 20
-5599.433
 30
-46.000
 70
    32
  0
VERTEX
  8
T53SSILL
 62
7
 10
183.916
 20
-5589.664
 30
-46.000
 70
    32
  0
VERTEX
  8
T53SSILL
 62
7
 10
183.240
 20
-5580.535
 30
-46.000
 70
    32
  0
VERTEX
  8
T53SSILL
 62
7
 10
190.745
 20
-5571.382
 30
-46.000
 70
    32
  0
VERTEX
  8
T53SSILL
 62
7
 10
197.355
 20
-5569.761
 30
-46.000
 70
    32
  0
VERTEX
  8
T53SSILL
 62
7
 10
205.423
 20
-5573.679
 30
-46.000
 70
    32
  0
VERTEX
  8
T53SSILL
 62
7
 10
212.525
 20
-5572.786
 30
-46.000
 70
    32
  0
VERTEX
  8
T53SSILL
 62
7
 10
219.608
 20
-5570.064
 30
-46.000
 70
    32
  0
VERTEX
  8
T53SSILL
 62
7
 10
240.016
 20
-5566.718
 30
-46.000
 70
    32
  0
VERTEX
  8
T53SSILL
 62
7
 10
256.745
 20
-5557.508
 30
-46.000
 70
    32
  0
VERTEX
  8
T53SSILL
 62
7
 10
260.266
 20
-5549.440
 30
-46.000
 70
    32
  0
VERTEX
  8
T53SSILL
 62
7
 10
263.597
 20
-5545.464
 30
-46.000
 70
    32
  0
VERTEX
  8
T53SSILL
 62
7
 10
258.998
 20
-5535.645
 30
-46.000
 70
    32
  0
VERTEX
  8
T53SSILL
 62
7
 10
250.102
 20
-5523.341
 30
-46.000
 70
    32
  0
VERTEX
  8
T53SSILL
 62
7
 10
234.379
 20
-5507.844
 30
-46.000
 70
    32
  0
VERTEX
  8
T53SSILL
 62
7
 10
231.383
 20
-5499.656
 30
-46.000
 70
    32
  0
VERTEX
  8
T53SSILL
 62
7
 10
224.077
 20
-5485.536
 30
-46.000
 70
    32
  0
VERTEX
  8
T53SSILL
 62
7
 10
216.006
 20
-5473.086
 30
-46.000
 70
    32
  0
VERTEX
  8
T53SSILL
 62
7
 10
203.735
 20
-5466.585
 30
-46.000
 70
    32
  0
VERTEX
  8
T53SSILL
 62
7
 10
199.522
 20
-5459.684
 30
-46.000
 70
    32
  0
VERTEX
  8
T53SSILL
 62
7
 10
192.349
 20
-5456.542
 30
-46.000
 70
    32
  0
VERTEX
  8
T53SSILL
 62
7
 10
186.333
 20
-5447.885
 30
-46.000
 70
    32
  0
VERTEX
  8
T53SSILL
 62
7
 10
183.913
 20
-5439.303
 30
-46.000
 70
    32
  0
VERTEX
  8
T53SSILL
 62
7
 10
185.815
 20
-5431.951
 30
-46.000
 70
    32
  0
VERTEX
  8
T53SSILL
 62
7
 10
191.355
 20
-5427.672
 30
-46.000
 70
    32
  0
VERTEX
  8
T53SSILL
 62
7
 10
195.013
 20
-5426.864
 30
-46.000
 70
    32
  0
VERTEX
  8
T53SSILL
 62
7
 10
197.116
 20
-5429.072
 30
-46.000
 70
    32
  0
VERTEX
  8
T53SSILL
 62
7
 10
206.004
 20
-5440.595
 30
-46.000
 70
    32
  0
VERTEX
  8
T53SSILL
 62
7
 10
214.139
 20
-5450.393
 30
-46.000
 70
    32
  0
VERTEX
  8
T53SSILL
 62
7
 10
217.339
 20
-5455.455
 30
-46.000
 70
    32
  0
VERTEX
  8
T53SSILL
 62
7
 10
221.474
 20
-5456.383
 30
-46.000
 70
    32
  0
VERTEX
  8
T53SSILL
 62
7
 10
222.529
 20
-5456.934
 30
-44.800
 70
    32
  0
VERTEX
  8
T53SSILL
 62
7
 10
238.436
 20
-5462.501
 30
-44.500
 70
    32
  0
VERTEX
  8
T53SSILL
 62
7
 10
245.735
 20
-5465.778
 30
-44.000
 70
    32
  0
VERTEX
  8
T53SSILL
 62
7
 10
258.802
 20
-5461.946
 30
-43.000
 70
    32
  0
VERTEX
  8
T53SSILL
 62
7
 10
258.146
 20
-5473.928
 30
-43.000
 70
    32
  0
VERTEX
  8
T53SSILL
 62
7
 10
237.941
 20
-5473.361
 30
-44.375
 70
    32
  0
VERTEX
  8
T53SSILL
 62
7
 10
237.764
 20
-5474.070
 30
-46.000
 70
    32
  0
VERTEX
  8
T53SSILL
 62
7
 10
237.924
 20
-5475.189
 30
-46.000
 70
    32
  0
VERTEX
  8
T53SSILL
 62
7
 10
257.332
 20
-5503.315
 30
-46.000
 70
    32
  0
VERTEX
  8
T53SSILL
 62
7
 10
278.782
 20
-5534.648
 30
-46.000
 70
    32
  0
VERTEX
  8
T53SSILL
 62
7
 10
277.841
 20
-5542.382
 30
-46.000
 70
    32
  0
VERTEX
  8
T53SSILL
 62
7
 10
277.664
 20
-5543.802
 30
-46.977
 70
    32
  0
VERTEX
  8
T53SSILL
 62
7
 10
280.790
 20
-5548.781
 30
-47.010
 70
    32
  0
VERTEX
  8
T53SSILL
 62
7
 10
286.057
 20
-5551.802
 30
-47.051
 70
    32
  0
VERTEX
  8
T53SSILL
 62
7
 10
287.742
 20
-5554.704
 30
-47.069
 70
    32
  0
VERTEX
  8
T53SSILL
 62
7
 10
293.636
 20
-5548.331
 30
-47.087
 70
    32
  0
VERTEX
  8
T53SSILL
 62
7
 10
284.581
 20
-5513.770
 30
-46.937
 70
    32
  0
VERTEX
  8
T53SSILL
 62
7
 10
293.481
 20
-5513.291
 30
-46.926
 70
    32
  0
VERTEX
  8
T53SSILL
 62
7
 10
303.696
 20
-5554.358
 30
-47.104
 70
    32
  0
VERTEX
  8
T53SSILL
 62
7
 10
307.290
 20
-5556.300
 30
-47.102
 70
    32
  0
VERTEX
  8
T53SSILL
 62
7
 10
308.752
 20
-5563.064
 30
-47.132
 70
    32
  0
VERTEX
  8
T53SSILL
 62
7
 10
306.248
 20
-5566.633
 30
-47.158
 70
    32
  0
VERTEX
  8
T53SSILL
 62
7
 10
317.389
 20
-5611.648
 30
-47.158
 70
    32
  0
VERTEX
  8
T53SSILL
 62
7
 10
320.245
 20
-5621.721
 30
-47.395
 70
    32
  0
VERTEX
  8
T53SSILL
 62
7
 10
325.564
 20
-5622.106
 30
-47.379
 70
    32
  0
VERTEX
  8
T53SSILL
 62
7
 10
331.545
 20
-5608.605
 30
-47.290
 70
    32
  0
VERTEX
  8
T53SSILL
 62
7
 10
344.912
 20
-5591.117
 30
-47.156
 70
    32
  0
VERTEX
  8
T53SSILL
 62
7
 10
361.871
 20
-5557.840
 30
-46.929
 70
    32
  0
VERTEX
  8
T53SSILL
 62
7
 10
363.332
 20
-5553.726
 30
-46.903
 70
    32
  0
VERTEX
  8
T53SSILL
 62
7
 10
362.743
 20
-5536.066
 30
-46.815
 70
    32
  0
VERTEX
  8
T53SSILL
 62
7
 10
359.999
 20
-5523.425
 30
-46.759
 70
    32
  0
VERTEX
  8
T53SSILL
 62
7
 10
361.897
 20
-5520.723
 30
-46.739
 70
    32
  0
VERTEX
  8
T53SSILL
 62
7
 10
361.084
 20
-5516.195
 30
-46.718
 70
    32
  0
VERTEX
  8
T53SSILL
 62
7
 10
344.038
 20
-5493.068
 30
-46.656
 70
    32
  0
VERTEX
  8
T53SSILL
 62
7
 10
327.416
 20
-5479.683
 30
-46.642
 70
    32
  0
VERTEX
  8
T53SSILL
 62
7
 10
326.926
 20
-5469.850
 30
-46.593
 70
    32
  0
VERTEX
  8
T53SSILL
 62
7
 10
313.720
 20
-5451.933
 30
-46.544
 70
    32
  0
VERTEX
  8
T53SSILL
 62
7
 10
305.704
 20
-5448.471
 30
-46.553
 70
    32
  0
VERTEX
  8
T53SSILL
 62
7
 10
304.724
 20
-5439.727
 30
-46.511
 70
    32
  0
VERTEX
  8
T53SSILL
 62
7
 10
282.403
 20
-5409.442
 30
-46.430
 70
    32
  0
VERTEX
  8
T53SSILL
 62
7
 10
276.918
 20
-5407.868
 30
-46.440
 70
    32
  0
VERTEX
  8
T53SSILL
 62
7
 10
277.550
 20
-5402.858
 30
-46.412
 70
    32
  0
VERTEX
  8
T53SSILL
 62
7
 10
253.226
 20
-5369.856
 30
-46.323
 70
    32
  0
VERTEX
  8
T53SSILL
 62
7
 10
246.646
 20
-5368.462
 30
-46.308
 70
    32
  0
VERTEX
  8
T53SSILL
 62
7
 10
247.197
 20
-5361.675
 30
-46.293
 70
    32
  0
VERTEX
  8
T53SSILL
 62
7
 10
219.957
 20
-5324.717
 30
-46.240
 70
    32
  0
VERTEX
  8
T53SSILL
 62
7
 10
213.955
 20
-5323.073
 30
-46.236
 70
    32
  0
VERTEX
  8
T53SSILL
 62
7
 10
213.918
 20
-5316.524
 30
-46.238
 70
    32
  0
VERTEX
  8
T53SSILL
 62
7
 10
190.335
 20
-5284.526
 30
-46.230
 70
    32
  0
VERTEX
  8
T53SSILL
 62
7
 10
184.004
 20
-5283.088
 30
-46.226
 70
    32
  0
VERTEX
  8
T53SSILL
 62
7
 10
184.477
 20
-5276.579
 30
-46.228
 70
    32
  0
VERTEX
  8
T53SSILL
 62
7
 10
175.442
 20
-5264.321
 30
-46.225
 70
    32
  0
VERTEX
  8
T53SSILL
 62
7
 10
183.492
 20
-5258.388
 30
-46.232
 70
    32
  0
VERTEX
  8
T53SSILL
 62
7
 10
361.806
 20
-5500.320
 30
-46.689
 70
    32
  0
VERTEX
  8
T53SSILL
 62
7
 10
365.309
 20
-5498.587
 30
-46.699
 70
    32
  0
VERTEX
  8
T53SSILL
 62
7
 10
369.674
 20
-5509.993
 30
-46.703
 70
    32
  0
VERTEX
  8
T53SSILL
 62
7
 10
375.909
 20
-5535.813
 30
-46.760
 70
    32
  0
VERTEX
  8
T53SSILL
 62
7
 10
375.900
 20
-5545.781
 30
-46.788
 70
    32
  0
VERTEX
  8
T53SSILL
 62
7
 10
378.902
 20
-5549.858
 30
-46.799
 70
    32
  0
VERTEX
  8
T53SSILL
 62
7
 10
353.451
 20
-5597.354
 30
-47.160
 70
    32
  0
VERTEX
  8
T53SSILL
 62
7
 10
342.668
 20
-5609.501
 30
-47.258
 70
    32
  0
VERTEX
  8
T53SSILL
 62
7
 10
327.194
 20
-5649.069
 30
-47.512
 70
    32
  0
VERTEX
  8
T53SSILL
 62
7
 10
329.907
 20
-5659.744
 30
-47.558
 70
    32
  0
VERTEX
  8
T53SSILL
 62
7
 10
335.751
 20
-5662.979
 30
-47.556
 70
    32
  0
VERTEX
  8
T53SSILL
 62
7
 10
336.759
 20
-5669.420
 30
-47.585
 70
    32
  0
VERTEX
  8
T53SSILL
 62
7
 10
333.009
 20
-5672.922
 30
-47.616
 70
    32
  0
VERTEX
  8
T53SSILL
 62
7
 10
358.291
 20
-5769.742
 30
-48.029
 70
    32
  0
VERTEX
  8
T53SSILL
 62
7
 10
363.559
 20
-5775.463
 30
-48.051
 70
    32
  0
VERTEX
  8
T53SSILL
 62
7
 10
360.845
 20
-5780.383
 30
-48.076
 70
    32
  0
VERTEX
  8
T53SSILL
 62
7
 10
384.068
 20
-5885.384
 30
-48.603
 70
    32
  0
VERTEX
  8
T53SSILL
 62
7
 10
391.228
 20
-5888.089
 30
-48.504
 70
    32
  0
VERTEX
  8
T53SSILL
 62
7
 10
392.285
 20
-5891.845
 30
-48.509
 70
    32
  0
VERTEX
  8
T53SSILL
 62
7
 10
388.012
 20
-5901.561
 30
-48.636
 70
    32
  0
VERTEX
  8
T53SSILL
 62
7
 10
410.521
 20
-5995.036
 30
-48.869
 70
    32
  0
VERTEX
  8
T53SSILL
 62
7
 10
416.223
 20
-6013.059
 30
-48.902
 70
    32
  0
VERTEX
  8
T53SSILL
 62
7
 10
422.625
 20
-6023.879
 30
-48.917
 70
    32
  0
VERTEX
  8
T53SSILL
 62
7
 10
426.380
 20
-6024.477
 30
-48.914
 70
    32
  0
VERTEX
  8
T53SSILL
 62
7
 10
441.084
 20
-6001.436
 30
-48.705
 70
    32
  0
VERTEX
  8
T53SSILL
 62
7
 10
440.817
 20
-5985.315
 30
-48.624
 70
    32
  0
VERTEX
  8
T53SSILL
 62
7
 10
446.865
 20
-5979.654
 30
-48.556
 70
    32
  0
VERTEX
  8
T53SSILL
 62
7
 10
456.187
 20
-5980.757
 30
-48.502
 70
    32
  0
VERTEX
  8
T53SSILL
 62
7
 10
469.982
 20
-5976.114
 30
-48.389
 70
    32
  0
VERTEX
  8
T53SSILL
 62
7
 10
474.293
 20
-5976.607
 30
-48.364
 70
    32
  0
VERTEX
  8
T53SSILL
 62
7
 10
480.546
 20
-5986.359
 30
-48.374
 70
    32
  0
VERTEX
  8
T53SSILL
 62
7
 10
485.943
 20
-5983.758
 30
-48.326
 70
    32
  0
VERTEX
  8
T53SSILL
 62
7
 10
489.420
 20
-5977.929
 30
-48.274
 70
    32
  0
VERTEX
  8
T53SSILL
 62
7
 10
497.525
 20
-5975.922
 30
-48.211
 70
    32
  0
VERTEX
  8
T53SSILL
 62
7
 10
503.849
 20
-5977.283
 30
-48.178
 70
    32
  0
VERTEX
  8
T53SSILL
 62
7
 10
513.307
 20
-5976.681
 30
-48.114
 70
    32
  0
VERTEX
  8
T53SSILL
 62
7
 10
527.464
 20
-5972.536
 30
-48.046
 70
    32
  0
VERTEX
  8
T53SSILL
 62
7
 10
530.959
 20
-5979.554
 30
-48.068
 70
    32
  0
VERTEX
  8
T53SSILL
 62
7
 10
540.346
 20
-5981.831
 30
-48.089
 70
    32
  0
VERTEX
  8
T53SSILL
 62
7
 10
542.187
 20
-5987.774
 30
-48.106
 70
    32
  0
VERTEX
  8
T53SSILL
 62
7
 10
541.946
 20
-5995.780
 30
-48.125
 70
    32
  0
VERTEX
  8
T53SSILL
 62
7
 10
544.640
 20
-5999.468
 30
-48.138
 70
    32
  0
VERTEX
  8
T53SSILL
 62
7
 10
539.543
 20
-6012.195
 30
-48.160
 70
    32
  0
VERTEX
  8
T53SSILL
 62
7
 10
540.756
 20
-6017.646
 30
-48.175
 70
    32
  0
VERTEX
  8
T53SSILL
 62
7
 10
522.020
 20
-6021.697
 30
-48.289
 70
    32
  0
VERTEX
  8
T53SSILL
 62
7
 10
520.774
 20
-6024.103
 30
-48.309
 70
    32
  0
VERTEX
  8
T53SSILL
 62
7
 10
514.018
 20
-6020.282
 30
-48.333
 70
    32
  0
VERTEX
  8
T53SSILL
 62
7
 10
508.586
 20
-6023.871
 30
-48.386
 70
    32
  0
VERTEX
  8
T53SSILL
 62
7
 10
507.943
 20
-6029.328
 30
-48.418
 70
    32
  0
VERTEX
  8
T53SSILL
 62
7
 10
515.112
 20
-6041.819
 30
-48.436
 70
    32
  0
VERTEX
  8
T53SSILL
 62
7
 10
514.580
 20
-6046.449
 30
-48.463
 70
    32
  0
VERTEX
  8
T53SSILL
 62
7
 10
507.631
 20
-6048.699
 30
-48.519
 70
    32
  0
VERTEX
  8
T53SSILL
 62
7
 10
505.215
 20
-6048.071
 30
-48.532
 70
    32
  0
VERTEX
  8
T53SSILL
 62
7
 10
492.946
 20
-6036.044
 30
-48.549
 70
    32
  0
VERTEX
  8
T53SSILL
 62
7
 10
482.997
 20
-6033.742
 30
-48.601
 70
    32
  0
VERTEX
  8
T53SSILL
 62
7
 10
450.367
 20
-6100.874
 30
-49.047
 70
    32
  0
VERTEX
  8
T53SSILL
 62
7
 10
447.767
 20
-6116.369
 30
-49.082
 70
    32
  0
VERTEX
  8
T53SSILL
 62
7
 10
446.203
 20
-6133.161
 30
-49.120
 70
    32
  0
VERTEX
  8
T53SSILL
 62
7
 10
489.770
 20
-6304.043
 30
-49.428
 70
    32
  0
VERTEX
  8
T53SSILL
 62
7
 10
492.855
 20
-6295.559
 30
-49.407
 70
    32
  0
VERTEX
  8
T53SSILL
 62
7
 10
500.953
 20
-6284.102
 30
-49.374
 70
    32
  0
VERTEX
  8
T53SSILL
 62
7
 10
525.075
 20
-6265.354
 30
-49.306
 70
    32
  0
VERTEX
  8
T53SSILL
 62
7
 10
522.665
 20
-6257.335
 30
-49.292
 70
    32
  0
VERTEX
  8
T53SSILL
 62
7
 10
531.197
 20
-6254.596
 30
-49.277
 70
    32
  0
VERTEX
  8
T53SSILL
 62
7
 10
536.600
 20
-6257.002
 30
-49.276
 70
    32
  0
VERTEX
  8
T53SSILL
 62
7
 10
551.596
 20
-6246.135
 30
-49.235
 70
    32
  0
VERTEX
  8
T53SSILL
 62
7
 10
554.419
 20
-6232.730
 30
-49.162
 70
    32
  0
VERTEX
  8
T53SSILL
 62
7
 10
556.378
 20
-6231.225
 30
-49.142
 70
    32
  0
VERTEX
  8
T53SSILL
 62
7
 10
550.928
 20
-6218.110
 30
-49.110
 70
    32
  0
VERTEX
  8
T53SSILL
 62
7
 10
549.530
 20
-6200.806
 30
-49.030
 70
    32
  0
VERTEX
  8
T53SSILL
 62
7
 10
551.883
 20
-6194.689
 30
-48.984
 70
    32
  0
VERTEX
  8
T53SSILL
 62
7
 10
566.707
 20
-6171.128
 30
-48.767
 70
    32
  0
VERTEX
  8
T53SSILL
 62
7
 10
572.808
 20
-6169.053
 30
-48.718
 70
    32
  0
VERTEX
  8
T53SSILL
 62
7
 10
593.735
 20
-6151.320
 30
-48.579
 70
    32
  0
VERTEX
  8
T53SSILL
 62
7
 10
600.598
 20
-6156.390
 30
-48.602
 70
    32
  0
VERTEX
  8
T53SSILL
 62
7
 10
602.510
 20
-6160.441
 30
-48.615
 70
    32
  0
VERTEX
  8
T53SSILL
 62
7
 10
595.227
 20
-6166.933
 30
-48.619
 70
    32
  0
VERTEX
  8
T53SSILL
 62
7
 10
592.119
 20
-6179.435
 30
-48.647
 70
    32
  0
VERTEX
  8
T53SSILL
 62
7
 10
592.899
 20
-6188.732
 30
-48.689
 70
    32
  0
VERTEX
  8
T53SSILL
 62
7
 10
602.527
 20
-6196.921
 30
-48.702
 70
    32
  0
VERTEX
  8
T53SSILL
 62
7
 10
600.722
 20
-6208.061
 30
-48.738
 70
    32
  0
VERTEX
  8
T53SSILL
 62
7
 10
597.322
 20
-6211.316
 30
-48.777
 70
    32
  0
VERTEX
  8
T53SSILL
 62
7
 10
585.769
 20
-6216.555
 30
-48.878
 70
    32
  0
VERTEX
  8
T53SSILL
 62
7
 10
583.238
 20
-6205.257
 30
-48.836
 70
    32
  0
VERTEX
  8
T53SSILL
 62
7
 10
580.404
 20
-6199.913
 30
-48.827
 70
    32
  0
VERTEX
  8
T53SSILL
 62
7
 10
577.145
 20
-6198.988
 30
-48.843
 70
    32
  0
VERTEX
  8
T53SSILL
 62
7
 10
572.857
 20
-6202.694
 30
-48.890
 70
    32
  0
VERTEX
  8
T53SSILL
 62
7
 10
571.341
 20
-6212.113
 30
-48.948
 70
    32
  0
VERTEX
  8
T53SSILL
 62
7
 10
576.940
 20
-6220.574
 30
-48.955
 70
    32
  0
VERTEX
  8
T53SSILL
 62
7
 10
581.571
 20
-6224.412
 30
-48.945
 70
    32
  0
VERTEX
  8
T53SSILL
 62
7
 10
630.305
 20
-6189.096
 30
-48.727
 70
    32
  0
VERTEX
  8
T53SSILL
 62
7
 10
635.000
 20
-6194.966
 30
-48.749
 70
    32
  0
VERTEX
  8
T53SSILL
 62
7
 10
589.068
 20
-6228.365
 30
-48.917
 70
    32
  0
VERTEX
  8
T53SSILL
 62
7
 10
593.953
 20
-6255.226
 30
-49.023
 70
    32
  0
VERTEX
  8
T53SSILL
 62
7
 10
586.064
 20
-6261.932
 30
-49.109
 70
    32
  0
VERTEX
  8
T53SSILL
 62
7
 10
585.205
 20
-6270.449
 30
-49.158
 70
    32
  0
VERTEX
  8
T53SSILL
 62
7
 10
594.808
 20
-6282.553
 30
-49.158
 70
    32
  0
VERTEX
  8
T53SSILL
 62
7
 10
605.015
 20
-6284.265
 30
-49.101
 70
    32
  0
VERTEX
  8
T53SSILL
 62
7
 10
611.311
 20
-6281.401
 30
-49.046
 70
    32
  0
VERTEX
  8
T53SSILL
 62
7
 10
615.490
 20
-6274.199
 30
-48.982
 70
    32
  0
VERTEX
  8
T53SSILL
 62
7
 10
615.429
 20
-6252.694
 30
-48.872
 70
    32
  0
VERTEX
  8
T53SSILL
 62
7
 10
612.770
 20
-6245.927
 30
-48.855
 70
    32
  0
VERTEX
  8
T53SSILL
 62
7
 10
628.599
 20
-6243.523
 30
-48.855
 70
    32
  0
VERTEX
  8
T53SSILL
 62
7
 10
634.059
 20
-6289.766
 30
-48.975
 70
    32
  0
VERTEX
  8
T53SSILL
 62
7
 10
616.282
 20
-6293.234
 30
-49.075
 70
    32
  0
VERTEX
  8
T53SSILL
 62
7
 10
606.262
 20
-6299.077
 30
-49.169
 70
    32
  0
VERTEX
  8
T53SSILL
 62
7
 10
608.090
 20
-6316.832
 30
-49.248
 70
    32
  0
VERTEX
  8
T53SSILL
 62
7
 10
611.543
 20
-6327.906
 30
-49.283
 70
    32
  0
VERTEX
  8
T53SSILL
 62
7
 10
617.641
 20
-6339.802
 30
-49.305
 70
    32
  0
VERTEX
  8
T53SSILL
 62
7
 10
616.412
 20
-6359.952
 30
-49.400
 70
    32
  0
VERTEX
  8
T53SSILL
 62
7
 10
611.973
 20
-6361.168
 30
-49.407
 70
    32
  0
VERTEX
  8
T53SSILL
 62
7
 10
608.501
 20
-6368.298
 30
-49.426
 70
    32
  0
VERTEX
  8
T53SSILL
 62
7
 10
599.780
 20
-6366.394
 30
-49.433
 70
    32
  0
VERTEX
  8
T53SSILL
 62
7
 10
591.157
 20
-6358.247
 30
-49.425
 70
    32
  0
VERTEX
  8
T53SSILL
 62
7
 10
588.715
 20
-6351.446
 30
-49.414
 70
    32
  0
VERTEX
  8
T53SSILL
 62
7
 10
593.343
 20
-6335.033
 30
-49.374
 70
    32
  0
VERTEX
  8
T53SSILL
 62
7
 10
585.682
 20
-6307.575
 30
-49.325
 70
    32
  0
VERTEX
  8
T53SSILL
 62
7
 10
574.181
 20
-6285.670
 30
-49.292
 70
    32
  0
VERTEX
  8
T53SSILL
 62
7
 10
564.341
 20
-6286.296
 30
-49.305
 70
    32
  0
VERTEX
  8
T53SSILL
 62
7
 10
555.370
 20
-6277.964
 30
-49.298
 70
    32
  0
VERTEX
  8
T53SSILL
 62
7
 10
559.557
 20
-6261.660
 30
-49.259
 70
    32
  0
VERTEX
  8
T53SSILL
 62
7
 10
559.941
 20
-6256.731
 30
-49.248
 70
    32
  0
VERTEX
  8
T53SSILL
 62
7
 10
557.708
 20
-6255.724
 30
-49.248
 70
    32
  0
VERTEX
  8
T53SSILL
 62
7
 10
541.938
 20
-6265.284
 30
-49.287
 70
    32
  0
VERTEX
  8
T53SSILL
 62
7
 10
548.169
 20
-6275.137
 30
-49.300
 70
    32
  0
VERTEX
  8
T53SSILL
 62
7
 10
556.256
 20
-6298.444
 30
-49.340
 70
    32
  0
VERTEX
  8
T53SSILL
 62
7
 10
568.841
 20
-6295.264
 30
-49.319
 70
    32
  0
VERTEX
  8
T53SSILL
 62
7
 10
577.809
 20
-6301.853
 30
-49.322
 70
    32
  0
VERTEX
  8
T53SSILL
 62
7
 10
576.788
 20
-6306.894
 30
-49.334
 70
    32
  0
VERTEX
  8
T53SSILL
 62
7
 10
578.655
 20
-6315.091
 30
-49.349
 70
    32
  0
VERTEX
  8
T53SSILL
 62
7
 10
575.564
 20
-6316.608
 30
-49.356
 70
    32
  0
VERTEX
  8
T53SSILL
 62
7
 10
571.066
 20
-6328.117
 30
-49.385
 70
    32
  0
VERTEX
  8
T53SSILL
 62
7
 10
564.782
 20
-6334.313
 30
-49.405
 70
    32
  0
VERTEX
  8
T53SSILL
 62
7
 10
558.519
 20
-6332.599
 30
-49.409
 70
    32
  0
VERTEX
  8
T53SSILL
 62
7
 10
549.599
 20
-6365.774
 30
-49.489
 70
    32
  0
VERTEX
  8
T53SSILL
 62
7
 10
539.683
 20
-6373.506
 30
-49.517
 70
    32
  0
VERTEX
  8
T53SSILL
 62
7
 10
516.770
 20
-6399.584
 30
-49.598
 70
    32
  0
VERTEX
  8
T53SSILL
 62
7
 10
516.052
 20
-6410.615
 30
-49.622
 70
    32
  0
VERTEX
  8
T53SSILL
 62
7
 10
568.195
 20
-6617.017
 30
-49.854
 70
    32
  0
VERTEX
  8
T53SSILL
 62
7
 10
575.118
 20
-6602.415
 30
-49.796
 70
    32
  0
VERTEX
  8
T53SSILL
 62
7
 10
581.141
 20
-6594.495
 30
-49.757
 70
    32
  0
VERTEX
  8
T53SSILL
 62
7
 10
688.905
 20
-6512.660
 30
-49.600
 70
    32
  0
VERTEX
  8
T53SSILL
 62
7
 10
690.243
 20
-6502.699
 30
-49.615
 70
    32
  0
VERTEX
  8
T53SSILL
 62
7
 10
700.815
 20
-6494.889
 30
-49.572
 70
    32
  0
VERTEX
  8
T53SSILL
 62
7
 10
703.324
 20
-6490.737
 30
-49.566
 70
    32
  0
VERTEX
  8
T53SSILL
 62
7
 10
706.080
 20
-6477.684
 30
-49.539
 70
    32
  0
VERTEX
  8
T53SSILL
 62
7
 10
718.848
 20
-6469.653
 30
-49.539
 70
    32
  0
VERTEX
  8
T53SSILL
 62
7
 10
716.052
 20
-6480.612
 30
-49.561
 70
    32
  0
VERTEX
  8
T53SSILL
 62
7
 10
718.866
 20
-6480.833
 30
-49.566
 70
    32
  0
VERTEX
  8
T53SSILL
 62
7
 10
722.634
 20
-6484.348
 30
-49.581
 70
    32
  0
VERTEX
  8
T53SSILL
 62
7
 10
730.691
 20
-6483.036
 30
-49.590
 70
    32
  0
VERTEX
  8
T53SSILL
 62
7
 10
778.815
 20
-6448.155
 30
-49.582
 70
    32
  0
VERTEX
  8
T53SSILL
 62
7
 10
775.229
 20
-6443.025
 30
-49.564
 70
    32
  0
VERTEX
  8
T53SSILL
 62
7
 10
795.575
 20
-6428.585
 30
-49.561
 70
    32
  0
VERTEX
  8
T53SSILL
 62
7
 10
801.156
 20
-6435.556
 30
-49.586
 70
    32
  0
VERTEX
  8
T53SSILL
 62
7
 10
814.993
 20
-6425.827
 30
-49.585
 70
    32
  0
VERTEX
  8
T53SSILL
 62
7
 10
819.355
 20
-6430.849
 30
-49.604
 70
    32
  0
VERTEX
  8
T53SSILL
 62
7
 10
661.849
 20
-6543.901
 30
-49.550
 70
    32
  0
VERTEX
  8
T53SSILL
 62
7
 10
661.561
 20
-6553.682
 30
-49.567
 70
    32
  0
VERTEX
  8
T53SSILL
 62
7
 10
657.955
 20
-6558.258
 30
-49.565
 70
    32
  0
VERTEX
  8
T53SSILL
 62
7
 10
645.152
 20
-6565.133
 30
-49.540
 70
    32
  0
VERTEX
  8
T53SSILL
 62
7
 10
632.450
 20
-6569.488
 30
-49.528
 70
    32
  0
VERTEX
  8
T53SSILL
 62
7
 10
617.553
 20
-6583.641
 30
-49.627
 70
    32
  0
VERTEX
  8
T53SSILL
 62
7
 10
589.747
 20
-6600.586
 30
-49.750
 70
    32
  0
VERTEX
  8
T53SSILL
 62
7
 10
587.503
 20
-6607.327
 30
-49.775
 70
    32
  0
VERTEX
  8
T53SSILL
 62
7
 10
581.524
 20
-6614.685
 30
-49.811
 70
    32
  0
VERTEX
  8
T53SSILL
 62
7
 10
576.788
 20
-6648.997
 30
-49.892
 70
    32
  0
VERTEX
  8
T53SSILL
 62
7
 10
591.954
 20
-6710.922
 30
-49.776
 70
    32
  0
VERTEX
  8
T53SSILL
 62
7
 10
594.502
 20
-6711.537
 30
-49.758
 70
    32
  0
VERTEX
  8
T53SSILL
 62
7
 10
593.358
 20
-6715.188
 30
-49.765
 70
    32
  0
VERTEX
  8
T53SSILL
 62
7
 10
618.901
 20
-6815.020
 30
-49.462
 70
    32
  0
VERTEX
  8
T53SSILL
 62
7
 10
621.795
 20
-6816.145
 30
-49.318
 70
    32
  0
VERTEX
  8
T53SSILL
 62
7
 10
620.510
 20
-6820.532
 30
-49.455
 70
    32
  0
VERTEX
  8
T53SSILL
 62
7
 10
643.652
 20
-6913.684
 30
-49.963
 70
    32
  0
VERTEX
  8
T53SSILL
 62
7
 10
646.983
 20
-6917.495
 30
-49.850
 70
    32
  0
VERTEX
  8
T53SSILL
 62
7
 10
651.092
 20
-6929.832
 30
-49.878
 70
    32
  0
VERTEX
  8
T53SSILL
 62
7
 10
649.385
 20
-6936.422
 30
-50.123
 70
    32
  0
VERTEX
  8
T53SSILL
 62
7
 10
657.900
 20
-6967.817
 30
-50.610
 70
    32
  0
VERTEX
  8
T53SSILL
 62
7
 10
668.700
 20
-6984.699
 30
-50.645
 70
    32
  0
VERTEX
  8
T53SSILL
 62
7
 10
676.351
 20
-6981.549
 30
-50.189
 70
    32
  0
VERTEX
  8
T53SSILL
 62
7
 10
689.038
 20
-6968.050
 30
-49.192
 70
    32
  0
VERTEX
  8
T53SSILL
 62
7
 10
700.603
 20
-6962.264
 30
-48.473
 70
    32
  0
VERTEX
  8
T53SSILL
 62
7
 10
713.761
 20
-6948.050
 30
-47.433
 70
    32
  0
VERTEX
  8
T53SSILL
 62
7
 10
721.901
 20
-6936.302
 30
-46.703
 70
    32
  0
VERTEX
  8
T53SSILL
 62
7
 10
727.601
 20
-6923.135
 30
-45.778
 70
    32
  0
VERTEX
  8
T53SSILL
 62
7
 10
730.585
 20
-6910.959
 30
-44.897
 70
    32
  0
VERTEX
  8
T53SSILL
 62
7
 10
731.728
 20
-6892.746
 30
-44.329
 70
    32
  0
VERTEX
  8
T53SSILL
 62
7
 10
743.653
 20
-6891.084
 30
-43.878
 70
    32
  0
VERTEX
  8
T53SSILL
 62
7
 10
749.579
 20
-6893.873
 30
-44.041
 70
    32
  0
VERTEX
  8
T53SSILL
 62
7
 10
752.799
 20
-6897.798
 30
-44.126
 70
    32
  0
VERTEX
  8
T53SSILL
 62
7
 10
749.725
 20
-6908.259
 30
-43.754
 70
    32
  0
VERTEX
  8
T53SSILL
 62
7
 10
740.495
 20
-6918.402
 30
-44.796
 70
    32
  0
VERTEX
  8
T53SSILL
 62
7
 10
735.753
 20
-6935.190
 30
-45.875
 70
    32
  0
VERTEX
  8
T53SSILL
 62
7
 10
729.363
 20
-6947.023
 30
-46.641
 70
    32
  0
VERTEX
  8
T53SSILL
 62
7
 10
730.207
 20
-6950.509
 30
-46.693
 70
    32
  0
VERTEX
  8
T53SSILL
 62
7
 10
766.027
 20
-6936.286
 30
-44.021
 70
    32
  0
VERTEX
  8
T53SSILL
 62
7
 10
817.929
 20
-6915.677
 30
-47.116
 70
    32
  0
SEQEND
  8
T53SSILL
  0
ENDSEC
  0
EOF
