999
********************************
999
*   DXF File - Entities Only   *
999
*        3D Data Format        *
999
*     Output from ENVISAGE     *
999
*     24-Dec-2007 12:20:45     *
999
********************************
  0
SECTION 
  2
HEADER
  9
$ACADVER
  1
AC1009
  9
$EXTMIN
 10
-290000.000
 20
-250000.000
 30
-4000.000
  9
$EXTMAX
 10
5000000.000
 20
600000.000
 30
6000.000
  0
ENDSEC
  0
SECTION
  2
ENTITIES
  0
POLYLINE
  8
T53STIM
 62
6
 66
     1
 70
     9
  0
VERTEX
  8
T53STIM
 62
6
 10
926.280
 20
-7430.001
 30
1000.000
 70
    32
  0
VERTEX
  8
T53STIM
 62
6
 10
937.721
 20
-7435.715
 30
1000.000
 70
    32
  0
VERTEX
  8
T53STIM
 62
6
 10
931.286
 20
-7449.999
 30
1000.000
 70
    32
  0
VERTEX
  8
T53STIM
 62
6
 10
919.129
 20
-7443.571
 30
1000.000
 70
    32
  0
SEQEND
  8
T53STIM
  0
POLYLINE
  8
T53STIM
 62
6
 66
     1
 70
     9
  0
VERTEX
  8
T53STIM
 62
6
 10
1037.832
 20
-7714.963
 30
1000.000
 70
    32
  0
VERTEX
  8
T53STIM
 62
6
 10
1052.848
 20
-7739.960
 30
1000.000
 70
    32
  0
VERTEX
  8
T53STIM
 62
6
 10
1060.714
 20
-7735.675
 30
1000.000
 70
    32
  0
VERTEX
  8
T53STIM
 62
6
 10
1064.289
 20
-7741.388
 30
1000.000
 70
    32
  0
VERTEX
  8
T53STIM
 62
6
 10
1057.138
 20
-7745.674
 30
1000.000
 70
    32
  0
VERTEX
  8
T53STIM
 62
6
 10
1155.103
 20
-7879.942
 30
1000.000
 70
    32
  0
VERTEX
  8
T53STIM
 62
6
 10
1160.824
 20
-7874.942
 30
1000.000
 70
    32
  0
VERTEX
  8
T53STIM
 62
6
 10
1164.399
 20
-7881.370
 30
1000.000
 70
    32
  0
VERTEX
  8
T53STIM
 62
6
 10
1159.394
 20
-7884.941
 30
1000.000
 70
    32
  0
VERTEX
  8
T53STIM
 62
6
 10
1169.405
 20
-7897.082
 30
1000.000
 70
    32
  0
VERTEX
  8
T53STIM
 62
6
 10
1176.556
 20
-7890.654
 30
1000.000
 70
    32
  0
VERTEX
  8
T53STIM
 62
6
 10
1181.561
 20
-7898.510
 30
1000.000
 70
    32
  0
VERTEX
  8
T53STIM
 62
6
 10
1174.410
 20
-7902.081
 30
1000.000
 70
    32
  0
VERTEX
  8
T53STIM
 62
6
 10
1192.287
 20
-7931.363
 30
1000.000
 70
    32
  0
VERTEX
  8
T53STIM
 62
6
 10
1200.153
 20
-7948.504
 30
1000.000
 70
    32
  0
VERTEX
  8
T53STIM
 62
6
 10
1218.030
 20
-7972.072
 30
1000.000
 70
    32
  0
VERTEX
  8
T53STIM
 62
6
 10
1210.879
 20
-7977.785
 30
1000.000
 70
    32
  0
VERTEX
  8
T53STIM
 62
6
 10
1203.728
 20
-7967.787
 30
1000.000
 70
    32
  0
VERTEX
  8
T53STIM
 62
6
 10
1197.293
 20
-7972.786
 30
1000.000
 70
    32
  0
VERTEX
  8
T53STIM
 62
6
 10
1193.002
 20
-7966.358
 30
1000.000
 70
    32
  0
VERTEX
  8
T53STIM
 62
6
 10
1200.153
 20
-7961.359
 30
1000.000
 70
    32
  0
VERTEX
  8
T53STIM
 62
6
 10
1185.136
 20
-7944.933
 30
1000.000
 70
    32
  0
VERTEX
  8
T53STIM
 62
6
 10
1178.701
 20
-7927.078
 30
1000.000
 70
    32
  0
VERTEX
  8
T53STIM
 62
6
 10
1150.813
 20
-7888.512
 30
1000.000
 70
    32
  0
VERTEX
  8
T53STIM
 62
6
 10
1128.645
 20
-7860.658
 30
1000.000
 70
    32
  0
VERTEX
  8
T53STIM
 62
6
 10
1122.925
 20
-7864.943
 30
1000.000
 70
    32
  0
VERTEX
  8
T53STIM
 62
6
 10
1115.059
 20
-7854.945
 30
1000.000
 70
    32
  0
VERTEX
  8
T53STIM
 62
6
 10
1122.210
 20
-7850.660
 30
1000.000
 70
    32
  0
VERTEX
  8
T53STIM
 62
6
 10
1029.965
 20
-7719.963
 30
1000.000
 70
    32
  0
SEQEND
  8
T53STIM
  0
POLYLINE
  8
T53STIM
 62
6
 66
     1
 70
     9
  0
VERTEX
  8
T53STIM
 62
6
 10
4220.379
 20
-8663.528
 30
1000.000
 70
    32
  0
VERTEX
  8
T53STIM
 62
6
 10
4238.518
 20
-8650.929
 30
1000.000
 70
    32
  0
VERTEX
  8
T53STIM
 62
6
 10
4234.426
 20
-8645.293
 30
1000.000
 70
    32
  0
VERTEX
  8
T53STIM
 62
6
 10
4216.729
 20
-8657.339
 30
1000.000
 70
    32
  0
SEQEND
  8
T53STIM
  0
POLYLINE
  8
T53STIM
 62
6
 66
     1
 70
     9
  0
VERTEX
  8
T53STIM
 62
6
 10
4252.689
 20
-8020.717
 30
1000.000
 70
    32
  0
VERTEX
  8
T53STIM
 62
6
 10
4277.202
 20
-8067.810
 30
1000.000
 70
    32
  0
VERTEX
  8
T53STIM
 62
6
 10
4290.872
 20
-8096.536
 30
1000.000
 70
    32
  0
VERTEX
  8
T53STIM
 62
6
 10
4294.643
 20
-8102.187
 30
1000.000
 70
    32
  0
VERTEX
  8
T53STIM
 62
6
 10
4303.128
 20
-8108.780
 30
1000.000
 70
    32
  0
VERTEX
  8
T53STIM
 62
6
 10
4312.085
 20
-8112.548
 30
1000.000
 70
    32
  0
VERTEX
  8
T53STIM
 62
6
 10
4320.098
 20
-8111.135
 30
1000.000
 70
    32
  0
VERTEX
  8
T53STIM
 62
6
 10
4330.940
 20
-8108.310
 30
1000.000
 70
    32
  0
VERTEX
  8
T53STIM
 62
6
 10
4334.711
 20
-8113.019
 30
1000.000
 70
    32
  0
VERTEX
  8
T53STIM
 62
6
 10
4280.030
 20
-8152.576
 30
1000.000
 70
    32
  0
VERTEX
  8
T53STIM
 62
6
 10
4276.259
 20
-8146.455
 30
1000.000
 70
    32
  0
VERTEX
  8
T53STIM
 62
6
 10
4287.101
 20
-8138.448
 30
1000.000
 70
    32
  0
VERTEX
  8
T53STIM
 62
6
 10
4283.330
 20
-8132.327
 30
1000.000
 70
    32
  0
VERTEX
  8
T53STIM
 62
6
 10
4294.172
 20
-8125.263
 30
1000.000
 70
    32
  0
VERTEX
  8
T53STIM
 62
6
 10
4298.414
 20
-8131.385
 30
1000.000
 70
    32
  0
VERTEX
  8
T53STIM
 62
6
 10
4313.027
 20
-8119.612
 30
1000.000
 70
    32
  0
VERTEX
  8
T53STIM
 62
6
 10
4305.014
 20
-8118.670
 30
1000.000
 70
    32
  0
VERTEX
  8
T53STIM
 62
6
 10
4296.529
 20
-8115.373
 30
1000.000
 70
    32
  0
VERTEX
  8
T53STIM
 62
6
 10
4288.986
 20
-8108.310
 30
1000.000
 70
    32
  0
VERTEX
  8
T53STIM
 62
6
 10
4280.030
 20
-8094.182
 30
1000.000
 70
    32
  0
VERTEX
  8
T53STIM
 62
6
 10
4268.245
 20
-8069.222
 30
1000.000
 70
    32
  0
VERTEX
  8
T53STIM
 62
6
 10
4263.531
 20
-8064.984
 30
1000.000
 70
    32
  0
VERTEX
  8
T53STIM
 62
6
 10
4257.875
 20
-8067.339
 30
1000.000
 70
    32
  0
VERTEX
  8
T53STIM
 62
6
 10
4252.689
 20
-8056.978
 30
1000.000
 70
    32
  0
VERTEX
  8
T53STIM
 62
6
 10
4259.760
 20
-8053.682
 30
1000.000
 70
    32
  0
VERTEX
  8
T53STIM
 62
6
 10
4255.989
 20
-8045.676
 30
1000.000
 70
    32
  0
VERTEX
  8
T53STIM
 62
6
 10
4245.619
 20
-8025.897
 30
1000.000
 70
    32
  0
SEQEND
  8
T53STIM
  0
POLYLINE
  8
T53STIM
 62
6
 66
     1
 70
     9
  0
VERTEX
  8
T53STIM
 62
6
 10
4346.496
 20
-8285.377
 30
1000.000
 70
    32
  0
VERTEX
  8
T53STIM
 62
6
 10
4345.082
 20
-8300.447
 30
1000.000
 70
    32
  0
VERTEX
  8
T53STIM
 62
6
 10
4319.155
 20
-8296.209
 30
1000.000
 70
    32
  0
VERTEX
  8
T53STIM
 62
6
 10
4319.627
 20
-8291.970
 30
1000.000
 70
    32
  0
VERTEX
  8
T53STIM
 62
6
 10
4301.714
 20
-8289.616
 30
1000.000
 70
    32
  0
VERTEX
  8
T53STIM
 62
6
 10
4303.600
 20
-8280.197
 30
1000.000
 70
    32
  0
SEQEND
  8
T53STIM
  0
POLYLINE
  8
T53STIM
 62
6
 66
     1
 70
     9
  0
VERTEX
  8
T53STIM
 62
6
 10
4353.567
 20
-8319.284
 30
1000.000
 70
    32
  0
VERTEX
  8
T53STIM
 62
6
 10
4362.052
 20
-8328.232
 30
1000.000
 70
    32
  0
VERTEX
  8
T53STIM
 62
6
 10
4357.809
 20
-8333.883
 30
1000.000
 70
    32
  0
VERTEX
  8
T53STIM
 62
6
 10
4361.109
 20
-8338.121
 30
1000.000
 70
    32
  0
VERTEX
  8
T53STIM
 62
6
 10
4357.809
 20
-8343.301
 30
1000.000
 70
    32
  0
VERTEX
  8
T53STIM
 62
6
 10
4370.066
 20
-8357.429
 30
1000.000
 70
    32
  0
VERTEX
  8
T53STIM
 62
6
 10
4374.779
 20
-8352.249
 30
1000.000
 70
    32
  0
VERTEX
  8
T53STIM
 62
6
 10
4410.133
 20
-8388.039
 30
1000.000
 70
    32
  0
VERTEX
  8
T53STIM
 62
6
 10
4404.948
 20
-8391.807
 30
1000.000
 70
    32
  0
VERTEX
  8
T53STIM
 62
6
 10
4423.332
 20
-8411.585
 30
1000.000
 70
    32
  0
VERTEX
  8
T53STIM
 62
6
 10
4409.662
 20
-8424.300
 30
1000.000
 70
    32
  0
VERTEX
  8
T53STIM
 62
6
 10
4383.264
 20
-8396.516
 30
1000.000
 70
    32
  0
VERTEX
  8
T53STIM
 62
6
 10
4378.079
 20
-8402.167
 30
1000.000
 70
    32
  0
VERTEX
  8
T53STIM
 62
6
 10
4356.867
 20
-8377.679
 30
1000.000
 70
    32
  0
VERTEX
  8
T53STIM
 62
6
 10
4361.109
 20
-8373.440
 30
1000.000
 70
    32
  0
VERTEX
  8
T53STIM
 62
6
 10
4351.681
 20
-8364.493
 30
1000.000
 70
    32
  0
VERTEX
  8
T53STIM
 62
6
 10
4357.338
 20
-8359.783
 30
1000.000
 70
    32
  0
VERTEX
  8
T53STIM
 62
6
 10
4333.768
 20
-8335.766
 30
1000.000
 70
    32
  0
SEQEND
  8
T53STIM
  0
POLYLINE
  8
T53STIM
 62
6
 66
     1
 70
     9
  0
VERTEX
  8
T53STIM
 62
6
 10
5120.704
 20
-8686.821
 30
1000.000
 70
    32
  0
VERTEX
  8
T53STIM
 62
6
 10
5166.377
 20
-8751.370
 30
1000.000
 70
    32
  0
VERTEX
  8
T53STIM
 62
6
 10
5152.990
 20
-8761.603
 30
1000.000
 70
    32
  0
VERTEX
  8
T53STIM
 62
6
 10
5148.266
 20
-8753.731
 30
1000.000
 70
    32
  0
VERTEX
  8
T53STIM
 62
6
 10
5154.565
 20
-8749.795
 30
1000.000
 70
    32
  0
VERTEX
  8
T53STIM
 62
6
 10
5130.154
 20
-8717.521
 30
1000.000
 70
    32
  0
VERTEX
  8
T53STIM
 62
6
 10
5123.854
 20
-8719.883
 30
1000.000
 70
    32
  0
VERTEX
  8
T53STIM
 62
6
 10
5116.766
 20
-8708.862
 30
1000.000
 70
    32
  0
VERTEX
  8
T53STIM
 62
6
 10
5122.279
 20
-8704.139
 30
1000.000
 70
    32
  0
VERTEX
  8
T53STIM
 62
6
 10
5112.041
 20
-8690.757
 30
1000.000
 70
    32
  0
SEQEND
  8
T53STIM
  0
POLYLINE
  8
T53STIM
 62
6
 66
     1
 70
     9
  0
VERTEX
  8
T53STIM
 62
6
 10
5735.509
 20
-9204.599
 30
1000.000
 70
    32
  0
VERTEX
  8
T53STIM
 62
6
 10
5743.060
 20
-9215.108
 30
1000.000
 70
    32
  0
VERTEX
  8
T53STIM
 62
6
 10
5732.555
 20
-9222.334
 30
1000.000
 70
    32
  0
VERTEX
  8
T53STIM
 62
6
 10
5725.004
 20
-9212.152
 30
1000.000
 70
    32
  0
SEQEND
  8
T53STIM
  0
POLYLINE
  8
T53STIM
 62
6
 66
     1
 70
     9
  0
VERTEX
  8
T53STIM
 62
6
 10
6303.724
 20
-7584.694
 30
1000.000
 70
    32
  0
VERTEX
  8
T53STIM
 62
6
 10
6306.764
 20
-7597.449
 30
1000.000
 70
    32
  0
VERTEX
  8
T53STIM
 62
6
 10
6294.602
 20
-7599.878
 30
1000.000
 70
    32
  0
VERTEX
  8
T53STIM
 62
6
 10
6295.819
 20
-7605.345
 30
1000.000
 70
    32
  0
VERTEX
  8
T53STIM
 62
6
 10
6290.346
 20
-7605.952
 30
1000.000
 70
    32
  0
VERTEX
  8
T53STIM
 62
6
 10
6290.954
 20
-7611.419
 30
1000.000
 70
    32
  0
VERTEX
  8
T53STIM
 62
6
 10
6280.008
 20
-7616.885
 30
1000.000
 70
    32
  0
VERTEX
  8
T53STIM
 62
6
 10
6277.576
 20
-7608.989
 30
1000.000
 70
    32
  0
VERTEX
  8
T53STIM
 62
6
 10
6270.887
 20
-7610.204
 30
1000.000
 70
    32
  0
VERTEX
  8
T53STIM
 62
6
 10
6269.063
 20
-7598.664
 30
1000.000
 70
    32
  0
VERTEX
  8
T53STIM
 62
6
 10
6274.535
 20
-7597.449
 30
1000.000
 70
    32
  0
VERTEX
  8
T53STIM
 62
6
 10
6272.711
 20
-7590.768
 30
1000.000
 70
    32
  0
SEQEND
  8
T53STIM
  0
POLYLINE
  8
T53STIM
 62
6
 66
     1
 70
     9
  0
VERTEX
  8
T53STIM
 62
6
 10
6049.543
 20
-7702.526
 30
1000.000
 70
    32
  0
VERTEX
  8
T53STIM
 62
6
 10
5994.207
 20
-7745.042
 30
1000.000
 70
    32
  0
VERTEX
  8
T53STIM
 62
6
 10
5988.734
 20
-7737.146
 30
1000.000
 70
    32
  0
VERTEX
  8
T53STIM
 62
6
 10
6043.462
 20
-7696.452
 30
1000.000
 70
    32
  0
SEQEND
  8
T53STIM
  0
POLYLINE
  8
T53STIM
 62
6
 66
     1
 70
     9
  0
VERTEX
  8
T53STIM
 62
6
 10
6307.372
 20
-7707.992
 30
1000.000
 70
    32
  0
VERTEX
  8
T53STIM
 62
6
 10
6315.885
 20
-7753.545
 30
1000.000
 70
    32
  0
VERTEX
  8
T53STIM
 62
6
 10
6324.399
 20
-7747.472
 30
1000.000
 70
    32
  0
VERTEX
  8
T53STIM
 62
6
 10
6320.142
 20
-7742.613
 30
1000.000
 70
    32
  0
VERTEX
  8
T53STIM
 62
6
 10
6330.480
 20
-7735.324
 30
1000.000
 70
    32
  0
VERTEX
  8
T53STIM
 62
6
 10
6333.520
 20
-7740.790
 30
1000.000
 70
    32
  0
VERTEX
  8
T53STIM
 62
6
 10
6352.979
 20
-7726.821
 30
1000.000
 70
    32
  0
VERTEX
  8
T53STIM
 62
6
 10
6357.844
 20
-7731.680
 30
1000.000
 70
    32
  0
VERTEX
  8
T53STIM
 62
6
 10
6319.534
 20
-7760.227
 30
1000.000
 70
    32
  0
VERTEX
  8
T53STIM
 62
6
 10
6315.278
 20
-7755.975
 30
1000.000
 70
    32
  0
VERTEX
  8
T53STIM
 62
6
 10
6303.116
 20
-7758.405
 30
1000.000
 70
    32
  0
VERTEX
  8
T53STIM
 62
6
 10
6295.819
 20
-7711.636
 30
1000.000
 70
    32
  0
SEQEND
  8
T53STIM
  0
POLYLINE
  8
T53STIM
 62
6
 66
     1
 70
     9
  0
VERTEX
  8
T53STIM
 62
6
 10
6076.299
 20
-8059.665
 30
1000.000
 70
    32
  0
VERTEX
  8
T53STIM
 62
6
 10
6070.826
 20
-8053.591
 30
1000.000
 70
    32
  0
VERTEX
  8
T53STIM
 62
6
 10
6063.529
 20
-8059.058
 30
1000.000
 70
    32
  0
VERTEX
  8
T53STIM
 62
6
 10
6060.488
 20
-8052.377
 30
1000.000
 70
    32
  0
VERTEX
  8
T53STIM
 62
6
 10
6050.151
 20
-8060.272
 30
1000.000
 70
    32
  0
VERTEX
  8
T53STIM
 62
6
 10
6053.191
 20
-8065.739
 30
1000.000
 70
    32
  0
VERTEX
  8
T53STIM
 62
6
 10
6045.894
 20
-8076.672
 30
1000.000
 70
    32
  0
VERTEX
  8
T53STIM
 62
6
 10
6052.583
 20
-8080.923
 30
1000.000
 70
    32
  0
VERTEX
  8
T53STIM
 62
6
 10
6059.272
 20
-8071.813
 30
1000.000
 70
    32
  0
SEQEND
  8
T53STIM
  0
ENDSEC
  0
EOF
