999
********************************
999
*   DXF File - Entities Only   *
999
*        3D Data Format        *
999
*     Output from ENVISAGE     *
999
*     24-Dec-2007 12:21:12     *
999
********************************
  0
SECTION 
  2
HEADER
  9
$ACADVER
  1
AC1009
  9
$EXTMIN
 10
-290000.000
 20
-250000.000
 30
-4000.000
  9
$EXTMAX
 10
5000000.000
 20
600000.000
 30
6000.000
  0
ENDSEC
  0
SECTION
  2
ENTITIES
  0
POLYLINE
  8
T54SSILL
 62
13
 66
     1
 70
     9
  0
VERTEX
  8
T54SSILL
 62
13
 10
803.069
 20
-6725.918
 30
-192.034
 70
    32
  0
VERTEX
  8
T54SSILL
 62
13
 10
803.633
 20
-6726.167
 30
-192.033
 70
    32
  0
SEQEND
  8
T54SSILL
  0
POLYLINE
  8
T54SSILL
 62
13
 66
     1
 70
     9
  0
VERTEX
  8
T54SSILL
 62
13
 10
1057.458
 20
-7288.646
 30
-193.325
 70
    32
  0
VERTEX
  8
T54SSILL
 62
13
 10
1062.145
 20
-7301.529
 30
-193.380
 70
    32
  0
SEQEND
  8
T54SSILL
  0
POLYLINE
  8
T54SSILL
 62
13
 66
     1
 70
     9
  0
VERTEX
  8
T54SSILL
 62
13
 10
730.544
 20
-6446.144
 30
-190.931
 70
    32
  0
VERTEX
  8
T54SSILL
 62
13
 10
723.753
 20
-6456.015
 30
-191.005
 70
    32
  0
SEQEND
  8
T54SSILL
  0
POLYLINE
  8
T54SSILL
 62
13
 66
     1
 70
     9
  0
VERTEX
  8
T54SSILL
 62
13
 10
665.203
 20
-6347.464
 30
-190.691
 70
    32
  0
VERTEX
  8
T54SSILL
 62
13
 10
672.708
 20
-6354.047
 30
-190.695
 70
    32
  0
SEQEND
  8
T54SSILL
  0
POLYLINE
  8
T54SSILL
 62
13
 66
     1
 70
     9
  0
VERTEX
  8
T54SSILL
 62
13
 10
401.412
 20
-5636.025
 30
-187.274
 70
    32
  0
VERTEX
  8
T54SSILL
 62
13
 10
409.919
 20
-5647.779
 30
-187.377
 70
    32
  0
SEQEND
  8
T54SSILL
  0
POLYLINE
  8
T54SSILL
 62
13
 66
     1
 70
     9
  0
VERTEX
  8
T54SSILL
 62
13
 10
800.625
 20
-6427.229
 30
-191.171
 70
    32
  0
VERTEX
  8
T54SSILL
 62
13
 10
804.176
 20
-6423.731
 30
-191.196
 70
    32
  0
SEQEND
  8
T54SSILL
  0
POLYLINE
  8
T54SSILL
 62
13
 66
     1
 70
     9
  0
VERTEX
  8
T54SSILL
 62
13
 10
1189.763
 20
-7743.315
 30
-196.178
 70
    32
  0
VERTEX
  8
T54SSILL
 62
13
 10
1183.645
 20
-7750.681
 30
-196.132
 70
    32
  0
VERTEX
  8
T54SSILL
 62
13
 10
1184.084
 20
-7753.212
 30
-196.151
 70
    32
  0
VERTEX
  8
T54SSILL
 62
13
 10
1174.852
 20
-7761.526
 30
-196.067
 70
    32
  0
VERTEX
  8
T54SSILL
 62
13
 10
1177.820
 20
-7765.546
 30
-196.127
 70
    32
  0
VERTEX
  8
T54SSILL
 62
13
 10
1187.868
 20
-7759.534
 30
-196.234
 70
    32
  0
VERTEX
  8
T54SSILL
 62
13
 10
1197.034
 20
-7764.784
 30
-196.384
 70
    32
  0
SEQEND
  8
T54SSILL
  0
POLYLINE
  8
T54SSILL
 62
13
 66
     1
 70
     9
  0
VERTEX
  8
T54SSILL
 62
13
 10
5722.974
 20
-9543.015
 30
-210.395
 70
    32
  0
VERTEX
  8
T54SSILL
 62
13
 10
5675.901
 20
-9474.678
 30
-210.392
 70
    32
  0
VERTEX
  8
T54SSILL
 62
13
 10
5671.643
 20
-9488.786
 30
-210.390
 70
    32
  0
VERTEX
  8
T54SSILL
 62
13
 10
5667.982
 20
-9494.607
 30
-210.389
 70
    32
  0
VERTEX
  8
T54SSILL
 62
13
 10
5644.546
 20
-9512.390
 30
-210.382
 70
    32
  0
VERTEX
  8
T54SSILL
 62
13
 10
5636.492
 20
-9521.919
 30
-210.380
 70
    32
  0
VERTEX
  8
T54SSILL
 62
13
 10
5634.066
 20
-9535.147
 30
-210.378
 70
    32
  0
VERTEX
  8
T54SSILL
 62
13
 10
5637.243
 20
-9554.654
 30
-210.377
 70
    32
  0
VERTEX
  8
T54SSILL
 62
13
 10
5653.302
 20
-9560.476
 30
-210.379
 70
    32
  0
VERTEX
  8
T54SSILL
 62
13
 10
5674.770
 20
-9574.063
 30
-210.383
 70
    32
  0
VERTEX
  8
T54SSILL
 62
13
 10
5680.099
 20
-9579.549
 30
-210.383
 70
    32
  0
VERTEX
  8
T54SSILL
 62
13
 10
5684.966
 20
-9566.452
 30
-210.385
 70
    32
  0
VERTEX
  8
T54SSILL
 62
13
 10
5687.402
 20
-9564.692
 30
-210.386
 70
    32
  0
VERTEX
  8
T54SSILL
 62
13
 10
5693.557
 20
-9566.759
 30
-210.387
 70
    32
  0
VERTEX
  8
T54SSILL
 62
13
 10
5702.147
 20
-9577.478
 30
-210.388
 70
    32
  0
SEQEND
  8
T54SSILL
  0
POLYLINE
  8
T54SSILL
 62
13
 66
     1
 70
     9
  0
VERTEX
  8
T54SSILL
 62
13
 10
5720.000
 20
-9744.000
 30
-210.375
 70
    32
  0
VERTEX
  8
T54SSILL
 62
13
 10
5714.000
 20
-9738.000
 30
-210.375
 70
    32
  0
VERTEX
  8
T54SSILL
 62
13
 10
5749.000
 20
-9714.000
 30
-210.384
 70
    32
  0
VERTEX
  8
T54SSILL
 62
13
 10
5750.000
 20
-9708.000
 30
-210.385
 70
    32
  0
VERTEX
  8
T54SSILL
 62
13
 10
5746.000
 20
-9697.000
 30
-210.385
 70
    32
  0
VERTEX
  8
T54SSILL
 62
13
 10
5746.736
 20
-9695.061
 30
-210.386
 70
    32
  0
VERTEX
  8
T54SSILL
 62
13
 10
5751.000
 20
-9693.000
 30
-210.387
 70
    32
  0
VERTEX
  8
T54SSILL
 62
13
 10
5769.000
 20
-9700.000
 30
-210.390
 70
    32
  0
VERTEX
  8
T54SSILL
 62
13
 10
5780.000
 20
-9692.000
 30
-210.393
 70
    32
  0
VERTEX
  8
T54SSILL
 62
13
 10
5790.000
 20
-9680.000
 30
-210.396
 70
    32
  0
VERTEX
  8
T54SSILL
 62
13
 10
5796.000
 20
-9658.000
 30
-210.399
 70
    32
  0
VERTEX
  8
T54SSILL
 62
13
 10
5796.000
 20
-9649.000
 30
-210.400
 70
    32
  0
VERTEX
  8
T54SSILL
 62
13
 10
5791.208
 20
-9635.850
 30
-210.401
 70
    32
  0
VERTEX
  8
T54SSILL
 62
13
 10
5730.271
 20
-9551.031
 30
-210.396
 70
    32
  0
VERTEX
  8
T54SSILL
 62
13
 10
5727.304
 20
-9566.456
 30
-210.394
 70
    32
  0
VERTEX
  8
T54SSILL
 62
13
 10
5718.157
 20
-9576.157
 30
-210.391
 70
    32
  0
VERTEX
  8
T54SSILL
 62
13
 10
5708.522
 20
-9583.337
 30
-210.389
 70
    32
  0
VERTEX
  8
T54SSILL
 62
13
 10
5708.002
 20
-9596.437
 30
-210.387
 70
    32
  0
VERTEX
  8
T54SSILL
 62
13
 10
5703.078
 20
-9607.573
 30
-210.385
 70
    32
  0
VERTEX
  8
T54SSILL
 62
13
 10
5697.921
 20
-9610.867
 30
-210.384
 70
    32
  0
VERTEX
  8
T54SSILL
 62
13
 10
5680.280
 20
-9610.382
 30
-210.380
 70
    32
  0
VERTEX
  8
T54SSILL
 62
13
 10
5675.162
 20
-9612.420
 30
-210.379
 70
    32
  0
VERTEX
  8
T54SSILL
 62
13
 10
5656.391
 20
-9627.287
 30
-210.374
 70
    32
  0
VERTEX
  8
T54SSILL
 62
13
 10
5650.284
 20
-9635.433
 30
-210.372
 70
    32
  0
VERTEX
  8
T54SSILL
 62
13
 10
5657.738
 20
-9639.809
 30
-210.373
 70
    32
  0
VERTEX
  8
T54SSILL
 62
13
 10
5658.598
 20
-9648.430
 30
-210.372
 70
    32
  0
VERTEX
  8
T54SSILL
 62
13
 10
5657.255
 20
-9651.467
 30
-210.371
 70
    32
  0
VERTEX
  8
T54SSILL
 62
13
 10
5650.934
 20
-9654.986
 30
-210.370
 70
    32
  0
VERTEX
  8
T54SSILL
 62
13
 10
5654.871
 20
-9674.466
 30
-210.369
 70
    32
  0
VERTEX
  8
T54SSILL
 62
13
 10
5657.681
 20
-9677.544
 30
-210.369
 70
    32
  0
VERTEX
  8
T54SSILL
 62
13
 10
5671.008
 20
-9667.194
 30
-210.373
 70
    32
  0
VERTEX
  8
T54SSILL
 62
13
 10
5676.573
 20
-9665.592
 30
-210.374
 70
    32
  0
VERTEX
  8
T54SSILL
 62
13
 10
5689.117
 20
-9668.433
 30
-210.376
 70
    32
  0
VERTEX
  8
T54SSILL
 62
13
 10
5694.690
 20
-9672.061
 30
-210.377
 70
    32
  0
VERTEX
  8
T54SSILL
 62
13
 10
5695.910
 20
-9675.245
 30
-210.377
 70
    32
  0
VERTEX
  8
T54SSILL
 62
13
 10
5694.549
 20
-9690.440
 30
-210.375
 70
    32
  0
VERTEX
  8
T54SSILL
 62
13
 10
5691.920
 20
-9699.924
 30
-210.374
 70
    32
  0
VERTEX
  8
T54SSILL
 62
13
 10
5686.867
 20
-9701.467
 30
-210.373
 70
    32
  0
VERTEX
  8
T54SSILL
 62
13
 10
5682.608
 20
-9707.524
 30
-210.371
 70
    32
  0
VERTEX
  8
T54SSILL
 62
13
 10
5665.626
 20
-9695.281
 30
-210.369
 70
    32
  0
VERTEX
  8
T54SSILL
 62
13
 10
5657.029
 20
-9703.668
 30
-210.366
 70
    32
  0
VERTEX
  8
T54SSILL
 62
13
 10
5663.736
 20
-9747.201
 30
-210.363
 70
    32
  0
VERTEX
  8
T54SSILL
 62
13
 10
5677.630
 20
-9761.370
 30
-210.365
 70
    32
  0
VERTEX
  8
T54SSILL
 62
13
 10
5684.596
 20
-9760.141
 30
-210.367
 70
    32
  0
VERTEX
  8
T54SSILL
 62
13
 10
5693.438
 20
-9756.133
 30
-210.369
 70
    32
  0
VERTEX
  8
T54SSILL
 62
13
 10
5697.334
 20
-9770.631
 30
-210.368
 70
    32
  0
VERTEX
  8
T54SSILL
 62
13
 10
5690.904
 20
-9776.908
 30
-210.366
 70
    32
  0
VERTEX
  8
T54SSILL
 62
13
 10
5675.952
 20
-9784.273
 30
-210.362
 70
    32
  0
VERTEX
  8
T54SSILL
 62
13
 10
5674.195
 20
-9803.448
 30
-210.360
 70
    32
  0
VERTEX
  8
T54SSILL
 62
13
 10
5702.335
 20
-9811.798
 30
-210.365
 70
    32
  0
VERTEX
  8
T54SSILL
 62
13
 10
5708.696
 20
-9820.948
 30
-210.366
 70
    32
  0
VERTEX
  8
T54SSILL
 62
13
 10
5702.211
 20
-9830.053
 30
-210.363
 70
    32
  0
VERTEX
  8
T54SSILL
 62
13
 10
5697.698
 20
-9846.220
 30
-210.361
 70
    32
  0
VERTEX
  8
T54SSILL
 62
13
 10
5700.779
 20
-9854.437
 30
-210.361
 70
    32
  0
VERTEX
  8
T54SSILL
 62
13
 10
5702.658
 20
-9883.854
 30
-210.358
 70
    32
  0
VERTEX
  8
T54SSILL
 62
13
 10
5698.537
 20
-9892.701
 30
-210.357
 70
    32
  0
VERTEX
  8
T54SSILL
 62
13
 10
5702.798
 20
-9902.017
 30
-210.357
 70
    32
  0
VERTEX
  8
T54SSILL
 62
13
 10
5702.481
 20
-9917.412
 30
-210.355
 70
    32
  0
VERTEX
  8
T54SSILL
 62
13
 10
5712.645
 20
-9919.185
 30
-210.357
 70
    32
  0
VERTEX
  8
T54SSILL
 62
13
 10
5720.532
 20
-9916.690
 30
-210.359
 70
    32
  0
VERTEX
  8
T54SSILL
 62
13
 10
5760.485
 20
-9887.778
 30
-210.370
 70
    32
  0
VERTEX
  8
T54SSILL
 62
13
 10
5757.230
 20
-9881.366
 30
-210.370
 70
    32
  0
VERTEX
  8
T54SSILL
 62
13
 10
5771.085
 20
-9870.833
 30
-210.374
 70
    32
  0
VERTEX
  8
T54SSILL
 62
13
 10
5776.296
 20
-9876.745
 30
-210.374
 70
    32
  0
VERTEX
  8
T54SSILL
 62
13
 10
5801.424
 20
-9858.554
 30
-210.381
 70
    32
  0
VERTEX
  8
T54SSILL
 62
13
 10
5796.564
 20
-9852.372
 30
-210.381
 70
    32
  0
VERTEX
  8
T54SSILL
 62
13
 10
5808.118
 20
-9843.050
 30
-210.384
 70
    32
  0
VERTEX
  8
T54SSILL
 62
13
 10
5808.156
 20
-9834.108
 30
-210.385
 70
    32
  0
VERTEX
  8
T54SSILL
 62
13
 10
5802.032
 20
-9824.107
 30
-210.385
 70
    32
  0
VERTEX
  8
T54SSILL
 62
13
 10
5800.254
 20
-9824.693
 30
-210.384
 70
    32
  0
VERTEX
  8
T54SSILL
 62
13
 10
5789.289
 20
-9813.175
 30
-210.383
 70
    32
  0
VERTEX
  8
T54SSILL
 62
13
 10
5789.410
 20
-9800.716
 30
-210.384
 70
    32
  0
VERTEX
  8
T54SSILL
 62
13
 10
5794.128
 20
-9791.632
 30
-210.386
 70
    32
  0
VERTEX
  8
T54SSILL
 62
13
 10
5792.524
 20
-9781.278
 30
-210.387
 70
    32
  0
VERTEX
  8
T54SSILL
 62
13
 10
5786.648
 20
-9771.310
 30
-210.387
 70
    32
  0
VERTEX
  8
T54SSILL
 62
13
 10
5789.101
 20
-9758.841
 30
-210.388
 70
    32
  0
VERTEX
  8
T54SSILL
 62
13
 10
5785.722
 20
-9743.278
 30
-210.389
 70
    32
  0
VERTEX
  8
T54SSILL
 62
13
 10
5778.570
 20
-9740.639
 30
-210.388
 70
    32
  0
VERTEX
  8
T54SSILL
 62
13
 10
5785.868
 20
-9734.476
 30
-210.390
 70
    32
  0
VERTEX
  8
T54SSILL
 62
13
 10
5789.684
 20
-9739.008
 30
-210.390
 70
    32
  0
VERTEX
  8
T54SSILL
 62
13
 10
5794.677
 20
-9739.852
 30
-210.391
 70
    32
  0
VERTEX
  8
T54SSILL
 62
13
 10
5800.771
 20
-9754.889
 30
-210.391
 70
    32
  0
VERTEX
  8
T54SSILL
 62
13
 10
5803.948
 20
-9774.396
 30
-210.390
 70
    32
  0
VERTEX
  8
T54SSILL
 62
13
 10
5816.607
 20
-9817.700
 30
-210.388
 70
    32
  0
VERTEX
  8
T54SSILL
 62
13
 10
5816.529
 20
-9830.795
 30
-210.387
 70
    32
  0
VERTEX
  8
T54SSILL
 62
13
 10
5823.319
 20
-9843.404
 30
-210.387
 70
    32
  0
VERTEX
  8
T54SSILL
 62
13
 10
5881.590
 20
-9800.196
 30
-210.403
 70
    32
  0
VERTEX
  8
T54SSILL
 62
13
 10
5885.934
 20
-9795.410
 30
-210.405
 70
    32
  0
VERTEX
  8
T54SSILL
 62
13
 10
5887.995
 20
-9790.261
 30
-210.406
 70
    32
  0
VERTEX
  8
T54SSILL
 62
13
 10
5889.054
 20
-9776.413
 30
-210.407
 70
    32
  0
VERTEX
  8
T54SSILL
 62
13
 10
5885.788
 20
-9767.497
 30
-210.407
 70
    32
  0
VERTEX
  8
T54SSILL
 62
13
 10
5805.000
 20
-9655.047
 30
-210.402
 70
    32
  0
VERTEX
  8
T54SSILL
 62
13
 10
5803.000
 20
-9673.000
 30
-210.399
 70
    32
  0
VERTEX
  8
T54SSILL
 62
13
 10
5794.000
 20
-9690.000
 30
-210.396
 70
    32
  0
VERTEX
  8
T54SSILL
 62
13
 10
5788.000
 20
-9696.000
 30
-210.394
 70
    32
  0
VERTEX
  8
T54SSILL
 62
13
 10
5766.000
 20
-9711.000
 30
-210.388
 70
    32
  0
VERTEX
  8
T54SSILL
 62
13
 10
5762.000
 20
-9717.000
 30
-210.387
 70
    32
  0
VERTEX
  8
T54SSILL
 62
13
 10
5757.000
 20
-9720.000
 30
-210.385
 70
    32
  0
VERTEX
  8
T54SSILL
 62
13
 10
5754.000
 20
-9720.000
 30
-210.385
 70
    32
  0
SEQEND
  8
T54SSILL
  0
POLYLINE
  8
T54SSILL
 62
13
 66
     1
 70
     9
  0
VERTEX
  8
T54SSILL
 62
13
 10
4452.085
 20
-8257.784
 30
-210.161
 70
    32
  0
VERTEX
  8
T54SSILL
 62
13
 10
4432.446
 20
-8261.604
 30
-210.122
 70
    32
  0
VERTEX
  8
T54SSILL
 62
13
 10
4418.857
 20
-8267.509
 30
-210.092
 70
    32
  0
VERTEX
  8
T54SSILL
 62
13
 10
4401.664
 20
-8262.075
 30
-210.066
 70
    32
  0
VERTEX
  8
T54SSILL
 62
13
 10
4403.842
 20
-8224.595
 30
-210.105
 70
    32
  0
VERTEX
  8
T54SSILL
 62
13
 10
4407.952
 20
-8205.265
 30
-210.130
 70
    32
  0
VERTEX
  8
T54SSILL
 62
13
 10
4406.919
 20
-8195.448
 30
-210.137
 70
    32
  0
VERTEX
  8
T54SSILL
 62
13
 10
4451.566
 20
-8257.885
 30
-210.160
 70
    32
  0
SEQEND
  8
T54SSILL
  0
POLYLINE
  8
T54SSILL
 62
13
 66
     1
 70
     9
  0
VERTEX
  8
T54SSILL
 62
13
 10
4578.693
 20
-8281.579
 30
-210.368
 70
    32
  0
VERTEX
  8
T54SSILL
 62
13
 10
4553.032
 20
-8300.006
 30
-210.304
 70
    32
  0
VERTEX
  8
T54SSILL
 62
13
 10
4545.325
 20
-8288.149
 30
-210.301
 70
    32
  0
VERTEX
  8
T54SSILL
 62
13
 10
4540.436
 20
-8291.641
 30
-210.289
 70
    32
  0
VERTEX
  8
T54SSILL
 62
13
 10
4547.399
 20
-8304.051
 30
-210.291
 70
    32
  0
VERTEX
  8
T54SSILL
 62
13
 10
4522.101
 20
-8322.217
 30
-210.228
 70
    32
  0
VERTEX
  8
T54SSILL
 62
13
 10
4515.486
 20
-8321.621
 30
-210.217
 70
    32
  0
VERTEX
  8
T54SSILL
 62
13
 10
4503.551
 20
-8316.465
 30
-210.200
 70
    32
  0
VERTEX
  8
T54SSILL
 62
13
 10
4496.998
 20
-8310.939
 30
-210.193
 70
    32
  0
VERTEX
  8
T54SSILL
 62
13
 10
4483.780
 20
-8291.823
 30
-210.187
 70
    32
  0
VERTEX
  8
T54SSILL
 62
13
 10
4487.652
 20
-8293.292
 30
-210.193
 70
    32
  0
VERTEX
  8
T54SSILL
 62
13
 10
4495.541
 20
-8293.087
 30
-210.207
 70
    32
  0
VERTEX
  8
T54SSILL
 62
13
 10
4578.797
 20
-8281.565
 30
-210.368
 70
    32
  0
SEQEND
  8
T54SSILL
  0
POLYLINE
  8
T54SSILL
 62
13
 66
     1
 70
     9
  0
VERTEX
  8
T54SSILL
 62
13
 10
4589.330
 20
-8393.461
 30
-210.284
 70
    32
  0
VERTEX
  8
T54SSILL
 62
13
 10
4570.679
 20
-8406.646
 30
-210.238
 70
    32
  0
VERTEX
  8
T54SSILL
 62
13
 10
4577.983
 20
-8397.723
 30
-210.260
 70
    32
  0
VERTEX
  8
T54SSILL
 62
13
 10
4579.082
 20
-8392.269
 30
-210.267
 70
    32
  0
VERTEX
  8
T54SSILL
 62
13
 10
4561.408
 20
-8320.853
 30
-210.300
 70
    32
  0
VERTEX
  8
T54SSILL
 62
13
 10
4557.680
 20
-8320.801
 30
-210.294
 70
    32
  0
VERTEX
  8
T54SSILL
 62
13
 10
4558.471
 20
-8307.066
 30
-210.308
 70
    32
  0
VERTEX
  8
T54SSILL
 62
13
 10
4667.493
 20
-8229.341
 30
-210.576
 70
    32
  0
VERTEX
  8
T54SSILL
 62
13
 10
4675.196
 20
-8226.445
 30
-210.593
 70
    32
  0
VERTEX
  8
T54SSILL
 62
13
 10
4686.607
 20
-8226.004
 30
-210.614
 70
    32
  0
VERTEX
  8
T54SSILL
 62
13
 10
4780.577
 20
-8258.454
 30
-210.753
 70
    32
  0
VERTEX
  8
T54SSILL
 62
13
 10
4608.679
 20
-8379.782
 30
-210.331
 70
    32
  0
VERTEX
  8
T54SSILL
 62
13
 10
4601.114
 20
-8379.791
 30
-210.318
 70
    32
  0
VERTEX
  8
T54SSILL
 62
13
 10
4598.464
 20
-8376.689
 30
-210.316
 70
    32
  0
VERTEX
  8
T54SSILL
 62
13
 10
4584.218
 20
-8385.018
 30
-210.282
 70
    32
  0
SEQEND
  8
T54SSILL
  0
POLYLINE
  8
T54SSILL
 62
13
 66
     1
 70
     9
  0
VERTEX
  8
T54SSILL
 62
13
 10
6190.469
 20
-8284.649
 30
-210.918
 70
    32
  0
VERTEX
  8
T54SSILL
 62
13
 10
6119.567
 20
-8334.944
 30
-210.925
 70
    32
  0
VERTEX
  8
T54SSILL
 62
13
 10
6115.332
 20
-8330.159
 30
-210.925
 70
    32
  0
VERTEX
  8
T54SSILL
 62
13
 10
6124.916
 20
-8273.918
 30
-210.924
 70
    32
  0
VERTEX
  8
T54SSILL
 62
13
 10
6184.490
 20
-8231.985
 30
-210.919
 70
    32
  0
VERTEX
  8
T54SSILL
 62
13
 10
6193.600
 20
-8245.693
 30
-210.918
 70
    32
  0
VERTEX
  8
T54SSILL
 62
13
 10
6200.291
 20
-8240.983
 30
-210.918
 70
    32
  0
VERTEX
  8
T54SSILL
 62
13
 10
6190.504
 20
-8227.752
 30
-210.919
 70
    32
  0
VERTEX
  8
T54SSILL
 62
13
 10
6293.923
 20
-8154.956
 30
-210.910
 70
    32
  0
VERTEX
  8
T54SSILL
 62
13
 10
6299.586
 20
-8153.982
 30
-210.910
 70
    32
  0
VERTEX
  8
T54SSILL
 62
13
 10
6314.206
 20
-8158.626
 30
-210.909
 70
    32
  0
VERTEX
  8
T54SSILL
 62
13
 10
6322.910
 20
-8172.749
 30
-210.908
 70
    32
  0
VERTEX
  8
T54SSILL
 62
13
 10
6320.055
 20
-8189.176
 30
-210.908
 70
    32
  0
VERTEX
  8
T54SSILL
 62
13
 10
6314.539
 20
-8196.932
 30
-210.908
 70
    32
  0
VERTEX
  8
T54SSILL
 62
13
 10
6240.202
 20
-8249.371
 30
-210.914
 70
    32
  0
VERTEX
  8
T54SSILL
 62
13
 10
6235.486
 20
-8248.488
 30
-210.915
 70
    32
  0
VERTEX
  8
T54SSILL
 62
13
 10
6210.631
 20
-8258.882
 30
-210.917
 70
    32
  0
VERTEX
  8
T54SSILL
 62
13
 10
6207.621
 20
-8265.305
 30
-210.917
 70
    32
  0
VERTEX
  8
T54SSILL
 62
13
 10
6202.523
 20
-8267.387
 30
-210.917
 70
    32
  0
VERTEX
  8
T54SSILL
 62
13
 10
6195.496
 20
-8273.302
 30
-210.918
 70
    32
  0
SEQEND
  8
T54SSILL
  0
POLYLINE
  8
T54SSILL
 62
13
 66
     1
 70
     9
  0
VERTEX
  8
T54SSILL
 62
13
 10
4343.613
 20
-8106.918
 30
-210.104
 70
    32
  0
VERTEX
  8
T54SSILL
 62
13
 10
4327.922
 20
-8121.490
 30
-210.062
 70
    32
  0
VERTEX
  8
T54SSILL
 62
13
 10
4335.923
 20
-8137.709
 30
-210.062
 70
    32
  0
VERTEX
  8
T54SSILL
 62
13
 10
4353.824
 20
-8165.206
 30
-210.069
 70
    32
  0
VERTEX
  8
T54SSILL
 62
13
 10
4371.214
 20
-8155.500
 30
-210.109
 70
    32
  0
VERTEX
  8
T54SSILL
 62
13
 10
4368.256
 20
-8147.406
 30
-210.111
 70
    32
  0
VERTEX
  8
T54SSILL
 62
13
 10
4369.465
 20
-8143.071
 30
-210.118
 70
    32
  0
VERTEX
  8
T54SSILL
 62
13
 10
4389.810
 20
-8171.522
 30
-210.128
 70
    32
  0
VERTEX
  8
T54SSILL
 62
13
 10
4348.627
 20
-8164.466
 30
-210.060
 70
    32
  0
VERTEX
  8
T54SSILL
 62
13
 10
4341.929
 20
-8190.965
 30
-210.024
 70
    32
  0
VERTEX
  8
T54SSILL
 62
13
 10
4342.350
 20
-8194.139
 30
-210.022
 70
    32
  0
VERTEX
  8
T54SSILL
 62
13
 10
4343.922
 20
-8194.971
 30
-210.024
 70
    32
  0
VERTEX
  8
T54SSILL
 62
13
 10
4356.956
 20
-8187.073
 30
-210.054
 70
    32
  0
VERTEX
  8
T54SSILL
 62
13
 10
4368.593
 20
-8190.596
 30
-210.072
 70
    32
  0
VERTEX
  8
T54SSILL
 62
13
 10
4375.413
 20
-8197.561
 30
-210.078
 70
    32
  0
VERTEX
  8
T54SSILL
 62
13
 10
4382.037
 20
-8224.317
 30
-210.065
 70
    32
  0
VERTEX
  8
T54SSILL
 62
13
 10
4381.872
 20
-8232.904
 30
-210.057
 70
    32
  0
VERTEX
  8
T54SSILL
 62
13
 10
4375.873
 20
-8244.572
 30
-210.036
 70
    32
  0
VERTEX
  8
T54SSILL
 62
13
 10
4372.802
 20
-8256.538
 30
-210.019
 70
    32
  0
VERTEX
  8
T54SSILL
 62
13
 10
4372.781
 20
-8270.342
 30
-210.006
 70
    32
  0
VERTEX
  8
T54SSILL
 62
13
 10
4376.097
 20
-8291.860
 30
-209.993
 70
    32
  0
VERTEX
  8
T54SSILL
 62
13
 10
4382.527
 20
-8302.686
 30
-209.994
 70
    32
  0
VERTEX
  8
T54SSILL
 62
13
 10
4389.562
 20
-8311.016
 30
-209.999
 70
    32
  0
VERTEX
  8
T54SSILL
 62
13
 10
4405.349
 20
-8317.005
 30
-210.022
 70
    32
  0
VERTEX
  8
T54SSILL
 62
13
 10
4409.528
 20
-8326.506
 30
-210.021
 70
    32
  0
VERTEX
  8
T54SSILL
 62
13
 10
4424.915
 20
-8313.997
 30
-210.060
 70
    32
  0
VERTEX
  8
T54SSILL
 62
13
 10
4428.613
 20
-8317.653
 30
-210.064
 70
    32
  0
VERTEX
  8
T54SSILL
 62
13
 10
4437.970
 20
-8315.856
 30
-210.082
 70
    32
  0
VERTEX
  8
T54SSILL
 62
13
 10
4457.805
 20
-8283.883
 30
-210.147
 70
    32
  0
VERTEX
  8
T54SSILL
 62
13
 10
4467.163
 20
-8279.696
 30
-210.168
 70
    32
  0
VERTEX
  8
T54SSILL
 62
13
 10
4497.008
 20
-8320.378
 30
-210.185
 70
    32
  0
VERTEX
  8
T54SSILL
 62
13
 10
4506.221
 20
-8327.044
 30
-210.195
 70
    32
  0
VERTEX
  8
T54SSILL
 62
13
 10
4514.171
 20
-8327.989
 30
-210.209
 70
    32
  0
VERTEX
  8
T54SSILL
 62
13
 10
4477.932
 20
-8354.021
 30
-210.119
 70
    32
  0
VERTEX
  8
T54SSILL
 62
13
 10
4474.718
 20
-8353.779
 30
-210.114
 70
    32
  0
VERTEX
  8
T54SSILL
 62
13
 10
4469.264
 20
-8357.240
 30
-210.101
 70
    32
  0
VERTEX
  8
T54SSILL
 62
13
 10
4464.402
 20
-8363.740
 30
-210.086
 70
    32
  0
VERTEX
  8
T54SSILL
 62
13
 10
4329.028
 20
-8460.983
 30
-209.752
 70
    32
  0
VERTEX
  8
T54SSILL
 62
13
 10
4333.311
 20
-8467.588
 30
-209.754
 70
    32
  0
VERTEX
  8
T54SSILL
 62
13
 10
4465.062
 20
-8373.659
 30
-210.078
 70
    32
  0
VERTEX
  8
T54SSILL
 62
13
 10
4476.782
 20
-8379.015
 30
-210.094
 70
    32
  0
VERTEX
  8
T54SSILL
 62
13
 10
4486.766
 20
-8370.038
 30
-210.120
 70
    32
  0
VERTEX
  8
T54SSILL
 62
13
 10
4487.855
 20
-8365.786
 30
-210.126
 70
    32
  0
VERTEX
  8
T54SSILL
 62
13
 10
4484.122
 20
-8360.071
 30
-210.125
 70
    32
  0
VERTEX
  8
T54SSILL
 62
13
 10
4527.032
 20
-8329.479
 30
-210.230
 70
    32
  0
VERTEX
  8
T54SSILL
 62
13
 10
4536.972
 20
-8344.712
 30
-210.234
 70
    32
  0
VERTEX
  8
T54SSILL
 62
13
 10
4539.468
 20
-8360.519
 30
-210.224
 70
    32
  0
VERTEX
  8
T54SSILL
 62
13
 10
4543.905
 20
-8364.299
 30
-210.229
 70
    32
  0
VERTEX
  8
T54SSILL
 62
13
 10
4545.352
 20
-8393.993
 30
-210.204
 70
    32
  0
VERTEX
  8
T54SSILL
 62
13
 10
4535.778
 20
-8431.320
 30
-210.152
 70
    32
  0
VERTEX
  8
T54SSILL
 62
13
 10
4448.891
 20
-8492.746
 30
-209.939
 70
    32
  0
VERTEX
  8
T54SSILL
 62
13
 10
4452.301
 20
-8498.889
 30
-209.934
 70
    32
  0
VERTEX
  8
T54SSILL
 62
13
 10
4509.865
 20
-8458.173
 30
-210.081
 70
    32
  0
VERTEX
  8
T54SSILL
 62
13
 10
4513.303
 20
-8463.897
 30
-210.076
 70
    32
  0
VERTEX
  8
T54SSILL
 62
13
 10
4552.805
 20
-8486.824
 30
-210.093
 70
    32
  0
VERTEX
  8
T54SSILL
 62
13
 10
4540.365
 20
-8510.150
 30
-210.038
 70
    32
  0
VERTEX
  8
T54SSILL
 62
13
 10
4544.812
 20
-8519.568
 30
-210.028
 70
    32
  0
VERTEX
  8
T54SSILL
 62
13
 10
4565.129
 20
-8517.762
 30
-210.060
 70
    32
  0
VERTEX
  8
T54SSILL
 62
13
 10
4581.049
 20
-8525.609
 30
-210.069
 70
    32
  0
VERTEX
  8
T54SSILL
 62
13
 10
4591.186
 20
-8534.330
 30
-210.069
 70
    32
  0
VERTEX
  8
T54SSILL
 62
13
 10
4597.530
 20
-8529.893
 30
-210.085
 70
    32
  0
VERTEX
  8
T54SSILL
 62
13
 10
4619.882
 20
-8561.283
 30
-210.064
 70
    32
  0
VERTEX
  8
T54SSILL
 62
13
 10
4650.857
 20
-8642.960
 30
-209.973
 70
    32
  0
VERTEX
  8
T54SSILL
 62
13
 10
4657.402
 20
-8640.478
 30
-209.986
 70
    32
  0
VERTEX
  8
T54SSILL
 62
13
 10
4626.108
 20
-8557.957
 30
-210.078
 70
    32
  0
VERTEX
  8
T54SSILL
 62
13
 10
4595.126
 20
-8514.869
 30
-210.106
 70
    32
  0
VERTEX
  8
T54SSILL
 62
13
 10
4596.138
 20
-8507.666
 30
-210.119
 70
    32
  0
VERTEX
  8
T54SSILL
 62
13
 10
4587.849
 20
-8497.734
 30
-210.124
 70
    32
  0
VERTEX
  8
T54SSILL
 62
13
 10
4590.675
 20
-8481.166
 30
-210.155
 70
    32
  0
VERTEX
  8
T54SSILL
 62
13
 10
4584.964
 20
-8472.867
 30
-210.161
 70
    32
  0
VERTEX
  8
T54SSILL
 62
13
 10
4587.358
 20
-8463.449
 30
-210.179
 70
    32
  0
VERTEX
  8
T54SSILL
 62
13
 10
4586.537
 20
-8441.776
 30
-210.214
 70
    32
  0
VERTEX
  8
T54SSILL
 62
13
 10
4583.466
 20
-8435.501
 30
-210.220
 70
    32
  0
VERTEX
  8
T54SSILL
 62
13
 10
4571.162
 20
-8426.482
 30
-210.217
 70
    32
  0
VERTEX
  8
T54SSILL
 62
13
 10
4573.586
 20
-8423.339
 30
-210.226
 70
    32
  0
VERTEX
  8
T54SSILL
 62
13
 10
4578.362
 20
-8421.665
 30
-210.235
 70
    32
  0
VERTEX
  8
T54SSILL
 62
13
 10
4580.899
 20
-8416.704
 30
-210.247
 70
    32
  0
VERTEX
  8
T54SSILL
 62
13
 10
4579.743
 20
-8408.748
 30
-210.253
 70
    32
  0
VERTEX
  8
T54SSILL
 62
13
 10
4594.337
 20
-8398.426
 30
-210.288
 70
    32
  0
VERTEX
  8
T54SSILL
 62
13
 10
4597.518
 20
-8399.840
 30
-210.293
 70
    32
  0
VERTEX
  8
T54SSILL
 62
13
 10
4606.886
 20
-8394.561
 30
-210.315
 70
    32
  0
VERTEX
  8
T54SSILL
 62
13
 10
4609.928
 20
-8387.398
 30
-210.327
 70
    32
  0
VERTEX
  8
T54SSILL
 62
13
 10
4781.891
 20
-8265.768
 30
-210.749
 70
    32
  0
VERTEX
  8
T54SSILL
 62
13
 10
4792.851
 20
-8263.478
 30
-210.771
 70
    32
  0
VERTEX
  8
T54SSILL
 62
13
 10
4810.702
 20
-8270.380
 30
-210.797
 70
    32
  0
VERTEX
  8
T54SSILL
 62
13
 10
4814.291
 20
-8273.471
 30
-210.800
 70
    32
  0
VERTEX
  8
T54SSILL
 62
13
 10
4931.960
 20
-8437.457
 30
-210.816
 70
    32
  0
VERTEX
  8
T54SSILL
 62
13
 10
4925.424
 20
-8442.268
 30
-210.794
 70
    32
  0
VERTEX
  8
T54SSILL
 62
13
 10
4929.851
 20
-8448.502
 30
-210.797
 70
    32
  0
VERTEX
  8
T54SSILL
 62
13
 10
4936.498
 20
-8443.781
 30
-210.819
 70
    32
  0
VERTEX
  8
T54SSILL
 62
13
 10
5098.135
 20
-8669.043
 30
-210.933
 70
    32
  0
VERTEX
  8
T54SSILL
 62
13
 10
5092.112
 20
-8673.365
 30
-210.913
 70
    32
  0
VERTEX
  8
T54SSILL
 62
13
 10
5096.193
 20
-8679.052
 30
-210.916
 70
    32
  0
VERTEX
  8
T54SSILL
 62
13
 10
5102.216
 20
-8674.730
 30
-210.937
 70
    32
  0
VERTEX
  8
T54SSILL
 62
13
 10
5272.814
 20
-8912.358
 30
-210.781
 70
    32
  0
VERTEX
  8
T54SSILL
 62
13
 10
5277.003
 20
-8916.249
 30
-210.775
 70
    32
  0
VERTEX
  8
T54SSILL
 62
13
 10
5284.780
 20
-8919.616
 30
-210.768
 70
    32
  0
VERTEX
  8
T54SSILL
 62
13
 10
5291.831
 20
-8920.437
 30
-210.765
 70
    32
  0
VERTEX
  8
T54SSILL
 62
13
 10
5168.077
 20
-9007.920
 30
-210.679
 70
    32
  0
VERTEX
  8
T54SSILL
 62
13
 10
5111.795
 20
-9009.213
 30
-210.651
 70
    32
  0
VERTEX
  8
T54SSILL
 62
13
 10
5109.055
 20
-9004.142
 30
-210.647
 70
    32
  0
VERTEX
  8
T54SSILL
 62
13
 10
5097.007
 20
-8991.407
 30
-210.622
 70
    32
  0
VERTEX
  8
T54SSILL
 62
13
 10
5096.984
 20
-8984.558
 30
-210.627
 70
    32
  0
VERTEX
  8
T54SSILL
 62
13
 10
5093.129
 20
-8974.430
 30
-210.624
 70
    32
  0
VERTEX
  8
T54SSILL
 62
13
 10
5089.290
 20
-8970.272
 30
-210.616
 70
    32
  0
VERTEX
  8
T54SSILL
 62
13
 10
5082.606
 20
-8969.061
 30
-210.598
 70
    32
  0
VERTEX
  8
T54SSILL
 62
13
 10
5073.804
 20
-8971.460
 30
-210.572
 70
    32
  0
VERTEX
  8
T54SSILL
 62
13
 10
5069.891
 20
-8977.217
 30
-210.557
 70
    32
  0
VERTEX
  8
T54SSILL
 62
13
 10
5068.755
 20
-8982.403
 30
-210.550
 70
    32
  0
VERTEX
  8
T54SSILL
 62
13
 10
5074.671
 20
-8992.619
 30
-210.559
 70
    32
  0
VERTEX
  8
T54SSILL
 62
13
 10
5074.394
 20
-8999.366
 30
-210.553
 70
    32
  0
VERTEX
  8
T54SSILL
 62
13
 10
5068.688
 20
-8999.291
 30
-210.537
 70
    32
  0
VERTEX
  8
T54SSILL
 62
13
 10
5062.752
 20
-9003.269
 30
-210.518
 70
    32
  0
VERTEX
  8
T54SSILL
 62
13
 10
5057.614
 20
-9010.458
 30
-210.498
 70
    32
  0
VERTEX
  8
T54SSILL
 62
13
 10
5035.400
 20
-9010.968
 30
-210.437
 70
    32
  0
VERTEX
  8
T54SSILL
 62
13
 10
5019.992
 20
-9017.192
 30
-210.391
 70
    32
  0
VERTEX
  8
T54SSILL
 62
13
 10
4979.741
 20
-9046.591
 30
-210.258
 70
    32
  0
VERTEX
  8
T54SSILL
 62
13
 10
4970.801
 20
-9057.514
 30
-210.226
 70
    32
  0
VERTEX
  8
T54SSILL
 62
13
 10
4968.332
 20
-9063.276
 30
-210.215
 70
    32
  0
VERTEX
  8
T54SSILL
 62
13
 10
4941.247
 20
-9001.099
 30
-210.188
 70
    32
  0
VERTEX
  8
T54SSILL
 62
13
 10
4944.100
 20
-8999.032
 30
-210.198
 70
    32
  0
VERTEX
  8
T54SSILL
 62
13
 10
4947.378
 20
-8999.410
 30
-210.206
 70
    32
  0
VERTEX
  8
T54SSILL
 62
13
 10
4957.769
 20
-8995.465
 30
-210.238
 70
    32
  0
VERTEX
  8
T54SSILL
 62
13
 10
4962.812
 20
-8996.267
 30
-210.251
 70
    32
  0
VERTEX
  8
T54SSILL
 62
13
 10
4967.972
 20
-9000.414
 30
-210.262
 70
    32
  0
VERTEX
  8
T54SSILL
 62
13
 10
4969.619
 20
-8993.286
 30
-210.272
 70
    32
  0
VERTEX
  8
T54SSILL
 62
13
 10
4960.009
 20
-8983.453
 30
-210.253
 70
    32
  0
VERTEX
  8
T54SSILL
 62
13
 10
4945.104
 20
-8963.928
 30
-210.227
 70
    32
  0
VERTEX
  8
T54SSILL
 62
13
 10
5031.750
 20
-8902.878
 30
-210.510
 70
    32
  0
VERTEX
  8
T54SSILL
 62
13
 10
5026.798
 20
-8896.246
 30
-210.501
 70
    32
  0
VERTEX
  8
T54SSILL
 62
13
 10
4940.229
 20
-8958.124
 30
-210.218
 70
    32
  0
VERTEX
  8
T54SSILL
 62
13
 10
4932.464
 20
-8945.775
 30
-210.207
 70
    32
  0
VERTEX
  8
T54SSILL
 62
13
 10
4924.153
 20
-8921.105
 30
-210.203
 70
    32
  0
VERTEX
  8
T54SSILL
 62
13
 10
4925.385
 20
-8918.946
 30
-210.208
 70
    32
  0
VERTEX
  8
T54SSILL
 62
13
 10
4983.524
 20
-8878.882
 30
-210.397
 70
    32
  0
VERTEX
  8
T54SSILL
 62
13
 10
4979.934
 20
-8872.873
 30
-210.392
 70
    32
  0
VERTEX
  8
T54SSILL
 62
13
 10
4960.401
 20
-8886.898
 30
-210.328
 70
    32
  0
VERTEX
  8
T54SSILL
 62
13
 10
4942.652
 20
-8889.039
 30
-210.278
 70
    32
  0
VERTEX
  8
T54SSILL
 62
13
 10
4931.699
 20
-8893.661
 30
-210.245
 70
    32
  0
VERTEX
  8
T54SSILL
 62
13
 10
4931.310
 20
-8907.555
 30
-210.233
 70
    32
  0
VERTEX
  8
T54SSILL
 62
13
 10
4917.220
 20
-8917.537
 30
-210.187
 70
    32
  0
VERTEX
  8
T54SSILL
 62
13
 10
4907.589
 20
-8917.689
 30
-210.160
 70
    32
  0
VERTEX
  8
T54SSILL
 62
13
 10
4904.514
 20
-8914.387
 30
-210.154
 70
    32
  0
VERTEX
  8
T54SSILL
 62
13
 10
4898.435
 20
-8918.031
 30
-210.135
 70
    32
  0
VERTEX
  8
T54SSILL
 62
13
 10
4906.734
 20
-8941.381
 30
-210.140
 70
    32
  0
VERTEX
  8
T54SSILL
 62
13
 10
4906.952
 20
-8946.310
 30
-210.137
 70
    32
  0
VERTEX
  8
T54SSILL
 62
13
 10
4903.227
 20
-8953.473
 30
-210.121
 70
    32
  0
VERTEX
  8
T54SSILL
 62
13
 10
4887.823
 20
-8960.138
 30
-210.074
 70
    32
  0
VERTEX
  8
T54SSILL
 62
13
 10
4885.788
 20
-8963.131
 30
-210.066
 70
    32
  0
VERTEX
  8
T54SSILL
 62
13
 10
4898.904
 20
-8973.056
 30
-210.094
 70
    32
  0
VERTEX
  8
T54SSILL
 62
13
 10
4903.076
 20
-8987.373
 30
-210.095
 70
    32
  0
VERTEX
  8
T54SSILL
 62
13
 10
4909.791
 20
-8996.314
 30
-210.106
 70
    32
  0
VERTEX
  8
T54SSILL
 62
13
 10
4936.999
 20
-9008.884
 30
-210.171
 70
    32
  0
VERTEX
  8
T54SSILL
 62
13
 10
4980.235
 20
-9106.582
 30
-210.214
 70
    32
  0
VERTEX
  8
T54SSILL
 62
13
 10
4986.972
 20
-9113.956
 30
-210.227
 70
    32
  0
VERTEX
  8
T54SSILL
 62
13
 10
5001.468
 20
-9120.612
 30
-210.261
 70
    32
  0
VERTEX
  8
T54SSILL
 62
13
 10
5008.147
 20
-9120.976
 30
-210.279
 70
    32
  0
VERTEX
  8
T54SSILL
 62
13
 10
4947.550
 20
-9163.401
 30
-210.125
 70
    32
  0
VERTEX
  8
T54SSILL
 62
13
 10
4941.876
 20
-9160.311
 30
-210.114
 70
    32
  0
VERTEX
  8
T54SSILL
 62
13
 10
4929.140
 20
-9167.862
 30
-210.082
 70
    32
  0
VERTEX
  8
T54SSILL
 62
13
 10
4923.216
 20
-9163.399
 30
-210.072
 70
    32
  0
VERTEX
  8
T54SSILL
 62
13
 10
4914.982
 20
-9169.306
 30
-210.051
 70
    32
  0
VERTEX
  8
T54SSILL
 62
13
 10
4914.017
 20
-9173.574
 30
-210.046
 70
    32
  0
VERTEX
  8
T54SSILL
 62
13
 10
4906.119
 20
-9172.486
 30
-210.030
 70
    32
  0
VERTEX
  8
T54SSILL
 62
13
 10
4892.471
 20
-9166.580
 30
-210.004
 70
    32
  0
VERTEX
  8
T54SSILL
 62
13
 10
4881.948
 20
-9158.528
 30
-209.985
 70
    32
  0
VERTEX
  8
T54SSILL
 62
13
 10
4877.862
 20
-9151.677
 30
-209.980
 70
    32
  0
VERTEX
  8
T54SSILL
 62
13
 10
4871.099
 20
-9159.233
 30
-209.961
 70
    32
  0
VERTEX
  8
T54SSILL
 62
13
 10
4880.047
 20
-9169.584
 30
-209.975
 70
    32
  0
VERTEX
  8
T54SSILL
 62
13
 10
4868.537
 20
-9179.190
 30
-209.945
 70
    32
  0
VERTEX
  8
T54SSILL
 62
13
 10
4872.704
 20
-9188.190
 30
-209.949
 70
    32
  0
VERTEX
  8
T54SSILL
 62
13
 10
4895.493
 20
-9179.321
 30
-210.003
 70
    32
  0
VERTEX
  8
T54SSILL
 62
13
 10
4904.228
 20
-9182.097
 30
-210.020
 70
    32
  0
VERTEX
  8
T54SSILL
 62
13
 10
4913.039
 20
-9182.494
 30
-210.039
 70
    32
  0
VERTEX
  8
T54SSILL
 62
13
 10
4915.620
 20
-9185.753
 30
-210.043
 70
    32
  0
VERTEX
  8
T54SSILL
 62
13
 10
4797.353
 20
-9270.485
 30
-209.825
 70
    32
  0
VERTEX
  8
T54SSILL
 62
13
 10
4784.487
 20
-9273.050
 30
-209.806
 70
    32
  0
VERTEX
  8
T54SSILL
 62
13
 10
4763.062
 20
-9269.280
 30
-209.769
 70
    32
  0
VERTEX
  8
T54SSILL
 62
13
 10
4755.415
 20
-9265.460
 30
-209.754
 70
    32
  0
VERTEX
  8
T54SSILL
 62
13
 10
4743.096
 20
-9254.016
 30
-209.726
 70
    32
  0
VERTEX
  8
T54SSILL
 62
13
 10
4729.199
 20
-9235.081
 30
-209.690
 70
    32
  0
VERTEX
  8
T54SSILL
 62
13
 10
4734.488
 20
-9231.253
 30
-209.696
 70
    32
  0
VERTEX
  8
T54SSILL
 62
13
 10
4729.240
 20
-9223.941
 30
-209.682
 70
    32
  0
VERTEX
  8
T54SSILL
 62
13
 10
4723.889
 20
-9227.815
 30
-209.676
 70
    32
  0
VERTEX
  8
T54SSILL
 62
13
 10
4675.467
 20
-9158.930
 30
-209.548
 70
    32
  0
VERTEX
  8
T54SSILL
 62
13
 10
4678.407
 20
-9154.934
 30
-209.549
 70
    32
  0
VERTEX
  8
T54SSILL
 62
13
 10
4671.680
 20
-9144.890
 30
-209.535
 70
    32
  0
VERTEX
  8
T54SSILL
 62
13
 10
4667.914
 20
-9145.754
 30
-209.528
 70
    32
  0
VERTEX
  8
T54SSILL
 62
13
 10
4665.779
 20
-9137.977
 30
-209.508
 70
    32
  0
VERTEX
  8
T54SSILL
 62
13
 10
4670.425
 20
-9108.374
 30
-209.463
 70
    32
  0
VERTEX
  8
T54SSILL
 62
13
 10
4673.170
 20
-9103.973
 30
-209.461
 70
    32
  0
VERTEX
  8
T54SSILL
 62
13
 10
4681.999
 20
-9093.746
 30
-209.462
 70
    32
  0
VERTEX
  8
T54SSILL
 62
13
 10
4722.364
 20
-9063.480
 30
-209.544
 70
    32
  0
VERTEX
  8
T54SSILL
 62
13
 10
4735.210
 20
-9050.997
 30
-209.589
 70
    32
  0
VERTEX
  8
T54SSILL
 62
13
 10
4743.214
 20
-9037.231
 30
-209.621
 70
    32
  0
VERTEX
  8
T54SSILL
 62
13
 10
4746.936
 20
-9025.696
 30
-209.640
 70
    32
  0
VERTEX
  8
T54SSILL
 62
13
 10
4745.261
 20
-9007.836
 30
-209.649
 70
    32
  0
VERTEX
  8
T54SSILL
 62
13
 10
4689.311
 20
-8815.328
 30
-209.744
 70
    32
  0
VERTEX
  8
T54SSILL
 62
13
 10
4592.909
 20
-8594.609
 30
-209.972
 70
    32
  0
VERTEX
  8
T54SSILL
 62
13
 10
4597.244
 20
-8587.787
 30
-209.989
 70
    32
  0
VERTEX
  8
T54SSILL
 62
13
 10
4599.371
 20
-8579.654
 30
-210.006
 70
    32
  0
VERTEX
  8
T54SSILL
 62
13
 10
4592.096
 20
-8572.678
 30
-210.007
 70
    32
  0
VERTEX
  8
T54SSILL
 62
13
 10
4589.025
 20
-8564.395
 30
-210.016
 70
    32
  0
VERTEX
  8
T54SSILL
 62
13
 10
4567.844
 20
-8535.130
 30
-210.035
 70
    32
  0
VERTEX
  8
T54SSILL
 62
13
 10
4563.890
 20
-8522.764
 30
-210.050
 70
    32
  0
VERTEX
  8
T54SSILL
 62
13
 10
4541.361
 20
-8520.162
 30
-210.023
 70
    32
  0
VERTEX
  8
T54SSILL
 62
13
 10
4535.784
 20
-8521.846
 30
-210.012
 70
    32
  0
VERTEX
  8
T54SSILL
 62
13
 10
4535.789
 20
-8530.021
 30
-209.999
 70
    32
  0
VERTEX
  8
T54SSILL
 62
13
 10
4540.560
 20
-8536.463
 30
-209.995
 70
    32
  0
VERTEX
  8
T54SSILL
 62
13
 10
4553.751
 20
-8546.141
 30
-209.997
 70
    32
  0
VERTEX
  8
T54SSILL
 62
13
 10
4560.693
 20
-8553.259
 30
-209.995
 70
    32
  0
VERTEX
  8
T54SSILL
 62
13
 10
4569.598
 20
-8558.448
 30
-209.999
 70
    32
  0
VERTEX
  8
T54SSILL
 62
13
 10
4600.766
 20
-8630.211
 30
-209.925
 70
    32
  0
VERTEX
  8
T54SSILL
 62
13
 10
4593.585
 20
-8653.115
 30
-209.877
 70
    32
  0
VERTEX
  8
T54SSILL
 62
13
 10
4586.532
 20
-8662.769
 30
-209.852
 70
    32
  0
VERTEX
  8
T54SSILL
 62
13
 10
4585.454
 20
-8669.223
 30
-209.840
 70
    32
  0
VERTEX
  8
T54SSILL
 62
13
 10
4587.717
 20
-8674.250
 30
-209.835
 70
    32
  0
VERTEX
  8
T54SSILL
 62
13
 10
4590.736
 20
-8675.609
 30
-209.837
 70
    32
  0
VERTEX
  8
T54SSILL
 62
13
 10
4602.749
 20
-8671.480
 30
-209.860
 70
    32
  0
VERTEX
  8
T54SSILL
 62
13
 10
4624.315
 20
-8689.732
 30
-209.860
 70
    32
  0
VERTEX
  8
T54SSILL
 62
13
 10
4627.011
 20
-8689.789
 30
-209.864
 70
    32
  0
VERTEX
  8
T54SSILL
 62
13
 10
4650.096
 20
-8744.467
 30
-209.806
 70
    32
  0
VERTEX
  8
T54SSILL
 62
13
 10
4652.587
 20
-8760.153
 30
-209.784
 70
    32
  0
VERTEX
  8
T54SSILL
 62
13
 10
4652.030
 20
-8768.753
 30
-209.769
 70
    32
  0
VERTEX
  8
T54SSILL
 62
13
 10
4648.740
 20
-8780.309
 30
-209.746
 70
    32
  0
VERTEX
  8
T54SSILL
 62
13
 10
4637.601
 20
-8797.260
 30
-209.702
 70
    32
  0
VERTEX
  8
T54SSILL
 62
13
 10
4519.071
 20
-8880.332
 30
-209.402
 70
    32
  0
VERTEX
  8
T54SSILL
 62
13
 10
4507.282
 20
-8904.739
 30
-209.346
 70
    32
  0
VERTEX
  8
T54SSILL
 62
13
 10
4505.673
 20
-8917.784
 30
-209.322
 70
    32
  0
VERTEX
  8
T54SSILL
 62
13
 10
4456.681
 20
-8847.148
 30
-209.370
 70
    32
  0
VERTEX
  8
T54SSILL
 62
13
 10
4460.891
 20
-8843.516
 30
-209.382
 70
    32
  0
VERTEX
  8
T54SSILL
 62
13
 10
4456.754
 20
-8837.035
 30
-209.387
 70
    32
  0
VERTEX
  8
T54SSILL
 62
13
 10
4451.946
 20
-8840.899
 30
-209.374
 70
    32
  0
VERTEX
  8
T54SSILL
 62
13
 10
4401.152
 20
-8769.198
 30
-209.421
 70
    32
  0
VERTEX
  8
T54SSILL
 62
13
 10
4406.296
 20
-8765.631
 30
-209.434
 70
    32
  0
VERTEX
  8
T54SSILL
 62
13
 10
4400.891
 20
-8759.227
 30
-209.437
 70
    32
  0
VERTEX
  8
T54SSILL
 62
13
 10
4396.589
 20
-8762.156
 30
-209.426
 70
    32
  0
VERTEX
  8
T54SSILL
 62
13
 10
4346.787
 20
-8691.471
 30
-209.473
 70
    32
  0
VERTEX
  8
T54SSILL
 62
13
 10
4352.544
 20
-8687.109
 30
-209.488
 70
    32
  0
VERTEX
  8
T54SSILL
 62
13
 10
4347.567
 20
-8681.707
 30
-209.490
 70
    32
  0
VERTEX
  8
T54SSILL
 62
13
 10
4342.296
 20
-8684.816
 30
-209.477
 70
    32
  0
VERTEX
  8
T54SSILL
 62
13
 10
4319.835
 20
-8652.985
 30
-209.498
 70
    32
  0
VERTEX
  8
T54SSILL
 62
13
 10
4314.220
 20
-8657.682
 30
-209.483
 70
    32
  0
VERTEX
  8
T54SSILL
 62
13
 10
4336.084
 20
-8689.744
 30
-209.461
 70
    32
  0
VERTEX
  8
T54SSILL
 62
13
 10
4330.048
 20
-8694.760
 30
-209.444
 70
    32
  0
VERTEX
  8
T54SSILL
 62
13
 10
4335.796
 20
-8699.136
 30
-209.445
 70
    32
  0
VERTEX
  8
T54SSILL
 62
13
 10
4340.306
 20
-8695.608
 30
-209.457
 70
    32
  0
VERTEX
  8
T54SSILL
 62
13
 10
4390.498
 20
-8766.661
 30
-209.410
 70
    32
  0
VERTEX
  8
T54SSILL
 62
13
 10
4385.585
 20
-8770.825
 30
-209.397
 70
    32
  0
VERTEX
  8
T54SSILL
 62
13
 10
4391.073
 20
-8776.172
 30
-209.395
 70
    32
  0
VERTEX
  8
T54SSILL
 62
13
 10
4394.918
 20
-8773.369
 30
-209.405
 70
    32
  0
VERTEX
  8
T54SSILL
 62
13
 10
4445.289
 20
-8844.949
 30
-209.358
 70
    32
  0
VERTEX
  8
T54SSILL
 62
13
 10
4439.955
 20
-8849.433
 30
-209.343
 70
    32
  0
VERTEX
  8
T54SSILL
 62
13
 10
4444.230
 20
-8855.367
 30
-209.339
 70
    32
  0
VERTEX
  8
T54SSILL
 62
13
 10
4449.883
 20
-8851.304
 30
-209.354
 70
    32
  0
VERTEX
  8
T54SSILL
 62
13
 10
4470.751
 20
-8881.469
 30
-209.333
 70
    32
  0
VERTEX
  8
T54SSILL
 62
13
 10
4464.925
 20
-8886.325
 30
-209.317
 70
    32
  0
VERTEX
  8
T54SSILL
 62
13
 10
4475.470
 20
-8898.782
 30
-209.312
 70
    32
  0
VERTEX
  8
T54SSILL
 62
13
 10
4480.353
 20
-8895.745
 30
-209.323
 70
    32
  0
VERTEX
  8
T54SSILL
 62
13
 10
4499.877
 20
-8921.512
 30
-209.308
 70
    32
  0
VERTEX
  8
T54SSILL
 62
13
 10
4495.386
 20
-8925.358
 30
-209.296
 70
    32
  0
VERTEX
  8
T54SSILL
 62
13
 10
4499.763
 20
-8930.551
 30
-209.293
 70
    32
  0
VERTEX
  8
T54SSILL
 62
13
 10
4503.803
 20
-8928.152
 30
-209.303
 70
    32
  0
VERTEX
  8
T54SSILL
 62
13
 10
4555.006
 20
-9000.539
 30
-209.255
 70
    32
  0
VERTEX
  8
T54SSILL
 62
13
 10
4551.460
 20
-9003.005
 30
-209.246
 70
    32
  0
VERTEX
  8
T54SSILL
 62
13
 10
4555.962
 20
-9008.656
 30
-209.243
 70
    32
  0
VERTEX
  8
T54SSILL
 62
13
 10
4559.175
 20
-9006.332
 30
-209.252
 70
    32
  0
VERTEX
  8
T54SSILL
 62
13
 10
4608.286
 20
-9076.104
 30
-209.254
 70
    32
  0
VERTEX
  8
T54SSILL
 62
13
 10
4603.739
 20
-9079.439
 30
-209.245
 70
    32
  0
VERTEX
  8
T54SSILL
 62
13
 10
4609.206
 20
-9087.675
 30
-209.273
 70
    32
  0
VERTEX
  8
T54SSILL
 62
13
 10
4613.964
 20
-9084.181
 30
-209.282
 70
    32
  0
VERTEX
  8
T54SSILL
 62
13
 10
4661.010
 20
-9149.770
 30
-209.516
 70
    32
  0
VERTEX
  8
T54SSILL
 62
13
 10
4659.336
 20
-9153.249
 30
-209.516
 70
    32
  0
VERTEX
  8
T54SSILL
 62
13
 10
4666.491
 20
-9164.295
 30
-209.538
 70
    32
  0
VERTEX
  8
T54SSILL
 62
13
 10
4670.433
 20
-9163.518
 30
-209.543
 70
    32
  0
VERTEX
  8
T54SSILL
 62
13
 10
4718.584
 20
-9231.586
 30
-209.671
 70
    32
  0
VERTEX
  8
T54SSILL
 62
13
 10
4714.125
 20
-9234.744
 30
-209.666
 70
    32
  0
VERTEX
  8
T54SSILL
 62
13
 10
4725.655
 20
-9254.190
 30
-209.699
 70
    32
  0
VERTEX
  8
T54SSILL
 62
13
 10
4736.621
 20
-9255.827
 30
-209.717
 70
    32
  0
VERTEX
  8
T54SSILL
 62
13
 10
4744.176
 20
-9265.797
 30
-209.737
 70
    32
  0
VERTEX
  8
T54SSILL
 62
13
 10
4759.854
 20
-9276.132
 30
-209.769
 70
    32
  0
VERTEX
  8
T54SSILL
 62
13
 10
4769.791
 20
-9279.765
 30
-209.788
 70
    32
  0
VERTEX
  8
T54SSILL
 62
13
 10
4781.702
 20
-9279.499
 30
-209.807
 70
    32
  0
VERTEX
  8
T54SSILL
 62
13
 10
4782.978
 20
-9281.277
 30
-209.810
 70
    32
  0
VERTEX
  8
T54SSILL
 62
13
 10
4762.077
 20
-9294.673
 30
-209.787
 70
    32
  0
VERTEX
  8
T54SSILL
 62
13
 10
4746.760
 20
-9300.421
 30
-209.767
 70
    32
  0
VERTEX
  8
T54SSILL
 62
13
 10
4744.084
 20
-9307.975
 30
-209.768
 70
    32
  0
VERTEX
  8
T54SSILL
 62
13
 10
4725.321
 20
-9321.105
 30
-209.748
 70
    32
  0
VERTEX
  8
T54SSILL
 62
13
 10
4729.609
 20
-9327.232
 30
-209.760
 70
    32
  0
VERTEX
  8
T54SSILL
 62
13
 10
4752.932
 20
-9310.957
 30
-209.785
 70
    32
  0
VERTEX
  8
T54SSILL
 62
13
 10
4763.588
 20
-9315.190
 30
-209.805
 70
    32
  0
VERTEX
  8
T54SSILL
 62
13
 10
4769.145
 20
-9313.190
 30
-209.812
 70
    32
  0
VERTEX
  8
T54SSILL
 62
13
 10
4772.466
 20
-9307.800
 30
-209.813
 70
    32
  0
VERTEX
  8
T54SSILL
 62
13
 10
4767.334
 20
-9300.906
 30
-209.800
 70
    32
  0
VERTEX
  8
T54SSILL
 62
13
 10
4997.451
 20
-9138.886
 30
-210.246
 70
    32
  0
VERTEX
  8
T54SSILL
 62
13
 10
5006.683
 20
-9151.750
 30
-210.259
 70
    32
  0
VERTEX
  8
T54SSILL
 62
13
 10
5013.952
 20
-9146.687
 30
-210.277
 70
    32
  0
VERTEX
  8
T54SSILL
 62
13
 10
5004.617
 20
-9133.679
 30
-210.264
 70
    32
  0
VERTEX
  8
T54SSILL
 62
13
 10
5052.977
 20
-9099.527
 30
-210.420
 70
    32
  0
VERTEX
  8
T54SSILL
 62
13
 10
5056.675
 20
-9104.384
 30
-210.427
 70
    32
  0
VERTEX
  8
T54SSILL
 62
13
 10
5066.513
 20
-9097.324
 30
-210.460
 70
    32
  0
VERTEX
  8
T54SSILL
 62
13
 10
5062.767
 20
-9092.587
 30
-210.453
 70
    32
  0
VERTEX
  8
T54SSILL
 62
13
 10
5087.242
 20
-9075.239
 30
-210.534
 70
    32
  0
VERTEX
  8
T54SSILL
 62
13
 10
5097.798
 20
-9189.629
 30
-210.450
 70
    32
  0
VERTEX
  8
T54SSILL
 62
13
 10
5105.493
 20
-9187.521
 30
-210.451
 70
    32
  0
VERTEX
  8
T54SSILL
 62
13
 10
5094.657
 20
-9073.064
 30
-210.557
 70
    32
  0
VERTEX
  8
T54SSILL
 62
13
 10
5101.927
 20
-9064.829
 30
-210.583
 70
    32
  0
VERTEX
  8
T54SSILL
 62
13
 10
5309.470
 20
-8917.715
 30
-210.764
 70
    32
  0
VERTEX
  8
T54SSILL
 62
13
 10
5304.751
 20
-8938.376
 30
-210.737
 70
    32
  0
VERTEX
  8
T54SSILL
 62
13
 10
5308.014
 20
-8957.595
 30
-210.710
 70
    32
  0
VERTEX
  8
T54SSILL
 62
13
 10
5336.427
 20
-9000.053
 30
-210.644
 70
    32
  0
VERTEX
  8
T54SSILL
 62
13
 10
5337.768
 20
-9006.874
 30
-210.634
 70
    32
  0
VERTEX
  8
T54SSILL
 62
13
 10
5335.901
 20
-9016.329
 30
-210.622
 70
    32
  0
VERTEX
  8
T54SSILL
 62
13
 10
5333.163
 20
-9023.669
 30
-210.613
 70
    32
  0
VERTEX
  8
T54SSILL
 62
13
 10
5328.433
 20
-9030.138
 30
-210.605
 70
    32
  0
VERTEX
  8
T54SSILL
 62
13
 10
5255.079
 20
-9083.575
 30
-210.552
 70
    32
  0
VERTEX
  8
T54SSILL
 62
13
 10
5259.195
 20
-9089.236
 30
-210.543
 70
    32
  0
VERTEX
  8
T54SSILL
 62
13
 10
5329.673
 20
-9038.202
 30
-210.594
 70
    32
  0
VERTEX
  8
T54SSILL
 62
13
 10
5338.526
 20
-9029.340
 30
-210.603
 70
    32
  0
VERTEX
  8
T54SSILL
 62
13
 10
5344.131
 20
-9011.436
 30
-210.626
 70
    32
  0
VERTEX
  8
T54SSILL
 62
13
 10
5646.905
 20
-9432.713
 30
-210.390
 70
    32
  0
VERTEX
  8
T54SSILL
 62
13
 10
5645.275
 20
-9443.926
 30
-210.389
 70
    32
  0
VERTEX
  8
T54SSILL
 62
13
 10
5611.195
 20
-9468.060
 30
-210.380
 70
    32
  0
VERTEX
  8
T54SSILL
 62
13
 10
5615.900
 20
-9474.658
 30
-210.380
 70
    32
  0
VERTEX
  8
T54SSILL
 62
13
 10
5650.446
 20
-9449.394
 30
-210.390
 70
    32
  0
VERTEX
  8
T54SSILL
 62
13
 10
5659.561
 20
-9450.743
 30
-210.391
 70
    32
  0
VERTEX
  8
T54SSILL
 62
13
 10
5667.676
 20
-9462.824
 30
-210.392
 70
    32
  0
VERTEX
  8
T54SSILL
 62
13
 10
5668.264
 20
-9473.895
 30
-210.391
 70
    32
  0
VERTEX
  8
T54SSILL
 62
13
 10
5666.127
 20
-9481.397
 30
-210.390
 70
    32
  0
VERTEX
  8
T54SSILL
 62
13
 10
5660.343
 20
-9490.797
 30
-210.388
 70
    32
  0
VERTEX
  8
T54SSILL
 62
13
 10
5638.508
 20
-9507.466
 30
-210.381
 70
    32
  0
VERTEX
  8
T54SSILL
 62
13
 10
5542.073
 20
-9510.859
 30
-210.361
 70
    32
  0
VERTEX
  8
T54SSILL
 62
13
 10
5540.938
 20
-9505.744
 30
-210.362
 70
    32
  0
VERTEX
  8
T54SSILL
 62
13
 10
5528.242
 20
-9505.799
 30
-210.359
 70
    32
  0
VERTEX
  8
T54SSILL
 62
13
 10
5525.646
 20
-9511.104
 30
-210.358
 70
    32
  0
VERTEX
  8
T54SSILL
 62
13
 10
5466.860
 20
-9512.451
 30
-210.346
 70
    32
  0
VERTEX
  8
T54SSILL
 62
13
 10
5468.141
 20
-9520.223
 30
-210.345
 70
    32
  0
VERTEX
  8
T54SSILL
 62
13
 10
5525.242
 20
-9517.394
 30
-210.357
 70
    32
  0
VERTEX
  8
T54SSILL
 62
13
 10
5529.053
 20
-9520.355
 30
-210.358
 70
    32
  0
VERTEX
  8
T54SSILL
 62
13
 10
5537.022
 20
-9519.477
 30
-210.359
 70
    32
  0
VERTEX
  8
T54SSILL
 62
13
 10
5540.452
 20
-9516.860
 30
-210.360
 70
    32
  0
VERTEX
  8
T54SSILL
 62
13
 10
5633.122
 20
-9513.904
 30
-210.380
 70
    32
  0
VERTEX
  8
T54SSILL
 62
13
 10
5620.014
 20
-9533.243
 30
-210.375
 70
    32
  0
VERTEX
  8
T54SSILL
 62
13
 10
5617.811
 20
-9541.397
 30
-210.374
 70
    32
  0
VERTEX
  8
T54SSILL
 62
13
 10
5617.605
 20
-9552.584
 30
-210.373
 70
    32
  0
VERTEX
  8
T54SSILL
 62
13
 10
5611.226
 20
-9554.143
 30
-210.371
 70
    32
  0
VERTEX
  8
T54SSILL
 62
13
 10
5611.676
 20
-9567.054
 30
-210.370
 70
    32
  0
VERTEX
  8
T54SSILL
 62
13
 10
5619.076
 20
-9569.725
 30
-210.371
 70
    32
  0
VERTEX
  8
T54SSILL
 62
13
 10
5626.637
 20
-9590.877
 30
-210.371
 70
    32
  0
VERTEX
  8
T54SSILL
 62
13
 10
5637.540
 20
-9606.230
 30
-210.372
 70
    32
  0
VERTEX
  8
T54SSILL
 62
13
 10
5637.962
 20
-9612.145
 30
-210.371
 70
    32
  0
VERTEX
  8
T54SSILL
 62
13
 10
5631.309
 20
-9623.496
 30
-210.369
 70
    32
  0
VERTEX
  8
T54SSILL
 62
13
 10
5618.600
 20
-9635.376
 30
-210.365
 70
    32
  0
VERTEX
  8
T54SSILL
 62
13
 10
5608.373
 20
-9632.650
 30
-210.363
 70
    32
  0
VERTEX
  8
T54SSILL
 62
13
 10
5596.590
 20
-9617.749
 30
-210.362
 70
    32
  0
VERTEX
  8
T54SSILL
 62
13
 10
5581.632
 20
-9591.028
 30
-210.362
 70
    32
  0
VERTEX
  8
T54SSILL
 62
13
 10
5574.149
 20
-9593.323
 30
-210.360
 70
    32
  0
VERTEX
  8
T54SSILL
 62
13
 10
5589.003
 20
-9623.244
 30
-210.360
 70
    32
  0
VERTEX
  8
T54SSILL
 62
13
 10
5594.520
 20
-9629.700
 30
-210.361
 70
    32
  0
VERTEX
  8
T54SSILL
 62
13
 10
5595.891
 20
-9633.660
 30
-210.360
 70
    32
  0
VERTEX
  8
T54SSILL
 62
13
 10
5583.697
 20
-9650.270
 30
-210.356
 70
    32
  0
VERTEX
  8
T54SSILL
 62
13
 10
5577.662
 20
-9663.151
 30
-210.354
 70
    32
  0
VERTEX
  8
T54SSILL
 62
13
 10
5579.964
 20
-9668.178
 30
-210.354
 70
    32
  0
VERTEX
  8
T54SSILL
 62
13
 10
5583.648
 20
-9668.913
 30
-210.355
 70
    32
  0
VERTEX
  8
T54SSILL
 62
13
 10
5595.596
 20
-9676.779
 30
-210.356
 70
    32
  0
VERTEX
  8
T54SSILL
 62
13
 10
5609.814
 20
-9680.785
 30
-210.359
 70
    32
  0
VERTEX
  8
T54SSILL
 62
13
 10
5617.221
 20
-9688.686
 30
-210.360
 70
    32
  0
VERTEX
  8
T54SSILL
 62
13
 10
5623.589
 20
-9687.693
 30
-210.361
 70
    32
  0
VERTEX
  8
T54SSILL
 62
13
 10
5618.899
 20
-9674.919
 30
-210.361
 70
    32
  0
VERTEX
  8
T54SSILL
 62
13
 10
5618.560
 20
-9665.487
 30
-210.362
 70
    32
  0
VERTEX
  8
T54SSILL
 62
13
 10
5626.663
 20
-9654.137
 30
-210.365
 70
    32
  0
VERTEX
  8
T54SSILL
 62
13
 10
5629.805
 20
-9641.696
 30
-210.367
 70
    32
  0
VERTEX
  8
T54SSILL
 62
13
 10
5638.520
 20
-9634.332
 30
-210.369
 70
    32
  0
VERTEX
  8
T54SSILL
 62
13
 10
5641.151
 20
-9638.772
 30
-210.369
 70
    32
  0
VERTEX
  8
T54SSILL
 62
13
 10
5640.568
 20
-9649.470
 30
-210.368
 70
    32
  0
VERTEX
  8
T54SSILL
 62
13
 10
5645.001
 20
-9659.879
 30
-210.368
 70
    32
  0
VERTEX
  8
T54SSILL
 62
13
 10
5654.170
 20
-9729.818
 30
-210.363
 70
    32
  0
VERTEX
  8
T54SSILL
 62
13
 10
5650.391
 20
-9734.615
 30
-210.362
 70
    32
  0
VERTEX
  8
T54SSILL
 62
13
 10
5641.861
 20
-9739.609
 30
-210.360
 70
    32
  0
VERTEX
  8
T54SSILL
 62
13
 10
5638.974
 20
-9739.041
 30
-210.359
 70
    32
  0
VERTEX
  8
T54SSILL
 62
13
 10
5638.609
 20
-9736.536
 30
-210.359
 70
    32
  0
VERTEX
  8
T54SSILL
 62
13
 10
5637.462
 20
-9736.638
 30
-210.359
 70
    32
  0
VERTEX
  8
T54SSILL
 62
13
 10
5614.985
 20
-9744.214
 30
-210.354
 70
    32
  0
VERTEX
  8
T54SSILL
 62
13
 10
5618.608
 20
-9756.471
 30
-210.353
 70
    32
  0
VERTEX
  8
T54SSILL
 62
13
 10
5628.316
 20
-9754.026
 30
-210.356
 70
    32
  0
VERTEX
  8
T54SSILL
 62
13
 10
5635.884
 20
-9762.137
 30
-210.356
 70
    32
  0
VERTEX
  8
T54SSILL
 62
13
 10
5640.953
 20
-9761.919
 30
-210.357
 70
    32
  0
VERTEX
  8
T54SSILL
 62
13
 10
5631.087
 20
-9776.629
 30
-210.354
 70
    32
  0
VERTEX
  8
T54SSILL
 62
13
 10
5623.149
 20
-9782.394
 30
-210.352
 70
    32
  0
VERTEX
  8
T54SSILL
 62
13
 10
5626.382
 20
-9789.937
 30
-210.352
 70
    32
  0
VERTEX
  8
T54SSILL
 62
13
 10
5632.688
 20
-9792.779
 30
-210.353
 70
    32
  0
VERTEX
  8
T54SSILL
 62
13
 10
5645.510
 20
-9805.989
 30
-210.354
 70
    32
  0
VERTEX
  8
T54SSILL
 62
13
 10
5654.680
 20
-9821.115
 30
-210.354
 70
    32
  0
VERTEX
  8
T54SSILL
 62
13
 10
5650.057
 20
-9823.218
 30
-210.353
 70
    32
  0
VERTEX
  8
T54SSILL
 62
13
 10
5648.707
 20
-9828.712
 30
-210.353
 70
    32
  0
VERTEX
  8
T54SSILL
 62
13
 10
5638.840
 20
-9835.735
 30
-210.350
 70
    32
  0
VERTEX
  8
T54SSILL
 62
13
 10
5637.500
 20
-9842.112
 30
-210.349
 70
    32
  0
VERTEX
  8
T54SSILL
 62
13
 10
5647.617
 20
-9867.316
 30
-210.349
 70
    32
  0
VERTEX
  8
T54SSILL
 62
13
 10
5650.889
 20
-9881.291
 30
-210.348
 70
    32
  0
VERTEX
  8
T54SSILL
 62
13
 10
5661.266
 20
-9904.513
 30
-210.348
 70
    32
  0
VERTEX
  8
T54SSILL
 62
13
 10
5683.846
 20
-9922.593
 30
-210.351
 70
    32
  0
VERTEX
  8
T54SSILL
 62
13
 10
5686.359
 20
-9927.459
 30
-210.351
 70
    32
  0
VERTEX
  8
T54SSILL
 62
13
 10
5606.850
 20
-9960.134
 30
-210.331
 70
    32
  0
VERTEX
  8
T54SSILL
 62
13
 10
5610.605
 20
-9968.502
 30
-210.331
 70
    32
  0
VERTEX
  8
T54SSILL
 62
13
 10
5689.029
 20
-9938.330
 30
-210.350
 70
    32
  0
VERTEX
  8
T54SSILL
 62
13
 10
5696.706
 20
-9937.446
 30
-210.352
 70
    32
  0
VERTEX
  8
T54SSILL
 62
13
 10
5699.924
 20
-9942.215
 30
-210.352
 70
    32
  0
VERTEX
  8
T54SSILL
 62
13
 10
5782.509
 20
-9882.221
 30
-210.375
 70
    32
  0
VERTEX
  8
T54SSILL
 62
13
 10
5777.663
 20
-9897.085
 30
-210.373
 70
    32
  0
VERTEX
  8
T54SSILL
 62
13
 10
5785.124
 20
-9923.677
 30
-210.371
 70
    32
  0
VERTEX
  8
T54SSILL
 62
13
 10
5781.333
 20
-9930.139
 30
-210.370
 70
    32
  0
VERTEX
  8
T54SSILL
 62
13
 10
5765.721
 20
-9941.576
 30
-210.366
 70
    32
  0
VERTEX
  8
T54SSILL
 62
13
 10
5771.975
 20
-9950.586
 30
-210.366
 70
    32
  0
VERTEX
  8
T54SSILL
 62
13
 10
5776.453
 20
-9946.700
 30
-210.367
 70
    32
  0
VERTEX
  8
T54SSILL
 62
13
 10
5778.972
 20
-9950.558
 30
-210.368
 70
    32
  0
VERTEX
  8
T54SSILL
 62
13
 10
5789.971
 20
-9942.108
 30
-210.371
 70
    32
  0
VERTEX
  8
T54SSILL
 62
13
 10
5794.565
 20
-9958.704
 30
-210.370
 70
    32
  0
VERTEX
  8
T54SSILL
 62
13
 10
5787.602
 20
-9966.432
 30
-210.368
 70
    32
  0
VERTEX
  8
T54SSILL
 62
13
 10
5789.400
 20
-9985.884
 30
-210.366
 70
    32
  0
VERTEX
  8
T54SSILL
 62
13
 10
5786.010
 20
-9998.293
 30
-210.364
 70
    32
  0
VERTEX
  8
T54SSILL
 62
13
 10
5782.593
 20
-10002.255
 30
-210.363
 70
    32
  0
VERTEX
  8
T54SSILL
 62
13
 10
5782.132
 20
-10006.731
 30
-210.363
 70
    32
  0
VERTEX
  8
T54SSILL
 62
13
 10
5776.562
 20
-10015.578
 30
-210.361
 70
    32
  0
VERTEX
  8
T54SSILL
 62
13
 10
5775.320
 20
-10021.211
 30
-210.360
 70
    32
  0
VERTEX
  8
T54SSILL
 62
13
 10
5776.388
 20
-10027.967
 30
-210.360
 70
    32
  0
VERTEX
  8
T54SSILL
 62
13
 10
5786.736
 20
-10045.641
 30
-210.360
 70
    32
  0
VERTEX
  8
T54SSILL
 62
13
 10
5788.737
 20
-10058.252
 30
-210.359
 70
    32
  0
VERTEX
  8
T54SSILL
 62
13
 10
5794.154
 20
-10071.247
 30
-210.359
 70
    32
  0
VERTEX
  8
T54SSILL
 62
13
 10
5798.653
 20
-10076.814
 30
-210.359
 70
    32
  0
VERTEX
  8
T54SSILL
 62
13
 10
5802.083
 20
-10079.973
 30
-210.360
 70
    32
  0
VERTEX
  8
T54SSILL
 62
13
 10
5807.867
 20
-10081.991
 30
-210.361
 70
    32
  0
VERTEX
  8
T54SSILL
 62
13
 10
5829.216
 20
-10083.883
 30
-210.365
 70
    32
  0
VERTEX
  8
T54SSILL
 62
13
 10
5835.948
 20
-10081.570
 30
-210.367
 70
    32
  0
VERTEX
  8
T54SSILL
 62
13
 10
5819.286
 20
-10019.853
 30
-210.369
 70
    32
  0
VERTEX
  8
T54SSILL
 62
13
 10
5818.987
 20
-10015.404
 30
-210.370
 70
    32
  0
VERTEX
  8
T54SSILL
 62
13
 10
5823.299
 20
-10010.866
 30
-210.371
 70
    32
  0
VERTEX
  8
T54SSILL
 62
13
 10
5818.067
 20
-9995.500
 30
-210.371
 70
    32
  0
VERTEX
  8
T54SSILL
 62
13
 10
5820.210
 20
-9988.284
 30
-210.372
 70
    32
  0
VERTEX
  8
T54SSILL
 62
13
 10
5810.462
 20
-9967.475
 30
-210.372
 70
    32
  0
VERTEX
  8
T54SSILL
 62
13
 10
5810.771
 20
-9963.672
 30
-210.373
 70
    32
  0
VERTEX
  8
T54SSILL
 62
13
 10
5807.905
 20
-9955.736
 30
-210.373
 70
    32
  0
VERTEX
  8
T54SSILL
 62
13
 10
5800.381
 20
-9951.758
 30
-210.372
 70
    32
  0
VERTEX
  8
T54SSILL
 62
13
 10
5783.938
 20
-9897.278
 30
-210.374
 70
    32
  0
VERTEX
  8
T54SSILL
 62
13
 10
5791.515
 20
-9876.472
 30
-210.377
 70
    32
  0
VERTEX
  8
T54SSILL
 62
13
 10
5806.725
 20
-9865.085
 30
-210.382
 70
    32
  0
VERTEX
  8
T54SSILL
 62
13
 10
5803.583
 20
-9887.755
 30
-210.379
 70
    32
  0
VERTEX
  8
T54SSILL
 62
13
 10
5808.034
 20
-9911.965
 30
-210.377
 70
    32
  0
VERTEX
  8
T54SSILL
 62
13
 10
5802.474
 20
-9923.144
 30
-210.375
 70
    32
  0
VERTEX
  8
T54SSILL
 62
13
 10
5803.572
 20
-9932.550
 30
-210.374
 70
    32
  0
VERTEX
  8
T54SSILL
 62
13
 10
5809.789
 20
-9939.917
 30
-210.375
 70
    32
  0
VERTEX
  8
T54SSILL
 62
13
 10
5816.143
 20
-9934.701
 30
-210.377
 70
    32
  0
VERTEX
  8
T54SSILL
 62
13
 10
5823.261
 20
-9913.079
 30
-210.380
 70
    32
  0
VERTEX
  8
T54SSILL
 62
13
 10
5824.249
 20
-9900.733
 30
-210.382
 70
    32
  0
VERTEX
  8
T54SSILL
 62
13
 10
5827.806
 20
-9887.528
 30
-210.384
 70
    32
  0
VERTEX
  8
T54SSILL
 62
13
 10
5826.690
 20
-9872.008
 30
-210.385
 70
    32
  0
VERTEX
  8
T54SSILL
 62
13
 10
5828.014
 20
-9864.306
 30
-210.386
 70
    32
  0
VERTEX
  8
T54SSILL
 62
13
 10
5821.467
 20
-9860.424
 30
-210.385
 70
    32
  0
VERTEX
  8
T54SSILL
 62
13
 10
5820.819
 20
-9854.803
 30
-210.386
 70
    32
  0
VERTEX
  8
T54SSILL
 62
13
 10
5888.460
 20
-9805.947
 30
-210.404
 70
    32
  0
VERTEX
  8
T54SSILL
 62
13
 10
5895.787
 20
-9794.748
 30
-210.407
 70
    32
  0
VERTEX
  8
T54SSILL
 62
13
 10
5897.264
 20
-9783.475
 30
-210.408
 70
    32
  0
VERTEX
  8
T54SSILL
 62
13
 10
6042.368
 20
-9985.832
 30
-210.419
 70
    32
  0
VERTEX
  8
T54SSILL
 62
13
 10
6048.873
 20
-9981.392
 30
-210.420
 70
    32
  0
VERTEX
  8
T54SSILL
 62
13
 10
5771.855
 20
-9595.732
 30
-210.400
 70
    32
  0
VERTEX
  8
T54SSILL
 62
13
 10
5804.320
 20
-9572.892
 30
-210.409
 70
    32
  0
VERTEX
  8
T54SSILL
 62
13
 10
5799.769
 20
-9566.376
 30
-210.409
 70
    32
  0
VERTEX
  8
T54SSILL
 62
13
 10
5772.448
 20
-9585.918
 30
-210.402
 70
    32
  0
VERTEX
  8
T54SSILL
 62
13
 10
5765.354
 20
-9585.240
 30
-210.400
 70
    32
  0
VERTEX
  8
T54SSILL
 62
13
 10
5672.240
 20
-9454.368
 30
-210.394
 70
    32
  0
VERTEX
  8
T54SSILL
 62
13
 10
5715.087
 20
-9461.522
 30
-210.402
 70
    32
  0
VERTEX
  8
T54SSILL
 62
13
 10
5757.383
 20
-9432.089
 30
-210.413
 70
    32
  0
VERTEX
  8
T54SSILL
 62
13
 10
5761.769
 20
-9438.208
 30
-210.414
 70
    32
  0
VERTEX
  8
T54SSILL
 62
13
 10
5771.522
 20
-9431.216
 30
-210.416
 70
    32
  0
VERTEX
  8
T54SSILL
 62
13
 10
5767.233
 20
-9425.234
 30
-210.416
 70
    32
  0
VERTEX
  8
T54SSILL
 62
13
 10
5833.215
 20
-9379.318
 30
-210.434
 70
    32
  0
VERTEX
  8
T54SSILL
 62
13
 10
5828.209
 20
-9372.617
 30
-210.434
 70
    32
  0
VERTEX
  8
T54SSILL
 62
13
 10
5713.922
 20
-9452.886
 30
-210.402
 70
    32
  0
VERTEX
  8
T54SSILL
 62
13
 10
5664.334
 20
-9444.662
 30
-210.393
 70
    32
  0
VERTEX
  8
T54SSILL
 62
13
 10
5350.425
 20
-9008.072
 30
-210.629
 70
    32
  0
VERTEX
  8
T54SSILL
 62
13
 10
5350.627
 20
-9007.031
 30
-210.631
 70
    32
  0
VERTEX
  8
T54SSILL
 62
13
 10
5366.732
 20
-9008.250
 30
-210.627
 70
    32
  0
VERTEX
  8
T54SSILL
 62
13
 10
5375.083
 20
-9004.534
 30
-210.632
 70
    32
  0
VERTEX
  8
T54SSILL
 62
13
 10
5375.242
 20
-9010.836
 30
-210.626
 70
    32
  0
VERTEX
  8
T54SSILL
 62
13
 10
5371.920
 20
-9017.803
 30
-210.618
 70
    32
  0
VERTEX
  8
T54SSILL
 62
13
 10
5382.951
 20
-9031.092
 30
-210.606
 70
    32
  0
VERTEX
  8
T54SSILL
 62
13
 10
5399.296
 20
-9041.765
 30
-210.597
 70
    32
  0
VERTEX
  8
T54SSILL
 62
13
 10
5408.974
 20
-9034.709
 30
-210.605
 70
    32
  0
VERTEX
  8
T54SSILL
 62
13
 10
5412.076
 20
-9024.698
 30
-210.615
 70
    32
  0
VERTEX
  8
T54SSILL
 62
13
 10
5409.695
 20
-9018.097
 30
-210.622
 70
    32
  0
VERTEX
  8
T54SSILL
 62
13
 10
5404.093
 20
-9011.630
 30
-210.628
 70
    32
  0
VERTEX
  8
T54SSILL
 62
13
 10
5402.392
 20
-8993.876
 30
-210.645
 70
    32
  0
VERTEX
  8
T54SSILL
 62
13
 10
5404.522
 20
-8989.702
 30
-210.650
 70
    32
  0
VERTEX
  8
T54SSILL
 62
13
 10
5401.711
 20
-8986.310
 30
-210.653
 70
    32
  0
VERTEX
  8
T54SSILL
 62
13
 10
5435.124
 20
-8962.464
 30
-210.680
 70
    32
  0
VERTEX
  8
T54SSILL
 62
13
 10
5431.150
 20
-8956.968
 30
-210.685
 70
    32
  0
VERTEX
  8
T54SSILL
 62
13
 10
5382.918
 20
-8992.017
 30
-210.645
 70
    32
  0
VERTEX
  8
T54SSILL
 62
13
 10
5377.719
 20
-8985.352
 30
-210.653
 70
    32
  0
VERTEX
  8
T54SSILL
 62
13
 10
5374.808
 20
-8978.492
 30
-210.663
 70
    32
  0
VERTEX
  8
T54SSILL
 62
13
 10
5366.473
 20
-8973.667
 30
-210.672
 70
    32
  0
VERTEX
  8
T54SSILL
 62
13
 10
5355.586
 20
-8954.619
 30
-210.701
 70
    32
  0
VERTEX
  8
T54SSILL
 62
13
 10
5340.382
 20
-8957.918
 30
-210.700
 70
    32
  0
VERTEX
  8
T54SSILL
 62
13
 10
5340.828
 20
-8966.772
 30
-210.688
 70
    32
  0
VERTEX
  8
T54SSILL
 62
13
 10
5345.581
 20
-8974.884
 30
-210.676
 70
    32
  0
VERTEX
  8
T54SSILL
 62
13
 10
5353.280
 20
-8977.425
 30
-210.670
 70
    32
  0
VERTEX
  8
T54SSILL
 62
13
 10
5364.489
 20
-8984.708
 30
-210.657
 70
    32
  0
VERTEX
  8
T54SSILL
 62
13
 10
5372.120
 20
-8995.719
 30
-210.640
 70
    32
  0
VERTEX
  8
T54SSILL
 62
13
 10
5373.211
 20
-8999.760
 30
-210.637
 70
    32
  0
VERTEX
  8
T54SSILL
 62
13
 10
5369.231
 20
-9001.801
 30
-210.634
 70
    32
  0
VERTEX
  8
T54SSILL
 62
13
 10
5359.323
 20
-9002.608
 30
-210.634
 70
    32
  0
VERTEX
  8
T54SSILL
 62
13
 10
5346.113
 20
-8998.071
 30
-210.644
 70
    32
  0
VERTEX
  8
T54SSILL
 62
13
 10
5340.187
 20
-8992.949
 30
-210.653
 70
    32
  0
VERTEX
  8
T54SSILL
 62
13
 10
5315.973
 20
-8958.577
 30
-210.706
 70
    32
  0
VERTEX
  8
T54SSILL
 62
13
 10
5312.792
 20
-8950.071
 30
-210.719
 70
    32
  0
VERTEX
  8
T54SSILL
 62
13
 10
5313.002
 20
-8929.307
 30
-210.747
 70
    32
  0
VERTEX
  8
T54SSILL
 62
13
 10
5319.544
 20
-8913.791
 30
-210.766
 70
    32
  0
VERTEX
  8
T54SSILL
 62
13
 10
5330.796
 20
-8903.428
 30
-210.777
 70
    32
  0
VERTEX
  8
T54SSILL
 62
13
 10
5811.180
 20
-8563.655
 30
-211.009
 70
    32
  0
VERTEX
  8
T54SSILL
 62
13
 10
5823.232
 20
-8563.557
 30
-210.998
 70
    32
  0
VERTEX
  8
T54SSILL
 62
13
 10
5832.921
 20
-8569.409
 30
-210.990
 70
    32
  0
VERTEX
  8
T54SSILL
 62
13
 10
5886.824
 20
-8645.573
 30
-210.945
 70
    32
  0
VERTEX
  8
T54SSILL
 62
13
 10
5892.747
 20
-8640.988
 30
-210.940
 70
    32
  0
VERTEX
  8
T54SSILL
 62
13
 10
5837.789
 20
-8564.274
 30
-210.986
 70
    32
  0
VERTEX
  8
T54SSILL
 62
13
 10
5837.917
 20
-8554.529
 30
-210.985
 70
    32
  0
VERTEX
  8
T54SSILL
 62
13
 10
5841.728
 20
-8541.018
 30
-210.982
 70
    32
  0
VERTEX
  8
T54SSILL
 62
13
 10
5903.920
 20
-8497.761
 30
-210.926
 70
    32
  0
VERTEX
  8
T54SSILL
 62
13
 10
5909.959
 20
-8505.748
 30
-210.921
 70
    32
  0
VERTEX
  8
T54SSILL
 62
13
 10
5915.933
 20
-8500.050
 30
-210.920
 70
    32
  0
VERTEX
  8
T54SSILL
 62
13
 10
5909.750
 20
-8492.164
 30
-210.925
 70
    32
  0
VERTEX
  8
T54SSILL
 62
13
 10
5933.441
 20
-8475.952
 30
-210.929
 70
    32
  0
VERTEX
  8
T54SSILL
 62
13
 10
5941.600
 20
-8482.987
 30
-210.925
 70
    32
  0
VERTEX
  8
T54SSILL
 62
13
 10
5947.516
 20
-8485.911
 30
-210.923
 70
    32
  0
VERTEX
  8
T54SSILL
 62
13
 10
5953.177
 20
-8482.364
 30
-210.924
 70
    32
  0
VERTEX
  8
T54SSILL
 62
13
 10
5954.977
 20
-8479.276
 30
-210.926
 70
    32
  0
VERTEX
  8
T54SSILL
 62
13
 10
5950.092
 20
-8464.685
 30
-210.933
 70
    32
  0
VERTEX
  8
T54SSILL
 62
13
 10
5981.316
 20
-8441.788
 30
-210.940
 70
    32
  0
VERTEX
  8
T54SSILL
 62
13
 10
5985.365
 20
-8442.054
 30
-210.939
 70
    32
  0
VERTEX
  8
T54SSILL
 62
13
 10
5993.590
 20
-8449.793
 30
-210.935
 70
    32
  0
VERTEX
  8
T54SSILL
 62
13
 10
5997.460
 20
-8450.722
 30
-210.934
 70
    32
  0
VERTEX
  8
T54SSILL
 62
13
 10
6001.900
 20
-8448.032
 30
-210.935
 70
    32
  0
VERTEX
  8
T54SSILL
 62
13
 10
6004.209
 20
-8443.836
 30
-210.937
 70
    32
  0
VERTEX
  8
T54SSILL
 62
13
 10
6000.632
 20
-8428.970
 30
-210.938
 70
    32
  0
VERTEX
  8
T54SSILL
 62
13
 10
6208.920
 20
-8281.716
 30
-210.917
 70
    32
  0
VERTEX
  8
T54SSILL
 62
13
 10
6234.370
 20
-8331.585
 30
-210.914
 70
    32
  0
VERTEX
  8
T54SSILL
 62
13
 10
6237.264
 20
-8377.428
 30
-210.914
 70
    32
  0
VERTEX
  8
T54SSILL
 62
13
 10
6245.243
 20
-8377.299
 30
-210.914
 70
    32
  0
VERTEX
  8
T54SSILL
 62
13
 10
6244.545
 20
-8374.778
 30
-210.914
 70
    32
  0
VERTEX
  8
T54SSILL
 62
13
 10
6258.822
 20
-8385.279
 30
-210.913
 70
    32
  0
VERTEX
  8
T54SSILL
 62
13
 10
6263.019
 20
-8380.388
 30
-210.912
 70
    32
  0
VERTEX
  8
T54SSILL
 62
13
 10
6244.586
 20
-8365.818
 30
-210.913
 70
    32
  0
VERTEX
  8
T54SSILL
 62
13
 10
6241.602
 20
-8329.937
 30
-210.914
 70
    32
  0
VERTEX
  8
T54SSILL
 62
13
 10
6220.690
 20
-8284.942
 30
-210.916
 70
    32
  0
VERTEX
  8
T54SSILL
 62
13
 10
6228.940
 20
-8278.166
 30
-210.915
 70
    32
  0
VERTEX
  8
T54SSILL
 62
13
 10
6242.420
 20
-8262.007
 30
-210.914
 70
    32
  0
VERTEX
  8
T54SSILL
 62
13
 10
6244.915
 20
-8256.268
 30
-210.914
 70
    32
  0
VERTEX
  8
T54SSILL
 62
13
 10
6320.121
 20
-8203.332
 30
-210.908
 70
    32
  0
VERTEX
  8
T54SSILL
 62
13
 10
6326.327
 20
-8200.685
 30
-210.907
 70
    32
  0
VERTEX
  8
T54SSILL
 62
13
 10
6334.141
 20
-8200.780
 30
-210.906
 70
    32
  0
VERTEX
  8
T54SSILL
 62
13
 10
6348.272
 20
-8206.673
 30
-210.905
 70
    32
  0
VERTEX
  8
T54SSILL
 62
13
 10
6462.710
 20
-8367.913
 30
-210.894
 70
    32
  0
VERTEX
  8
T54SSILL
 62
13
 10
6466.766
 20
-8382.736
 30
-210.894
 70
    32
  0
VERTEX
  8
T54SSILL
 62
13
 10
6464.992
 20
-8392.491
 30
-210.894
 70
    32
  0
VERTEX
  8
T54SSILL
 62
13
 10
6462.330
 20
-8398.825
 30
-210.894
 70
    32
  0
VERTEX
  8
T54SSILL
 62
13
 10
6457.767
 20
-8404.273
 30
-210.894
 70
    32
  0
VERTEX
  8
T54SSILL
 62
13
 10
6341.000
 20
-8486.000
 30
-210.879
 70
    32
  0
VERTEX
  8
T54SSILL
 62
13
 10
6345.000
 20
-8493.000
 30
-210.875
 70
    32
  0
VERTEX
  8
T54SSILL
 62
13
 10
6461.000
 20
-8412.000
 30
-210.894
 70
    32
  0
VERTEX
  8
T54SSILL
 62
13
 10
6467.000
 20
-8407.000
 30
-210.894
 70
    32
  0
VERTEX
  8
T54SSILL
 62
13
 10
6472.000
 20
-8399.000
 30
-210.893
 70
    32
  0
VERTEX
  8
T54SSILL
 62
13
 10
6475.474
 20
-8386.082
 30
-210.893
 70
    32
  0
VERTEX
  8
T54SSILL
 62
13
 10
6605.116
 20
-8565.928
 30
-210.792
 70
    32
  0
VERTEX
  8
T54SSILL
 62
13
 10
6608.286
 20
-8626.502
 30
-210.761
 70
    32
  0
VERTEX
  8
T54SSILL
 62
13
 10
6354.634
 20
-9083.208
 30
-210.599
 70
    32
  0
VERTEX
  8
T54SSILL
 62
13
 10
6358.386
 20
-9088.330
 30
-210.597
 70
    32
  0
VERTEX
  8
T54SSILL
 62
13
 10
6365.557
 20
-9083.701
 30
-210.598
 70
    32
  0
VERTEX
  8
T54SSILL
 62
13
 10
6614.740
 20
-8631.236
 30
-210.757
 70
    32
  0
VERTEX
  8
T54SSILL
 62
13
 10
6611.214
 20
-8560.749
 30
-210.793
 70
    32
  0
VERTEX
  8
T54SSILL
 62
13
 10
6342.621
 20
-8186.842
 30
-210.906
 70
    32
  0
VERTEX
  8
T54SSILL
 62
13
 10
6348.951
 20
-8182.299
 30
-210.906
 70
    32
  0
VERTEX
  8
T54SSILL
 62
13
 10
6344.167
 20
-8175.108
 30
-210.906
 70
    32
  0
VERTEX
  8
T54SSILL
 62
13
 10
6337.523
 20
-8179.685
 30
-210.907
 70
    32
  0
VERTEX
  8
T54SSILL
 62
13
 10
6275.947
 20
-8093.243
 30
-210.913
 70
    32
  0
VERTEX
  8
T54SSILL
 62
13
 10
6269.410
 20
-8074.765
 30
-210.914
 70
    32
  0
VERTEX
  8
T54SSILL
 62
13
 10
6271.446
 20
-8056.176
 30
-210.914
 70
    32
  0
VERTEX
  8
T54SSILL
 62
13
 10
6281.341
 20
-8038.597
 30
-210.914
 70
    32
  0
VERTEX
  8
T54SSILL
 62
13
 10
6475.741
 20
-7899.748
 30
-210.910
 70
    32
  0
VERTEX
  8
T54SSILL
 62
13
 10
6471.684
 20
-7894.044
 30
-210.910
 70
    32
  0
VERTEX
  8
T54SSILL
 62
13
 10
6281.824
 20
-8029.084
 30
-210.914
 70
    32
  0
VERTEX
  8
T54SSILL
 62
13
 10
6275.991
 20
-8033.943
 30
-210.915
 70
    32
  0
VERTEX
  8
T54SSILL
 62
13
 10
6264.662
 20
-8054.076
 30
-210.915
 70
    32
  0
VERTEX
  8
T54SSILL
 62
13
 10
6262.428
 20
-8074.266
 30
-210.914
 70
    32
  0
VERTEX
  8
T54SSILL
 62
13
 10
6226.398
 20
-8023.686
 30
-210.918
 70
    32
  0
VERTEX
  8
T54SSILL
 62
13
 10
6236.250
 20
-7946.390
 30
-210.919
 70
    32
  0
VERTEX
  8
T54SSILL
 62
13
 10
6256.644
 20
-7931.433
 30
-210.919
 70
    32
  0
VERTEX
  8
T54SSILL
 62
13
 10
6261.595
 20
-7936.910
 30
-210.918
 70
    32
  0
VERTEX
  8
T54SSILL
 62
13
 10
6260.203
 20
-7947.466
 30
-210.918
 70
    32
  0
VERTEX
  8
T54SSILL
 62
13
 10
6292.697
 20
-7966.879
 30
-210.916
 70
    32
  0
VERTEX
  8
T54SSILL
 62
13
 10
6297.539
 20
-7982.624
 30
-210.915
 70
    32
  0
VERTEX
  8
T54SSILL
 62
13
 10
6301.142
 20
-7982.239
 30
-210.915
 70
    32
  0
VERTEX
  8
T54SSILL
 62
13
 10
6305.025
 20
-7984.240
 30
-210.915
 70
    32
  0
VERTEX
  8
T54SSILL
 62
13
 10
6307.099
 20
-7989.021
 30
-210.914
 70
    32
  0
VERTEX
  8
T54SSILL
 62
13
 10
6311.605
 20
-7989.615
 30
-210.914
 70
    32
  0
VERTEX
  8
T54SSILL
 62
13
 10
6318.070
 20
-7986.570
 30
-210.914
 70
    32
  0
VERTEX
  8
T54SSILL
 62
13
 10
6315.380
 20
-7974.799
 30
-210.914
 70
    32
  0
VERTEX
  8
T54SSILL
 62
13
 10
6304.604
 20
-7963.770
 30
-210.915
 70
    32
  0
VERTEX
  8
T54SSILL
 62
13
 10
6282.876
 20
-7912.935
 30
-210.918
 70
    32
  0
VERTEX
  8
T54SSILL
 62
13
 10
6442.672
 20
-7797.517
 30
-210.913
 70
    32
  0
VERTEX
  8
T54SSILL
 62
13
 10
6437.966
 20
-7791.047
 30
-210.914
 70
    32
  0
VERTEX
  8
T54SSILL
 62
13
 10
6322.034
 20
-7875.362
 30
-210.917
 70
    32
  0
VERTEX
  8
T54SSILL
 62
13
 10
6319.978
 20
-7874.492
 30
-210.917
 70
    32
  0
VERTEX
  8
T54SSILL
 62
13
 10
6338.719
 20
-7758.949
 30
-210.920
 70
    32
  0
VERTEX
  8
T54SSILL
 62
13
 10
6343.159
 20
-7746.681
 30
-210.920
 70
    32
  0
VERTEX
  8
T54SSILL
 62
13
 10
6350.154
 20
-7738.098
 30
-210.920
 70
    32
  0
VERTEX
  8
T54SSILL
 62
13
 10
6390.795
 20
-7709.269
 30
-210.919
 70
    32
  0
VERTEX
  8
T54SSILL
 62
13
 10
6395.688
 20
-7713.623
 30
-210.919
 70
    32
  0
VERTEX
  8
T54SSILL
 62
13
 10
6392.081
 20
-7729.288
 30
-210.918
 70
    32
  0
VERTEX
  8
T54SSILL
 62
13
 10
6397.561
 20
-7732.640
 30
-210.918
 70
    32
  0
VERTEX
  8
T54SSILL
 62
13
 10
6402.775
 20
-7719.717
 30
-210.918
 70
    32
  0
VERTEX
  8
T54SSILL
 62
13
 10
6409.506
 20
-7713.688
 30
-210.918
 70
    32
  0
VERTEX
  8
T54SSILL
 62
13
 10
6415.167
 20
-7717.450
 30
-210.917
 70
    32
  0
VERTEX
  8
T54SSILL
 62
13
 10
6418.538
 20
-7716.583
 30
-210.917
 70
    32
  0
VERTEX
  8
T54SSILL
 62
13
 10
6416.986
 20
-7710.252
 30
-210.918
 70
    32
  0
VERTEX
  8
T54SSILL
 62
13
 10
6423.581
 20
-7704.641
 30
-210.917
 70
    32
  0
VERTEX
  8
T54SSILL
 62
13
 10
6431.029
 20
-7722.101
 30
-210.916
 70
    32
  0
VERTEX
  8
T54SSILL
 62
13
 10
6436.854
 20
-7716.925
 30
-210.916
 70
    32
  0
VERTEX
  8
T54SSILL
 62
13
 10
6438.543
 20
-7709.388
 30
-210.917
 70
    32
  0
VERTEX
  8
T54SSILL
 62
13
 10
6430.752
 20
-7701.530
 30
-210.917
 70
    32
  0
VERTEX
  8
T54SSILL
 62
13
 10
6435.271
 20
-7692.970
 30
-210.917
 70
    32
  0
VERTEX
  8
T54SSILL
 62
13
 10
6430.794
 20
-7679.120
 30
-210.918
 70
    32
  0
VERTEX
  8
T54SSILL
 62
13
 10
6422.742
 20
-7670.585
 30
-210.919
 70
    32
  0
VERTEX
  8
T54SSILL
 62
13
 10
6411.109
 20
-7684.477
 30
-210.919
 70
    32
  0
VERTEX
  8
T54SSILL
 62
13
 10
6399.176
 20
-7688.465
 30
-210.919
 70
    32
  0
VERTEX
  8
T54SSILL
 62
13
 10
6388.570
 20
-7695.715
 30
-210.920
 70
    32
  0
VERTEX
  8
T54SSILL
 62
13
 10
6387.376
 20
-7696.771
 30
-210.920
 70
    32
  0
VERTEX
  8
T54SSILL
 62
13
 10
6390.644
 20
-7700.818
 30
-210.919
 70
    32
  0
VERTEX
  8
T54SSILL
 62
13
 10
6342.599
 20
-7735.571
 30
-210.921
 70
    32
  0
VERTEX
  8
T54SSILL
 62
13
 10
6353.192
 20
-7670.263
 30
-210.922
 70
    32
  0
VERTEX
  8
T54SSILL
 62
13
 10
6357.072
 20
-7660.177
 30
-210.922
 70
    32
  0
VERTEX
  8
T54SSILL
 62
13
 10
6384.496
 20
-7644.321
 30
-210.921
 70
    32
  0
VERTEX
  8
T54SSILL
 62
13
 10
6392.670
 20
-7645.594
 30
-210.921
 70
    32
  0
VERTEX
  8
T54SSILL
 62
13
 10
6395.368
 20
-7654.777
 30
-210.921
 70
    32
  0
VERTEX
  8
T54SSILL
 62
13
 10
6403.274
 20
-7643.080
 30
-210.920
 70
    32
  0
VERTEX
  8
T54SSILL
 62
13
 10
6408.893
 20
-7630.732
 30
-210.921
 70
    32
  0
VERTEX
  8
T54SSILL
 62
13
 10
6405.158
 20
-7624.968
 30
-210.921
 70
    32
  0
VERTEX
  8
T54SSILL
 62
13
 10
6405.370
 20
-7615.028
 30
-210.921
 70
    32
  0
VERTEX
  8
T54SSILL
 62
13
 10
6407.901
 20
-7609.911
 30
-210.921
 70
    32
  0
VERTEX
  8
T54SSILL
 62
13
 10
6405.492
 20
-7584.170
 30
-210.922
 70
    32
  0
VERTEX
  8
T54SSILL
 62
13
 10
6408.090
 20
-7582.664
 30
-210.922
 70
    32
  0
VERTEX
  8
T54SSILL
 62
13
 10
6421.663
 20
-7563.426
 30
-210.922
 70
    32
  0
VERTEX
  8
T54SSILL
 62
13
 10
6415.597
 20
-7559.088
 30
-210.923
 70
    32
  0
VERTEX
  8
T54SSILL
 62
13
 10
6405.911
 20
-7570.855
 30
-210.923
 70
    32
  0
VERTEX
  8
T54SSILL
 62
13
 10
6403.145
 20
-7571.511
 30
-210.923
 70
    32
  0
VERTEX
  8
T54SSILL
 62
13
 10
6397.654
 20
-7586.028
 30
-210.923
 70
    32
  0
VERTEX
  8
T54SSILL
 62
13
 10
6396.599
 20
-7609.904
 30
-210.922
 70
    32
  0
VERTEX
  8
T54SSILL
 62
13
 10
6394.153
 20
-7614.531
 30
-210.922
 70
    32
  0
VERTEX
  8
T54SSILL
 62
13
 10
6395.051
 20
-7621.008
 30
-210.922
 70
    32
  0
VERTEX
  8
T54SSILL
 62
13
 10
6383.260
 20
-7626.701
 30
-210.922
 70
    32
  0
VERTEX
  8
T54SSILL
 62
13
 10
6386.791
 20
-7633.518
 30
-210.922
 70
    32
  0
VERTEX
  8
T54SSILL
 62
13
 10
6356.774
 20
-7650.234
 30
-210.923
 70
    32
  0
VERTEX
  8
T54SSILL
 62
13
 10
6374.544
 20
-7540.678
 30
-210.925
 70
    32
  0
VERTEX
  8
T54SSILL
 62
13
 10
6389.389
 20
-7534.390
 30
-210.925
 70
    32
  0
VERTEX
  8
T54SSILL
 62
13
 10
6389.853
 20
-7518.999
 30
-210.925
 70
    32
  0
VERTEX
  8
T54SSILL
 62
13
 10
6380.678
 20
-7513.812
 30
-210.926
 70
    32
  0
VERTEX
  8
T54SSILL
 62
13
 10
6386.669
 20
-7476.878
 30
-210.927
 70
    32
  0
VERTEX
  8
T54SSILL
 62
13
 10
6378.591
 20
-7476.710
 30
-210.927
 70
    32
  0
VERTEX
  8
T54SSILL
 62
13
 10
6369.695
 20
-7531.558
 30
-210.926
 70
    32
  0
VERTEX
  8
T54SSILL
 62
13
 10
6359.976
 20
-7538.055
 30
-210.926
 70
    32
  0
VERTEX
  8
T54SSILL
 62
13
 10
6359.338
 20
-7546.810
 30
-210.926
 70
    32
  0
VERTEX
  8
T54SSILL
 62
13
 10
6363.727
 20
-7554.803
 30
-210.925
 70
    32
  0
VERTEX
  8
T54SSILL
 62
13
 10
6310.643
 20
-7882.080
 30
-210.918
 70
    32
  0
VERTEX
  8
T54SSILL
 62
13
 10
6214.897
 20
-7951.187
 30
-210.920
 70
    32
  0
VERTEX
  8
T54SSILL
 62
13
 10
6206.320
 20
-7971.192
 30
-210.920
 70
    32
  0
VERTEX
  8
T54SSILL
 62
13
 10
6204.132
 20
-7992.429
 30
-210.920
 70
    32
  0
VERTEX
  8
T54SSILL
 62
13
 10
6202.825
 20
-7992.740
 30
-210.920
 70
    32
  0
VERTEX
  8
T54SSILL
 62
13
 10
6152.651
 20
-7922.305
 30
-210.925
 70
    32
  0
VERTEX
  8
T54SSILL
 62
13
 10
6147.306
 20
-7909.976
 30
-210.925
 70
    32
  0
VERTEX
  8
T54SSILL
 62
13
 10
6145.106
 20
-7895.386
 30
-210.926
 70
    32
  0
VERTEX
  8
T54SSILL
 62
13
 10
6148.527
 20
-7885.877
 30
-210.926
 70
    32
  0
VERTEX
  8
T54SSILL
 62
13
 10
6153.168
 20
-7880.242
 30
-210.926
 70
    32
  0
VERTEX
  8
T54SSILL
 62
13
 10
6246.288
 20
-7813.513
 30
-210.923
 70
    32
  0
VERTEX
  8
T54SSILL
 62
13
 10
6241.818
 20
-7807.621
 30
-210.924
 70
    32
  0
VERTEX
  8
T54SSILL
 62
13
 10
6153.292
 20
-7870.561
 30
-210.926
 70
    32
  0
VERTEX
  8
T54SSILL
 62
13
 10
6146.188
 20
-7876.440
 30
-210.926
 70
    32
  0
VERTEX
  8
T54SSILL
 62
13
 10
6141.528
 20
-7883.271
 30
-210.926
 70
    32
  0
VERTEX
  8
T54SSILL
 62
13
 10
6137.994
 20
-7890.632
 30
-210.926
 70
    32
  0
VERTEX
  8
T54SSILL
 62
13
 10
6136.427
 20
-7899.835
 30
-210.926
 70
    32
  0
VERTEX
  8
T54SSILL
 62
13
 10
5981.557
 20
-7684.043
 30
-210.941
 70
    32
  0
VERTEX
  8
T54SSILL
 62
13
 10
5975.870
 20
-7688.124
 30
-210.941
 70
    32
  0
VERTEX
  8
T54SSILL
 62
13
 10
6139.679
 20
-7916.373
 30
-210.926
 70
    32
  0
VERTEX
  8
T54SSILL
 62
13
 10
6099.278
 20
-7909.460
 30
-210.929
 70
    32
  0
VERTEX
  8
T54SSILL
 62
13
 10
6030.757
 20
-7958.553
 30
-210.934
 70
    32
  0
VERTEX
  8
T54SSILL
 62
13
 10
6035.379
 20
-7964.660
 30
-210.934
 70
    32
  0
VERTEX
  8
T54SSILL
 62
13
 10
6100.929
 20
-7917.767
 30
-210.928
 70
    32
  0
VERTEX
  8
T54SSILL
 62
13
 10
6145.937
 20
-7925.047
 30
-210.925
 70
    32
  0
VERTEX
  8
T54SSILL
 62
13
 10
6188.750
 20
-7984.483
 30
-210.921
 70
    32
  0
VERTEX
  8
T54SSILL
 62
13
 10
6173.710
 20
-7984.785
 30
-210.922
 70
    32
  0
VERTEX
  8
T54SSILL
 62
13
 10
6167.021
 20
-7987.664
 30
-210.922
 70
    32
  0
VERTEX
  8
T54SSILL
 62
13
 10
6073.963
 20
-8052.952
 30
-210.930
 70
    32
  0
VERTEX
  8
T54SSILL
 62
13
 10
6077.524
 20
-8058.623
 30
-210.930
 70
    32
  0
VERTEX
  8
T54SSILL
 62
13
 10
6170.566
 20
-7992.700
 30
-210.922
 70
    32
  0
VERTEX
  8
T54SSILL
 62
13
 10
6177.524
 20
-7990.815
 30
-210.921
 70
    32
  0
VERTEX
  8
T54SSILL
 62
13
 10
6185.975
 20
-7991.968
 30
-210.921
 70
    32
  0
VERTEX
  8
T54SSILL
 62
13
 10
6200.947
 20
-7999.290
 30
-210.920
 70
    32
  0
VERTEX
  8
T54SSILL
 62
13
 10
6213.484
 20
-8016.695
 30
-210.918
 70
    32
  0
VERTEX
  8
T54SSILL
 62
13
 10
6195.609
 20
-8029.194
 30
-210.919
 70
    32
  0
VERTEX
  8
T54SSILL
 62
13
 10
6179.594
 20
-8027.232
 30
-210.921
 70
    32
  0
VERTEX
  8
T54SSILL
 62
13
 10
6170.033
 20
-8034.285
 30
-210.922
 70
    32
  0
VERTEX
  8
T54SSILL
 62
13
 10
6147.498
 20
-8036.052
 30
-210.924
 70
    32
  0
VERTEX
  8
T54SSILL
 62
13
 10
6138.217
 20
-8039.680
 30
-210.924
 70
    32
  0
VERTEX
  8
T54SSILL
 62
13
 10
6132.307
 20
-8045.347
 30
-210.925
 70
    32
  0
VERTEX
  8
T54SSILL
 62
13
 10
6139.082
 20
-8053.596
 30
-210.924
 70
    32
  0
VERTEX
  8
T54SSILL
 62
13
 10
6149.516
 20
-8080.037
 30
-210.923
 70
    32
  0
VERTEX
  8
T54SSILL
 62
13
 10
6146.695
 20
-8090.093
 30
-210.923
 70
    32
  0
VERTEX
  8
T54SSILL
 62
13
 10
6152.334
 20
-8091.073
 30
-210.923
 70
    32
  0
VERTEX
  8
T54SSILL
 62
13
 10
6161.571
 20
-8086.615
 30
-210.922
 70
    32
  0
VERTEX
  8
T54SSILL
 62
13
 10
6171.699
 20
-8073.031
 30
-210.921
 70
    32
  0
VERTEX
  8
T54SSILL
 62
13
 10
6181.633
 20
-8065.285
 30
-210.920
 70
    32
  0
VERTEX
  8
T54SSILL
 62
13
 10
6193.075
 20
-8052.497
 30
-210.920
 70
    32
  0
VERTEX
  8
T54SSILL
 62
13
 10
6196.013
 20
-8046.125
 30
-210.919
 70
    32
  0
VERTEX
  8
T54SSILL
 62
13
 10
6194.379
 20
-8038.452
 30
-210.920
 70
    32
  0
VERTEX
  8
T54SSILL
 62
13
 10
6206.378
 20
-8029.360
 30
-210.919
 70
    32
  0
VERTEX
  8
T54SSILL
 62
13
 10
6224.552
 20
-8032.059
 30
-210.917
 70
    32
  0
VERTEX
  8
T54SSILL
 62
13
 10
6249.000
 20
-8066.000
 30
-210.915
 70
    32
  0
VERTEX
  8
T54SSILL
 62
13
 10
6232.929
 20
-8066.622
 30
-210.916
 70
    32
  0
VERTEX
  8
T54SSILL
 62
13
 10
6224.374
 20
-8070.061
 30
-210.917
 70
    32
  0
VERTEX
  8
T54SSILL
 62
13
 10
6129.296
 20
-8137.524
 30
-210.925
 70
    32
  0
VERTEX
  8
T54SSILL
 62
13
 10
6134.294
 20
-8144.012
 30
-210.924
 70
    32
  0
VERTEX
  8
T54SSILL
 62
13
 10
6224.194
 20
-8078.365
 30
-210.917
 70
    32
  0
VERTEX
  8
T54SSILL
 62
13
 10
6232.970
 20
-8074.017
 30
-210.916
 70
    32
  0
VERTEX
  8
T54SSILL
 62
13
 10
6243.278
 20
-8074.293
 30
-210.915
 70
    32
  0
VERTEX
  8
T54SSILL
 62
13
 10
6251.262
 20
-8076.312
 30
-210.915
 70
    32
  0
VERTEX
  8
T54SSILL
 62
13
 10
6260.000
 20
-8081.000
 30
-210.914
 70
    32
  0
VERTEX
  8
T54SSILL
 62
13
 10
6301.000
 20
-8140.000
 30
-210.910
 70
    32
  0
VERTEX
  8
T54SSILL
 62
13
 10
6223.899
 20
-8194.649
 30
-210.916
 70
    32
  0
VERTEX
  8
T54SSILL
 62
13
 10
6211.990
 20
-8191.109
 30
-210.917
 70
    32
  0
VERTEX
  8
T54SSILL
 62
13
 10
6207.540
 20
-8179.285
 30
-210.917
 70
    32
  0
VERTEX
  8
T54SSILL
 62
13
 10
6190.055
 20
-8154.902
 30
-210.919
 70
    32
  0
VERTEX
  8
T54SSILL
 62
13
 10
6189.594
 20
-8135.752
 30
-210.919
 70
    32
  0
VERTEX
  8
T54SSILL
 62
13
 10
6192.172
 20
-8123.823
 30
-210.919
 70
    32
  0
VERTEX
  8
T54SSILL
 62
13
 10
6179.601
 20
-8123.848
 30
-210.920
 70
    32
  0
VERTEX
  8
T54SSILL
 62
13
 10
6173.940
 20
-8139.346
 30
-210.921
 70
    32
  0
VERTEX
  8
T54SSILL
 62
13
 10
6173.931
 20
-8152.479
 30
-210.921
 70
    32
  0
VERTEX
  8
T54SSILL
 62
13
 10
6177.973
 20
-8162.654
 30
-210.920
 70
    32
  0
VERTEX
  8
T54SSILL
 62
13
 10
6188.975
 20
-8174.922
 30
-210.919
 70
    32
  0
VERTEX
  8
T54SSILL
 62
13
 10
6198.679
 20
-8197.573
 30
-210.918
 70
    32
  0
VERTEX
  8
T54SSILL
 62
13
 10
6182.006
 20
-8211.031
 30
-210.920
 70
    32
  0
VERTEX
  8
T54SSILL
 62
13
 10
6189.334
 20
-8219.148
 30
-210.919
 70
    32
  0
VERTEX
  8
T54SSILL
 62
13
 10
6119.000
 20
-8269.000
 30
-210.925
 70
    32
  0
VERTEX
  8
T54SSILL
 62
13
 10
6104.937
 20
-8345.322
 30
-210.926
 70
    32
  0
VERTEX
  8
T54SSILL
 62
13
 10
6015.507
 20
-8408.760
 30
-210.936
 70
    32
  0
VERTEX
  8
T54SSILL
 62
13
 10
6012.466
 20
-8404.889
 30
-210.936
 70
    32
  0
VERTEX
  8
T54SSILL
 62
13
 10
6006.842
 20
-8408.946
 30
-210.937
 70
    32
  0
VERTEX
  8
T54SSILL
 62
13
 10
6009.134
 20
-8412.057
 30
-210.937
 70
    32
  0
VERTEX
  8
T54SSILL
 62
13
 10
5924.481
 20
-8472.055
 30
-210.932
 70
    32
  0
VERTEX
  8
T54SSILL
 62
13
 10
5915.532
 20
-8474.586
 30
-210.932
 70
    32
  0
VERTEX
  8
T54SSILL
 62
13
 10
5909.657
 20
-8474.316
 30
-210.933
 70
    32
  0
VERTEX
  8
T54SSILL
 62
13
 10
5900.248
 20
-8472.986
 30
-210.935
 70
    32
  0
VERTEX
  8
T54SSILL
 62
13
 10
5895.072
 20
-8469.435
 30
-210.937
 70
    32
  0
VERTEX
  8
T54SSILL
 62
13
 10
5882.725
 20
-8449.909
 30
-210.947
 70
    32
  0
VERTEX
  8
T54SSILL
 62
13
 10
5890.437
 20
-8444.375
 30
-210.949
 70
    32
  0
VERTEX
  8
T54SSILL
 62
13
 10
5883.829
 20
-8435.167
 30
-210.949
 70
    32
  0
VERTEX
  8
T54SSILL
 62
13
 10
5869.668
 20
-8445.330
 30
-210.954
 70
    32
  0
VERTEX
  8
T54SSILL
 62
13
 10
5890.856
 20
-8477.330
 30
-210.937
 70
    32
  0
VERTEX
  8
T54SSILL
 62
13
 10
5890.409
 20
-8489.981
 30
-210.938
 70
    32
  0
VERTEX
  8
T54SSILL
 62
13
 10
5880.761
 20
-8504.803
 30
-210.947
 70
    32
  0
VERTEX
  8
T54SSILL
 62
13
 10
5788.263
 20
-8569.669
 30
-211.029
 70
    32
  0
VERTEX
  8
T54SSILL
 62
13
 10
5748.800
 20
-8567.245
 30
-211.056
 70
    32
  0
VERTEX
  8
T54SSILL
 62
13
 10
5748.087
 20
-8574.933
 30
-211.059
 70
    32
  0
VERTEX
  8
T54SSILL
 62
13
 10
5777.999
 20
-8577.200
 30
-211.038
 70
    32
  0
VERTEX
  8
T54SSILL
 62
13
 10
5520.025
 20
-8760.287
 30
-210.921
 70
    32
  0
VERTEX
  8
T54SSILL
 62
13
 10
5509.441
 20
-8746.116
 30
-210.944
 70
    32
  0
VERTEX
  8
T54SSILL
 62
13
 10
5502.505
 20
-8750.525
 30
-210.939
 70
    32
  0
VERTEX
  8
T54SSILL
 62
13
 10
5512.599
 20
-8765.493
 30
-210.916
 70
    32
  0
VERTEX
  8
T54SSILL
 62
13
 10
5494.559
 20
-8778.140
 30
-210.904
 70
    32
  0
VERTEX
  8
T54SSILL
 62
13
 10
5478.401
 20
-8755.079
 30
-210.940
 70
    32
  0
VERTEX
  8
T54SSILL
 62
13
 10
5468.596
 20
-8761.679
 30
-210.933
 70
    32
  0
VERTEX
  8
T54SSILL
 62
13
 10
5485.402
 20
-8784.560
 30
-210.898
 70
    32
  0
VERTEX
  8
T54SSILL
 62
13
 10
5471.753
 20
-8794.129
 30
-210.888
 70
    32
  0
VERTEX
  8
T54SSILL
 62
13
 10
5466.762
 20
-8786.118
 30
-210.901
 70
    32
  0
VERTEX
  8
T54SSILL
 62
13
 10
5456.377
 20
-8792.828
 30
-210.894
 70
    32
  0
VERTEX
  8
T54SSILL
 62
13
 10
5461.809
 20
-8801.100
 30
-210.881
 70
    32
  0
VERTEX
  8
T54SSILL
 62
13
 10
5306.106
 20
-8911.422
 30
-210.773
 70
    32
  0
VERTEX
  8
T54SSILL
 62
13
 10
5290.142
 20
-8912.421
 30
-210.776
 70
    32
  0
VERTEX
  8
T54SSILL
 62
13
 10
5284.421
 20
-8910.586
 30
-210.780
 70
    32
  0
VERTEX
  8
T54SSILL
 62
13
 10
5274.546
 20
-8902.728
 30
-210.794
 70
    32
  0
VERTEX
  8
T54SSILL
 62
13
 10
5249.862
 20
-8868.072
 30
-210.848
 70
    32
  0
VERTEX
  8
T54SSILL
 62
13
 10
5255.654
 20
-8863.761
 30
-210.852
 70
    32
  0
VERTEX
  8
T54SSILL
 62
13
 10
5251.864
 20
-8859.233
 30
-210.859
 70
    32
  0
VERTEX
  8
T54SSILL
 62
13
 10
5245.365
 20
-8863.197
 30
-210.856
 70
    32
  0
VERTEX
  8
T54SSILL
 62
13
 10
5174.612
 20
-8764.131
 30
-211.000
 70
    32
  0
VERTEX
  8
T54SSILL
 62
13
 10
5176.733
 20
-8760.961
 30
-211.001
 70
    32
  0
VERTEX
  8
T54SSILL
 62
13
 10
5175.014
 20
-8749.424
 30
-211.001
 70
    32
  0
VERTEX
  8
T54SSILL
 62
13
 10
5177.478
 20
-8745.106
 30
-211.002
 70
    32
  0
VERTEX
  8
T54SSILL
 62
13
 10
5169.896
 20
-8725.308
 30
-211.002
 70
    32
  0
VERTEX
  8
T54SSILL
 62
13
 10
5147.840
 20
-8726.306
 30
-210.988
 70
    32
  0
VERTEX
  8
T54SSILL
 62
13
 10
5108.224
 20
-8670.419
 30
-210.957
 70
    32
  0
VERTEX
  8
T54SSILL
 62
13
 10
5114.067
 20
-8666.226
 30
-210.976
 70
    32
  0
VERTEX
  8
T54SSILL
 62
13
 10
5109.986
 20
-8660.538
 30
-210.973
 70
    32
  0
VERTEX
  8
T54SSILL
 62
13
 10
5103.725
 20
-8665.031
 30
-210.952
 70
    32
  0
VERTEX
  8
T54SSILL
 62
13
 10
4942.713
 20
-8439.613
 30
-210.840
 70
    32
  0
VERTEX
  8
T54SSILL
 62
13
 10
4949.768
 20
-8434.780
 30
-210.863
 70
    32
  0
VERTEX
  8
T54SSILL
 62
13
 10
4945.903
 20
-8428.786
 30
-210.861
 70
    32
  0
VERTEX
  8
T54SSILL
 62
13
 10
4938.240
 20
-8434.202
 30
-210.836
 70
    32
  0
VERTEX
  8
T54SSILL
 62
13
 10
4815.544
 20
-8261.439
 30
-210.814
 70
    32
  0
VERTEX
  8
T54SSILL
 62
13
 10
4685.578
 20
-8215.116
 30
-210.622
 70
    32
  0
VERTEX
  8
T54SSILL
 62
13
 10
4665.835
 20
-8218.538
 30
-210.583
 70
    32
  0
VERTEX
  8
T54SSILL
 62
13
 10
4590.959
 20
-8272.131
 30
-210.399
 70
    32
  0
VERTEX
  8
T54SSILL
 62
13
 10
4545.392
 20
-8276.963
 30
-210.312
 70
    32
  0
VERTEX
  8
T54SSILL
 62
13
 10
4541.189
 20
-8275.242
 30
-210.306
 70
    32
  0
VERTEX
  8
T54SSILL
 62
13
 10
4491.005
 20
-8205.317
 30
-210.280
 70
    32
  0
VERTEX
  8
T54SSILL
 62
13
 10
4485.407
 20
-8190.879
 30
-210.283
 70
    32
  0
VERTEX
  8
T54SSILL
 62
13
 10
4493.851
 20
-8175.185
 30
-210.312
 70
    32
  0
VERTEX
  8
T54SSILL
 62
13
 10
4475.692
 20
-8159.490
 30
-210.294
 70
    32
  0
VERTEX
  8
T54SSILL
 62
13
 10
4471.861
 20
-8159.294
 30
-210.287
 70
    32
  0
VERTEX
  8
T54SSILL
 62
13
 10
4462.145
 20
-8146.907
 30
-210.281
 70
    32
  0
VERTEX
  8
T54SSILL
 62
13
 10
4457.297
 20
-8145.592
 30
-210.274
 70
    32
  0
VERTEX
  8
T54SSILL
 62
13
 10
4448.574
 20
-8146.196
 30
-210.257
 70
    32
  0
VERTEX
  8
T54SSILL
 62
13
 10
4409.598
 20
-8091.889
 30
-210.237
 70
    32
  0
VERTEX
  8
T54SSILL
 62
13
 10
4410.976
 20
-8087.579
 30
-210.244
 70
    32
  0
VERTEX
  8
T54SSILL
 62
13
 10
4416.841
 20
-8083.932
 30
-210.257
 70
    32
  0
VERTEX
  8
T54SSILL
 62
13
 10
4405.728
 20
-8068.525
 30
-210.252
 70
    32
  0
VERTEX
  8
T54SSILL
 62
13
 10
4396.068
 20
-8073.037
 30
-210.230
 70
    32
  0
VERTEX
  8
T54SSILL
 62
13
 10
4348.470
 20
-8006.715
 30
-210.205
 70
    32
  0
VERTEX
  8
T54SSILL
 62
13
 10
4342.605
 20
-8010.813
 30
-210.191
 70
    32
  0
VERTEX
  8
T54SSILL
 62
13
 10
4443.103
 20
-8150.842
 30
-210.243
 70
    32
  0
VERTEX
  8
T54SSILL
 62
13
 10
4442.290
 20
-8162.282
 30
-210.231
 70
    32
  0
VERTEX
  8
T54SSILL
 62
13
 10
4449.870
 20
-8173.046
 30
-210.235
 70
    32
  0
VERTEX
  8
T54SSILL
 62
13
 10
4447.671
 20
-8187.755
 30
-210.218
 70
    32
  0
VERTEX
  8
T54SSILL
 62
13
 10
4459.205
 20
-8192.654
 30
-210.234
 70
    32
  0
VERTEX
  8
T54SSILL
 62
13
 10
4464.125
 20
-8203.039
 30
-210.233
 70
    32
  0
VERTEX
  8
T54SSILL
 62
13
 10
4464.669
 20
-8209.273
 30
-210.228
 70
    32
  0
VERTEX
  8
T54SSILL
 62
13
 10
4483.732
 20
-8219.545
 30
-210.253
 70
    32
  0
VERTEX
  8
T54SSILL
 62
13
 10
4492.348
 20
-8219.458
 30
-210.269
 70
    32
  0
VERTEX
  8
T54SSILL
 62
13
 10
4531.931
 20
-8274.612
 30
-210.290
 70
    32
  0
VERTEX
  8
T54SSILL
 62
13
 10
4534.356
 20
-8281.000
 30
-210.288
 70
    32
  0
VERTEX
  8
T54SSILL
 62
13
 10
4491.771
 20
-8285.682
 30
-210.207
 70
    32
  0
VERTEX
  8
T54SSILL
 62
13
 10
4483.000
 20
-8284.346
 30
-210.192
 70
    32
  0
VERTEX
  8
T54SSILL
 62
13
 10
4475.471
 20
-8278.974
 30
-210.184
 70
    32
  0
VERTEX
  8
T54SSILL
 62
13
 10
4316.596
 20
-8056.833
 30
-210.101
 70
    32
  0
VERTEX
  8
T54SSILL
 62
13
 10
4310.207
 20
-8060.202
 30
-210.087
 70
    32
  0
SEQEND
  8
T54SSILL
  0
POLYLINE
  8
T54SSILL
 62
13
 66
     1
 70
     9
  0
VERTEX
  8
T54SSILL
 62
13
 10
951.830
 20
-7036.321
 30
-192.528
 70
    32
  0
VERTEX
  8
T54SSILL
 62
13
 10
958.522
 20
-7057.986
 30
-192.528
 70
    32
  0
VERTEX
  8
T54SSILL
 62
13
 10
955.971
 20
-7061.406
 30
-192.609
 70
    32
  0
VERTEX
  8
T54SSILL
 62
13
 10
956.454
 20
-7065.794
 30
-192.628
 70
    32
  0
VERTEX
  8
T54SSILL
 62
13
 10
958.388
 20
-7066.123
 30
-192.587
 70
    32
  0
VERTEX
  8
T54SSILL
 62
13
 10
929.091
 20
-7104.638
 30
-193.196
 70
    32
  0
VERTEX
  8
T54SSILL
 62
13
 10
919.947
 20
-7107.262
 30
-193.298
 70
    32
  0
VERTEX
  8
T54SSILL
 62
13
 10
918.639
 20
-7125.425
 30
-193.416
 70
    32
  0
VERTEX
  8
T54SSILL
 62
13
 10
914.337
 20
-7142.303
 30
-193.555
 70
    32
  0
VERTEX
  8
T54SSILL
 62
13
 10
907.102
 20
-7143.202
 30
-193.590
 70
    32
  0
VERTEX
  8
T54SSILL
 62
13
 10
891.682
 20
-7127.651
 30
-193.515
 70
    32
  0
VERTEX
  8
T54SSILL
 62
13
 10
877.421
 20
-7110.252
 30
-193.635
 70
    32
  0
VERTEX
  8
T54SSILL
 62
13
 10
876.470
 20
-7104.912
 30
-193.613
 70
    32
  0
VERTEX
  8
T54SSILL
 62
13
 10
885.684
 20
-7080.206
 30
-193.276
 70
    32
  0
VERTEX
  8
T54SSILL
 62
13
 10
942.862
 20
-7019.719
 30
-192.533
 70
    32
  0
VERTEX
  8
T54SSILL
 62
13
 10
946.539
 20
-7019.191
 30
-192.487
 70
    32
  0
SEQEND
  8
T54SSILL
  0
POLYLINE
  8
T54SSILL
 62
13
 66
     1
 70
     9
  0
VERTEX
  8
T54SSILL
 62
13
 10
980.791
 20
-7123.516
 30
-192.485
 70
    32
  0
VERTEX
  8
T54SSILL
 62
13
 10
956.893
 20
-7181.425
 30
-193.345
 70
    32
  0
VERTEX
  8
T54SSILL
 62
13
 10
931.515
 20
-7166.438
 30
-193.532
 70
    32
  0
VERTEX
  8
T54SSILL
 62
13
 10
929.260
 20
-7149.436
 30
-193.454
 70
    32
  0
VERTEX
  8
T54SSILL
 62
13
 10
930.348
 20
-7123.016
 30
-193.290
 70
    32
  0
VERTEX
  8
T54SSILL
 62
13
 10
934.210
 20
-7112.850
 30
-193.195
 70
    32
  0
VERTEX
  8
T54SSILL
 62
13
 10
963.901
 20
-7074.535
 30
-192.523
 70
    32
  0
SEQEND
  8
T54SSILL
  0
POLYLINE
  8
T54SSILL
 62
13
 66
     1
 70
     9
  0
VERTEX
  8
T54SSILL
 62
13
 10
986.673
 20
-7219.133
 30
-193.012
 70
    32
  0
VERTEX
  8
T54SSILL
 62
13
 10
971.821
 20
-7205.386
 30
-193.248
 70
    32
  0
VERTEX
  8
T54SSILL
 62
13
 10
970.622
 20
-7178.318
 30
-193.088
 70
    32
  0
VERTEX
  8
T54SSILL
 62
13
 10
979.570
 20
-7152.069
 30
-192.708
 70
    32
  0
VERTEX
  8
T54SSILL
 62
13
 10
988.194
 20
-7144.583
 30
-192.555
 70
    32
  0
VERTEX
  8
T54SSILL
 62
13
 10
988.880
 20
-7159.796
 30
-192.642
 70
    32
  0
VERTEX
  8
T54SSILL
 62
13
 10
994.003
 20
-7161.609
 30
-192.622
 70
    32
  0
VERTEX
  8
T54SSILL
 62
13
 10
1019.688
 20
-7241.897
 30
-192.945
 70
    32
  0
VERTEX
  8
T54SSILL
 62
13
 10
1016.063
 20
-7246.337
 30
-192.994
 70
    32
  0
SEQEND
  8
T54SSILL
  0
POLYLINE
  8
T54SSILL
 62
13
 66
     1
 70
     9
  0
VERTEX
  8
T54SSILL
 62
13
 10
861.577
 20
-6987.035
 30
-193.019
 70
    32
  0
VERTEX
  8
T54SSILL
 62
13
 10
862.680
 20
-6987.475
 30
-193.004
 70
    32
  0
VERTEX
  8
T54SSILL
 62
13
 10
908.422
 20
-6933.946
 30
-192.401
 70
    32
  0
VERTEX
  8
T54SSILL
 62
13
 10
912.998
 20
-6920.868
 30
-192.281
 70
    32
  0
VERTEX
  8
T54SSILL
 62
13
 10
903.877
 20
-6894.371
 30
-192.214
 70
    32
  0
VERTEX
  8
T54SSILL
 62
13
 10
875.379
 20
-6928.385
 30
-192.614
 70
    32
  0
VERTEX
  8
T54SSILL
 62
13
 10
870.568
 20
-6941.184
 30
-192.629
 70
    32
  0
VERTEX
  8
T54SSILL
 62
13
 10
865.203
 20
-6947.468
 30
-192.672
 70
    32
  0
SEQEND
  8
T54SSILL
  0
POLYLINE
  8
T54SSILL
 62
13
 66
     1
 70
     9
  0
VERTEX
  8
T54SSILL
 62
13
 10
867.733
 20
-6912.868
 30
-192.510
 70
    32
  0
VERTEX
  8
T54SSILL
 62
13
 10
871.657
 20
-6916.838
 30
-192.549
 70
    32
  0
VERTEX
  8
T54SSILL
 62
13
 10
898.768
 20
-6883.802
 30
-192.202
 70
    32
  0
VERTEX
  8
T54SSILL
 62
13
 10
899.418
 20
-6880.728
 30
-192.178
 70
    32
  0
VERTEX
  8
T54SSILL
 62
13
 10
897.017
 20
-6872.859
 30
-192.155
 70
    32
  0
VERTEX
  8
T54SSILL
 62
13
 10
889.760
 20
-6865.120
 30
-192.179
 70
    32
  0
VERTEX
  8
T54SSILL
 62
13
 10
888.060
 20
-6858.874
 30
-192.159
 70
    32
  0
VERTEX
  8
T54SSILL
 62
13
 10
890.466
 20
-6852.376
 30
-192.098
 70
    32
  0
VERTEX
  8
T54SSILL
 62
13
 10
880.962
 20
-6823.902
 30
-192.023
 70
    32
  0
VERTEX
  8
T54SSILL
 62
13
 10
874.369
 20
-6824.298
 30
-192.088
 70
    32
  0
VERTEX
  8
T54SSILL
 62
13
 10
871.177
 20
-6866.898
 30
-192.366
 70
    32
  0
SEQEND
  8
T54SSILL
  0
POLYLINE
  8
T54SSILL
 62
13
 66
     1
 70
     9
  0
VERTEX
  8
T54SSILL
 62
13
 10
826.282
 20
-6736.160
 30
-191.819
 70
    32
  0
VERTEX
  8
T54SSILL
 62
13
 10
837.516
 20
-6741.117
 30
-191.698
 70
    32
  0
VERTEX
  8
T54SSILL
 62
13
 10
842.638
 20
-6735.937
 30
-191.713
 70
    32
  0
VERTEX
  8
T54SSILL
 62
13
 10
841.303
 20
-6728.036
 30
-191.676
 70
    32
  0
VERTEX
  8
T54SSILL
 62
13
 10
842.756
 20
-6722.597
 30
-191.665
 70
    32
  0
VERTEX
  8
T54SSILL
 62
13
 10
836.672
 20
-6703.261
 30
-191.557
 70
    32
  0
VERTEX
  8
T54SSILL
 62
13
 10
831.083
 20
-6700.505
 30
-191.511
 70
    32
  0
VERTEX
  8
T54SSILL
 62
13
 10
803.069
 20
-6725.918
 30
-192.034
 70
    32
  0
VERTEX
  8
T54SSILL
 62
13
 10
811.934
 20
-6729.829
 30
-192.020
 70
    32
  0
SEQEND
  8
T54SSILL
  0
POLYLINE
  8
T54SSILL
 62
13
 66
     1
 70
     9
  0
VERTEX
  8
T54SSILL
 62
13
 10
684.243
 20
-6217.378
 30
-190.631
 70
    32
  0
VERTEX
  8
T54SSILL
 62
13
 10
690.093
 20
-6217.065
 30
-190.631
 70
    32
  0
VERTEX
  8
T54SSILL
 62
13
 10
698.615
 20
-6224.002
 30
-190.621
 70
    32
  0
VERTEX
  8
T54SSILL
 62
13
 10
701.576
 20
-6229.634
 30
-190.624
 70
    32
  0
VERTEX
  8
T54SSILL
 62
13
 10
704.142
 20
-6240.675
 30
-190.642
 70
    32
  0
VERTEX
  8
T54SSILL
 62
13
 10
699.659
 20
-6243.171
 30
-190.667
 70
    32
  0
VERTEX
  8
T54SSILL
 62
13
 10
692.759
 20
-6241.342
 30
-190.691
 70
    32
  0
VERTEX
  8
T54SSILL
 62
13
 10
692.053
 20
-6239.356
 30
-190.689
 70
    32
  0
SEQEND
  8
T54SSILL
  0
POLYLINE
  8
T54SSILL
 62
13
 66
     1
 70
     9
  0
VERTEX
  8
T54SSILL
 62
13
 10
717.983
 20
-6357.085
 30
-190.673
 70
    32
  0
VERTEX
  8
T54SSILL
 62
13
 10
720.108
 20
-6352.795
 30
-190.778
 70
    32
  0
VERTEX
  8
T54SSILL
 62
13
 10
715.498
 20
-6340.395
 30
-190.750
 70
    32
  0
VERTEX
  8
T54SSILL
 62
13
 10
718.115
 20
-6339.111
 30
-190.842
 70
    32
  0
VERTEX
  8
T54SSILL
 62
13
 10
697.636
 20
-6276.539
 30
-190.763
 70
    32
  0
VERTEX
  8
T54SSILL
 62
13
 10
690.785
 20
-6273.407
 30
-190.607
 70
    32
  0
VERTEX
  8
T54SSILL
 62
13
 10
686.138
 20
-6282.183
 30
-190.384
 70
    32
  0
VERTEX
  8
T54SSILL
 62
13
 10
682.822
 20
-6292.470
 30
-190.188
 70
    32
  0
VERTEX
  8
T54SSILL
 62
13
 10
680.568
 20
-6314.340
 30
-190.318
 70
    32
  0
VERTEX
  8
T54SSILL
 62
13
 10
683.353
 20
-6327.833
 30
-190.437
 70
    32
  0
VERTEX
  8
T54SSILL
 62
13
 10
702.171
 20
-6343.729
 30
-190.311
 70
    32
  0
SEQEND
  8
T54SSILL
  0
POLYLINE
  8
T54SSILL
 62
13
 66
     1
 70
     9
  0
VERTEX
  8
T54SSILL
 62
13
 10
518.530
 20
-6184.642
 30
-190.441
 70
    32
  0
VERTEX
  8
T54SSILL
 62
13
 10
664.910
 20
-6310.709
 30
-190.512
 70
    32
  0
VERTEX
  8
T54SSILL
 62
13
 10
668.950
 20
-6309.317
 30
-190.455
 70
    32
  0
VERTEX
  8
T54SSILL
 62
13
 10
671.228
 20
-6289.698
 30
-190.173
 70
    32
  0
VERTEX
  8
T54SSILL
 62
13
 10
679.835
 20
-6268.942
 30
-190.312
 70
    32
  0
VERTEX
  8
T54SSILL
 62
13
 10
686.116
 20
-6242.044
 30
-190.694
 70
    32
  0
VERTEX
  8
T54SSILL
 62
13
 10
674.744
 20
-6209.051
 30
-190.591
 70
    32
  0
VERTEX
  8
T54SSILL
 62
13
 10
671.791
 20
-6207.647
 30
-190.542
 70
    32
  0
VERTEX
  8
T54SSILL
 62
13
 10
671.378
 20
-6199.387
 30
-190.558
 70
    32
  0
VERTEX
  8
T54SSILL
 62
13
 10
664.300
 20
-6178.752
 30
-190.492
 70
    32
  0
VERTEX
  8
T54SSILL
 62
13
 10
661.697
 20
-6178.061
 30
-190.447
 70
    32
  0
VERTEX
  8
T54SSILL
 62
13
 10
656.800
 20
-6172.494
 30
-190.376
 70
    32
  0
VERTEX
  8
T54SSILL
 62
13
 10
655.341
 20
-6166.715
 30
-190.367
 70
    32
  0
VERTEX
  8
T54SSILL
 62
13
 10
658.343
 20
-6161.404
 30
-190.435
 70
    32
  0
VERTEX
  8
T54SSILL
 62
13
 10
633.119
 20
-6080.779
 30
-190.276
 70
    32
  0
VERTEX
  8
T54SSILL
 62
13
 10
624.904
 20
-6073.658
 30
-190.104
 70
    32
  0
VERTEX
  8
T54SSILL
 62
13
 10
623.472
 20
-6068.376
 30
-190.109
 70
    32
  0
VERTEX
  8
T54SSILL
 62
13
 10
627.498
 20
-6064.912
 30
-190.253
 70
    32
  0
VERTEX
  8
T54SSILL
 62
13
 10
607.894
 20
-6005.566
 30
-190.192
 70
    32
  0
VERTEX
  8
T54SSILL
 62
13
 10
587.335
 20
-6003.364
 30
-189.641
 70
    32
  0
VERTEX
  8
T54SSILL
 62
13
 10
580.150
 20
-6006.831
 30
-189.489
 70
    32
  0
VERTEX
  8
T54SSILL
 62
13
 10
580.050
 20
-6008.647
 30
-189.482
 70
    32
  0
VERTEX
  8
T54SSILL
 62
13
 10
581.969
 20
-6023.167
 30
-189.475
 70
    32
  0
VERTEX
  8
T54SSILL
 62
13
 10
597.243
 20
-6024.842
 30
-189.741
 70
    32
  0
VERTEX
  8
T54SSILL
 62
13
 10
607.189
 20
-6023.078
 30
-190.035
 70
    32
  0
VERTEX
  8
T54SSILL
 62
13
 10
612.824
 20
-6038.063
 30
-190.066
 70
    32
  0
VERTEX
  8
T54SSILL
 62
13
 10
609.618
 20
-6048.671
 30
-189.892
 70
    32
  0
VERTEX
  8
T54SSILL
 62
13
 10
591.467
 20
-6050.390
 30
-189.566
 70
    32
  0
VERTEX
  8
T54SSILL
 62
13
 10
589.665
 20
-6053.767
 30
-189.522
 70
    32
  0
VERTEX
  8
T54SSILL
 62
13
 10
558.166
 20
-6044.895
 30
-189.080
 70
    32
  0
VERTEX
  8
T54SSILL
 62
13
 10
551.449
 20
-6047.805
 30
-189.232
 70
    32
  0
VERTEX
  8
T54SSILL
 62
13
 10
529.909
 20
-6070.400
 30
-189.837
 70
    32
  0
VERTEX
  8
T54SSILL
 62
13
 10
503.014
 20
-6104.397
 30
-190.105
 70
    32
  0
VERTEX
  8
T54SSILL
 62
13
 10
492.661
 20
-6128.142
 30
-190.260
 70
    32
  0
VERTEX
  8
T54SSILL
 62
13
 10
499.045
 20
-6160.239
 30
-190.394
 70
    32
  0
VERTEX
  8
T54SSILL
 62
13
 10
504.317
 20
-6170.366
 30
-190.424
 70
    32
  0
VERTEX
  8
T54SSILL
 62
13
 10
509.537
 20
-6176.061
 30
-190.432
 70
    32
  0
SEQEND
  8
T54SSILL
  0
POLYLINE
  8
T54SSILL
 62
13
 66
     1
 70
     9
  0
VERTEX
  8
T54SSILL
 62
13
 10
562.144
 20
-5964.417
 30
-189.290
 70
    32
  0
VERTEX
  8
T54SSILL
 62
13
 10
569.826
 20
-5962.988
 30
-189.490
 70
    32
  0
VERTEX
  8
T54SSILL
 62
13
 10
571.127
 20
-5959.974
 30
-189.553
 70
    32
  0
VERTEX
  8
T54SSILL
 62
13
 10
572.684
 20
-5950.999
 30
-189.674
 70
    32
  0
VERTEX
  8
T54SSILL
 62
13
 10
575.140
 20
-5947.473
 30
-189.744
 70
    32
  0
VERTEX
  8
T54SSILL
 62
13
 10
574.033
 20
-5927.461
 30
-189.732
 70
    32
  0
VERTEX
  8
T54SSILL
 62
13
 10
558.811
 20
-5884.228
 30
-189.460
 70
    32
  0
VERTEX
  8
T54SSILL
 62
13
 10
547.688
 20
-5883.466
 30
-189.371
 70
    32
  0
VERTEX
  8
T54SSILL
 62
13
 10
544.183
 20
-5889.604
 30
-189.321
 70
    32
  0
VERTEX
  8
T54SSILL
 62
13
 10
554.131
 20
-5923.911
 30
-189.380
 70
    32
  0
VERTEX
  8
T54SSILL
 62
13
 10
551.151
 20
-5940.240
 30
-189.164
 70
    32
  0
VERTEX
  8
T54SSILL
 62
13
 10
546.951
 20
-5941.627
 30
-189.086
 70
    32
  0
VERTEX
  8
T54SSILL
 62
13
 10
541.411
 20
-5933.572
 30
-189.011
 70
    32
  0
VERTEX
  8
T54SSILL
 62
13
 10
540.973
 20
-5908.170
 30
-189.142
 70
    32
  0
VERTEX
  8
T54SSILL
 62
13
 10
521.210
 20
-5906.917
 30
-188.729
 70
    32
  0
VERTEX
  8
T54SSILL
 62
13
 10
523.281
 20
-5919.691
 30
-188.717
 70
    32
  0
VERTEX
  8
T54SSILL
 62
13
 10
522.277
 20
-5947.011
 30
-188.483
 70
    32
  0
VERTEX
  8
T54SSILL
 62
13
 10
517.434
 20
-5949.651
 30
-188.599
 70
    32
  0
VERTEX
  8
T54SSILL
 62
13
 10
512.814
 20
-5946.135
 30
-188.635
 70
    32
  0
VERTEX
  8
T54SSILL
 62
13
 10
508.185
 20
-5939.902
 30
-188.638
 70
    32
  0
VERTEX
  8
T54SSILL
 62
13
 10
498.412
 20
-5919.962
 30
-188.558
 70
    32
  0
VERTEX
  8
T54SSILL
 62
13
 10
487.737
 20
-5923.125
 30
-188.781
 70
    32
  0
VERTEX
  8
T54SSILL
 62
13
 10
481.534
 20
-5929.149
 30
-188.963
 70
    32
  0
VERTEX
  8
T54SSILL
 62
13
 10
492.842
 20
-5949.786
 30
-189.024
 70
    32
  0
VERTEX
  8
T54SSILL
 62
13
 10
477.403
 20
-5966.596
 30
-189.498
 70
    32
  0
VERTEX
  8
T54SSILL
 62
13
 10
468.665
 20
-5968.915
 30
-189.568
 70
    32
  0
VERTEX
  8
T54SSILL
 62
13
 10
464.617
 20
-5967.754
 30
-189.577
 70
    32
  0
VERTEX
  8
T54SSILL
 62
13
 10
465.424
 20
-5955.325
 30
-189.513
 70
    32
  0
VERTEX
  8
T54SSILL
 62
13
 10
472.702
 20
-5931.848
 30
-189.148
 70
    32
  0
VERTEX
  8
T54SSILL
 62
13
 10
473.914
 20
-5919.091
 30
-188.969
 70
    32
  0
VERTEX
  8
T54SSILL
 62
13
 10
529.249
 20
-5783.498
 30
-188.961
 70
    32
  0
VERTEX
  8
T54SSILL
 62
13
 10
532.501
 20
-5782.121
 30
-189.054
 70
    32
  0
VERTEX
  8
T54SSILL
 62
13
 10
562.162
 20
-5872.317
 30
-189.313
 70
    32
  0
VERTEX
  8
T54SSILL
 62
13
 10
558.786
 20
-5879.233
 30
-189.403
 70
    32
  0
VERTEX
  8
T54SSILL
 62
13
 10
559.982
 20
-5881.635
 30
-189.426
 70
    32
  0
VERTEX
  8
T54SSILL
 62
13
 10
565.516
 20
-5881.000
 30
-189.396
 70
    32
  0
VERTEX
  8
T54SSILL
 62
13
 10
592.815
 20
-5962.229
 30
-189.989
 70
    32
  0
VERTEX
  8
T54SSILL
 62
13
 10
588.228
 20
-5967.625
 30
-189.924
 70
    32
  0
VERTEX
  8
T54SSILL
 62
13
 10
560.691
 20
-5964.529
 30
-189.264
 70
    32
  0
SEQEND
  8
T54SSILL
  0
POLYLINE
  8
T54SSILL
 62
13
 66
     1
 70
     9
  0
VERTEX
  8
T54SSILL
 62
13
 10
475.293
 20
-6025.059
 30
-189.819
 70
    32
  0
VERTEX
  8
T54SSILL
 62
13
 10
488.487
 20
-6102.398
 30
-190.149
 70
    32
  0
VERTEX
  8
T54SSILL
 62
13
 10
491.848
 20
-6101.923
 30
-190.134
 70
    32
  0
VERTEX
  8
T54SSILL
 62
13
 10
514.998
 20
-6073.583
 30
-189.908
 70
    32
  0
VERTEX
  8
T54SSILL
 62
13
 10
515.751
 20
-6068.460
 30
-189.880
 70
    32
  0
VERTEX
  8
T54SSILL
 62
13
 10
521.559
 20
-6057.383
 30
-189.804
 70
    32
  0
VERTEX
  8
T54SSILL
 62
13
 10
515.592
 20
-6043.293
 30
-189.757
 70
    32
  0
VERTEX
  8
T54SSILL
 62
13
 10
527.241
 20
-6024.297
 30
-189.357
 70
    32
  0
VERTEX
  8
T54SSILL
 62
13
 10
493.873
 20
-6024.091
 30
-189.744
 70
    32
  0
VERTEX
  8
T54SSILL
 62
13
 10
486.155
 20
-6018.901
 30
-189.748
 70
    32
  0
SEQEND
  8
T54SSILL
  0
POLYLINE
  8
T54SSILL
 62
13
 66
     1
 70
     9
  0
VERTEX
  8
T54SSILL
 62
13
 10
526.778
 20
-6013.411
 30
-189.230
 70
    32
  0
VERTEX
  8
T54SSILL
 62
13
 10
520.744
 20
-5999.452
 30
-189.160
 70
    32
  0
VERTEX
  8
T54SSILL
 62
13
 10
515.003
 20
-5991.083
 30
-189.155
 70
    32
  0
VERTEX
  8
T54SSILL
 62
13
 10
498.396
 20
-5958.522
 30
-189.037
 70
    32
  0
VERTEX
  8
T54SSILL
 62
13
 10
472.159
 20
-5987.090
 30
-189.644
 70
    32
  0
VERTEX
  8
T54SSILL
 62
13
 10
470.590
 20
-5996.434
 30
-189.696
 70
    32
  0
VERTEX
  8
T54SSILL
 62
13
 10
494.913
 20
-6012.711
 30
-189.684
 70
    32
  0
VERTEX
  8
T54SSILL
 62
13
 10
501.285
 20
-6012.851
 30
-189.661
 70
    32
  0
SEQEND
  8
T54SSILL
  0
POLYLINE
  8
T54SSILL
 62
13
 66
     1
 70
     9
  0
VERTEX
  8
T54SSILL
 62
13
 10
1152.621
 20
-7544.924
 30
-194.682
 70
    32
  0
VERTEX
  8
T54SSILL
 62
13
 10
1143.107
 20
-7550.587
 30
-194.581
 70
    32
  0
VERTEX
  8
T54SSILL
 62
13
 10
1147.392
 20
-7559.937
 30
-194.686
 70
    32
  0
VERTEX
  8
T54SSILL
 62
13
 10
1143.955
 20
-7578.500
 30
-194.732
 70
    32
  0
VERTEX
  8
T54SSILL
 62
13
 10
1150.360
 20
-7597.160
 30
-194.913
 70
    32
  0
VERTEX
  8
T54SSILL
 62
13
 10
1154.659
 20
-7592.123
 30
-194.946
 70
    32
  0
VERTEX
  8
T54SSILL
 62
13
 10
1164.201
 20
-7557.423
 30
-194.901
 70
    32
  0
VERTEX
  8
T54SSILL
 62
13
 10
1153.086
 20
-7544.794
 30
-194.688
 70
    32
  0
SEQEND
  8
T54SSILL
  0
POLYLINE
  8
T54SSILL
 62
13
 66
     1
 70
     9
  0
VERTEX
  8
T54SSILL
 62
13
 10
940.078
 20
-6999.237
 30
-192.442
 70
    32
  0
VERTEX
  8
T54SSILL
 62
13
 10
940.798
 20
-7003.706
 30
-192.460
 70
    32
  0
VERTEX
  8
T54SSILL
 62
13
 10
938.988
 20
-7008.434
 30
-192.510
 70
    32
  0
VERTEX
  8
T54SSILL
 62
13
 10
878.681
 20
-7070.164
 30
-193.324
 70
    32
  0
VERTEX
  8
T54SSILL
 62
13
 10
874.645
 20
-7076.971
 30
-193.443
 70
    32
  0
VERTEX
  8
T54SSILL
 62
13
 10
868.376
 20
-7081.037
 30
-193.535
 70
    32
  0
VERTEX
  8
T54SSILL
 62
13
 10
861.737
 20
-7063.926
 30
-193.475
 70
    32
  0
VERTEX
  8
T54SSILL
 62
13
 10
860.178
 20
-7049.141
 30
-193.409
 70
    32
  0
VERTEX
  8
T54SSILL
 62
13
 10
856.569
 20
-7039.596
 30
-193.375
 70
    32
  0
VERTEX
  8
T54SSILL
 62
13
 10
858.606
 20
-7018.910
 30
-193.266
 70
    32
  0
VERTEX
  8
T54SSILL
 62
13
 10
865.642
 20
-7012.400
 30
-193.132
 70
    32
  0
VERTEX
  8
T54SSILL
 62
13
 10
869.334
 20
-7003.892
 30
-193.007
 70
    32
  0
VERTEX
  8
T54SSILL
 62
13
 10
873.944
 20
-6999.855
 30
-192.899
 70
    32
  0
VERTEX
  8
T54SSILL
 62
13
 10
879.155
 20
-6983.022
 30
-192.835
 70
    32
  0
VERTEX
  8
T54SSILL
 62
13
 10
903.764
 20
-6954.245
 30
-192.563
 70
    32
  0
VERTEX
  8
T54SSILL
 62
13
 10
910.448
 20
-6952.035
 30
-192.487
 70
    32
  0
VERTEX
  8
T54SSILL
 62
13
 10
913.459
 20
-6963.538
 30
-192.525
 70
    32
  0
VERTEX
  8
T54SSILL
 62
13
 10
926.986
 20
-6979.010
 30
-192.473
 70
    32
  0
VERTEX
  8
T54SSILL
 62
13
 10
931.846
 20
-6995.705
 30
-192.517
 70
    32
  0
SEQEND
  8
T54SSILL
  0
POLYLINE
  8
T54SSILL
 62
13
 66
     1
 70
     9
  0
VERTEX
  8
T54SSILL
 62
13
 10
556.616
 20
-5964.209
 30
-189.193
 70
    32
  0
VERTEX
  8
T54SSILL
 62
13
 10
545.386
 20
-5971.665
 30
-188.918
 70
    32
  0
VERTEX
  8
T54SSILL
 62
13
 10
546.182
 20
-5982.531
 30
-188.842
 70
    32
  0
VERTEX
  8
T54SSILL
 62
13
 10
556.046
 20
-5997.937
 30
-189.004
 70
    32
  0
VERTEX
  8
T54SSILL
 62
13
 10
561.728
 20
-5997.958
 30
-189.178
 70
    32
  0
VERTEX
  8
T54SSILL
 62
13
 10
568.299
 20
-6006.447
 30
-189.280
 70
    32
  0
VERTEX
  8
T54SSILL
 62
13
 10
560.074
 20
-6030.544
 30
-188.870
 70
    32
  0
VERTEX
  8
T54SSILL
 62
13
 10
553.041
 20
-6036.625
 30
-189.066
 70
    32
  0
VERTEX
  8
T54SSILL
 62
13
 10
547.239
 20
-6038.543
 30
-189.190
 70
    32
  0
VERTEX
  8
T54SSILL
 62
13
 10
540.725
 20
-6035.421
 30
-189.263
 70
    32
  0
VERTEX
  8
T54SSILL
 62
13
 10
553.455
 20
-6018.561
 30
-188.835
 70
    32
  0
VERTEX
  8
T54SSILL
 62
13
 10
548.203
 20
-6012.670
 30
-188.852
 70
    32
  0
VERTEX
  8
T54SSILL
 62
13
 10
533.928
 20
-5982.916
 30
-188.728
 70
    32
  0
VERTEX
  8
T54SSILL
 62
13
 10
532.302
 20
-5972.108
 30
-188.622
 70
    32
  0
VERTEX
  8
T54SSILL
 62
13
 10
536.283
 20
-5963.772
 30
-188.711
 70
    32
  0
VERTEX
  8
T54SSILL
 62
13
 10
546.276
 20
-5961.321
 30
-189.018
 70
    32
  0
VERTEX
  8
T54SSILL
 62
13
 10
552.305
 20
-5963.924
 30
-189.118
 70
    32
  0
SEQEND
  8
T54SSILL
  0
POLYLINE
  8
T54SSILL
 62
13
 66
     1
 70
     9
  0
VERTEX
  8
T54SSILL
 62
13
 10
1270.672
 20
-8060.507
 30
-204.240
 70
    32
  0
VERTEX
  8
T54SSILL
 62
13
 10
1277.498
 20
-8065.119
 30
-204.486
 70
    32
  0
SEQEND
  8
T54SSILL
  0
POLYLINE
  8
T54SSILL
 62
13
 66
     1
 70
     9
  0
VERTEX
  8
T54SSILL
 62
13
 10
4686.956
 20
-9080.535
 30
-209.448
 70
    32
  0
VERTEX
  8
T54SSILL
 62
13
 10
4717.586
 20
-9058.570
 30
-209.535
 70
    32
  0
VERTEX
  8
T54SSILL
 62
13
 10
4729.958
 20
-9046.248
 30
-209.568
 70
    32
  0
VERTEX
  8
T54SSILL
 62
13
 10
4738.511
 20
-9033.706
 30
-209.598
 70
    32
  0
VERTEX
  8
T54SSILL
 62
13
 10
4741.362
 20
-9022.304
 30
-209.620
 70
    32
  0
VERTEX
  8
T54SSILL
 62
13
 10
4742.328
 20
-9012.932
 30
-209.637
 70
    32
  0
VERTEX
  8
T54SSILL
 62
13
 10
4732.126
 20
-8973.203
 30
-209.651
 70
    32
  0
VERTEX
  8
T54SSILL
 62
13
 10
4724.490
 20
-8975.232
 30
-209.629
 70
    32
  0
VERTEX
  8
T54SSILL
 62
13
 10
4721.793
 20
-8964.234
 30
-209.636
 70
    32
  0
VERTEX
  8
T54SSILL
 62
13
 10
4727.436
 20
-8961.616
 30
-209.653
 70
    32
  0
VERTEX
  8
T54SSILL
 62
13
 10
4689.684
 20
-8844.554
 30
-209.708
 70
    32
  0
VERTEX
  8
T54SSILL
 62
13
 10
4671.992
 20
-8822.372
 30
-209.709
 70
    32
  0
VERTEX
  8
T54SSILL
 62
13
 10
4663.640
 20
-8818.643
 30
-209.703
 70
    32
  0
VERTEX
  8
T54SSILL
 62
13
 10
4663.778
 20
-8814.449
 30
-209.711
 70
    32
  0
VERTEX
  8
T54SSILL
 62
13
 10
4669.410
 20
-8809.629
 30
-209.726
 70
    32
  0
VERTEX
  8
T54SSILL
 62
13
 10
4663.768
 20
-8776.659
 30
-209.772
 70
    32
  0
VERTEX
  8
T54SSILL
 62
13
 10
4662.208
 20
-8774.746
 30
-209.773
 70
    32
  0
VERTEX
  8
T54SSILL
 62
13
 10
4659.763
 20
-8775.604
 30
-209.769
 70
    32
  0
VERTEX
  8
T54SSILL
 62
13
 10
4656.377
 20
-8785.575
 30
-209.748
 70
    32
  0
VERTEX
  8
T54SSILL
 62
13
 10
4647.161
 20
-8799.521
 30
-209.712
 70
    32
  0
VERTEX
  8
T54SSILL
 62
13
 10
4635.109
 20
-8809.869
 30
-209.678
 70
    32
  0
VERTEX
  8
T54SSILL
 62
13
 10
4572.075
 20
-8853.432
 30
-209.520
 70
    32
  0
VERTEX
  8
T54SSILL
 62
13
 10
4573.784
 20
-8857.000
 30
-209.516
 70
    32
  0
VERTEX
  8
T54SSILL
 62
13
 10
4566.795
 20
-8861.633
 30
-209.499
 70
    32
  0
VERTEX
  8
T54SSILL
 62
13
 10
4564.628
 20
-8858.191
 30
-209.502
 70
    32
  0
VERTEX
  8
T54SSILL
 62
13
 10
4526.210
 20
-8884.649
 30
-209.405
 70
    32
  0
VERTEX
  8
T54SSILL
 62
13
 10
4517.027
 20
-8901.554
 30
-209.365
 70
    32
  0
VERTEX
  8
T54SSILL
 62
13
 10
4513.677
 20
-8911.719
 30
-209.343
 70
    32
  0
VERTEX
  8
T54SSILL
 62
13
 10
4517.028
 20
-8933.936
 30
-209.312
 70
    32
  0
VERTEX
  8
T54SSILL
 62
13
 10
4561.295
 20
-8996.879
 30
-209.270
 70
    32
  0
VERTEX
  8
T54SSILL
 62
13
 10
4567.214
 20
-8993.167
 30
-209.284
 70
    32
  0
VERTEX
  8
T54SSILL
 62
13
 10
4570.941
 20
-8998.522
 30
-209.281
 70
    32
  0
VERTEX
  8
T54SSILL
 62
13
 10
4565.358
 20
-9002.532
 30
-209.266
 70
    32
  0
VERTEX
  8
T54SSILL
 62
13
 10
4615.390
 20
-9073.374
 30
-209.268
 70
    32
  0
VERTEX
  8
T54SSILL
 62
13
 10
4620.801
 20
-9070.158
 30
-209.275
 70
    32
  0
VERTEX
  8
T54SSILL
 62
13
 10
4625.642
 20
-9076.547
 30
-209.298
 70
    32
  0
VERTEX
  8
T54SSILL
 62
13
 10
4620.412
 20
-9080.731
 30
-209.294
 70
    32
  0
VERTEX
  8
T54SSILL
 62
13
 10
4658.949
 20
-9135.527
 30
-209.488
 70
    32
  0
VERTEX
  8
T54SSILL
 62
13
 10
4659.075
 20
-9131.152
 30
-209.480
 70
    32
  0
VERTEX
  8
T54SSILL
 62
13
 10
4662.390
 20
-9109.529
 30
-209.469
 70
    32
  0
VERTEX
  8
T54SSILL
 62
13
 10
4670.943
 20
-9091.856
 30
-209.457
 70
    32
  0
SEQEND
  8
T54SSILL
  0
POLYLINE
  8
T54SSILL
 62
13
 66
     1
 70
     9
  0
VERTEX
  8
T54SSILL
 62
13
 10
4979.973
 20
-9089.159
 30
-210.227
 70
    32
  0
VERTEX
  8
T54SSILL
 62
13
 10
4978.189
 20
-9068.711
 30
-210.256
 70
    32
  0
VERTEX
  8
T54SSILL
 62
13
 10
4985.317
 20
-9055.171
 30
-210.280
 70
    32
  0
VERTEX
  8
T54SSILL
 62
13
 10
4994.433
 20
-9045.132
 30
-210.300
 70
    32
  0
VERTEX
  8
T54SSILL
 62
13
 10
5025.977
 20
-9023.146
 30
-210.402
 70
    32
  0
VERTEX
  8
T54SSILL
 62
13
 10
5031.961
 20
-9020.683
 30
-210.421
 70
    32
  0
VERTEX
  8
T54SSILL
 62
13
 10
5042.375
 20
-9019.379
 30
-210.450
 70
    32
  0
VERTEX
  8
T54SSILL
 62
13
 10
5060.904
 20
-9019.855
 30
-210.500
 70
    32
  0
VERTEX
  8
T54SSILL
 62
13
 10
5062.963
 20
-9021.827
 30
-210.505
 70
    32
  0
VERTEX
  8
T54SSILL
 62
13
 10
5074.685
 20
-9025.284
 30
-210.535
 70
    32
  0
VERTEX
  8
T54SSILL
 62
13
 10
5087.873
 20
-9027.179
 30
-210.571
 70
    32
  0
VERTEX
  8
T54SSILL
 62
13
 10
5099.080
 20
-9021.836
 30
-210.606
 70
    32
  0
VERTEX
  8
T54SSILL
 62
13
 10
5105.630
 20
-9021.710
 30
-210.625
 70
    32
  0
VERTEX
  8
T54SSILL
 62
13
 10
5113.087
 20
-9018.565
 30
-210.648
 70
    32
  0
VERTEX
  8
T54SSILL
 62
13
 10
5156.135
 20
-9016.362
 30
-210.671
 70
    32
  0
VERTEX
  8
T54SSILL
 62
13
 10
5113.129
 20
-9046.763
 30
-210.628
 70
    32
  0
VERTEX
  8
T54SSILL
 62
13
 10
5110.505
 20
-9046.234
 30
-210.621
 70
    32
  0
VERTEX
  8
T54SSILL
 62
13
 10
5099.791
 20
-9022.623
 30
-210.608
 70
    32
  0
VERTEX
  8
T54SSILL
 62
13
 10
5087.430
 20
-9030.952
 30
-210.567
 70
    32
  0
VERTEX
  8
T54SSILL
 62
13
 10
5085.292
 20
-9044.547
 30
-210.551
 70
    32
  0
VERTEX
  8
T54SSILL
 62
13
 10
5088.879
 20
-9050.116
 30
-210.557
 70
    32
  0
VERTEX
  8
T54SSILL
 62
13
 10
5054.308
 20
-9066.206
 30
-210.448
 70
    32
  0
VERTEX
  8
T54SSILL
 62
13
 10
5051.007
 20
-9073.489
 30
-210.434
 70
    32
  0
VERTEX
  8
T54SSILL
 62
13
 10
5032.705
 20
-9081.147
 30
-210.377
 70
    32
  0
VERTEX
  8
T54SSILL
 62
13
 10
5026.221
 20
-9086.872
 30
-210.354
 70
    32
  0
VERTEX
  8
T54SSILL
 62
13
 10
5034.747
 20
-9099.637
 30
-210.369
 70
    32
  0
VERTEX
  8
T54SSILL
 62
13
 10
5033.871
 20
-9102.792
 30
-210.364
 70
    32
  0
VERTEX
  8
T54SSILL
 62
13
 10
5024.481
 20
-9109.429
 30
-210.333
 70
    32
  0
VERTEX
  8
T54SSILL
 62
13
 10
5017.742
 20
-9112.619
 30
-210.312
 70
    32
  0
VERTEX
  8
T54SSILL
 62
13
 10
5003.666
 20
-9114.060
 30
-210.272
 70
    32
  0
VERTEX
  8
T54SSILL
 62
13
 10
4996.584
 20
-9111.602
 30
-210.255
 70
    32
  0
VERTEX
  8
T54SSILL
 62
13
 10
4989.833
 20
-9106.676
 30
-210.240
 70
    32
  0
VERTEX
  8
T54SSILL
 62
13
 10
4985.752
 20
-9101.041
 30
-210.233
 70
    32
  0
SEQEND
  8
T54SSILL
  0
POLYLINE
  8
T54SSILL
 62
3
 66
     1
 70
     9
  0
VERTEX
  8
T54SSILL
 62
3
 10
665.203
 20
-6347.464
 30
-190.691
 70
    32
  0
VERTEX
  8
T54SSILL
 62
3
 10
627.397
 20
-6352.148
 30
-179.460
 70
    32
  0
VERTEX
  8
T54SSILL
 62
3
 10
626.086
 20
-6363.587
 30
-179.460
 70
    32
  0
VERTEX
  8
T54SSILL
 62
3
 10
672.708
 20
-6354.047
 30
-190.695
 70
    32
  0
SEQEND
  8
T54SSILL
  0
POLYLINE
  8
T54SSILL
 62
3
 66
     1
 70
     9
  0
VERTEX
  8
T54SSILL
 62
3
 10
771.475
 20
-6722.299
 30
-192.135
 70
    32
  0
VERTEX
  8
T54SSILL
 62
3
 10
747.020
 20
-6711.126
 30
-183.029
 70
    32
  0
VERTEX
  8
T54SSILL
 62
3
 10
751.925
 20
-6702.227
 30
-182.962
 70
    32
  0
VERTEX
  8
T54SSILL
 62
3
 10
779.251
 20
-6715.517
 30
-192.072
 70
    32
  0
SEQEND
  8
T54SSILL
  0
POLYLINE
  8
T54SSILL
 62
3
 66
     1
 70
     9
  0
VERTEX
  8
T54SSILL
 62
3
 10
1112.059
 20
-7541.201
 30
-194.187
 70
    32
  0
VERTEX
  8
T54SSILL
 62
3
 10
1094.437
 20
-7561.241
 30
-190.070
 70
    32
  0
VERTEX
  8
T54SSILL
 62
3
 10
1101.269
 20
-7570.784
 30
-189.489
 70
    32
  0
VERTEX
  8
T54SSILL
 62
3
 10
1120.631
 20
-7547.615
 30
-194.261
 70
    32
  0
SEQEND
  8
T54SSILL
  0
POLYLINE
  8
T54SSILL
 62
3
 66
     1
 70
     9
  0
VERTEX
  8
T54SSILL
 62
3
 10
1119.989
 20
-7809.807
 30
-196.246
 70
    32
  0
VERTEX
  8
T54SSILL
 62
3
 10
1101.534
 20
-7786.662
 30
-191.959
 70
    32
  0
VERTEX
  8
T54SSILL
 62
3
 10
1098.769
 20
-7800.534
 30
-191.410
 70
    32
  0
VERTEX
  8
T54SSILL
 62
3
 10
1124.025
 20
-7831.266
 30
-196.574
 70
    32
  0
SEQEND
  8
T54SSILL
  0
POLYLINE
  8
T54SSILL
 62
3
 66
     1
 70
     9
  0
VERTEX
  8
T54SSILL
 62
3
 10
825.515
 20
-6755.099
 30
-191.968
 70
    32
  0
VERTEX
  8
T54SSILL
 62
3
 10
818.364
 20
-6765.026
 30
-195.364
 70
    32
  0
VERTEX
  8
T54SSILL
 62
3
 10
806.614
 20
-6773.337
 30
-198.659
 70
    32
  0
VERTEX
  8
T54SSILL
 62
3
 10
812.831
 20
-6781.510
 30
-198.855
 70
    32
  0
VERTEX
  8
T54SSILL
 62
3
 10
825.037
 20
-6772.730
 30
-195.381
 70
    32
  0
VERTEX
  8
T54SSILL
 62
3
 10
837.542
 20
-6763.734
 30
-191.823
 70
    32
  0
SEQEND
  8
T54SSILL
  0
POLYLINE
  8
T54SSILL
 62
3
 66
     1
 70
     9
  0
VERTEX
  8
T54SSILL
 62
3
 10
485.783
 20
-5648.714
 30
-188.030
 70
    32
  0
VERTEX
  8
T54SSILL
 62
3
 10
476.557
 20
-5637.933
 30
-191.023
 70
    32
  0
VERTEX
  8
T54SSILL
 62
3
 10
470.586
 20
-5629.639
 30
-193.102
 70
    32
  0
VERTEX
  8
T54SSILL
 62
3
 10
483.834
 20
-5625.193
 30
-192.456
 70
    32
  0
VERTEX
  8
T54SSILL
 62
3
 10
488.496
 20
-5635.594
 30
-190.244
 70
    32
  0
VERTEX
  8
T54SSILL
 62
3
 10
493.116
 20
-5645.903
 30
-188.064
 70
    32
  0
SEQEND
  8
T54SSILL
  0
POLYLINE
  8
T54SSILL
 62
3
 66
     1
 70
     9
  0
VERTEX
  8
T54SSILL
 62
3
 10
401.412
 20
-5636.025
 30
-187.274
 70
    32
  0
VERTEX
  8
T54SSILL
 62
3
 10
380.807
 20
-5639.997
 30
-194.904
 70
    32
  0
VERTEX
  8
T54SSILL
 62
3
 10
378.498
 20
-5653.513
 30
-195.990
 70
    32
  0
VERTEX
  8
T54SSILL
 62
3
 10
409.919
 20
-5647.779
 30
-187.377
 70
    32
  0
SEQEND
  8
T54SSILL
  0
POLYLINE
  8
T54SSILL
 62
3
 66
     1
 70
     9
  0
VERTEX
  8
T54SSILL
 62
3
 10
730.544
 20
-6446.144
 30
-190.931
 70
    32
  0
VERTEX
  8
T54SSILL
 62
3
 10
707.139
 20
-6435.111
 30
-199.844
 70
    32
  0
VERTEX
  8
T54SSILL
 62
3
 10
698.935
 20
-6442.884
 30
-199.530
 70
    32
  0
VERTEX
  8
T54SSILL
 62
3
 10
723.753
 20
-6456.015
 30
-191.005
 70
    32
  0
SEQEND
  8
T54SSILL
  0
TEXT
  8
T54SSILL
 62
13
 10
5092.869
 20
-8277.591
 30
-210.772
 40
0.200
  1
5450
 41
 1.0 
  0
TEXT
  8
T54SSILL
 62
3
 10
659.295
 20
-6384.983
 30
-184.470
 40
0.200
  1
U
 41
 1.0 
  0
TEXT
  8
T54SSILL
 62
3
 10
750.665
 20
-6728.978
 30
-183.029
 40
0.200
  1
U
 41
 1.0 
  0
TEXT
  8
T54SSILL
 62
3
 10
1093.604
 20
-7538.999
 30
-189.185
 40
0.200
  1
U
 41
 1.0 
  0
TEXT
  8
T54SSILL
 62
3
 10
1091.981
 20
-7831.164
 30
-196.953
 40
0.200
  1
U
 41
 1.0 
  0
TEXT
  8
T54SSILL
 62
3
 10
835.335
 20
-6794.290
 30
-195.364
 40
0.200
  1
D
 41
 1.0 
  0
TEXT
  8
T54SSILL
 62
3
 10
391.789
 20
-5672.757
 30
-191.633
 40
0.200
  1
D
 41
 1.0 
  0
TEXT
  8
T54SSILL
 62
3
 10
492.169
 20
-5618.394
 30
-191.023
 40
0.200
  1
D
 41
 1.0 
  0
TEXT
  8
T54SSILL
 62
3
 10
695.038
 20
-6484.941
 30
-195.060
 40
0.200
  1
D
 41
 1.0 
  0
TEXT
  8
T54SSILL
 62
13
 10
1122.434
 20
-6794.571
 30
-205.820
 40
0.200
  1
5450
 41
 1.0 
  0
POLYLINE
  8
T54SSILL
 62
13
 66
     1
 70
     9
  0
VERTEX
  8
T54SSILL
 62
13
 10
810.662
 20
-6422.202
 30
-191.248
 70
    32
  0
VERTEX
  8
T54SSILL
 62
13
 10
804.176
 20
-6423.731
 30
-191.196
 70
    32
  0
VERTEX
  8
T54SSILL
 62
13
 10
800.625
 20
-6427.229
 30
-191.171
 70
    32
  0
VERTEX
  8
T54SSILL
 62
13
 10
799.038
 20
-6428.793
 30
-191.160
 70
    32
  0
VERTEX
  8
T54SSILL
 62
13
 10
797.655
 20
-6439.608
 30
-191.163
 70
    32
  0
VERTEX
  8
T54SSILL
 62
13
 10
793.611
 20
-6452.221
 30
-191.147
 70
    32
  0
VERTEX
  8
T54SSILL
 62
13
 10
789.937
 20
-6457.567
 30
-191.123
 70
    32
  0
VERTEX
  8
T54SSILL
 62
13
 10
789.744
 20
-6462.385
 30
-191.128
 70
    32
  0
VERTEX
  8
T54SSILL
 62
13
 10
778.964
 20
-6488.539
 30
-191.074
 70
    32
  0
VERTEX
  8
T54SSILL
 62
13
 10
776.080
 20
-6488.478
 30
-191.050
 70
    32
  0
VERTEX
  8
T54SSILL
 62
13
 10
771.283
 20
-6474.694
 30
-190.991
 70
    32
  0
VERTEX
  8
T54SSILL
 62
13
 10
774.070
 20
-6466.339
 30
-191.003
 70
    32
  0
VERTEX
  8
T54SSILL
 62
13
 10
772.715
 20
-6462.576
 30
-190.986
 70
    32
  0
VERTEX
  8
T54SSILL
 62
13
 10
765.398
 20
-6458.295
 30
-190.960
 70
    32
  0
VERTEX
  8
T54SSILL
 62
13
 10
752.793
 20
-6420.987
 30
-190.914
 70
    32
  0
VERTEX
  8
T54SSILL
 62
13
 10
758.856
 20
-6413.091
 30
-190.869
 70
    32
  0
VERTEX
  8
T54SSILL
 62
13
 10
770.943
 20
-6402.631
 30
-190.888
 70
    32
  0
VERTEX
  8
T54SSILL
 62
13
 10
789.369
 20
-6395.063
 30
-191.032
 70
    32
  0
VERTEX
  8
T54SSILL
 62
13
 10
792.514
 20
-6391.846
 30
-191.054
 70
    32
  0
VERTEX
  8
T54SSILL
 62
13
 10
797.696
 20
-6390.975
 30
-191.096
 70
    32
  0
VERTEX
  8
T54SSILL
 62
13
 10
815.557
 20
-6406.514
 30
-191.267
 70
    32
  0
VERTEX
  8
T54SSILL
 62
13
 10
813.541
 20
-6417.443
 30
-191.265
 70
    32
  0
SEQEND
  8
T54SSILL
  0
POLYLINE
  8
T54SSILL
 62
13
 66
     1
 70
     9
  0
VERTEX
  8
T54SSILL
 62
13
 10
781.890
 20
-6386.039
 30
-190.957
 70
    32
  0
VERTEX
  8
T54SSILL
 62
13
 10
767.665
 20
-6391.742
 30
-190.846
 70
    32
  0
VERTEX
  8
T54SSILL
 62
13
 10
752.449
 20
-6403.246
 30
-190.869
 70
    32
  0
VERTEX
  8
T54SSILL
 62
13
 10
744.772
 20
-6399.634
 30
-190.891
 70
    32
  0
VERTEX
  8
T54SSILL
 62
13
 10
739.339
 20
-6380.946
 30
-190.865
 70
    32
  0
VERTEX
  8
T54SSILL
 62
13
 10
744.509
 20
-6376.244
 30
-190.831
 70
    32
  0
VERTEX
  8
T54SSILL
 62
13
 10
764.560
 20
-6373.388
 30
-190.795
 70
    32
  0
VERTEX
  8
T54SSILL
 62
13
 10
777.548
 20
-6374.788
 30
-190.905
 70
    32
  0
VERTEX
  8
T54SSILL
 62
13
 10
783.881
 20
-6378.469
 30
-190.963
 70
    32
  0
SEQEND
  8
T54SSILL
  0
POLYLINE
  8
T54SSILL
 62
13
 66
     1
 70
     9
  0
VERTEX
  8
T54SSILL
 62
13
 10
929.780
 20
-6858.684
 30
-192.478
 70
    32
  0
VERTEX
  8
T54SSILL
 62
13
 10
904.822
 20
-6874.523
 30
-192.192
 70
    32
  0
VERTEX
  8
T54SSILL
 62
13
 10
902.500
 20
-6866.615
 30
-192.170
 70
    32
  0
VERTEX
  8
T54SSILL
 62
13
 10
905.726
 20
-6861.582
 30
-192.206
 70
    32
  0
VERTEX
  8
T54SSILL
 62
13
 10
903.944
 20
-6855.967
 30
-192.189
 70
    32
  0
VERTEX
  8
T54SSILL
 62
13
 10
897.096
 20
-6852.454
 30
-192.117
 70
    32
  0
VERTEX
  8
T54SSILL
 62
13
 10
890.587
 20
-6831.655
 30
-192.056
 70
    32
  0
VERTEX
  8
T54SSILL
 62
13
 10
895.189
 20
-6820.828
 30
-192.132
 70
    32
  0
VERTEX
  8
T54SSILL
 62
13
 10
910.387
 20
-6800.155
 30
-192.352
 70
    32
  0
VERTEX
  8
T54SSILL
 62
13
 10
919.109
 20
-6800.285
 30
-192.444
 70
    32
  0
VERTEX
  8
T54SSILL
 62
13
 10
919.962
 20
-6823.183
 30
-192.425
 70
    32
  0
VERTEX
  8
T54SSILL
 62
13
 10
927.424
 20
-6843.119
 30
-192.478
 70
    32
  0
SEQEND
  8
T54SSILL
  0
POLYLINE
  8
T54SSILL
 62
13
 66
     1
 70
     9
  0
VERTEX
  8
T54SSILL
 62
13
 10
945.870
 20
-6935.467
 30
-192.610
 70
    32
  0
VERTEX
  8
T54SSILL
 62
13
 10
940.502
 20
-6942.145
 30
-192.550
 70
    32
  0
VERTEX
  8
T54SSILL
 62
13
 10
929.994
 20
-6943.781
 30
-192.424
 70
    32
  0
VERTEX
  8
T54SSILL
 62
13
 10
927.434
 20
-6942.779
 30
-192.395
 70
    32
  0
VERTEX
  8
T54SSILL
 62
13
 10
908.040
 20
-6884.449
 30
-192.223
 70
    32
  0
VERTEX
  8
T54SSILL
 62
13
 10
931.203
 20
-6869.492
 30
-192.475
 70
    32
  0
VERTEX
  8
T54SSILL
 62
13
 10
933.119
 20
-6868.255
 30
-192.500
 70
    32
  0
VERTEX
  8
T54SSILL
 62
13
 10
938.812
 20
-6893.588
 30
-192.548
 70
    32
  0
VERTEX
  8
T54SSILL
 62
13
 10
942.750
 20
-6901.978
 30
-192.588
 70
    32
  0
VERTEX
  8
T54SSILL
 62
13
 10
943.971
 20
-6909.051
 30
-192.598
 70
    32
  0
SEQEND
  8
T54SSILL
  0
POLYLINE
  8
T54SSILL
 62
13
 66
     1
 70
     9
  0
VERTEX
  8
T54SSILL
 62
13
 10
956.450
 20
-6989.089
 30
-192.634
 70
    32
  0
VERTEX
  8
T54SSILL
 62
13
 10
946.446
 20
-6998.937
 30
-192.483
 70
    32
  0
VERTEX
  8
T54SSILL
 62
13
 10
936.706
 20
-6970.383
 30
-192.437
 70
    32
  0
VERTEX
  8
T54SSILL
 62
13
 10
938.222
 20
-6960.880
 30
-192.481
 70
    32
  0
VERTEX
  8
T54SSILL
 62
13
 10
945.618
 20
-6951.530
 30
-192.598
 70
    32
  0
VERTEX
  8
T54SSILL
 62
13
 10
950.704
 20
-6952.467
 30
-192.656
 70
    32
  0
VERTEX
  8
T54SSILL
 62
13
 10
955.911
 20
-6966.430
 30
-192.687
 70
    32
  0
SEQEND
  8
T54SSILL
  0
POLYLINE
  8
T54SSILL
 62
13
 66
     1
 70
     9
  0
VERTEX
  8
T54SSILL
 62
13
 10
972.415
 20
-7048.205
 30
-192.653
 70
    32
  0
VERTEX
  8
T54SSILL
 62
13
 10
966.877
 20
-7055.159
 30
-192.541
 70
    32
  0
VERTEX
  8
T54SSILL
 62
13
 10
964.907
 20
-7054.356
 30
-192.517
 70
    32
  0
VERTEX
  8
T54SSILL
 62
13
 10
956.530
 20
-7028.541
 30
-192.530
 70
    32
  0
VERTEX
  8
T54SSILL
 62
13
 10
951.712
 20
-7013.696
 30
-192.510
 70
    32
  0
VERTEX
  8
T54SSILL
 62
13
 10
959.165
 20
-7009.836
 30
-192.613
 70
    32
  0
VERTEX
  8
T54SSILL
 62
13
 10
963.564
 20
-7013.579
 30
-192.658
 70
    32
  0
VERTEX
  8
T54SSILL
 62
13
 10
964.462
 20
-7021.012
 30
-192.649
 70
    32
  0
VERTEX
  8
T54SSILL
 62
13
 10
968.701
 20
-7025.030
 30
-192.691
 70
    32
  0
SEQEND
  8
T54SSILL
  0
POLYLINE
  8
T54SSILL
 62
13
 66
     1
 70
     9
  0
VERTEX
  8
T54SSILL
 62
13
 10
1005.222
 20
-7091.921
 30
-192.892
 70
    32
  0
VERTEX
  8
T54SSILL
 62
13
 10
991.413
 20
-7118.493
 30
-192.565
 70
    32
  0
VERTEX
  8
T54SSILL
 62
13
 10
989.708
 20
-7119.429
 30
-192.536
 70
    32
  0
VERTEX
  8
T54SSILL
 62
13
 10
985.416
 20
-7117.306
 30
-192.487
 70
    32
  0
VERTEX
  8
T54SSILL
 62
13
 10
969.596
 20
-7067.701
 30
-192.516
 70
    32
  0
VERTEX
  8
T54SSILL
 62
13
 10
977.363
 20
-7058.272
 30
-192.672
 70
    32
  0
VERTEX
  8
T54SSILL
 62
13
 10
988.883
 20
-7060.484
 30
-192.822
 70
    32
  0
VERTEX
  8
T54SSILL
 62
13
 10
991.582
 20
-7070.378
 30
-192.810
 70
    32
  0
SEQEND
  8
T54SSILL
  0
POLYLINE
  8
T54SSILL
 62
13
 66
     1
 70
     9
  0
VERTEX
  8
T54SSILL
 62
13
 10
916.122
 20
-6784.638
 30
-192.369
 70
    32
  0
VERTEX
  8
T54SSILL
 62
13
 10
908.938
 20
-6784.833
 30
-192.322
 70
    32
  0
VERTEX
  8
T54SSILL
 62
13
 10
905.282
 20
-6788.995
 30
-192.311
 70
    32
  0
VERTEX
  8
T54SSILL
 62
13
 10
894.382
 20
-6790.037
 30
-192.178
 70
    32
  0
VERTEX
  8
T54SSILL
 62
13
 10
886.205
 20
-6798.001
 30
-192.066
 70
    32
  0
VERTEX
  8
T54SSILL
 62
13
 10
882.382
 20
-6797.032
 30
-192.021
 70
    32
  0
VERTEX
  8
T54SSILL
 62
13
 10
876.345
 20
-6789.971
 30
-191.962
 70
    32
  0
VERTEX
  8
T54SSILL
 62
13
 10
868.932
 20
-6768.535
 30
-191.912
 70
    32
  0
VERTEX
  8
T54SSILL
 62
13
 10
872.161
 20
-6763.107
 30
-191.961
 70
    32
  0
VERTEX
  8
T54SSILL
 62
13
 10
870.606
 20
-6758.954
 30
-191.950
 70
    32
  0
VERTEX
  8
T54SSILL
 62
13
 10
865.208
 20
-6757.383
 30
-191.888
 70
    32
  0
VERTEX
  8
T54SSILL
 62
13
 10
857.368
 20
-6734.681
 30
-191.804
 70
    32
  0
VERTEX
  8
T54SSILL
 62
13
 10
859.091
 20
-6723.403
 30
-191.775
 70
    32
  0
VERTEX
  8
T54SSILL
 62
13
 10
856.567
 20
-6716.284
 30
-191.734
 70
    32
  0
VERTEX
  8
T54SSILL
 62
13
 10
857.164
 20
-6708.709
 30
-191.711
 70
    32
  0
VERTEX
  8
T54SSILL
 62
13
 10
864.035
 20
-6701.487
 30
-191.731
 70
    32
  0
VERTEX
  8
T54SSILL
 62
13
 10
884.562
 20
-6687.437
 30
-192.002
 70
    32
  0
VERTEX
  8
T54SSILL
 62
13
 10
893.210
 20
-6700.197
 30
-192.082
 70
    32
  0
VERTEX
  8
T54SSILL
 62
13
 10
905.141
 20
-6732.000
 30
-192.147
 70
    32
  0
VERTEX
  8
T54SSILL
 62
13
 10
913.725
 20
-6762.600
 30
-192.276
 70
    32
  0
SEQEND
  8
T54SSILL
  0
POLYLINE
  8
T54SSILL
 62
13
 66
     1
 70
     9
  0
VERTEX
  8
T54SSILL
 62
13
 10
1069.130
 20
-7215.331
 30
-193.450
 70
    32
  0
VERTEX
  8
T54SSILL
 62
13
 10
1029.877
 20
-7248.208
 30
-193.005
 70
    32
  0
VERTEX
  8
T54SSILL
 62
13
 10
999.909
 20
-7158.805
 30
-192.651
 70
    32
  0
VERTEX
  8
T54SSILL
 62
13
 10
1002.593
 20
-7153.253
 30
-192.681
 70
    32
  0
VERTEX
  8
T54SSILL
 62
13
 10
999.513
 20
-7147.188
 30
-192.645
 70
    32
  0
VERTEX
  8
T54SSILL
 62
13
 10
995.217
 20
-7145.855
 30
-192.596
 70
    32
  0
VERTEX
  8
T54SSILL
 62
13
 10
992.970
 20
-7139.282
 30
-192.569
 70
    32
  0
VERTEX
  8
T54SSILL
 62
13
 10
999.532
 20
-7127.002
 30
-192.643
 70
    32
  0
VERTEX
  8
T54SSILL
 62
13
 10
1001.277
 20
-7120.140
 30
-192.694
 70
    32
  0
VERTEX
  8
T54SSILL
 62
13
 10
1006.735
 20
-7113.422
 30
-192.804
 70
    32
  0
VERTEX
  8
T54SSILL
 62
13
 10
1010.570
 20
-7101.399
 30
-192.919
 70
    32
  0
VERTEX
  8
T54SSILL
 62
13
 10
1013.274
 20
-7098.692
 30
-192.970
 70
    32
  0
VERTEX
  8
T54SSILL
 62
13
 10
1019.378
 20
-7101.499
 30
-193.041
 70
    32
  0
VERTEX
  8
T54SSILL
 62
13
 10
1021.785
 20
-7107.796
 30
-193.043
 70
    32
  0
VERTEX
  8
T54SSILL
 62
13
 10
1027.537
 20
-7115.894
 30
-193.083
 70
    32
  0
VERTEX
  8
T54SSILL
 62
13
 10
1046.951
 20
-7130.761
 30
-193.279
 70
    32
  0
VERTEX
  8
T54SSILL
 62
13
 10
1066.823
 20
-7159.575
 30
-193.417
 70
    32
  0
VERTEX
  8
T54SSILL
 62
13
 10
1057.752
 20
-7163.148
 30
-193.314
 70
    32
  0
VERTEX
  8
T54SSILL
 62
13
 10
1053.371
 20
-7162.644
 30
-193.263
 70
    32
  0
VERTEX
  8
T54SSILL
 62
13
 10
1042.111
 20
-7151.151
 30
-193.133
 70
    32
  0
VERTEX
  8
T54SSILL
 62
13
 10
1036.409
 20
-7135.746
 30
-193.107
 70
    32
  0
VERTEX
  8
T54SSILL
 62
13
 10
1030.661
 20
-7127.055
 30
-193.070
 70
    32
  0
VERTEX
  8
T54SSILL
 62
13
 10
1022.454
 20
-7131.384
 30
-192.934
 70
    32
  0
VERTEX
  8
T54SSILL
 62
13
 10
1023.033
 20
-7139.170
 30
-192.913
 70
    32
  0
VERTEX
  8
T54SSILL
 62
13
 10
1026.899
 20
-7151.640
 30
-192.959
 70
    32
  0
VERTEX
  8
T54SSILL
 62
13
 10
1032.245
 20
-7161.316
 30
-193.022
 70
    32
  0
VERTEX
  8
T54SSILL
 62
13
 10
1046.024
 20
-7174.130
 30
-193.181
 70
    32
  0
VERTEX
  8
T54SSILL
 62
13
 10
1046.465
 20
-7179.031
 30
-193.186
 70
    32
  0
VERTEX
  8
T54SSILL
 62
13
 10
1068.331
 20
-7187.673
 30
-193.438
 70
    32
  0
VERTEX
  8
T54SSILL
 62
13
 10
1072.214
 20
-7203.382
 30
-193.484
 70
    32
  0
VERTEX
  8
T54SSILL
 62
13
 10
1072.097
 20
-7208.952
 30
-193.483
 70
    32
  0
SEQEND
  8
T54SSILL
  0
POLYLINE
  8
T54SSILL
 62
13
 66
     1
 70
     9
  0
VERTEX
  8
T54SSILL
 62
13
 10
1305.545
 20
-7406.538
 30
-196.072
 70
    32
  0
VERTEX
  8
T54SSILL
 62
13
 10
1302.336
 20
-7408.929
 30
-196.032
 70
    32
  0
VERTEX
  8
T54SSILL
 62
13
 10
1291.020
 20
-7417.359
 30
-195.921
 70
    32
  0
VERTEX
  8
T54SSILL
 62
13
 10
1289.024
 20
-7417.183
 30
-195.893
 70
    32
  0
VERTEX
  8
T54SSILL
 62
13
 10
1289.762
 20
-7406.869
 30
-195.884
 70
    32
  0
VERTEX
  8
T54SSILL
 62
13
 10
1300.398
 20
-7387.499
 30
-196.023
 70
    32
  0
VERTEX
  8
T54SSILL
 62
13
 10
1303.673
 20
-7395.513
 30
-196.056
 70
    32
  0
SEQEND
  8
T54SSILL
  0
POLYLINE
  8
T54SSILL
 62
13
 66
     1
 70
     9
  0
VERTEX
  8
T54SSILL
 62
13
 10
1324.603
 20
-7431.786
 30
-196.449
 70
    32
  0
VERTEX
  8
T54SSILL
 62
13
 10
1283.810
 20
-7441.228
 30
-195.942
 70
    32
  0
VERTEX
  8
T54SSILL
 62
13
 10
1281.908
 20
-7440.435
 30
-195.913
 70
    32
  0
VERTEX
  8
T54SSILL
 62
13
 10
1281.316
 20
-7437.249
 30
-195.889
 70
    32
  0
VERTEX
  8
T54SSILL
 62
13
 10
1311.070
 20
-7413.881
 30
-196.175
 70
    32
  0
VERTEX
  8
T54SSILL
 62
13
 10
1316.433
 20
-7417.282
 30
-196.265
 70
    32
  0
SEQEND
  8
T54SSILL
  0
POLYLINE
  8
T54SSILL
 62
13
 66
     1
 70
     9
  0
VERTEX
  8
T54SSILL
 62
13
 10
1229.187
 20
-7859.485
 30
-197.294
 70
    32
  0
VERTEX
  8
T54SSILL
 62
13
 10
1233.954
 20
-7873.096
 30
-197.427
 70
    32
  0
VERTEX
  8
T54SSILL
 62
13
 10
1239.621
 20
-7902.071
 30
-197.586
 70
    32
  0
VERTEX
  8
T54SSILL
 62
13
 10
1260.656
 20
-7971.091
 30
-197.832
 70
    32
  0
VERTEX
  8
T54SSILL
 62
13
 10
1257.209
 20
-7973.414
 30
-197.815
 70
    32
  0
VERTEX
  8
T54SSILL
 62
13
 10
1233.316
 20
-7951.731
 30
-197.632
 70
    32
  0
VERTEX
  8
T54SSILL
 62
13
 10
1135.099
 20
-7831.490
 30
-196.456
 70
    32
  0
VERTEX
  8
T54SSILL
 62
13
 10
1129.650
 20
-7795.218
 30
-196.165
 70
    32
  0
VERTEX
  8
T54SSILL
 62
13
 10
1176.167
 20
-7703.171
 30
-195.793
 70
    32
  0
VERTEX
  8
T54SSILL
 62
13
 10
1188.322
 20
-7739.061
 30
-196.137
 70
    32
  0
VERTEX
  8
T54SSILL
 62
13
 10
1170.695
 20
-7750.240
 30
-195.954
 70
    32
  0
VERTEX
  8
T54SSILL
 62
13
 10
1161.066
 20
-7758.768
 30
-195.984
 70
    32
  0
VERTEX
  8
T54SSILL
 62
13
 10
1163.202
 20
-7774.319
 30
-196.109
 70
    32
  0
VERTEX
  8
T54SSILL
 62
13
 10
1160.915
 20
-7786.106
 30
-196.191
 70
    32
  0
VERTEX
  8
T54SSILL
 62
13
 10
1172.350
 20
-7801.166
 30
-196.340
 70
    32
  0
VERTEX
  8
T54SSILL
 62
13
 10
1202.367
 20
-7808.673
 30
-196.676
 70
    32
  0
VERTEX
  8
T54SSILL
 62
13
 10
1208.255
 20
-7816.956
 30
-196.797
 70
    32
  0
VERTEX
  8
T54SSILL
 62
13
 10
1209.577
 20
-7819.494
 30
-196.828
 70
    32
  0
VERTEX
  8
T54SSILL
 62
13
 10
1208.470
 20
-7820.969
 30
-196.820
 70
    32
  0
VERTEX
  8
T54SSILL
 62
13
 10
1197.061
 20
-7828.723
 30
-196.704
 70
    32
  0
VERTEX
  8
T54SSILL
 62
13
 10
1198.922
 20
-7838.988
 30
-196.781
 70
    32
  0
VERTEX
  8
T54SSILL
 62
13
 10
1210.756
 20
-7839.702
 30
-196.945
 70
    32
  0
VERTEX
  8
T54SSILL
 62
13
 10
1220.067
 20
-7848.755
 30
-197.117
 70
    32
  0
VERTEX
  8
T54SSILL
 62
13
 10
1224.952
 20
-7856.570
 30
-197.222
 70
    32
  0
SEQEND
  8
T54SSILL
  0
POLYLINE
  8
T54SSILL
 62
13
 66
     1
 70
     9
  0
VERTEX
  8
T54SSILL
 62
13
 10
1329.034
 20
-7438.838
 30
-196.544
 70
    32
  0
VERTEX
  8
T54SSILL
 62
13
 10
1342.121
 20
-7433.360
 30
-196.694
 70
    32
  0
VERTEX
  8
T54SSILL
 62
13
 10
1351.624
 20
-7427.340
 30
-196.793
 70
    32
  0
VERTEX
  8
T54SSILL
 62
13
 10
1345.596
 20
-7414.550
 30
-196.647
 70
    32
  0
VERTEX
  8
T54SSILL
 62
13
 10
1344.759
 20
-7408.800
 30
-196.607
 70
    32
  0
VERTEX
  8
T54SSILL
 62
13
 10
1348.336
 20
-7403.527
 30
-196.629
 70
    32
  0
VERTEX
  8
T54SSILL
 62
13
 10
1344.028
 20
-7396.494
 30
-196.535
 70
    32
  0
VERTEX
  8
T54SSILL
 62
13
 10
1342.820
 20
-7388.603
 30
-196.525
 70
    32
  0
VERTEX
  8
T54SSILL
 62
13
 10
1350.290
 20
-7382.655
 30
-196.618
 70
    32
  0
VERTEX
  8
T54SSILL
 62
13
 10
1344.694
 20
-7375.364
 30
-196.556
 70
    32
  0
VERTEX
  8
T54SSILL
 62
13
 10
1340.240
 20
-7377.660
 30
-196.502
 70
    32
  0
VERTEX
  8
T54SSILL
 62
13
 10
1328.675
 20
-7365.550
 30
-196.383
 70
    32
  0
VERTEX
  8
T54SSILL
 62
13
 10
1323.898
 20
-7366.218
 30
-196.326
 70
    32
  0
VERTEX
  8
T54SSILL
 62
13
 10
1321.790
 20
-7364.699
 30
-196.304
 70
    32
  0
VERTEX
  8
T54SSILL
 62
13
 10
1307.830
 20
-7347.108
 30
-196.178
 70
    32
  0
VERTEX
  8
T54SSILL
 62
13
 10
1300.404
 20
-7351.925
 30
-196.081
 70
    32
  0
VERTEX
  8
T54SSILL
 62
13
 10
1301.343
 20
-7360.345
 30
-196.074
 70
    32
  0
VERTEX
  8
T54SSILL
 62
13
 10
1294.832
 20
-7367.891
 30
-195.982
 70
    32
  0
VERTEX
  8
T54SSILL
 62
13
 10
1289.644
 20
-7371.277
 30
-195.914
 70
    32
  0
VERTEX
  8
T54SSILL
 62
13
 10
1291.158
 20
-7374.223
 30
-195.925
 70
    32
  0
VERTEX
  8
T54SSILL
 62
13
 10
1288.563
 20
-7384.699
 30
-195.884
 70
    32
  0
VERTEX
  8
T54SSILL
 62
13
 10
1283.176
 20
-7386.475
 30
-195.819
 70
    32
  0
VERTEX
  8
T54SSILL
 62
13
 10
1277.519
 20
-7406.346
 30
-195.739
 70
    32
  0
VERTEX
  8
T54SSILL
 62
13
 10
1272.864
 20
-7431.296
 30
-195.744
 70
    32
  0
VERTEX
  8
T54SSILL
 62
13
 10
1223.456
 20
-7470.144
 30
-195.269
 70
    32
  0
VERTEX
  8
T54SSILL
 62
13
 10
1220.557
 20
-7465.915
 30
-195.208
 70
    32
  0
VERTEX
  8
T54SSILL
 62
13
 10
1220.843
 20
-7461.093
 30
-195.188
 70
    32
  0
VERTEX
  8
T54SSILL
 62
13
 10
1211.498
 20
-7458.543
 30
-195.048
 70
    32
  0
VERTEX
  8
T54SSILL
 62
13
 10
1204.357
 20
-7474.019
 30
-195.029
 70
    32
  0
VERTEX
  8
T54SSILL
 62
13
 10
1205.686
 20
-7484.456
 30
-195.099
 70
    32
  0
VERTEX
  8
T54SSILL
 62
13
 10
1182.447
 20
-7501.922
 30
-194.871
 70
    32
  0
VERTEX
  8
T54SSILL
 62
13
 10
1171.610
 20
-7515.512
 30
-194.792
 70
    32
  0
VERTEX
  8
T54SSILL
 62
13
 10
1172.213
 20
-7526.155
 30
-194.854
 70
    32
  0
VERTEX
  8
T54SSILL
 62
13
 10
1168.399
 20
-7540.933
 30
-194.876
 70
    32
  0
VERTEX
  8
T54SSILL
 62
13
 10
1139.645
 20
-7541.017
 30
-194.486
 70
    32
  0
VERTEX
  8
T54SSILL
 62
13
 10
1113.214
 20
-7464.161
 30
-193.753
 70
    32
  0
VERTEX
  8
T54SSILL
 62
13
 10
1104.592
 20
-7463.932
 30
-193.651
 70
    32
  0
VERTEX
  8
T54SSILL
 62
13
 10
1076.242
 20
-7382.342
 30
-193.391
 70
    32
  0
VERTEX
  8
T54SSILL
 62
13
 10
1072.244
 20
-7366.308
 30
-193.378
 70
    32
  0
VERTEX
  8
T54SSILL
 62
13
 10
1072.600
 20
-7361.622
 30
-193.392
 70
    32
  0
VERTEX
  8
T54SSILL
 62
13
 10
1084.140
 20
-7355.628
 30
-193.540
 70
    32
  0
VERTEX
  8
T54SSILL
 62
13
 10
1098.117
 20
-7362.742
 30
-193.688
 70
    32
  0
VERTEX
  8
T54SSILL
 62
13
 10
1099.379
 20
-7361.469
 30
-193.706
 70
    32
  0
VERTEX
  8
T54SSILL
 62
13
 10
1111.570
 20
-7368.871
 30
-193.833
 70
    32
  0
VERTEX
  8
T54SSILL
 62
13
 10
1115.731
 20
-7359.699
 30
-193.901
 70
    32
  0
VERTEX
  8
T54SSILL
 62
13
 10
1103.483
 20
-7352.261
 30
-193.773
 70
    32
  0
VERTEX
  8
T54SSILL
 62
13
 10
1103.589
 20
-7349.607
 30
-193.780
 70
    32
  0
VERTEX
  8
T54SSILL
 62
13
 10
1098.632
 20
-7348.259
 30
-193.725
 70
    32
  0
VERTEX
  8
T54SSILL
 62
13
 10
1094.737
 20
-7345.148
 30
-193.686
 70
    32
  0
VERTEX
  8
T54SSILL
 62
13
 10
1084.093
 20
-7344.496
 30
-193.563
 70
    32
  0
VERTEX
  8
T54SSILL
 62
13
 10
1072.161
 20
-7347.556
 30
-193.416
 70
    32
  0
VERTEX
  8
T54SSILL
 62
13
 10
1064.476
 20
-7342.876
 30
-193.336
 70
    32
  0
VERTEX
  8
T54SSILL
 62
13
 10
1055.821
 20
-7318.427
 30
-193.286
 70
    32
  0
VERTEX
  8
T54SSILL
 62
13
 10
1061.143
 20
-7310.632
 30
-193.365
 70
    32
  0
VERTEX
  8
T54SSILL
 62
13
 10
1062.145
 20
-7301.529
 30
-193.380
 70
    32
  0
VERTEX
  8
T54SSILL
 62
13
 10
1057.458
 20
-7288.646
 30
-193.325
 70
    32
  0
VERTEX
  8
T54SSILL
 62
13
 10
1051.156
 20
-7295.234
 30
-193.254
 70
    32
  0
VERTEX
  8
T54SSILL
 62
13
 10
1047.033
 20
-7295.019
 30
-193.206
 70
    32
  0
VERTEX
  8
T54SSILL
 62
13
 10
1035.647
 20
-7265.352
 30
-193.073
 70
    32
  0
VERTEX
  8
T54SSILL
 62
13
 10
1040.496
 20
-7261.000
 30
-193.128
 70
    32
  0
VERTEX
  8
T54SSILL
 62
13
 10
1038.674
 20
-7255.892
 30
-193.106
 70
    32
  0
VERTEX
  8
T54SSILL
 62
13
 10
1065.813
 20
-7232.611
 30
-193.414
 70
    32
  0
VERTEX
  8
T54SSILL
 62
13
 10
1073.270
 20
-7233.965
 30
-193.500
 70
    32
  0
VERTEX
  8
T54SSILL
 62
13
 10
1082.013
 20
-7243.743
 30
-193.601
 70
    32
  0
VERTEX
  8
T54SSILL
 62
13
 10
1088.366
 20
-7244.853
 30
-193.674
 70
    32
  0
VERTEX
  8
T54SSILL
 62
13
 10
1114.127
 20
-7279.040
 30
-193.972
 70
    32
  0
VERTEX
  8
T54SSILL
 62
13
 10
1122.847
 20
-7286.368
 30
-194.073
 70
    32
  0
VERTEX
  8
T54SSILL
 62
13
 10
1133.772
 20
-7277.357
 30
-194.197
 70
    32
  0
VERTEX
  8
T54SSILL
 62
13
 10
1130.099
 20
-7265.481
 30
-194.154
 70
    32
  0
VERTEX
  8
T54SSILL
 62
13
 10
1124.928
 20
-7259.164
 30
-194.094
 70
    32
  0
VERTEX
  8
T54SSILL
 62
13
 10
1120.257
 20
-7248.862
 30
-194.039
 70
    32
  0
VERTEX
  8
T54SSILL
 62
13
 10
1108.575
 20
-7241.514
 30
-193.905
 70
    32
  0
VERTEX
  8
T54SSILL
 62
13
 10
1104.671
 20
-7228.767
 30
-193.858
 70
    32
  0
VERTEX
  8
T54SSILL
 62
13
 10
1107.164
 20
-7222.424
 30
-193.886
 70
    32
  0
VERTEX
  8
T54SSILL
 62
13
 10
1104.176
 20
-7214.542
 30
-193.851
 70
    32
  0
VERTEX
  8
T54SSILL
 62
13
 10
1092.048
 20
-7197.078
 30
-193.710
 70
    32
  0
VERTEX
  8
T54SSILL
 62
13
 10
1089.675
 20
-7185.843
 30
-193.682
 70
    32
  0
VERTEX
  8
T54SSILL
 62
13
 10
1095.752
 20
-7169.371
 30
-193.767
 70
    32
  0
VERTEX
  8
T54SSILL
 62
13
 10
1082.515
 20
-7146.646
 30
-193.697
 70
    32
  0
VERTEX
  8
T54SSILL
 62
13
 10
1075.035
 20
-7137.035
 30
-193.641
 70
    32
  0
VERTEX
  8
T54SSILL
 62
13
 10
1035.707
 20
-7093.669
 30
-193.309
 70
    32
  0
VERTEX
  8
T54SSILL
 62
13
 10
1035.515
 20
-7087.071
 30
-193.340
 70
    32
  0
VERTEX
  8
T54SSILL
 62
13
 10
1038.664
 20
-7082.865
 30
-193.405
 70
    32
  0
VERTEX
  8
T54SSILL
 62
13
 10
1032.832
 20
-7075.004
 30
-193.358
 70
    32
  0
VERTEX
  8
T54SSILL
 62
13
 10
1024.951
 20
-7071.988
 30
-193.268
 70
    32
  0
VERTEX
  8
T54SSILL
 62
13
 10
1021.439
 20
-7065.643
 30
-193.241
 70
    32
  0
VERTEX
  8
T54SSILL
 62
13
 10
1014.171
 20
-7042.247
 30
-193.212
 70
    32
  0
VERTEX
  8
T54SSILL
 62
13
 10
1001.584
 20
-7022.646
 30
-193.107
 70
    32
  0
VERTEX
  8
T54SSILL
 62
13
 10
996.057
 20
-7004.793
 30
-193.085
 70
    32
  0
VERTEX
  8
T54SSILL
 62
13
 10
991.191
 20
-6999.901
 30
-193.038
 70
    32
  0
VERTEX
  8
T54SSILL
 62
13
 10
983.942
 20
-6972.001
 30
-193.004
 70
    32
  0
VERTEX
  8
T54SSILL
 62
13
 10
987.195
 20
-6962.429
 30
-193.041
 70
    32
  0
VERTEX
  8
T54SSILL
 62
13
 10
986.511
 20
-6957.847
 30
-193.036
 70
    32
  0
VERTEX
  8
T54SSILL
 62
13
 10
979.469
 20
-6947.149
 30
-192.964
 70
    32
  0
VERTEX
  8
T54SSILL
 62
13
 10
975.310
 20
-6936.112
 30
-192.923
 70
    32
  0
VERTEX
  8
T54SSILL
 62
13
 10
1003.256
 20
-6915.554
 30
-193.256
 70
    32
  0
VERTEX
  8
T54SSILL
 62
13
 10
1009.654
 20
-6908.171
 30
-193.347
 70
    32
  0
VERTEX
  8
T54SSILL
 62
13
 10
1018.154
 20
-6912.444
 30
-193.441
 70
    32
  0
VERTEX
  8
T54SSILL
 62
13
 10
1039.606
 20
-6963.169
 30
-193.606
 70
    32
  0
VERTEX
  8
T54SSILL
 62
13
 10
1054.007
 20
-6991.001
 30
-193.744
 70
    32
  0
VERTEX
  8
T54SSILL
 62
13
 10
1055.937
 20
-6991.722
 30
-193.764
 70
    32
  0
VERTEX
  8
T54SSILL
 62
13
 10
1064.252
 20
-6987.232
 30
-193.858
 70
    32
  0
VERTEX
  8
T54SSILL
 62
13
 10
1023.210
 20
-6898.344
 30
-193.480
 70
    32
  0
VERTEX
  8
T54SSILL
 62
13
 10
1016.242
 20
-6888.396
 30
-193.399
 70
    32
  0
VERTEX
  8
T54SSILL
 62
13
 10
1011.984
 20
-6887.740
 30
-193.369
 70
    32
  0
VERTEX
  8
T54SSILL
 62
13
 10
978.860
 20
-6922.950
 30
-192.965
 70
    32
  0
VERTEX
  8
T54SSILL
 62
13
 10
968.363
 20
-6929.402
 30
-192.851
 70
    32
  0
VERTEX
  8
T54SSILL
 62
13
 10
964.046
 20
-6918.443
 30
-192.809
 70
    32
  0
VERTEX
  8
T54SSILL
 62
13
 10
962.549
 20
-6897.634
 30
-192.800
 70
    32
  0
VERTEX
  8
T54SSILL
 62
13
 10
953.949
 20
-6863.206
 30
-192.760
 70
    32
  0
VERTEX
  8
T54SSILL
 62
13
 10
975.957
 20
-6859.151
 30
-193.029
 70
    32
  0
VERTEX
  8
T54SSILL
 62
13
 10
989.299
 20
-6858.873
 30
-193.116
 70
    32
  0
VERTEX
  8
T54SSILL
 62
13
 10
1014.505
 20
-6847.930
 30
-193.307
 70
    32
  0
VERTEX
  8
T54SSILL
 62
13
 10
1004.958
 20
-6810.391
 30
-193.295
 70
    32
  0
VERTEX
  8
T54SSILL
 62
13
 10
995.924
 20
-6812.614
 30
-193.160
 70
    32
  0
VERTEX
  8
T54SSILL
 62
13
 10
1001.560
 20
-6834.237
 30
-193.170
 70
    32
  0
VERTEX
  8
T54SSILL
 62
13
 10
998.358
 20
-6841.915
 30
-193.117
 70
    32
  0
VERTEX
  8
T54SSILL
 62
13
 10
975.560
 20
-6845.966
 30
-192.980
 70
    32
  0
VERTEX
  8
T54SSILL
 62
13
 10
952.116
 20
-6852.696
 30
-192.757
 70
    32
  0
VERTEX
  8
T54SSILL
 62
13
 10
942.692
 20
-6823.986
 30
-192.684
 70
    32
  0
VERTEX
  8
T54SSILL
 62
13
 10
939.759
 20
-6792.275
 30
-192.553
 70
    32
  0
VERTEX
  8
T54SSILL
 62
13
 10
934.169
 20
-6769.548
 30
-192.436
 70
    32
  0
VERTEX
  8
T54SSILL
 62
13
 10
933.678
 20
-6758.967
 30
-192.460
 70
    32
  0
VERTEX
  8
T54SSILL
 62
13
 10
935.473
 20
-6755.820
 30
-192.496
 70
    32
  0
VERTEX
  8
T54SSILL
 62
13
 10
935.190
 20
-6750.253
 30
-192.510
 70
    32
  0
VERTEX
  8
T54SSILL
 62
13
 10
921.695
 20
-6749.622
 30
-192.322
 70
    32
  0
VERTEX
  8
T54SSILL
 62
13
 10
917.248
 20
-6727.019
 30
-192.333
 70
    32
  0
VERTEX
  8
T54SSILL
 62
13
 10
911.437
 20
-6715.026
 30
-192.290
 70
    32
  0
VERTEX
  8
T54SSILL
 62
13
 10
901.577
 20
-6686.826
 30
-192.243
 70
    32
  0
VERTEX
  8
T54SSILL
 62
13
 10
895.283
 20
-6676.449
 30
-192.189
 70
    32
  0
VERTEX
  8
T54SSILL
 62
13
 10
949.391
 20
-6636.703
 30
-192.706
 70
    32
  0
VERTEX
  8
T54SSILL
 62
13
 10
945.435
 20
-6631.470
 30
-192.665
 70
    32
  0
VERTEX
  8
T54SSILL
 62
13
 10
892.089
 20
-6669.168
 30
-192.167
 70
    32
  0
VERTEX
  8
T54SSILL
 62
13
 10
886.307
 20
-6659.030
 30
-192.119
 70
    32
  0
VERTEX
  8
T54SSILL
 62
13
 10
884.870
 20
-6648.128
 30
-192.134
 70
    32
  0
VERTEX
  8
T54SSILL
 62
13
 10
886.463
 20
-6645.769
 30
-192.164
 70
    32
  0
VERTEX
  8
T54SSILL
 62
13
 10
887.752
 20
-6634.606
 30
-192.187
 70
    32
  0
VERTEX
  8
T54SSILL
 62
13
 10
893.735
 20
-6623.787
 30
-192.222
 70
    32
  0
VERTEX
  8
T54SSILL
 62
13
 10
893.213
 20
-6611.943
 30
-192.201
 70
    32
  0
VERTEX
  8
T54SSILL
 62
13
 10
886.149
 20
-6604.995
 30
-192.132
 70
    32
  0
VERTEX
  8
T54SSILL
 62
13
 10
884.461
 20
-6596.578
 30
-192.107
 70
    32
  0
VERTEX
  8
T54SSILL
 62
13
 10
871.593
 20
-6576.452
 30
-191.971
 70
    32
  0
VERTEX
  8
T54SSILL
 62
13
 10
862.589
 20
-6577.347
 30
-191.897
 70
    32
  0
VERTEX
  8
T54SSILL
 62
13
 10
854.853
 20
-6584.012
 30
-191.842
 70
    32
  0
VERTEX
  8
T54SSILL
 62
13
 10
868.524
 20
-6608.563
 30
-191.990
 70
    32
  0
VERTEX
  8
T54SSILL
 62
13
 10
871.816
 20
-6639.605
 30
-191.979
 70
    32
  0
VERTEX
  8
T54SSILL
 62
13
 10
877.771
 20
-6667.466
 30
-191.972
 70
    32
  0
VERTEX
  8
T54SSILL
 62
13
 10
871.087
 20
-6676.662
 30
-191.848
 70
    32
  0
VERTEX
  8
T54SSILL
 62
13
 10
865.847
 20
-6688.591
 30
-191.736
 70
    32
  0
VERTEX
  8
T54SSILL
 62
13
 10
847.131
 20
-6703.322
 30
-191.625
 70
    32
  0
VERTEX
  8
T54SSILL
 62
13
 10
833.643
 20
-6660.972
 30
-191.387
 70
    32
  0
VERTEX
  8
T54SSILL
 62
13
 10
836.708
 20
-6656.608
 30
-191.430
 70
    32
  0
VERTEX
  8
T54SSILL
 62
13
 10
835.076
 20
-6652.099
 30
-191.422
 70
    32
  0
VERTEX
  8
T54SSILL
 62
13
 10
829.369
 20
-6649.303
 30
-191.351
 70
    32
  0
VERTEX
  8
T54SSILL
 62
13
 10
803.451
 20
-6572.739
 30
-191.235
 70
    32
  0
VERTEX
  8
T54SSILL
 62
13
 10
805.893
 20
-6566.912
 30
-191.288
 70
    32
  0
VERTEX
  8
T54SSILL
 62
13
 10
804.069
 20
-6561.612
 30
-191.280
 70
    32
  0
VERTEX
  8
T54SSILL
 62
13
 10
798.712
 20
-6559.726
 30
-191.211
 70
    32
  0
VERTEX
  8
T54SSILL
 62
13
 10
783.670
 20
-6513.024
 30
-191.148
 70
    32
  0
VERTEX
  8
T54SSILL
 62
13
 10
784.663
 20
-6498.466
 30
-191.136
 70
    32
  0
VERTEX
  8
T54SSILL
 62
13
 10
800.567
 20
-6462.583
 30
-191.219
 70
    32
  0
VERTEX
  8
T54SSILL
 62
13
 10
806.767
 20
-6457.572
 30
-191.264
 70
    32
  0
VERTEX
  8
T54SSILL
 62
13
 10
815.673
 20
-6455.267
 30
-191.336
 70
    32
  0
VERTEX
  8
T54SSILL
 62
13
 10
820.748
 20
-6469.013
 30
-191.397
 70
    32
  0
VERTEX
  8
T54SSILL
 62
13
 10
831.568
 20
-6469.606
 30
-191.488
 70
    32
  0
VERTEX
  8
T54SSILL
 62
13
 10
837.481
 20
-6466.015
 30
-191.533
 70
    32
  0
VERTEX
  8
T54SSILL
 62
13
 10
837.229
 20
-6451.870
 30
-191.511
 70
    32
  0
VERTEX
  8
T54SSILL
 62
13
 10
839.038
 20
-6436.910
 30
-191.506
 70
    32
  0
VERTEX
  8
T54SSILL
 62
13
 10
834.489
 20
-6416.214
 30
-191.439
 70
    32
  0
VERTEX
  8
T54SSILL
 62
13
 10
838.017
 20
-6414.581
 30
-191.466
 70
    32
  0
VERTEX
  8
T54SSILL
 62
13
 10
844.279
 20
-6406.488
 30
-191.508
 70
    32
  0
VERTEX
  8
T54SSILL
 62
13
 10
845.442
 20
-6393.420
 30
-191.499
 70
    32
  0
VERTEX
  8
T54SSILL
 62
13
 10
839.366
 20
-6392.269
 30
-191.447
 70
    32
  0
VERTEX
  8
T54SSILL
 62
13
 10
840.810
 20
-6378.571
 30
-191.440
 70
    32
  0
VERTEX
  8
T54SSILL
 62
13
 10
835.489
 20
-6376.952
 30
-191.393
 70
    32
  0
VERTEX
  8
T54SSILL
 62
13
 10
820.154
 20
-6318.645
 30
-191.184
 70
    32
  0
VERTEX
  8
T54SSILL
 62
13
 10
816.163
 20
-6313.322
 30
-191.143
 70
    32
  0
VERTEX
  8
T54SSILL
 62
13
 10
810.897
 20
-6298.784
 30
-191.079
 70
    32
  0
VERTEX
  8
T54SSILL
 62
13
 10
815.527
 20
-6286.966
 30
-191.102
 70
    32
  0
VERTEX
  8
T54SSILL
 62
13
 10
803.900
 20
-6277.913
 30
-190.992
 70
    32
  0
VERTEX
  8
T54SSILL
 62
13
 10
797.226
 20
-6277.548
 30
-190.935
 70
    32
  0
VERTEX
  8
T54SSILL
 62
13
 10
790.018
 20
-6279.905
 30
-190.878
 70
    32
  0
VERTEX
  8
T54SSILL
 62
13
 10
786.914
 20
-6283.003
 30
-190.857
 70
    32
  0
VERTEX
  8
T54SSILL
 62
13
 10
800.970
 20
-6311.037
 30
-191.013
 70
    32
  0
VERTEX
  8
T54SSILL
 62
13
 10
799.966
 20
-6313.203
 30
-191.008
 70
    32
  0
VERTEX
  8
T54SSILL
 62
13
 10
784.119
 20
-6324.623
 30
-190.891
 70
    32
  0
VERTEX
  8
T54SSILL
 62
13
 10
784.733
 20
-6337.901
 30
-190.914
 70
    32
  0
VERTEX
  8
T54SSILL
 62
13
 10
783.175
 20
-6340.142
 30
-190.904
 70
    32
  0
VERTEX
  8
T54SSILL
 62
13
 10
777.940
 20
-6342.908
 30
-190.864
 70
    32
  0
VERTEX
  8
T54SSILL
 62
13
 10
762.990
 20
-6355.954
 30
-190.757
 70
    32
  0
VERTEX
  8
T54SSILL
 62
13
 10
753.041
 20
-6360.346
 30
-190.754
 70
    32
  0
VERTEX
  8
T54SSILL
 62
13
 10
741.073
 20
-6354.608
 30
-190.789
 70
    32
  0
VERTEX
  8
T54SSILL
 62
13
 10
737.151
 20
-6356.041
 30
-190.809
 70
    32
  0
VERTEX
  8
T54SSILL
 62
13
 10
730.526
 20
-6354.373
 30
-190.832
 70
    32
  0
VERTEX
  8
T54SSILL
 62
13
 10
704.594
 20
-6275.879
 30
-190.733
 70
    32
  0
VERTEX
  8
T54SSILL
 62
13
 10
708.358
 20
-6269.112
 30
-190.699
 70
    32
  0
VERTEX
  8
T54SSILL
 62
13
 10
705.007
 20
-6262.687
 30
-190.696
 70
    32
  0
VERTEX
  8
T54SSILL
 62
13
 10
706.200
 20
-6256.296
 30
-190.675
 70
    32
  0
VERTEX
  8
T54SSILL
 62
13
 10
721.037
 20
-6258.656
 30
-190.620
 70
    32
  0
VERTEX
  8
T54SSILL
 62
13
 10
729.200
 20
-6271.477
 30
-190.620
 70
    32
  0
VERTEX
  8
T54SSILL
 62
13
 10
735.693
 20
-6285.708
 30
-190.630
 70
    32
  0
VERTEX
  8
T54SSILL
 62
13
 10
743.284
 20
-6284.934
 30
-190.597
 70
    32
  0
VERTEX
  8
T54SSILL
 62
13
 10
748.769
 20
-6280.471
 30
-190.562
 70
    32
  0
VERTEX
  8
T54SSILL
 62
13
 10
734.125
 20
-6246.426
 30
-190.534
 70
    32
  0
VERTEX
  8
T54SSILL
 62
13
 10
722.494
 20
-6210.903
 30
-190.488
 70
    32
  0
VERTEX
  8
T54SSILL
 62
13
 10
708.684
 20
-6192.392
 30
-190.497
 70
    32
  0
VERTEX
  8
T54SSILL
 62
13
 10
690.562
 20
-6142.440
 30
-190.441
 70
    32
  0
VERTEX
  8
T54SSILL
 62
13
 10
685.666
 20
-6115.223
 30
-190.370
 70
    32
  0
VERTEX
  8
T54SSILL
 62
13
 10
684.601
 20
-6098.820
 30
-190.328
 70
    32
  0
VERTEX
  8
T54SSILL
 62
13
 10
677.999
 20
-6066.324
 30
-190.244
 70
    32
  0
VERTEX
  8
T54SSILL
 62
13
 10
675.719
 20
-6064.382
 30
-190.239
 70
    32
  0
VERTEX
  8
T54SSILL
 62
13
 10
671.664
 20
-6065.252
 30
-190.240
 70
    32
  0
VERTEX
  8
T54SSILL
 62
13
 10
655.563
 20
-6071.152
 30
-190.251
 70
    32
  0
VERTEX
  8
T54SSILL
 62
13
 10
661.289
 20
-6090.320
 30
-190.302
 70
    32
  0
VERTEX
  8
T54SSILL
 62
13
 10
657.002
 20
-6096.523
 30
-190.317
 70
    32
  0
VERTEX
  8
T54SSILL
 62
13
 10
659.381
 20
-6127.633
 30
-190.396
 70
    32
  0
VERTEX
  8
T54SSILL
 62
13
 10
664.982
 20
-6145.057
 30
-190.442
 70
    32
  0
VERTEX
  8
T54SSILL
 62
13
 10
671.495
 20
-6156.523
 30
-190.473
 70
    32
  0
VERTEX
  8
T54SSILL
 62
13
 10
664.919
 20
-6158.963
 30
-190.478
 70
    32
  0
VERTEX
  8
T54SSILL
 62
13
 10
638.172
 20
-6076.025
 30
-190.327
 70
    32
  0
VERTEX
  8
T54SSILL
 62
13
 10
640.497
 20
-6069.762
 30
-190.301
 70
    32
  0
VERTEX
  8
T54SSILL
 62
13
 10
639.817
 20
-6063.716
 30
-190.291
 70
    32
  0
VERTEX
  8
T54SSILL
 62
13
 10
633.455
 20
-6063.207
 30
-190.323
 70
    32
  0
VERTEX
  8
T54SSILL
 62
13
 10
604.639
 20
-5976.431
 30
-190.116
 70
    32
  0
VERTEX
  8
T54SSILL
 62
13
 10
614.012
 20
-5971.923
 30
-190.132
 70
    32
  0
VERTEX
  8
T54SSILL
 62
13
 10
606.573
 20
-5957.156
 30
-190.056
 70
    32
  0
VERTEX
  8
T54SSILL
 62
13
 10
598.534
 20
-5958.844
 30
-190.034
 70
    32
  0
VERTEX
  8
T54SSILL
 62
13
 10
571.591
 20
-5878.557
 30
-189.416
 70
    32
  0
VERTEX
  8
T54SSILL
 62
13
 10
575.837
 20
-5875.696
 30
-189.426
 70
    32
  0
VERTEX
  8
T54SSILL
 62
13
 10
574.415
 20
-5871.931
 30
-189.408
 70
    32
  0
VERTEX
  8
T54SSILL
 62
13
 10
568.502
 20
-5869.789
 30
-189.396
 70
    32
  0
VERTEX
  8
T54SSILL
 62
13
 10
537.018
 20
-5775.575
 30
-189.178
 70
    32
  0
VERTEX
  8
T54SSILL
 62
13
 10
540.373
 20
-5765.623
 30
-189.164
 70
    32
  0
VERTEX
  8
T54SSILL
 62
13
 10
532.733
 20
-5764.406
 30
-189.152
 70
    32
  0
VERTEX
  8
T54SSILL
 62
13
 10
529.091
 20
-5752.771
 30
-189.125
 70
    32
  0
VERTEX
  8
T54SSILL
 62
13
 10
530.186
 20
-5735.194
 30
-189.094
 70
    32
  0
VERTEX
  8
T54SSILL
 62
13
 10
529.194
 20
-5725.561
 30
-189.074
 70
    32
  0
VERTEX
  8
T54SSILL
 62
13
 10
515.634
 20
-5695.289
 30
-188.999
 70
    32
  0
VERTEX
  8
T54SSILL
 62
13
 10
505.984
 20
-5684.087
 30
-188.741
 70
    32
  0
VERTEX
  8
T54SSILL
 62
13
 10
503.530
 20
-5676.494
 30
-188.608
 70
    32
  0
VERTEX
  8
T54SSILL
 62
13
 10
507.181
 20
-5667.853
 30
-188.521
 70
    32
  0
VERTEX
  8
T54SSILL
 62
13
 10
504.922
 20
-5664.587
 30
-188.451
 70
    32
  0
VERTEX
  8
T54SSILL
 62
13
 10
500.006
 20
-5664.120
 30
-188.395
 70
    32
  0
VERTEX
  8
T54SSILL
 62
13
 10
493.116
 20
-5645.903
 30
-188.064
 70
    32
  0
VERTEX
  8
T54SSILL
 62
13
 10
485.783
 20
-5648.714
 30
-188.030
 70
    32
  0
VERTEX
  8
T54SSILL
 62
13
 10
489.575
 20
-5659.805
 30
-188.228
 70
    32
  0
VERTEX
  8
T54SSILL
 62
13
 10
484.859
 20
-5664.423
 30
-188.246
 70
    32
  0
VERTEX
  8
T54SSILL
 62
13
 10
405.662
 20
-5607.206
 30
-187.141
 70
    32
  0
VERTEX
  8
T54SSILL
 62
13
 10
407.672
 20
-5602.915
 30
-187.147
 70
    32
  0
VERTEX
  8
T54SSILL
 62
13
 10
404.141
 20
-5599.700
 30
-187.117
 70
    32
  0
VERTEX
  8
T54SSILL
 62
13
 10
398.715
 20
-5602.436
 30
-187.084
 70
    32
  0
VERTEX
  8
T54SSILL
 62
13
 10
390.246
 20
-5596.355
 30
-187.015
 70
    32
  0
VERTEX
  8
T54SSILL
 62
13
 10
383.738
 20
-5582.480
 30
-186.945
 70
    32
  0
VERTEX
  8
T54SSILL
 62
13
 10
382.514
 20
-5570.806
 30
-186.951
 70
    32
  0
VERTEX
  8
T54SSILL
 62
13
 10
379.386
 20
-5569.002
 30
-186.938
 70
    32
  0
VERTEX
  8
T54SSILL
 62
13
 10
378.387
 20
-5561.731
 30
-186.968
 70
    32
  0
VERTEX
  8
T54SSILL
 62
13
 10
369.261
 20
-5561.867
 30
-186.904
 70
    32
  0
VERTEX
  8
T54SSILL
 62
13
 10
364.240
 20
-5553.821
 30
-186.909
 70
    32
  0
VERTEX
  8
T54SSILL
 62
13
 10
365.409
 20
-5543.177
 30
-186.971
 70
    32
  0
VERTEX
  8
T54SSILL
 62
13
 10
363.760
 20
-5540.584
 30
-186.972
 70
    32
  0
VERTEX
  8
T54SSILL
 62
13
 10
366.350
 20
-5535.017
 30
-187.019
 70
    32
  0
VERTEX
  8
T54SSILL
 62
13
 10
354.996
 20
-5529.667
 30
-186.966
 70
    32
  0
VERTEX
  8
T54SSILL
 62
13
 10
352.619
 20
-5534.454
 30
-186.925
 70
    32
  0
VERTEX
  8
T54SSILL
 62
13
 10
348.831
 20
-5535.745
 30
-186.893
 70
    32
  0
VERTEX
  8
T54SSILL
 62
13
 10
342.503
 20
-5532.186
 30
-186.866
 70
    32
  0
VERTEX
  8
T54SSILL
 62
13
 10
336.999
 20
-5538.772
 30
-186.795
 70
    32
  0
VERTEX
  8
T54SSILL
 62
13
 10
342.836
 20
-5545.206
 30
-186.803
 70
    32
  0
VERTEX
  8
T54SSILL
 62
13
 10
347.249
 20
-5557.053
 30
-186.774
 70
    32
  0
VERTEX
  8
T54SSILL
 62
13
 10
342.795
 20
-5560.491
 30
-186.775
 70
    32
  0
VERTEX
  8
T54SSILL
 62
13
 10
339.195
 20
-5559.700
 30
-186.827
 70
    32
  0
VERTEX
  8
T54SSILL
 62
13
 10
313.912
 20
-5541.547
 30
-187.037
 70
    32
  0
VERTEX
  8
T54SSILL
 62
13
 10
313.250
 20
-5536.577
 30
-186.987
 70
    32
  0
VERTEX
  8
T54SSILL
 62
13
 10
311.073
 20
-5534.777
 30
-187.002
 70
    32
  0
VERTEX
  8
T54SSILL
 62
13
 10
308.034
 20
-5537.199
 30
-187.084
 70
    32
  0
VERTEX
  8
T54SSILL
 62
13
 10
297.900
 20
-5529.836
 30
-187.167
 70
    32
  0
VERTEX
  8
T54SSILL
 62
13
 10
292.111
 20
-5534.391
 30
-187.323
 70
    32
  0
VERTEX
  8
T54SSILL
 62
13
 10
303.019
 20
-5542.907
 30
-187.241
 70
    32
  0
VERTEX
  8
T54SSILL
 62
13
 10
301.982
 20
-5547.037
 30
-187.310
 70
    32
  0
VERTEX
  8
T54SSILL
 62
13
 10
309.855
 20
-5547.976
 30
-187.187
 70
    32
  0
VERTEX
  8
T54SSILL
 62
13
 10
374.402
 20
-5594.456
 30
-186.919
 70
    32
  0
VERTEX
  8
T54SSILL
 62
13
 10
373.600
 20
-5597.108
 30
-186.934
 70
    32
  0
VERTEX
  8
T54SSILL
 62
13
 10
388.141
 20
-5608.142
 30
-187.051
 70
    32
  0
VERTEX
  8
T54SSILL
 62
13
 10
389.214
 20
-5610.524
 30
-187.070
 70
    32
  0
VERTEX
  8
T54SSILL
 62
13
 10
388.775
 20
-5613.676
 30
-187.089
 70
    32
  0
VERTEX
  8
T54SSILL
 62
13
 10
383.342
 20
-5616.853
 30
-187.100
 70
    32
  0
VERTEX
  8
T54SSILL
 62
13
 10
385.042
 20
-5620.851
 30
-187.139
 70
    32
  0
VERTEX
  8
T54SSILL
 62
13
 10
392.196
 20
-5625.908
 30
-187.179
 70
    32
  0
VERTEX
  8
T54SSILL
 62
13
 10
399.402
 20
-5621.118
 30
-187.170
 70
    32
  0
VERTEX
  8
T54SSILL
 62
13
 10
411.138
 20
-5624.377
 30
-187.228
 70
    32
  0
VERTEX
  8
T54SSILL
 62
13
 10
414.634
 20
-5626.917
 30
-187.255
 70
    32
  0
VERTEX
  8
T54SSILL
 62
13
 10
410.507
 20
-5634.456
 30
-187.292
 70
    32
  0
VERTEX
  8
T54SSILL
 62
13
 10
401.412
 20
-5636.025
 30
-187.274
 70
    32
  0
VERTEX
  8
T54SSILL
 62
13
 10
409.919
 20
-5647.779
 30
-187.377
 70
    32
  0
VERTEX
  8
T54SSILL
 62
13
 10
422.734
 20
-5645.677
 30
-187.403
 70
    32
  0
VERTEX
  8
T54SSILL
 62
13
 10
440.644
 20
-5645.815
 30
-187.498
 70
    32
  0
VERTEX
  8
T54SSILL
 62
13
 10
488.761
 20
-5680.774
 30
-188.520
 70
    32
  0
VERTEX
  8
T54SSILL
 62
13
 10
497.100
 20
-5715.268
 30
-188.541
 70
    32
  0
VERTEX
  8
T54SSILL
 62
13
 10
492.680
 20
-5726.755
 30
-188.357
 70
    32
  0
VERTEX
  8
T54SSILL
 62
13
 10
492.724
 20
-5741.545
 30
-188.268
 70
    32
  0
VERTEX
  8
T54SSILL
 62
13
 10
512.525
 20
-5752.469
 30
-188.715
 70
    32
  0
VERTEX
  8
T54SSILL
 62
13
 10
519.837
 20
-5760.899
 30
-188.854
 70
    32
  0
VERTEX
  8
T54SSILL
 62
13
 10
518.299
 20
-5779.668
 30
-188.700
 70
    32
  0
VERTEX
  8
T54SSILL
 62
13
 10
485.588
 20
-5863.428
 30
-188.078
 70
    32
  0
VERTEX
  8
T54SSILL
 62
13
 10
454.498
 20
-5943.414
 30
-189.495
 70
    32
  0
VERTEX
  8
T54SSILL
 62
13
 10
451.532
 20
-5954.502
 30
-189.561
 70
    32
  0
VERTEX
  8
T54SSILL
 62
13
 10
466.172
 20
-6038.262
 30
-189.918
 70
    32
  0
VERTEX
  8
T54SSILL
 62
13
 10
455.696
 20
-6047.711
 30
-190.003
 70
    32
  0
VERTEX
  8
T54SSILL
 62
13
 10
454.669
 20
-6058.918
 30
-190.062
 70
    32
  0
VERTEX
  8
T54SSILL
 62
13
 10
452.187
 20
-6066.167
 30
-190.107
 70
    32
  0
VERTEX
  8
T54SSILL
 62
13
 10
442.215
 20
-6072.853
 30
-190.177
 70
    32
  0
VERTEX
  8
T54SSILL
 62
13
 10
448.220
 20
-6083.538
 30
-190.207
 70
    32
  0
VERTEX
  8
T54SSILL
 62
13
 10
465.104
 20
-6073.910
 30
-190.097
 70
    32
  0
VERTEX
  8
T54SSILL
 62
13
 10
474.048
 20
-6079.630
 30
-190.091
 70
    32
  0
VERTEX
  8
T54SSILL
 62
13
 10
478.312
 20
-6100.840
 30
-190.180
 70
    32
  0
VERTEX
  8
T54SSILL
 62
13
 10
475.200
 20
-6104.514
 30
-190.209
 70
    32
  0
VERTEX
  8
T54SSILL
 62
13
 10
476.297
 20
-6108.732
 30
-190.226
 70
    32
  0
VERTEX
  8
T54SSILL
 62
13
 10
479.142
 20
-6110.701
 30
-190.225
 70
    32
  0
VERTEX
  8
T54SSILL
 62
13
 10
487.437
 20
-6153.400
 30
-190.404
 70
    32
  0
VERTEX
  8
T54SSILL
 62
13
 10
477.173
 20
-6178.170
 30
-190.564
 70
    32
  0
VERTEX
  8
T54SSILL
 62
13
 10
471.987
 20
-6185.745
 30
-190.621
 70
    32
  0
VERTEX
  8
T54SSILL
 62
13
 10
438.340
 20
-6209.938
 30
-190.865
 70
    32
  0
VERTEX
  8
T54SSILL
 62
13
 10
425.514
 20
-6215.366
 30
-190.940
 70
    32
  0
VERTEX
  8
T54SSILL
 62
13
 10
418.059
 20
-6213.521
 30
-190.959
 70
    32
  0
VERTEX
  8
T54SSILL
 62
13
 10
410.977
 20
-6220.919
 30
-191.022
 70
    32
  0
VERTEX
  8
T54SSILL
 62
13
 10
404.921
 20
-6223.962
 30
-191.060
 70
    32
  0
VERTEX
  8
T54SSILL
 62
13
 10
408.083
 20
-6230.336
 30
-191.079
 70
    32
  0
VERTEX
  8
T54SSILL
 62
13
 10
415.935
 20
-6238.389
 30
-191.089
 70
    32
  0
VERTEX
  8
T54SSILL
 62
13
 10
427.418
 20
-6229.285
 30
-191.001
 70
    32
  0
VERTEX
  8
T54SSILL
 62
13
 10
435.545
 20
-6226.572
 30
-190.958
 70
    32
  0
VERTEX
  8
T54SSILL
 62
13
 10
463.662
 20
-6206.276
 30
-190.753
 70
    32
  0
VERTEX
  8
T54SSILL
 62
13
 10
483.567
 20
-6188.791
 30
-190.592
 70
    32
  0
VERTEX
  8
T54SSILL
 62
13
 10
489.169
 20
-6186.146
 30
-190.558
 70
    32
  0
VERTEX
  8
T54SSILL
 62
13
 10
500.133
 20
-6184.734
 30
-190.510
 70
    32
  0
VERTEX
  8
T54SSILL
 62
13
 10
503.941
 20
-6185.911
 30
-190.502
 70
    32
  0
VERTEX
  8
T54SSILL
 62
13
 10
663.434
 20
-6323.222
 30
-190.579
 70
    32
  0
VERTEX
  8
T54SSILL
 62
13
 10
664.743
 20
-6340.703
 30
-190.660
 70
    32
  0
VERTEX
  8
T54SSILL
 62
13
 10
669.447
 20
-6346.200
 30
-190.669
 70
    32
  0
VERTEX
  8
T54SSILL
 62
13
 10
665.203
 20
-6347.464
 30
-190.691
 70
    32
  0
VERTEX
  8
T54SSILL
 62
13
 10
672.708
 20
-6354.047
 30
-190.695
 70
    32
  0
VERTEX
  8
T54SSILL
 62
13
 10
690.291
 20
-6348.551
 30
-190.575
 70
    32
  0
VERTEX
  8
T54SSILL
 62
13
 10
694.501
 20
-6349.968
 30
-190.520
 70
    32
  0
VERTEX
  8
T54SSILL
 62
13
 10
705.599
 20
-6359.523
 30
-190.448
 70
    32
  0
VERTEX
  8
T54SSILL
 62
13
 10
712.157
 20
-6370.277
 30
-190.468
 70
    32
  0
VERTEX
  8
T54SSILL
 62
13
 10
728.146
 20
-6382.603
 30
-190.751
 70
    32
  0
VERTEX
  8
T54SSILL
 62
13
 10
750.458
 20
-6446.896
 30
-190.845
 70
    32
  0
VERTEX
  8
T54SSILL
 62
13
 10
743.077
 20
-6452.052
 30
-190.913
 70
    32
  0
VERTEX
  8
T54SSILL
 62
13
 10
730.544
 20
-6446.144
 30
-190.931
 70
    32
  0
VERTEX
  8
T54SSILL
 62
13
 10
723.753
 20
-6456.015
 30
-191.005
 70
    32
  0
VERTEX
  8
T54SSILL
 62
13
 10
759.653
 20
-6476.664
 30
-190.971
 70
    32
  0
VERTEX
  8
T54SSILL
 62
13
 10
819.550
 20
-6654.535
 30
-191.346
 70
    32
  0
VERTEX
  8
T54SSILL
 62
13
 10
820.885
 20
-6662.634
 30
-191.381
 70
    32
  0
VERTEX
  8
T54SSILL
 62
13
 10
822.303
 20
-6663.116
 30
-191.361
 70
    32
  0
VERTEX
  8
T54SSILL
 62
13
 10
828.199
 20
-6680.675
 30
-191.421
 70
    32
  0
VERTEX
  8
T54SSILL
 62
13
 10
820.138
 20
-6689.074
 30
-191.585
 70
    32
  0
VERTEX
  8
T54SSILL
 62
13
 10
814.828
 20
-6699.463
 30
-191.751
 70
    32
  0
VERTEX
  8
T54SSILL
 62
13
 10
805.634
 20
-6705.764
 30
-191.926
 70
    32
  0
VERTEX
  8
T54SSILL
 62
13
 10
790.947
 20
-6709.111
 30
-191.997
 70
    32
  0
VERTEX
  8
T54SSILL
 62
13
 10
787.203
 20
-6719.076
 30
-192.060
 70
    32
  0
VERTEX
  8
T54SSILL
 62
13
 10
779.251
 20
-6715.517
 30
-192.072
 70
    32
  0
VERTEX
  8
T54SSILL
 62
13
 10
771.475
 20
-6722.299
 30
-192.135
 70
    32
  0
VERTEX
  8
T54SSILL
 62
13
 10
830.524
 20
-6748.892
 30
-191.837
 70
    32
  0
VERTEX
  8
T54SSILL
 62
13
 10
825.515
 20
-6755.099
 30
-191.968
 70
    32
  0
VERTEX
  8
T54SSILL
 62
13
 10
837.542
 20
-6763.734
 30
-191.823
 70
    32
  0
VERTEX
  8
T54SSILL
 62
13
 10
844.213
 20
-6756.905
 30
-191.798
 70
    32
  0
VERTEX
  8
T54SSILL
 62
13
 10
857.197
 20
-6763.888
 30
-191.901
 70
    32
  0
VERTEX
  8
T54SSILL
 62
13
 10
857.791
 20
-6770.285
 30
-191.933
 70
    32
  0
VERTEX
  8
T54SSILL
 62
13
 10
863.441
 20
-6782.751
 30
-191.951
 70
    32
  0
VERTEX
  8
T54SSILL
 62
13
 10
864.467
 20
-6789.625
 30
-191.981
 70
    32
  0
VERTEX
  8
T54SSILL
 62
13
 10
866.133
 20
-6801.791
 30
-192.036
 70
    32
  0
VERTEX
  8
T54SSILL
 62
13
 10
858.091
 20
-6899.482
 30
-192.448
 70
    32
  0
VERTEX
  8
T54SSILL
 62
13
 10
812.745
 20
-6895.749
 30
-192.833
 70
    32
  0
VERTEX
  8
T54SSILL
 62
13
 10
811.924
 20
-6905.716
 30
-192.885
 70
    32
  0
VERTEX
  8
T54SSILL
 62
13
 10
846.308
 20
-6908.546
 30
-192.717
 70
    32
  0
VERTEX
  8
T54SSILL
 62
13
 10
856.369
 20
-6920.411
 30
-192.629
 70
    32
  0
VERTEX
  8
T54SSILL
 62
13
 10
847.678
 20
-7034.123
 30
-193.382
 70
    32
  0
VERTEX
  8
T54SSILL
 62
13
 10
837.381
 20
-7038.004
 30
-193.439
 70
    32
  0
VERTEX
  8
T54SSILL
 62
13
 10
835.825
 20
-7046.052
 30
-193.485
 70
    32
  0
VERTEX
  8
T54SSILL
 62
13
 10
836.873
 20
-7048.785
 30
-193.494
 70
    32
  0
VERTEX
  8
T54SSILL
 62
13
 10
846.923
 20
-7052.211
 30
-193.473
 70
    32
  0
VERTEX
  8
T54SSILL
 62
13
 10
868.545
 20
-7114.221
 30
-193.697
 70
    32
  0
VERTEX
  8
T54SSILL
 62
13
 10
869.971
 20
-7125.331
 30
-193.746
 70
    32
  0
VERTEX
  8
T54SSILL
 62
13
 10
864.672
 20
-7131.971
 30
-193.799
 70
    32
  0
VERTEX
  8
T54SSILL
 62
13
 10
848.672
 20
-7137.867
 30
-193.888
 70
    32
  0
VERTEX
  8
T54SSILL
 62
13
 10
846.660
 20
-7141.039
 30
-193.911
 70
    32
  0
VERTEX
  8
T54SSILL
 62
13
 10
837.576
 20
-7147.662
 30
-193.977
 70
    32
  0
VERTEX
  8
T54SSILL
 62
13
 10
841.109
 20
-7153.704
 30
-193.994
 70
    32
  0
VERTEX
  8
T54SSILL
 62
13
 10
847.380
 20
-7149.316
 30
-193.949
 70
    32
  0
VERTEX
  8
T54SSILL
 62
13
 10
851.523
 20
-7154.281
 30
-193.958
 70
    32
  0
VERTEX
  8
T54SSILL
 62
13
 10
859.166
 20
-7169.028
 30
-194.001
 70
    32
  0
VERTEX
  8
T54SSILL
 62
13
 10
861.755
 20
-7171.692
 30
-194.005
 70
    32
  0
VERTEX
  8
T54SSILL
 62
13
 10
864.360
 20
-7171.987
 30
-193.997
 70
    32
  0
VERTEX
  8
T54SSILL
 62
13
 10
875.903
 20
-7165.033
 30
-193.919
 70
    32
  0
VERTEX
  8
T54SSILL
 62
13
 10
873.610
 20
-7159.566
 30
-193.901
 70
    32
  0
VERTEX
  8
T54SSILL
 62
13
 10
866.952
 20
-7151.028
 30
-193.884
 70
    32
  0
VERTEX
  8
T54SSILL
 62
13
 10
870.683
 20
-7142.599
 30
-193.828
 70
    32
  0
VERTEX
  8
T54SSILL
 62
13
 10
873.619
 20
-7140.763
 30
-193.808
 70
    32
  0
VERTEX
  8
T54SSILL
 62
13
 10
877.540
 20
-7145.135
 30
-193.815
 70
    32
  0
VERTEX
  8
T54SSILL
 62
13
 10
883.001
 20
-7143.631
 30
-193.779
 70
    32
  0
VERTEX
  8
T54SSILL
 62
13
 10
888.126
 20
-7145.246
 30
-193.703
 70
    32
  0
VERTEX
  8
T54SSILL
 62
13
 10
893.269
 20
-7144.096
 30
-193.606
 70
    32
  0
VERTEX
  8
T54SSILL
 62
13
 10
1026.958
 20
-7270.903
 30
-193.075
 70
    32
  0
VERTEX
  8
T54SSILL
 62
13
 10
1055.929
 20
-7355.875
 30
-193.341
 70
    32
  0
VERTEX
  8
T54SSILL
 62
13
 10
1054.040
 20
-7360.642
 30
-193.390
 70
    32
  0
VERTEX
  8
T54SSILL
 62
13
 10
1055.902
 20
-7365.632
 30
-193.398
 70
    32
  0
VERTEX
  8
T54SSILL
 62
13
 10
1059.523
 20
-7367.593
 30
-193.368
 70
    32
  0
VERTEX
  8
T54SSILL
 62
13
 10
1096.903
 20
-7475.091
 30
-193.679
 70
    32
  0
VERTEX
  8
T54SSILL
 62
13
 10
1099.995
 20
-7475.116
 30
-193.656
 70
    32
  0
VERTEX
  8
T54SSILL
 62
13
 10
1116.706
 20
-7524.925
 30
-194.095
 70
    32
  0
VERTEX
  8
T54SSILL
 62
13
 10
1112.059
 20
-7541.201
 30
-194.187
 70
    32
  0
VERTEX
  8
T54SSILL
 62
13
 10
1120.631
 20
-7547.615
 30
-194.261
 70
    32
  0
VERTEX
  8
T54SSILL
 62
13
 10
1124.847
 20
-7548.568
 30
-194.323
 70
    32
  0
VERTEX
  8
T54SSILL
 62
13
 10
1135.739
 20
-7582.692
 30
-194.642
 70
    32
  0
VERTEX
  8
T54SSILL
 62
13
 10
1133.866
 20
-7600.102
 30
-194.704
 70
    32
  0
VERTEX
  8
T54SSILL
 62
13
 10
1127.932
 20
-7610.351
 30
-194.759
 70
    32
  0
VERTEX
  8
T54SSILL
 62
13
 10
1132.999
 20
-7615.451
 30
-194.813
 70
    32
  0
VERTEX
  8
T54SSILL
 62
13
 10
1141.588
 20
-7617.571
 30
-194.896
 70
    32
  0
VERTEX
  8
T54SSILL
 62
13
 10
1144.711
 20
-7620.318
 30
-194.952
 70
    32
  0
VERTEX
  8
T54SSILL
 62
13
 10
1153.880
 20
-7651.212
 30
-195.231
 70
    32
  0
VERTEX
  8
T54SSILL
 62
13
 10
1159.162
 20
-7651.379
 30
-195.303
 70
    32
  0
VERTEX
  8
T54SSILL
 62
13
 10
1172.940
 20
-7693.585
 30
-195.701
 70
    32
  0
VERTEX
  8
T54SSILL
 62
13
 10
1118.993
 20
-7799.673
 30
-196.166
 70
    32
  0
VERTEX
  8
T54SSILL
 62
13
 10
1119.989
 20
-7809.807
 30
-196.246
 70
    32
  0
VERTEX
  8
T54SSILL
 62
13
 10
1124.025
 20
-7831.266
 30
-196.574
 70
    32
  0
VERTEX
  8
T54SSILL
 62
13
 10
1227.021
 20
-7956.593
 30
-198.465
 70
    32
  0
VERTEX
  8
T54SSILL
 62
13
 10
1253.142
 20
-7980.255
 30
-198.511
 70
    32
  0
VERTEX
  8
T54SSILL
 62
13
 10
1264.524
 20
-7993.160
 30
-198.783
 70
    32
  0
VERTEX
  8
T54SSILL
 62
13
 10
1268.495
 20
-7998.246
 30
-198.935
 70
    32
  0
VERTEX
  8
T54SSILL
 62
13
 10
1271.762
 20
-8011.286
 30
-199.921
 70
    32
  0
VERTEX
  8
T54SSILL
 62
13
 10
1263.569
 20
-8052.258
 30
-203.727
 70
    32
  0
VERTEX
  8
T54SSILL
 62
13
 10
1160.066
 20
-8161.578
 30
-201.848
 70
    32
  0
VERTEX
  8
T54SSILL
 62
13
 10
1153.851
 20
-8162.724
 30
-201.686
 70
    32
  0
VERTEX
  8
T54SSILL
 62
13
 10
1149.358
 20
-8166.885
 30
-201.587
 70
    32
  0
VERTEX
  8
T54SSILL
 62
13
 10
1137.170
 20
-8161.018
 30
-201.224
 70
    32
  0
VERTEX
  8
T54SSILL
 62
13
 10
1134.015
 20
-8164.870
 30
-201.159
 70
    32
  0
VERTEX
  8
T54SSILL
 62
13
 10
1142.420
 20
-8175.875
 30
-201.448
 70
    32
  0
VERTEX
  8
T54SSILL
 62
13
 10
1143.630
 20
-8179.387
 30
-201.500
 70
    32
  0
VERTEX
  8
T54SSILL
 62
13
 10
1142.645
 20
-8181.014
 30
-201.482
 70
    32
  0
VERTEX
  8
T54SSILL
 62
13
 10
1062.256
 20
-8265.833
 30
-199.767
 70
    32
  0
VERTEX
  8
T54SSILL
 62
13
 10
1066.967
 20
-8270.909
 30
-199.922
 70
    32
  0
VERTEX
  8
T54SSILL
 62
13
 10
1257.992
 20
-8068.627
 30
-203.994
 70
    32
  0
VERTEX
  8
T54SSILL
 62
13
 10
1265.275
 20
-8069.473
 30
-204.197
 70
    32
  0
VERTEX
  8
T54SSILL
 62
13
 10
1268.323
 20
-8067.130
 30
-204.266
 70
    32
  0
VERTEX
  8
T54SSILL
 62
13
 10
1268.093
 20
-8060.460
 30
-204.190
 70
    32
  0
VERTEX
  8
T54SSILL
 62
13
 10
1270.672
 20
-8060.507
 30
-204.240
 70
    32
  0
VERTEX
  8
T54SSILL
 62
13
 10
1275.332
 20
-8066.836
 30
-204.444
 70
    32
  0
VERTEX
  8
T54SSILL
 62
13
 10
1277.498
 20
-8065.119
 30
-204.486
 70
    32
  0
VERTEX
  8
T54SSILL
 62
13
 10
1282.707
 20
-8070.457
 30
-203.933
 70
    32
  0
VERTEX
  8
T54SSILL
 62
13
 10
1289.582
 20
-8065.053
 30
-201.539
 70
    32
  0
VERTEX
  8
T54SSILL
 62
13
 10
1323.696
 20
-8154.909
 30
-202.986
 70
    32
  0
VERTEX
  8
T54SSILL
 62
13
 10
1318.153
 20
-8158.884
 30
-204.873
 70
    32
  0
VERTEX
  8
T54SSILL
 62
13
 10
1160.600
 20
-8271.881
 30
-201.823
 70
    32
  0
VERTEX
  8
T54SSILL
 62
13
 10
1152.366
 20
-8270.789
 30
-201.687
 70
    32
  0
VERTEX
  8
T54SSILL
 62
13
 10
1148.698
 20
-8273.111
 30
-201.617
 70
    32
  0
VERTEX
  8
T54SSILL
 62
13
 10
1141.993
 20
-8261.576
 30
-201.540
 70
    32
  0
VERTEX
  8
T54SSILL
 62
13
 10
1134.490
 20
-8262.919
 30
-201.408
 70
    32
  0
VERTEX
  8
T54SSILL
 62
13
 10
1136.910
 20
-8270.385
 30
-201.425
 70
    32
  0
VERTEX
  8
T54SSILL
 62
13
 10
1150.199
 20
-8287.574
 30
-201.595
 70
    32
  0
VERTEX
  8
T54SSILL
 62
13
 10
1320.907
 20
-8165.340
 30
-204.899
 70
    32
  0
VERTEX
  8
T54SSILL
 62
13
 10
1325.885
 20
-8161.775
 30
-203.205
 70
    32
  0
VERTEX
  8
T54SSILL
 62
13
 10
1377.852
 20
-8300.549
 30
-205.427
 70
    32
  0
VERTEX
  8
T54SSILL
 62
13
 10
1278.597
 20
-8372.197
 30
-203.505
 70
    32
  0
VERTEX
  8
T54SSILL
 62
13
 10
1274.319
 20
-8361.120
 30
-203.468
 70
    32
  0
VERTEX
  8
T54SSILL
 62
13
 10
1268.433
 20
-8352.285
 30
-203.397
 70
    32
  0
VERTEX
  8
T54SSILL
 62
13
 10
1264.032
 20
-8336.470
 30
-203.373
 70
    32
  0
VERTEX
  8
T54SSILL
 62
13
 10
1257.764
 20
-8337.545
 30
-203.263
 70
    32
  0
VERTEX
  8
T54SSILL
 62
13
 10
1265.305
 20
-8366.034
 30
-203.299
 70
    32
  0
VERTEX
  8
T54SSILL
 62
13
 10
1265.264
 20
-8370.821
 30
-203.282
 70
    32
  0
VERTEX
  8
T54SSILL
 62
13
 10
1259.748
 20
-8385.803
 30
-203.140
 70
    32
  0
VERTEX
  8
T54SSILL
 62
13
 10
1235.969
 20
-8402.968
 30
-202.680
 70
    32
  0
VERTEX
  8
T54SSILL
 62
13
 10
1240.329
 20
-8409.192
 30
-202.735
 70
    32
  0
VERTEX
  8
T54SSILL
 62
13
 10
1262.935
 20
-8393.700
 30
-203.168
 70
    32
  0
VERTEX
  8
T54SSILL
 62
13
 10
1279.433
 20
-8408.691
 30
-203.401
 70
    32
  0
VERTEX
  8
T54SSILL
 62
13
 10
1281.125
 20
-8436.170
 30
-203.344
 70
    32
  0
VERTEX
  8
T54SSILL
 62
13
 10
1280.662
 20
-8441.717
 30
-203.318
 70
    32
  0
VERTEX
  8
T54SSILL
 62
13
 10
1274.379
 20
-8458.177
 30
-203.160
 70
    32
  0
VERTEX
  8
T54SSILL
 62
13
 10
1274.155
 20
-8475.045
 30
-203.104
 70
    32
  0
VERTEX
  8
T54SSILL
 62
13
 10
1279.578
 20
-8489.869
 30
-203.150
 70
    32
  0
VERTEX
  8
T54SSILL
 62
13
 10
1286.529
 20
-8500.997
 30
-203.233
 70
    32
  0
VERTEX
  8
T54SSILL
 62
13
 10
1292.773
 20
-8497.396
 30
-203.350
 70
    32
  0
VERTEX
  8
T54SSILL
 62
13
 10
1290.144
 20
-8476.596
 30
-203.371
 70
    32
  0
VERTEX
  8
T54SSILL
 62
13
 10
1295.609
 20
-8479.886
 30
-203.453
 70
    32
  0
VERTEX
  8
T54SSILL
 62
13
 10
1297.936
 20
-8477.690
 30
-203.499
 70
    32
  0
VERTEX
  8
T54SSILL
 62
13
 10
1293.627
 20
-8456.275
 30
-203.493
 70
    32
  0
VERTEX
  8
T54SSILL
 62
13
 10
1292.747
 20
-8421.658
 30
-203.586
 70
    32
  0
VERTEX
  8
T54SSILL
 62
13
 10
1282.786
 20
-8378.514
 30
-203.556
 70
    32
  0
VERTEX
  8
T54SSILL
 62
13
 10
1380.712
 20
-8307.130
 30
-205.455
 70
    32
  0
VERTEX
  8
T54SSILL
 62
13
 10
1426.323
 20
-8432.778
 30
-205.822
 70
    32
  0
VERTEX
  8
T54SSILL
 62
13
 10
1424.656
 20
-8437.021
 30
-205.780
 70
    32
  0
VERTEX
  8
T54SSILL
 62
13
 10
1430.260
 20
-8446.510
 30
-205.844
 70
    32
  0
VERTEX
  8
T54SSILL
 62
13
 10
1422.149
 20
-8452.182
 30
-205.689
 70
    32
  0
VERTEX
  8
T54SSILL
 62
13
 10
1426.685
 20
-8458.053
 30
-205.747
 70
    32
  0
VERTEX
  8
T54SSILL
 62
13
 10
1441.600
 20
-8460.966
 30
-205.962
 70
    32
  0
VERTEX
  8
T54SSILL
 62
13
 10
1448.191
 20
-8454.892
 30
-205.951
 70
    32
  0
VERTEX
  8
T54SSILL
 62
13
 10
1442.096
 20
-8447.100
 30
-206.012
 70
    32
  0
VERTEX
  8
T54SSILL
 62
13
 10
1448.954
 20
-8441.819
 30
-205.849
 70
    32
  0
VERTEX
  8
T54SSILL
 62
13
 10
1444.133
 20
-8434.837
 30
-205.891
 70
    32
  0
VERTEX
  8
T54SSILL
 62
13
 10
1437.308
 20
-8439.428
 30
-205.987
 70
    32
  0
VERTEX
  8
T54SSILL
 62
13
 10
1386.584
 20
-8303.035
 30
-203.653
 70
    32
  0
VERTEX
  8
T54SSILL
 62
13
 10
1394.659
 20
-8297.169
 30
-203.610
 70
    32
  0
VERTEX
  8
T54SSILL
 62
13
 10
1390.686
 20
-8290.432
 30
-203.453
 70
    32
  0
VERTEX
  8
T54SSILL
 62
13
 10
1383.917
 20
-8295.977
 30
-203.536
 70
    32
  0
VERTEX
  8
T54SSILL
 62
13
 10
1332.674
 20
-8156.989
 30
-200.904
 70
    32
  0
VERTEX
  8
T54SSILL
 62
13
 10
1340.979
 20
-8151.281
 30
-201.053
 70
    32
  0
VERTEX
  8
T54SSILL
 62
13
 10
1336.954
 20
-8144.915
 30
-200.898
 70
    32
  0
VERTEX
  8
T54SSILL
 62
13
 10
1329.937
 20
-8149.984
 30
-200.811
 70
    32
  0
VERTEX
  8
T54SSILL
 62
13
 10
1286.153
 20
-8035.123
 30
-199.006
 70
    32
  0
VERTEX
  8
T54SSILL
 62
13
 10
1265.743
 20
-7958.338
 30
-197.841
 70
    32
  0
VERTEX
  8
T54SSILL
 62
13
 10
1272.714
 20
-7953.378
 30
-197.875
 70
    32
  0
VERTEX
  8
T54SSILL
 62
13
 10
1269.094
 20
-7948.279
 30
-197.844
 70
    32
  0
VERTEX
  8
T54SSILL
 62
13
 10
1263.888
 20
-7951.802
 30
-197.819
 70
    32
  0
VERTEX
  8
T54SSILL
 62
13
 10
1262.792
 20
-7947.985
 30
-197.805
 70
    32
  0
VERTEX
  8
T54SSILL
 62
13
 10
1273.777
 20
-7937.374
 30
-197.854
 70
    32
  0
VERTEX
  8
T54SSILL
 62
13
 10
1268.958
 20
-7912.824
 30
-197.783
 70
    32
  0
VERTEX
  8
T54SSILL
 62
13
 10
1263.516
 20
-7897.405
 30
-197.724
 70
    32
  0
VERTEX
  8
T54SSILL
 62
13
 10
1258.786
 20
-7870.594
 30
-197.649
 70
    32
  0
VERTEX
  8
T54SSILL
 62
13
 10
1251.726
 20
-7854.172
 30
-197.573
 70
    32
  0
VERTEX
  8
T54SSILL
 62
13
 10
1239.681
 20
-7851.088
 30
-197.394
 70
    32
  0
VERTEX
  8
T54SSILL
 62
13
 10
1230.813
 20
-7833.256
 30
-197.185
 70
    32
  0
VERTEX
  8
T54SSILL
 62
13
 10
1214.627
 20
-7787.337
 30
-196.736
 70
    32
  0
VERTEX
  8
T54SSILL
 62
13
 10
1213.047
 20
-7777.304
 30
-196.664
 70
    32
  0
VERTEX
  8
T54SSILL
 62
13
 10
1204.279
 20
-7755.885
 30
-196.438
 70
    32
  0
VERTEX
  8
T54SSILL
 62
13
 10
1198.622
 20
-7734.368
 30
-196.254
 70
    32
  0
VERTEX
  8
T54SSILL
 62
13
 10
1195.869
 20
-7735.313
 30
-196.221
 70
    32
  0
VERTEX
  8
T54SSILL
 62
13
 10
1159.625
 20
-7626.995
 30
-195.187
 70
    32
  0
VERTEX
  8
T54SSILL
 62
13
 10
1161.666
 20
-7606.388
 30
-195.112
 70
    32
  0
VERTEX
  8
T54SSILL
 62
13
 10
1182.305
 20
-7523.763
 30
-194.979
 70
    32
  0
VERTEX
  8
T54SSILL
 62
13
 10
1190.528
 20
-7507.819
 30
-195.010
 70
    32
  0
VERTEX
  8
T54SSILL
 62
13
 10
1255.543
 20
-7457.681
 30
-195.641
 70
    32
  0
SEQEND
  8
T54SSILL
  0
ENDSEC
  0
EOF
