999
********************************
999
*   DXF File - Entities Only   *
999
*        3D Data Format        *
999
*     Output from ENVISAGE     *
999
*     24-Dec-2007 12:21:35     *
999
********************************
  0
SECTION 
  2
HEADER
  9
$ACADVER
  1
AC1009
  9
$EXTMIN
 10
-290000.000
 20
-250000.000
 30
-4000.000
  9
$EXTMAX
 10
5000000.000
 20
600000.000
 30
6000.000
  0
ENDSEC
  0
SECTION
  2
ENTITIES
  0
POLYLINE
  8
T54STIM
 62
6
 66
     1
 70
     9
  0
VERTEX
  8
T54STIM
 62
6
 10
1141.589
 20
-7755.236
 30
0.000
 70
    32
  0
VERTEX
  8
T54STIM
 62
6
 10
1148.473
 20
-7757.971
 30
0.000
 70
    32
  0
VERTEX
  8
T54STIM
 62
6
 10
1145.349
 20
-7764.153
 30
0.000
 70
    32
  0
VERTEX
  8
T54STIM
 62
6
 10
1138.504
 20
-7761.304
 30
0.000
 70
    32
  0
SEQEND
  8
T54STIM
  0
POLYLINE
  8
T54STIM
 62
6
 66
     1
 70
     9
  0
VERTEX
  8
T54STIM
 62
6
 10
1196.667
 20
-7734.804
 30
1000.000
 70
    32
  0
VERTEX
  8
T54STIM
 62
6
 10
1227.867
 20
-7833.184
 30
1000.000
 70
    32
  0
VERTEX
  8
T54STIM
 62
6
 10
1233.467
 20
-7842.782
 30
1000.000
 70
    32
  0
VERTEX
  8
T54STIM
 62
6
 10
1241.467
 20
-7854.780
 30
1000.000
 70
    32
  0
VERTEX
  8
T54STIM
 62
6
 10
1245.468
 20
-7863.578
 30
1000.000
 70
    32
  0
VERTEX
  8
T54STIM
 62
6
 10
1247.867
 20
-7871.576
 30
1000.000
 70
    32
  0
VERTEX
  8
T54STIM
 62
6
 10
1244.667
 20
-7883.574
 30
1000.000
 70
    32
  0
VERTEX
  8
T54STIM
 62
6
 10
1255.068
 20
-7925.165
 30
1000.000
 70
    32
  0
VERTEX
  8
T54STIM
 62
6
 10
1262.268
 20
-7923.566
 30
1000.000
 70
    32
  0
VERTEX
  8
T54STIM
 62
6
 10
1263.068
 20
-7929.164
 30
1000.000
 70
    32
  0
VERTEX
  8
T54STIM
 62
6
 10
1256.668
 20
-7930.764
 30
1000.000
 70
    32
  0
VERTEX
  8
T54STIM
 62
6
 10
1262.268
 20
-7949.160
 30
1000.000
 70
    32
  0
VERTEX
  8
T54STIM
 62
6
 10
1253.468
 20
-7950.760
 30
1000.000
 70
    32
  0
VERTEX
  8
T54STIM
 62
6
 10
1231.067
 20
-7861.179
 30
1000.000
 70
    32
  0
VERTEX
  8
T54STIM
 62
6
 10
1219.067
 20
-7834.784
 30
1000.000
 70
    32
  0
VERTEX
  8
T54STIM
 62
6
 10
1196.667
 20
-7765.198
 30
1000.000
 70
    32
  0
VERTEX
  8
T54STIM
 62
6
 10
1174.266
 20
-7773.196
 30
1000.000
 70
    32
  0
VERTEX
  8
T54STIM
 62
6
 10
1172.666
 20
-7765.998
 30
1000.000
 70
    32
  0
VERTEX
  8
T54STIM
 62
6
 10
1187.867
 20
-7761.999
 30
1000.000
 70
    32
  0
VERTEX
  8
T54STIM
 62
6
 10
1185.467
 20
-7756.400
 30
1000.000
 70
    32
  0
VERTEX
  8
T54STIM
 62
6
 10
1192.667
 20
-7754.000
 30
1000.000
 70
    32
  0
VERTEX
  8
T54STIM
 62
6
 10
1186.267
 20
-7738.004
 30
1000.000
 70
    32
  0
SEQEND
  8
T54STIM
  0
POLYLINE
  8
T54STIM
 62
6
 66
     1
 70
     9
  0
VERTEX
  8
T54STIM
 62
6
 10
1282.268
 20
-8377.872
 30
1000.000
 70
    32
  0
VERTEX
  8
T54STIM
 62
6
 10
1278.268
 20
-8372.274
 30
1000.000
 70
    32
  0
VERTEX
  8
T54STIM
 62
6
 10
1257.468
 20
-8387.470
 30
1000.000
 70
    32
  0
VERTEX
  8
T54STIM
 62
6
 10
1262.268
 20
-8393.869
 30
1000.000
 70
    32
  0
SEQEND
  8
T54STIM
  0
POLYLINE
  8
T54STIM
 62
6
 66
     1
 70
     9
  0
VERTEX
  8
T54STIM
 62
6
 10
4357.234
 20
-8333.605
 30
1000.000
 70
    32
  0
VERTEX
  8
T54STIM
 62
6
 10
4429.022
 20
-8283.360
 30
1000.000
 70
    32
  0
VERTEX
  8
T54STIM
 62
6
 10
4438.406
 20
-8278.664
 30
1000.000
 70
    32
  0
VERTEX
  8
T54STIM
 62
6
 10
4450.606
 20
-8276.316
 30
1000.000
 70
    32
  0
VERTEX
  8
T54STIM
 62
6
 10
4459.052
 20
-8277.255
 30
1000.000
 70
    32
  0
VERTEX
  8
T54STIM
 62
6
 10
4465.621
 20
-8278.195
 30
1000.000
 70
    32
  0
VERTEX
  8
T54STIM
 62
6
 10
4472.189
 20
-8273.029
 30
1000.000
 70
    32
  0
VERTEX
  8
T54STIM
 62
6
 10
4458.113
 20
-8253.307
 30
1000.000
 70
    32
  0
VERTEX
  8
T54STIM
 62
6
 10
4451.075
 20
-8258.472
 30
1000.000
 70
    32
  0
VERTEX
  8
T54STIM
 62
6
 10
4458.582
 20
-8268.333
 30
1000.000
 70
    32
  0
VERTEX
  8
T54STIM
 62
6
 10
4446.852
 20
-8268.333
 30
1000.000
 70
    32
  0
VERTEX
  8
T54STIM
 62
6
 10
4438.876
 20
-8269.273
 30
1000.000
 70
    32
  0
VERTEX
  8
T54STIM
 62
6
 10
4430.430
 20
-8271.620
 30
1000.000
 70
    32
  0
VERTEX
  8
T54STIM
 62
6
 10
4398.524
 20
-8294.630
 30
1000.000
 70
    32
  0
VERTEX
  8
T54STIM
 62
6
 10
4395.239
 20
-8289.465
 30
1000.000
 70
    32
  0
VERTEX
  8
T54STIM
 62
6
 10
4385.386
 20
-8296.978
 30
1000.000
 70
    32
  0
VERTEX
  8
T54STIM
 62
6
 10
4389.140
 20
-8301.674
 30
1000.000
 70
    32
  0
VERTEX
  8
T54STIM
 62
6
 10
4353.011
 20
-8327.501
 30
1000.000
 70
    32
  0
SEQEND
  8
T54STIM
  0
POLYLINE
  8
T54STIM
 62
6
 66
     1
 70
     9
  0
VERTEX
  8
T54STIM
 62
6
 10
4392.424
 20
-8162.208
 30
1000.000
 70
    32
  0
VERTEX
  8
T54STIM
 62
6
 10
4416.354
 20
-8196.018
 30
1000.000
 70
    32
  0
VERTEX
  8
T54STIM
 62
6
 10
4410.723
 20
-8201.183
 30
1000.000
 70
    32
  0
VERTEX
  8
T54STIM
 62
6
 10
4406.970
 20
-8196.487
 30
1000.000
 70
    32
  0
VERTEX
  8
T54STIM
 62
6
 10
4402.278
 20
-8200.244
 30
1000.000
 70
    32
  0
VERTEX
  8
T54STIM
 62
6
 10
4394.301
 20
-8189.913
 30
1000.000
 70
    32
  0
VERTEX
  8
T54STIM
 62
6
 10
4399.462
 20
-8186.627
 30
1000.000
 70
    32
  0
VERTEX
  8
T54STIM
 62
6
 10
4385.386
 20
-8165.965
 30
1000.000
 70
    32
  0
SEQEND
  8
T54STIM
  0
POLYLINE
  8
T54STIM
 62
6
 66
     1
 70
     9
  0
VERTEX
  8
T54STIM
 62
6
 10
4448.260
 20
-8145.773
 30
1000.000
 70
    32
  0
VERTEX
  8
T54STIM
 62
6
 10
4492.365
 20
-8207.288
 30
1000.000
 70
    32
  0
VERTEX
  8
T54STIM
 62
6
 10
4486.266
 20
-8211.514
 30
1000.000
 70
    32
  0
VERTEX
  8
T54STIM
 62
6
 10
4482.512
 20
-8206.818
 30
1000.000
 70
    32
  0
VERTEX
  8
T54STIM
 62
6
 10
4478.289
 20
-8210.106
 30
1000.000
 70
    32
  0
VERTEX
  8
T54STIM
 62
6
 10
4474.066
 20
-8205.410
 30
1000.000
 70
    32
  0
VERTEX
  8
T54STIM
 62
6
 10
4479.697
 20
-8201.183
 30
1000.000
 70
    32
  0
VERTEX
  8
T54STIM
 62
6
 10
4461.867
 20
-8176.765
 30
1000.000
 70
    32
  0
VERTEX
  8
T54STIM
 62
6
 10
4456.706
 20
-8180.991
 30
1000.000
 70
    32
  0
VERTEX
  8
T54STIM
 62
6
 10
4448.729
 20
-8170.661
 30
1000.000
 70
    32
  0
VERTEX
  8
T54STIM
 62
6
 10
4455.298
 20
-8166.904
 30
1000.000
 70
    32
  0
VERTEX
  8
T54STIM
 62
6
 10
4442.160
 20
-8150.468
 30
1000.000
 70
    32
  0
SEQEND
  8
T54STIM
  0
POLYLINE
  8
T54STIM
 62
6
 66
     1
 70
     9
  0
VERTEX
  8
T54STIM
 62
6
 10
4516.764
 20
-8336.423
 30
1000.000
 70
    32
  0
VERTEX
  8
T54STIM
 62
6
 10
4558.993
 20
-8307.309
 30
1000.000
 70
    32
  0
VERTEX
  8
T54STIM
 62
6
 10
4552.893
 20
-8299.326
 30
1000.000
 70
    32
  0
VERTEX
  8
T54STIM
 62
6
 10
4512.072
 20
-8329.379
 30
1000.000
 70
    32
  0
SEQEND
  8
T54STIM
  0
POLYLINE
  8
T54STIM
 62
6
 66
     1
 70
     9
  0
VERTEX
  8
T54STIM
 62
6
 10
4581.515
 20
-8398.877
 30
1000.000
 70
    32
  0
VERTEX
  8
T54STIM
 62
6
 10
4532.717
 20
-8433.626
 30
1000.000
 70
    32
  0
VERTEX
  8
T54STIM
 62
6
 10
4528.964
 20
-8428.461
 30
1000.000
 70
    32
  0
VERTEX
  8
T54STIM
 62
6
 10
4517.703
 20
-8436.913
 30
1000.000
 70
    32
  0
VERTEX
  8
T54STIM
 62
6
 10
4520.518
 20
-8441.139
 30
1000.000
 70
    32
  0
VERTEX
  8
T54STIM
 62
6
 10
4505.972
 20
-8451.940
 30
1000.000
 70
    32
  0
VERTEX
  8
T54STIM
 62
6
 10
4509.726
 20
-8457.575
 30
1000.000
 70
    32
  0
VERTEX
  8
T54STIM
 62
6
 10
4551.485
 20
-8428.930
 30
1000.000
 70
    32
  0
VERTEX
  8
T54STIM
 62
6
 10
4561.808
 20
-8481.993
 30
1000.000
 70
    32
  0
VERTEX
  8
T54STIM
 62
6
 10
4597.468
 20
-8531.299
 30
1000.000
 70
    32
  0
VERTEX
  8
T54STIM
 62
6
 10
4604.037
 20
-8527.073
 30
1000.000
 70
    32
  0
VERTEX
  8
T54STIM
 62
6
 10
4568.377
 20
-8477.767
 30
1000.000
 70
    32
  0
VERTEX
  8
T54STIM
 62
6
 10
4558.524
 20
-8423.295
 30
1000.000
 70
    32
  0
VERTEX
  8
T54STIM
 62
6
 10
4585.738
 20
-8405.451
 30
1000.000
 70
    32
  0
SEQEND
  8
T54STIM
  0
POLYLINE
  8
T54STIM
 62
6
 66
     1
 70
     9
  0
VERTEX
  8
T54STIM
 62
6
 10
4921.991
 20
-8913.639
 30
1000.000
 70
    32
  0
VERTEX
  8
T54STIM
 62
6
 10
4913.024
 20
-8921.069
 30
1000.000
 70
    32
  0
VERTEX
  8
T54STIM
 62
6
 10
4905.912
 20
-8937.479
 30
1000.000
 70
    32
  0
VERTEX
  8
T54STIM
 62
6
 10
4910.859
 20
-8948.625
 30
1000.000
 70
    32
  0
VERTEX
  8
T54STIM
 62
6
 10
4906.221
 20
-8950.173
 30
1000.000
 70
    32
  0
VERTEX
  8
T54STIM
 62
6
 10
4911.169
 20
-8962.248
 30
1000.000
 70
    32
  0
VERTEX
  8
T54STIM
 62
6
 10
4915.807
 20
-8959.771
 30
1000.000
 70
    32
  0
VERTEX
  8
T54STIM
 62
6
 10
4934.359
 20
-9003.736
 30
1000.000
 70
    32
  0
VERTEX
  8
T54STIM
 62
6
 10
4941.471
 20
-9000.950
 30
1000.000
 70
    32
  0
VERTEX
  8
T54STIM
 62
6
 10
4915.497
 20
-8940.266
 30
1000.000
 70
    32
  0
VERTEX
  8
T54STIM
 62
6
 10
4914.879
 20
-8932.216
 30
1000.000
 70
    32
  0
VERTEX
  8
T54STIM
 62
6
 10
4917.662
 20
-8926.643
 30
1000.000
 70
    32
  0
VERTEX
  8
T54STIM
 62
6
 10
4926.938
 20
-8918.283
 30
1000.000
 70
    32
  0
SEQEND
  8
T54STIM
  0
POLYLINE
  8
T54STIM
 62
6
 66
     1
 70
     9
  0
VERTEX
  8
T54STIM
 62
6
 10
5111.534
 20
-9008.690
 30
1000.000
 70
    32
  0
VERTEX
  8
T54STIM
 62
6
 10
5085.870
 20
-9009.929
 30
1000.000
 70
    32
  0
VERTEX
  8
T54STIM
 62
6
 10
5086.179
 20
-9003.736
 30
1000.000
 70
    32
  0
VERTEX
  8
T54STIM
 62
6
 10
5073.811
 20
-9004.356
 30
1000.000
 70
    32
  0
VERTEX
  8
T54STIM
 62
6
 10
5073.811
 20
-9009.929
 30
1000.000
 70
    32
  0
VERTEX
  8
T54STIM
 62
6
 10
5057.114
 20
-9010.238
 30
1000.000
 70
    32
  0
VERTEX
  8
T54STIM
 62
6
 10
5057.114
 20
-9019.217
 30
1000.000
 70
    32
  0
VERTEX
  8
T54STIM
 62
6
 10
5113.080
 20
-9018.598
 30
1000.000
 70
    32
  0
SEQEND
  8
T54STIM
  0
POLYLINE
  8
T54STIM
 62
6
 66
     1
 70
     9
  0
VERTEX
  8
T54STIM
 62
6
 10
5111.534
 20
-9047.392
 30
1000.000
 70
    32
  0
VERTEX
  8
T54STIM
 62
6
 10
5032.378
 20
-9103.432
 30
1000.000
 70
    32
  0
VERTEX
  8
T54STIM
 62
6
 10
5037.015
 20
-9109.934
 30
1000.000
 70
    32
  0
VERTEX
  8
T54STIM
 62
6
 10
5117.100
 20
-9054.204
 30
1000.000
 70
    32
  0
SEQEND
  8
T54STIM
  0
POLYLINE
  8
T54STIM
 62
6
 66
     1
 70
     9
  0
VERTEX
  8
T54STIM
 62
6
 10
5772.396
 20
-9411.852
 30
1000.000
 70
    32
  0
VERTEX
  8
T54STIM
 62
6
 10
5729.023
 20
-9441.751
 30
1000.000
 70
    32
  0
VERTEX
  8
T54STIM
 62
6
 10
5733.872
 20
-9448.216
 30
1000.000
 70
    32
  0
VERTEX
  8
T54STIM
 62
6
 10
5776.976
 20
-9418.317
 30
1000.000
 70
    32
  0
SEQEND
  8
T54STIM
  0
POLYLINE
  8
T54STIM
 62
6
 66
     1
 70
     9
  0
VERTEX
  8
T54STIM
 62
6
 10
5617.494
 20
-9541.415
 30
1000.000
 70
    32
  0
VERTEX
  8
T54STIM
 62
6
 10
5618.571
 20
-9569.159
 30
1000.000
 70
    32
  0
VERTEX
  8
T54STIM
 62
6
 10
5622.073
 20
-9574.277
 30
1000.000
 70
    32
  0
VERTEX
  8
T54STIM
 62
6
 10
5625.036
 20
-9579.126
 30
1000.000
 70
    32
  0
VERTEX
  8
T54STIM
 62
6
 10
5627.192
 20
-9584.243
 30
1000.000
 70
    32
  0
VERTEX
  8
T54STIM
 62
6
 10
5629.616
 20
-9589.361
 30
1000.000
 70
    32
  0
VERTEX
  8
T54STIM
 62
6
 10
5636.351
 20
-9586.398
 30
1000.000
 70
    32
  0
VERTEX
  8
T54STIM
 62
6
 10
5634.735
 20
-9580.473
 30
1000.000
 70
    32
  0
VERTEX
  8
T54STIM
 62
6
 10
5629.616
 20
-9572.122
 30
1000.000
 70
    32
  0
VERTEX
  8
T54STIM
 62
6
 10
5625.575
 20
-9567.004
 30
1000.000
 70
    32
  0
VERTEX
  8
T54STIM
 62
6
 10
5625.306
 20
-9562.156
 30
1000.000
 70
    32
  0
VERTEX
  8
T54STIM
 62
6
 10
5623.689
 20
-9551.382
 30
1000.000
 70
    32
  0
VERTEX
  8
T54STIM
 62
6
 10
5623.959
 20
-9541.145
 30
1000.000
 70
    32
  0
SEQEND
  8
T54STIM
  0
POLYLINE
  8
T54STIM
 62
6
 66
     1
 70
     9
  0
VERTEX
  8
T54STIM
 62
6
 10
5655.247
 20
-9769.766
 30
1000.000
 70
    32
  0
VERTEX
  8
T54STIM
 62
6
 10
5664.781
 20
-9769.400
 30
1000.000
 70
    32
  0
VERTEX
  8
T54STIM
 62
6
 10
5667.348
 20
-9807.158
 30
1000.000
 70
    32
  0
VERTEX
  8
T54STIM
 62
6
 10
5656.347
 20
-9807.158
 30
1000.000
 70
    32
  0
SEQEND
  8
T54STIM
  0
POLYLINE
  8
T54STIM
 62
6
 66
     1
 70
     9
  0
VERTEX
  8
T54STIM
 62
6
 10
5823.933
 20
-9842.350
 30
1000.000
 70
    32
  0
VERTEX
  8
T54STIM
 62
6
 10
5796.430
 20
-9862.512
 30
1000.000
 70
    32
  0
VERTEX
  8
T54STIM
 62
6
 10
5801.197
 20
-9868.743
 30
1000.000
 70
    32
  0
VERTEX
  8
T54STIM
 62
6
 10
5811.098
 20
-9861.779
 30
1000.000
 70
    32
  0
VERTEX
  8
T54STIM
 62
6
 10
5814.399
 20
-9866.544
 30
1000.000
 70
    32
  0
VERTEX
  8
T54STIM
 62
6
 10
5822.833
 20
-9860.678
 30
1000.000
 70
    32
  0
VERTEX
  8
T54STIM
 62
6
 10
5820.633
 20
-9855.180
 30
1000.000
 70
    32
  0
VERTEX
  8
T54STIM
 62
6
 10
5828.334
 20
-9849.681
 30
1000.000
 70
    32
  0
SEQEND
  8
T54STIM
  0
POLYLINE
  8
T54STIM
 62
6
 66
     1
 70
     9
  0
VERTEX
  8
T54STIM
 62
6
 10
5828.701
 20
-10083.560
 30
1000.000
 70
    32
  0
VERTEX
  8
T54STIM
 62
6
 10
5836.401
 20
-10081.727
 30
1000.000
 70
    32
  0
VERTEX
  8
T54STIM
 62
6
 10
5800.097
 20
-9951.591
 30
1000.000
 70
    32
  0
VERTEX
  8
T54STIM
 62
6
 10
5793.130
 20
-9953.424
 30
1000.000
 70
    32
  0
VERTEX
  8
T54STIM
 62
6
 10
5800.464
 20
-9982.017
 30
1000.000
 70
    32
  0
VERTEX
  8
T54STIM
 62
6
 10
5794.963
 20
-9983.483
 30
1000.000
 70
    32
  0
VERTEX
  8
T54STIM
 62
6
 10
5797.897
 20
-9995.581
 30
1000.000
 70
    32
  0
VERTEX
  8
T54STIM
 62
6
 10
5803.764
 20
-9994.115
 30
1000.000
 70
    32
  0
VERTEX
  8
T54STIM
 62
6
 10
5818.433
 20
-10045.802
 30
1000.000
 70
    32
  0
VERTEX
  8
T54STIM
 62
6
 10
5812.932
 20
-10047.269
 30
1000.000
 70
    32
  0
VERTEX
  8
T54STIM
 62
6
 10
5814.399
 20
-10053.501
 30
1000.000
 70
    32
  0
VERTEX
  8
T54STIM
 62
6
 10
5819.900
 20
-10052.034
 30
1000.000
 70
    32
  0
SEQEND
  8
T54STIM
  0
POLYLINE
  8
T54STIM
 62
6
 66
     1
 70
     9
  0
VERTEX
  8
T54STIM
 62
6
 10
6289.173
 20
-7909.790
 30
1000.000
 70
    32
  0
VERTEX
  8
T54STIM
 62
6
 10
6255.288
 20
-7932.640
 30
1000.000
 70
    32
  0
VERTEX
  8
T54STIM
 62
6
 10
6250.205
 20
-7921.638
 30
1000.000
 70
    32
  0
VERTEX
  8
T54STIM
 62
6
 10
6262.065
 20
-7914.022
 30
1000.000
 70
    32
  0
VERTEX
  8
T54STIM
 62
6
 10
6256.982
 20
-7907.252
 30
1000.000
 70
    32
  0
VERTEX
  8
T54STIM
 62
6
 10
6267.995
 20
-7902.174
 30
1000.000
 70
    32
  0
VERTEX
  8
T54STIM
 62
6
 10
6273.078
 20
-7908.944
 30
1000.000
 70
    32
  0
VERTEX
  8
T54STIM
 62
6
 10
6282.396
 20
-7901.328
 30
1000.000
 70
    32
  0
SEQEND
  8
T54STIM
  0
POLYLINE
  8
T54STIM
 62
6
 66
     1
 70
     9
  0
VERTEX
  8
T54STIM
 62
6
 10
6228.180
 20
-8201.756
 30
1000.000
 70
    32
  0
VERTEX
  8
T54STIM
 62
6
 10
6192.601
 20
-8226.299
 30
1000.000
 70
    32
  0
VERTEX
  8
T54STIM
 62
6
 10
6187.518
 20
-8219.528
 30
1000.000
 70
    32
  0
VERTEX
  8
T54STIM
 62
6
 10
6194.295
 20
-8216.989
 30
1000.000
 70
    32
  0
VERTEX
  8
T54STIM
 62
6
 10
6189.212
 20
-8211.912
 30
1000.000
 70
    32
  0
VERTEX
  8
T54STIM
 62
6
 10
6199.378
 20
-8204.295
 30
1000.000
 70
    32
  0
VERTEX
  8
T54STIM
 62
6
 10
6202.766
 20
-8209.373
 30
1000.000
 70
    32
  0
VERTEX
  8
T54STIM
 62
6
 10
6223.097
 20
-8194.986
 30
1000.000
 70
    32
  0
SEQEND
  8
T54STIM
  0
POLYLINE
  8
T54STIM
 62
6
 66
     1
 70
     9
  0
VERTEX
  8
T54STIM
 62
6
 10
6245.122
 20
-8255.918
 30
1000.000
 70
    32
  0
VERTEX
  8
T54STIM
 62
6
 10
6193.448
 20
-8294.001
 30
1000.000
 70
    32
  0
VERTEX
  8
T54STIM
 62
6
 10
6189.212
 20
-8285.538
 30
1000.000
 70
    32
  0
VERTEX
  8
T54STIM
 62
6
 10
6240.887
 20
-8249.148
 30
1000.000
 70
    32
  0
SEQEND
  8
T54STIM
  0
POLYLINE
  8
T54STIM
 62
6
 66
     1
 70
     9
  0
VERTEX
  8
T54STIM
 62
6
 10
6428.949
 20
-7682.142
 30
1000.000
 70
    32
  0
VERTEX
  8
T54STIM
 62
6
 10
6360.332
 20
-7732.072
 30
1000.000
 70
    32
  0
VERTEX
  8
T54STIM
 62
6
 10
6353.555
 20
-7724.455
 30
1000.000
 70
    32
  0
VERTEX
  8
T54STIM
 62
6
 10
6425.560
 20
-7674.525
 30
1000.000
 70
    32
  0
SEQEND
  8
T54STIM
  0
POLYLINE
  8
T54STIM
 62
6
 66
     1
 70
     9
  0
VERTEX
  8
T54STIM
 62
6
 10
6410.312
 20
-7629.672
 30
1000.000
 70
    32
  0
VERTEX
  8
T54STIM
 62
6
 10
6373.039
 20
-7651.676
 30
1000.000
 70
    32
  0
VERTEX
  8
T54STIM
 62
6
 10
6368.803
 20
-7641.520
 30
1000.000
 70
    32
  0
VERTEX
  8
T54STIM
 62
6
 10
6390.828
 20
-7630.519
 30
1000.000
 70
    32
  0
VERTEX
  8
T54STIM
 62
6
 10
6386.593
 20
-7622.902
 30
1000.000
 70
    32
  0
VERTEX
  8
T54STIM
 62
6
 10
6400.147
 20
-7615.286
 30
1000.000
 70
    32
  0
SEQEND
  8
T54STIM
  0
ENDSEC
  0
EOF
