999
********************************
999
*   DXF File - Entities Only   *
999
*        3D Data Format        *
999
*     Output from ENVISAGE     *
999
*     24-Dec-2007 12:23:10     *
999
********************************
  0
SECTION 
  2
HEADER
  9
$ACADVER
  1
AC1009
  9
$EXTMIN
 10
-290000.000
 20
-250000.000
 30
-4000.000
  9
$EXTMAX
 10
5000000.000
 20
600000.000
 30
6000.000
  0
ENDSEC
  0
SECTION
  2
ENTITIES
  0
POLYLINE
  8
T56SSILL
 62
8
 66
     1
 70
     9
  0
VERTEX
  8
T56SSILL
 62
8
 10
5702.405
 20
-9864.552
 30
-360.853
 70
    32
  0
VERTEX
  8
T56SSILL
 62
8
 10
5700.247
 20
-9870.864
 30
-360.839
 70
    32
  0
VERTEX
  8
T56SSILL
 62
8
 10
5703.187
 20
-9884.701
 30
-360.824
 70
    32
  0
VERTEX
  8
T56SSILL
 62
8
 10
5707.103
 20
-9886.917
 30
-360.828
 70
    32
  0
VERTEX
  8
T56SSILL
 62
8
 10
5720.254
 20
-9885.835
 30
-360.854
 70
    32
  0
VERTEX
  8
T56SSILL
 62
8
 10
5718.033
 20
-9862.793
 30
-360.884
 70
    32
  0
SEQEND
  8
T56SSILL
  0
POLYLINE
  8
T56SSILL
 62
8
 66
     1
 70
     9
  0
VERTEX
  8
T56SSILL
 62
8
 10
6267.636
 20
-8233.841
 30
-361.018
 70
    32
  0
VERTEX
  8
T56SSILL
 62
8
 10
6258.556
 20
-8234.031
 30
-361.018
 70
    32
  0
VERTEX
  8
T56SSILL
 62
8
 10
6261.815
 20
-8224.009
 30
-361.018
 70
    32
  0
SEQEND
  8
T56SSILL
  0
POLYLINE
  8
T56SSILL
 62
8
 66
     1
 70
     9
  0
VERTEX
  8
T56SSILL
 62
8
 10
948.443
 20
-6756.558
 30
-350.510
 70
    32
  0
VERTEX
  8
T56SSILL
 62
8
 10
961.982
 20
-6707.979
 30
-350.134
 70
    32
  0
VERTEX
  8
T56SSILL
 62
8
 10
945.153
 20
-6713.065
 30
-350.226
 70
    32
  0
VERTEX
  8
T56SSILL
 62
8
 10
940.772
 20
-6705.031
 30
-350.187
 70
    32
  0
VERTEX
  8
T56SSILL
 62
8
 10
950.159
 20
-6700.882
 30
-350.126
 70
    32
  0
VERTEX
  8
T56SSILL
 62
8
 10
951.688
 20
-6690.508
 30
-350.051
 70
    32
  0
VERTEX
  8
T56SSILL
 62
8
 10
938.038
 20
-6685.566
 30
-350.064
 70
    32
  0
VERTEX
  8
T56SSILL
 62
8
 10
923.806
 20
-6716.804
 30
-350.325
 70
    32
  0
SEQEND
  8
T56SSILL
  0
POLYLINE
  8
T56SSILL
 62
8
 66
     1
 70
     9
  0
VERTEX
  8
T56SSILL
 62
8
 10
997.889
 20
-6917.961
 30
-351.433
 70
    32
  0
VERTEX
  8
T56SSILL
 62
8
 10
1013.905
 20
-6915.394
 30
-351.360
 70
    32
  0
VERTEX
  8
T56SSILL
 62
8
 10
1022.485
 20
-6900.470
 30
-351.229
 70
    32
  0
VERTEX
  8
T56SSILL
 62
8
 10
1019.735
 20
-6890.310
 30
-351.170
 70
    32
  0
VERTEX
  8
T56SSILL
 62
8
 10
995.498
 20
-6897.606
 30
-351.303
 70
    32
  0
SEQEND
  8
T56SSILL
  0
POLYLINE
  8
T56SSILL
 62
8
 66
     1
 70
     9
  0
VERTEX
  8
T56SSILL
 62
8
 10
975.472
 20
-6723.321
 30
-350.191
 70
    32
  0
VERTEX
  8
T56SSILL
 62
8
 10
977.240
 20
-6717.166
 30
-350.143
 70
    32
  0
VERTEX
  8
T56SSILL
 62
8
 10
972.621
 20
-6710.279
 30
-350.112
 70
    32
  0
VERTEX
  8
T56SSILL
 62
8
 10
971.453
 20
-6710.466
 30
-350.118
 70
    32
  0
VERTEX
  8
T56SSILL
 62
8
 10
969.759
 20
-6718.086
 30
-350.175
 70
    32
  0
VERTEX
  8
T56SSILL
 62
8
 10
971.995
 20
-6722.560
 30
-350.198
 70
    32
  0
SEQEND
  8
T56SSILL
  0
POLYLINE
  8
T56SSILL
 62
8
 66
     1
 70
     9
  0
VERTEX
  8
T56SSILL
 62
8
 10
1083.403
 20
-7117.946
 30
-351.997
 70
    32
  0
VERTEX
  8
T56SSILL
 62
8
 10
1088.438
 20
-7115.421
 30
-351.909
 70
    32
  0
VERTEX
  8
T56SSILL
 62
8
 10
1101.381
 20
-7079.081
 30
-351.466
 70
    32
  0
VERTEX
  8
T56SSILL
 62
8
 10
1095.872
 20
-7069.885
 30
-351.475
 70
    32
  0
VERTEX
  8
T56SSILL
 62
8
 10
1108.163
 20
-7061.721
 30
-351.246
 70
    32
  0
VERTEX
  8
T56SSILL
 62
8
 10
1088.560
 20
-7031.665
 30
-351.298
 70
    32
  0
VERTEX
  8
T56SSILL
 62
8
 10
1068.635
 20
-7082.358
 30
-351.942
 70
    32
  0
VERTEX
  8
T56SSILL
 62
8
 10
1070.519
 20
-7085.136
 30
-351.937
 70
    32
  0
VERTEX
  8
T56SSILL
 62
8
 10
1068.152
 20
-7092.592
 30
-352.024
 70
    32
  0
SEQEND
  8
T56SSILL
  0
POLYLINE
  8
T56SSILL
 62
8
 66
     1
 70
     9
  0
VERTEX
  8
T56SSILL
 62
8
 10
5867.149
 20
-8443.114
 30
-361.003
 70
    32
  0
VERTEX
  8
T56SSILL
 62
8
 10
5888.369
 20
-8431.369
 30
-361.019
 70
    32
  0
VERTEX
  8
T56SSILL
 62
8
 10
5898.404
 20
-8445.400
 30
-361.019
 70
    32
  0
VERTEX
  8
T56SSILL
 62
8
 10
5886.256
 20
-8455.476
 30
-361.018
 70
    32
  0
VERTEX
  8
T56SSILL
 62
8
 10
5898.002
 20
-8473.489
 30
-361.012
 70
    32
  0
VERTEX
  8
T56SSILL
 62
8
 10
5903.296
 20
-8476.706
 30
-361.011
 70
    32
  0
VERTEX
  8
T56SSILL
 62
8
 10
5909.134
 20
-8477.236
 30
-361.011
 70
    32
  0
VERTEX
  8
T56SSILL
 62
8
 10
5921.235
 20
-8475.151
 30
-361.011
 70
    32
  0
VERTEX
  8
T56SSILL
 62
8
 10
6214.825
 20
-8262.352
 30
-361.018
 70
    32
  0
VERTEX
  8
T56SSILL
 62
8
 10
6250.122
 20
-8235.277
 30
-361.018
 70
    32
  0
VERTEX
  8
T56SSILL
 62
8
 10
6252.459
 20
-8221.685
 30
-361.018
 70
    32
  0
VERTEX
  8
T56SSILL
 62
8
 10
6250.487
 20
-8209.649
 30
-361.019
 70
    32
  0
VERTEX
  8
T56SSILL
 62
8
 10
6079.213
 20
-7971.680
 30
-361.072
 70
    32
  0
VERTEX
  8
T56SSILL
 62
8
 10
6085.833
 20
-7967.283
 30
-361.073
 70
    32
  0
VERTEX
  8
T56SSILL
 62
8
 10
6092.178
 20
-7975.874
 30
-361.071
 70
    32
  0
VERTEX
  8
T56SSILL
 62
8
 10
6098.265
 20
-7971.641
 30
-361.072
 70
    32
  0
VERTEX
  8
T56SSILL
 62
8
 10
6102.376
 20
-7977.707
 30
-361.071
 70
    32
  0
VERTEX
  8
T56SSILL
 62
8
 10
6096.135
 20
-7981.725
 30
-361.070
 70
    32
  0
VERTEX
  8
T56SSILL
 62
8
 10
6151.573
 20
-8058.831
 30
-361.053
 70
    32
  0
VERTEX
  8
T56SSILL
 62
8
 10
6159.076
 20
-8053.695
 30
-361.054
 70
    32
  0
VERTEX
  8
T56SSILL
 62
8
 10
6163.278
 20
-8059.587
 30
-361.052
 70
    32
  0
VERTEX
  8
T56SSILL
 62
8
 10
6155.806
 20
-8064.917
 30
-361.051
 70
    32
  0
VERTEX
  8
T56SSILL
 62
8
 10
6210.331
 20
-8141.048
 30
-361.034
 70
    32
  0
VERTEX
  8
T56SSILL
 62
8
 10
6222.706
 20
-8071.617
 30
-361.049
 70
    32
  0
VERTEX
  8
T56SSILL
 62
8
 10
6362.917
 20
-7970.296
 30
-361.070
 70
    32
  0
VERTEX
  8
T56SSILL
 62
8
 10
6383.303
 20
-7836.716
 30
-361.099
 70
    32
  0
VERTEX
  8
T56SSILL
 62
8
 10
6390.216
 20
-7824.521
 30
-361.101
 70
    32
  0
VERTEX
  8
T56SSILL
 62
8
 10
6512.207
 20
-7737.173
 30
-361.119
 70
    32
  0
VERTEX
  8
T56SSILL
 62
8
 10
6505.471
 20
-7729.402
 30
-361.121
 70
    32
  0
VERTEX
  8
T56SSILL
 62
8
 10
6506.163
 20
-7721.861
 30
-361.123
 70
    32
  0
VERTEX
  8
T56SSILL
 62
8
 10
6508.493
 20
-7720.416
 30
-361.123
 70
    32
  0
VERTEX
  8
T56SSILL
 62
8
 10
6512.389
 20
-7725.117
 30
-361.122
 70
    32
  0
VERTEX
  8
T56SSILL
 62
8
 10
6521.686
 20
-7721.737
 30
-361.122
 70
    32
  0
VERTEX
  8
T56SSILL
 62
8
 10
6526.002
 20
-7726.572
 30
-361.121
 70
    32
  0
VERTEX
  8
T56SSILL
 62
8
 10
6573.926
 20
-7693.145
 30
-361.128
 70
    32
  0
VERTEX
  8
T56SSILL
 62
8
 10
6578.345
 20
-7698.123
 30
-361.127
 70
    32
  0
VERTEX
  8
T56SSILL
 62
8
 10
6529.189
 20
-7732.864
 30
-361.120
 70
    32
  0
VERTEX
  8
T56SSILL
 62
8
 10
6533.990
 20
-7750.688
 30
-361.116
 70
    32
  0
VERTEX
  8
T56SSILL
 62
8
 10
6560.694
 20
-7788.122
 30
-361.108
 70
    32
  0
VERTEX
  8
T56SSILL
 62
8
 10
6572.043
 20
-7784.579
 30
-361.108
 70
    32
  0
VERTEX
  8
T56SSILL
 62
8
 10
6576.223
 20
-7794.390
 30
-361.106
 70
    32
  0
VERTEX
  8
T56SSILL
 62
8
 10
6579.473
 20
-7798.034
 30
-361.105
 70
    32
  0
VERTEX
  8
T56SSILL
 62
8
 10
6589.302
 20
-7799.045
 30
-361.105
 70
    32
  0
VERTEX
  8
T56SSILL
 62
8
 10
6598.633
 20
-7806.808
 30
-361.103
 70
    32
  0
VERTEX
  8
T56SSILL
 62
8
 10
6598.558
 20
-7812.173
 30
-361.102
 70
    32
  0
VERTEX
  8
T56SSILL
 62
8
 10
6587.769
 20
-7822.580
 30
-361.100
 70
    32
  0
VERTEX
  8
T56SSILL
 62
8
 10
6585.046
 20
-7829.401
 30
-361.098
 70
    32
  0
VERTEX
  8
T56SSILL
 62
8
 10
6582.871
 20
-7845.046
 30
-361.095
 70
    32
  0
VERTEX
  8
T56SSILL
 62
8
 10
6576.026
 20
-7848.520
 30
-361.094
 70
    32
  0
VERTEX
  8
T56SSILL
 62
8
 10
6558.351
 20
-7844.108
 30
-361.095
 70
    32
  0
VERTEX
  8
T56SSILL
 62
8
 10
6555.554
 20
-7840.491
 30
-361.096
 70
    32
  0
VERTEX
  8
T56SSILL
 62
8
 10
6507.075
 20
-7875.266
 30
-361.089
 70
    32
  0
VERTEX
  8
T56SSILL
 62
8
 10
6504.626
 20
-7884.601
 30
-361.087
 70
    32
  0
VERTEX
  8
T56SSILL
 62
8
 10
6497.748
 20
-7890.917
 30
-361.086
 70
    32
  0
VERTEX
  8
T56SSILL
 62
8
 10
6473.970
 20
-7899.066
 30
-361.084
 70
    32
  0
VERTEX
  8
T56SSILL
 62
8
 10
6415.813
 20
-7941.560
 30
-361.075
 70
    32
  0
VERTEX
  8
T56SSILL
 62
8
 10
6461.373
 20
-7947.980
 30
-361.074
 70
    32
  0
VERTEX
  8
T56SSILL
 62
8
 10
6460.906
 20
-7956.444
 30
-361.072
 70
    32
  0
VERTEX
  8
T56SSILL
 62
8
 10
6450.441
 20
-7957.730
 30
-361.072
 70
    32
  0
VERTEX
  8
T56SSILL
 62
8
 10
6445.917
 20
-7956.404
 30
-361.072
 70
    32
  0
VERTEX
  8
T56SSILL
 62
8
 10
6402.445
 20
-7957.926
 30
-361.072
 70
    32
  0
VERTEX
  8
T56SSILL
 62
8
 10
6393.382
 20
-7964.066
 30
-361.071
 70
    32
  0
VERTEX
  8
T56SSILL
 62
8
 10
6388.911
 20
-7960.534
 30
-361.072
 70
    32
  0
VERTEX
  8
T56SSILL
 62
8
 10
6345.421
 20
-7992.425
 30
-361.065
 70
    32
  0
VERTEX
  8
T56SSILL
 62
8
 10
6343.452
 20
-8006.839
 30
-361.062
 70
    32
  0
VERTEX
  8
T56SSILL
 62
8
 10
6329.801
 20
-8016.578
 30
-361.060
 70
    32
  0
VERTEX
  8
T56SSILL
 62
8
 10
6314.576
 20
-8014.537
 30
-361.061
 70
    32
  0
VERTEX
  8
T56SSILL
 62
8
 10
6229.383
 20
-8075.202
 30
-361.048
 70
    32
  0
VERTEX
  8
T56SSILL
 62
8
 10
6217.946
 20
-8137.892
 30
-361.035
 70
    32
  0
VERTEX
  8
T56SSILL
 62
8
 10
6221.331
 20
-8155.100
 30
-361.031
 70
    32
  0
VERTEX
  8
T56SSILL
 62
8
 10
6229.562
 20
-8166.791
 30
-361.028
 70
    32
  0
VERTEX
  8
T56SSILL
 62
8
 10
6240.424
 20
-8172.594
 30
-361.027
 70
    32
  0
VERTEX
  8
T56SSILL
 62
8
 10
6251.627
 20
-8172.950
 30
-361.027
 70
    32
  0
VERTEX
  8
T56SSILL
 62
8
 10
6259.960
 20
-8170.041
 30
-361.027
 70
    32
  0
VERTEX
  8
T56SSILL
 62
8
 10
6358.180
 20
-8099.217
 30
-361.042
 70
    32
  0
VERTEX
  8
T56SSILL
 62
8
 10
6362.987
 20
-8105.653
 30
-361.040
 70
    32
  0
VERTEX
  8
T56SSILL
 62
8
 10
6273.339
 20
-8170.255
 30
-361.027
 70
    32
  0
VERTEX
  8
T56SSILL
 62
8
 10
6277.203
 20
-8175.521
 30
-361.026
 70
    32
  0
VERTEX
  8
T56SSILL
 62
8
 10
6283.194
 20
-8176.776
 30
-361.026
 70
    32
  0
VERTEX
  8
T56SSILL
 62
8
 10
6294.095
 20
-8169.868
 30
-361.027
 70
    32
  0
VERTEX
  8
T56SSILL
 62
8
 10
6296.925
 20
-8171.860
 30
-361.026
 70
    32
  0
VERTEX
  8
T56SSILL
 62
8
 10
6312.612
 20
-8172.269
 30
-361.026
 70
    32
  0
VERTEX
  8
T56SSILL
 62
8
 10
6331.801
 20
-8183.516
 30
-361.024
 70
    32
  0
VERTEX
  8
T56SSILL
 62
8
 10
6333.480
 20
-8190.124
 30
-361.022
 70
    32
  0
VERTEX
  8
T56SSILL
 62
8
 10
6331.363
 20
-8194.452
 30
-361.021
 70
    32
  0
VERTEX
  8
T56SSILL
 62
8
 10
6320.167
 20
-8198.970
 30
-361.020
 70
    32
  0
VERTEX
  8
T56SSILL
 62
8
 10
6315.287
 20
-8194.104
 30
-361.021
 70
    32
  0
VERTEX
  8
T56SSILL
 62
8
 10
6304.225
 20
-8196.683
 30
-361.021
 70
    32
  0
VERTEX
  8
T56SSILL
 62
8
 10
6288.826
 20
-8195.309
 30
-361.021
 70
    32
  0
VERTEX
  8
T56SSILL
 62
8
 10
6284.122
 20
-8185.979
 30
-361.023
 70
    32
  0
VERTEX
  8
T56SSILL
 62
8
 10
6256.589
 20
-8179.601
 30
-361.025
 70
    32
  0
VERTEX
  8
T56SSILL
 62
8
 10
6248.575
 20
-8180.982
 30
-361.025
 70
    32
  0
VERTEX
  8
T56SSILL
 62
8
 10
6239.096
 20
-8180.155
 30
-361.025
 70
    32
  0
VERTEX
  8
T56SSILL
 62
8
 10
6268.711
 20
-8221.366
 30
-361.018
 70
    32
  0
VERTEX
  8
T56SSILL
 62
8
 10
6288.305
 20
-8207.497
 30
-361.019
 70
    32
  0
VERTEX
  8
T56SSILL
 62
8
 10
6292.641
 20
-8213.727
 30
-361.018
 70
    32
  0
VERTEX
  8
T56SSILL
 62
8
 10
6273.488
 20
-8227.607
 30
-361.018
 70
    32
  0
VERTEX
  8
T56SSILL
 62
8
 10
6296.870
 20
-8260.689
 30
-361.017
 70
    32
  0
VERTEX
  8
T56SSILL
 62
8
 10
6307.233
 20
-8260.018
 30
-361.017
 70
    32
  0
VERTEX
  8
T56SSILL
 62
8
 10
6328.286
 20
-8244.241
 30
-361.017
 70
    32
  0
VERTEX
  8
T56SSILL
 62
8
 10
6333.504
 20
-8249.733
 30
-361.017
 70
    32
  0
VERTEX
  8
T56SSILL
 62
8
 10
6304.559
 20
-8270.707
 30
-361.017
 70
    32
  0
VERTEX
  8
T56SSILL
 62
8
 10
6347.070
 20
-8330.148
 30
-361.006
 70
    32
  0
VERTEX
  8
T56SSILL
 62
8
 10
6364.030
 20
-8328.999
 30
-361.005
 70
    32
  0
VERTEX
  8
T56SSILL
 62
8
 10
6379.556
 20
-8356.843
 30
-360.999
 70
    32
  0
VERTEX
  8
T56SSILL
 62
8
 10
6375.972
 20
-8362.761
 30
-360.998
 70
    32
  0
VERTEX
  8
T56SSILL
 62
8
 10
6380.283
 20
-8376.706
 30
-360.995
 70
    32
  0
VERTEX
  8
T56SSILL
 62
8
 10
6569.431
 20
-8640.798
 30
-360.932
 70
    32
  0
VERTEX
  8
T56SSILL
 62
8
 10
6577.489
 20
-8635.096
 30
-360.933
 70
    32
  0
VERTEX
  8
T56SSILL
 62
8
 10
6581.237
 20
-8641.109
 30
-360.931
 70
    32
  0
VERTEX
  8
T56SSILL
 62
8
 10
6574.070
 20
-8647.229
 30
-360.931
 70
    32
  0
VERTEX
  8
T56SSILL
 62
8
 10
6740.542
 20
-8878.472
 30
-360.874
 70
    32
  0
VERTEX
  8
T56SSILL
 62
8
 10
6733.740
 20
-8883.067
 30
-360.873
 70
    32
  0
VERTEX
  8
T56SSILL
 62
8
 10
6702.086
 20
-8839.090
 30
-360.886
 70
    32
  0
VERTEX
  8
T56SSILL
 62
8
 10
6699.213
 20
-8851.913
 30
-360.883
 70
    32
  0
VERTEX
  8
T56SSILL
 62
8
 10
6692.848
 20
-8859.755
 30
-360.881
 70
    32
  0
VERTEX
  8
T56SSILL
 62
8
 10
6321.354
 20
-9126.987
 30
-360.820
 70
    32
  0
VERTEX
  8
T56SSILL
 62
8
 10
6316.404
 20
-9119.456
 30
-360.822
 70
    32
  0
VERTEX
  8
T56SSILL
 62
8
 10
6353.756
 20
-9093.044
 30
-360.828
 70
    32
  0
VERTEX
  8
T56SSILL
 62
8
 10
6351.909
 20
-9083.618
 30
-360.831
 70
    32
  0
VERTEX
  8
T56SSILL
 62
8
 10
6370.728
 20
-9070.523
 30
-360.834
 70
    32
  0
VERTEX
  8
T56SSILL
 62
8
 10
6375.295
 20
-9070.053
 30
-360.834
 70
    32
  0
VERTEX
  8
T56SSILL
 62
8
 10
6380.153
 20
-9074.065
 30
-360.832
 70
    32
  0
VERTEX
  8
T56SSILL
 62
8
 10
6685.048
 20
-8855.714
 30
-360.882
 70
    32
  0
VERTEX
  8
T56SSILL
 62
8
 10
6691.951
 20
-8847.558
 30
-360.884
 70
    32
  0
VERTEX
  8
T56SSILL
 62
8
 10
6694.450
 20
-8835.255
 30
-360.887
 70
    32
  0
VERTEX
  8
T56SSILL
 62
8
 10
6692.222
 20
-8825.347
 30
-360.889
 70
    32
  0
VERTEX
  8
T56SSILL
 62
8
 10
6567.893
 20
-8650.769
 30
-360.931
 70
    32
  0
VERTEX
  8
T56SSILL
 62
8
 10
6560.344
 20
-8656.406
 30
-360.930
 70
    32
  0
VERTEX
  8
T56SSILL
 62
8
 10
6555.290
 20
-8650.303
 30
-360.932
 70
    32
  0
VERTEX
  8
T56SSILL
 62
8
 10
6563.418
 20
-8644.546
 30
-360.932
 70
    32
  0
VERTEX
  8
T56SSILL
 62
8
 10
6478.090
 20
-8525.061
 30
-360.960
 70
    32
  0
VERTEX
  8
T56SSILL
 62
8
 10
6439.045
 20
-8552.698
 30
-360.958
 70
    32
  0
VERTEX
  8
T56SSILL
 62
8
 10
6434.227
 20
-8546.703
 30
-360.960
 70
    32
  0
VERTEX
  8
T56SSILL
 62
8
 10
6450.865
 20
-8535.024
 30
-360.961
 70
    32
  0
VERTEX
  8
T56SSILL
 62
8
 10
6445.574
 20
-8531.823
 30
-360.962
 70
    32
  0
VERTEX
  8
T56SSILL
 62
8
 10
6448.637
 20
-8527.370
 30
-360.962
 70
    32
  0
VERTEX
  8
T56SSILL
 62
8
 10
6455.321
 20
-8531.406
 30
-360.961
 70
    32
  0
VERTEX
  8
T56SSILL
 62
8
 10
6464.547
 20
-8525.074
 30
-360.962
 70
    32
  0
VERTEX
  8
T56SSILL
 62
8
 10
6466.876
 20
-8509.644
 30
-360.964
 70
    32
  0
VERTEX
  8
T56SSILL
 62
8
 10
6386.395
 20
-8398.040
 30
-360.991
 70
    32
  0
VERTEX
  8
T56SSILL
 62
8
 10
6381.892
 20
-8412.853
 30
-360.988
 70
    32
  0
VERTEX
  8
T56SSILL
 62
8
 10
6376.562
 20
-8420.123
 30
-360.987
 70
    32
  0
VERTEX
  8
T56SSILL
 62
8
 10
6341.602
 20
-8446.039
 30
-360.985
 70
    32
  0
VERTEX
  8
T56SSILL
 62
8
 10
6343.609
 20
-8452.196
 30
-360.984
 70
    32
  0
VERTEX
  8
T56SSILL
 62
8
 10
6340.280
 20
-8459.232
 30
-360.983
 70
    32
  0
VERTEX
  8
T56SSILL
 62
8
 10
6325.066
 20
-8458.268
 30
-360.984
 70
    32
  0
VERTEX
  8
T56SSILL
 62
8
 10
6302.361
 20
-8474.465
 30
-360.983
 70
    32
  0
VERTEX
  8
T56SSILL
 62
8
 10
6298.158
 20
-8468.573
 30
-360.984
 70
    32
  0
VERTEX
  8
T56SSILL
 62
8
 10
6318.338
 20
-8453.853
 30
-360.986
 70
    32
  0
VERTEX
  8
T56SSILL
 62
8
 10
6317.016
 20
-8451.543
 30
-360.986
 70
    32
  0
VERTEX
  8
T56SSILL
 62
8
 10
6320.252
 20
-8443.922
 30
-360.987
 70
    32
  0
VERTEX
  8
T56SSILL
 62
8
 10
6329.926
 20
-8446.237
 30
-360.986
 70
    32
  0
VERTEX
  8
T56SSILL
 62
8
 10
6367.339
 20
-8419.656
 30
-360.988
 70
    32
  0
VERTEX
  8
T56SSILL
 62
8
 10
6372.513
 20
-8414.447
 30
-360.989
 70
    32
  0
VERTEX
  8
T56SSILL
 62
8
 10
6377.403
 20
-8404.888
 30
-360.990
 70
    32
  0
VERTEX
  8
T56SSILL
 62
8
 10
6379.112
 20
-8395.430
 30
-360.992
 70
    32
  0
VERTEX
  8
T56SSILL
 62
8
 10
6377.948
 20
-8386.503
 30
-360.993
 70
    32
  0
VERTEX
  8
T56SSILL
 62
8
 10
6374.258
 20
-8380.571
 30
-360.995
 70
    32
  0
VERTEX
  8
T56SSILL
 62
8
 10
6352.317
 20
-8389.935
 30
-360.995
 70
    32
  0
VERTEX
  8
T56SSILL
 62
8
 10
6314.741
 20
-8413.704
 30
-360.993
 70
    32
  0
VERTEX
  8
T56SSILL
 62
8
 10
6293.650
 20
-8408.910
 30
-360.996
 70
    32
  0
VERTEX
  8
T56SSILL
 62
8
 10
6246.065
 20
-8442.963
 30
-360.993
 70
    32
  0
VERTEX
  8
T56SSILL
 62
8
 10
6241.340
 20
-8435.276
 30
-360.995
 70
    32
  0
VERTEX
  8
T56SSILL
 62
8
 10
6289.715
 20
-8400.659
 30
-360.997
 70
    32
  0
VERTEX
  8
T56SSILL
 62
8
 10
6289.758
 20
-8398.135
 30
-360.998
 70
    32
  0
VERTEX
  8
T56SSILL
 62
8
 10
6295.722
 20
-8392.362
 30
-360.999
 70
    32
  0
VERTEX
  8
T56SSILL
 62
8
 10
6294.340
 20
-8387.385
 30
-361.000
 70
    32
  0
VERTEX
  8
T56SSILL
 62
8
 10
6301.680
 20
-8380.198
 30
-361.000
 70
    32
  0
VERTEX
  8
T56SSILL
 62
8
 10
6299.324
 20
-8375.374
 30
-361.001
 70
    32
  0
VERTEX
  8
T56SSILL
 62
8
 10
6302.351
 20
-8373.539
 30
-361.001
 70
    32
  0
VERTEX
  8
T56SSILL
 62
8
 10
6314.028
 20
-8371.823
 30
-361.001
 70
    32
  0
VERTEX
  8
T56SSILL
 62
8
 10
6327.344
 20
-8373.924
 30
-361.000
 70
    32
  0
VERTEX
  8
T56SSILL
 62
8
 10
6340.525
 20
-8362.462
 30
-361.001
 70
    32
  0
VERTEX
  8
T56SSILL
 62
8
 10
6343.555
 20
-8356.831
 30
-361.001
 70
    32
  0
VERTEX
  8
T56SSILL
 62
8
 10
6344.822
 20
-8348.121
 30
-361.003
 70
    32
  0
VERTEX
  8
T56SSILL
 62
8
 10
6342.233
 20
-8337.501
 30
-361.005
 70
    32
  0
VERTEX
  8
T56SSILL
 62
8
 10
6278.626
 20
-8248.335
 30
-361.018
 70
    32
  0
VERTEX
  8
T56SSILL
 62
8
 10
6267.671
 20
-8243.465
 30
-361.018
 70
    32
  0
VERTEX
  8
T56SSILL
 62
8
 10
6257.351
 20
-8241.612
 30
-361.018
 70
    32
  0
VERTEX
  8
T56SSILL
 62
8
 10
6252.826
 20
-8242.563
 30
-361.018
 70
    32
  0
VERTEX
  8
T56SSILL
 62
8
 10
6219.575
 20
-8268.255
 30
-361.018
 70
    32
  0
VERTEX
  8
T56SSILL
 62
8
 10
5998.164
 20
-8429.617
 30
-361.014
 70
    32
  0
VERTEX
  8
T56SSILL
 62
8
 10
6003.933
 20
-8445.567
 30
-361.011
 70
    32
  0
VERTEX
  8
T56SSILL
 62
8
 10
6001.397
 20
-8448.511
 30
-361.010
 70
    32
  0
VERTEX
  8
T56SSILL
 62
8
 10
5995.901
 20
-8450.238
 30
-361.010
 70
    32
  0
VERTEX
  8
T56SSILL
 62
8
 10
5982.848
 20
-8441.028
 30
-361.013
 70
    32
  0
VERTEX
  8
T56SSILL
 62
8
 10
5950.058
 20
-8464.772
 30
-361.011
 70
    32
  0
VERTEX
  8
T56SSILL
 62
8
 10
5955.619
 20
-8480.437
 30
-361.008
 70
    32
  0
VERTEX
  8
T56SSILL
 62
8
 10
5947.557
 20
-8486.111
 30
-361.007
 70
    32
  0
VERTEX
  8
T56SSILL
 62
8
 10
5936.926
 20
-8477.529
 30
-361.010
 70
    32
  0
VERTEX
  8
T56SSILL
 62
8
 10
5933.430
 20
-8476.922
 30
-361.010
 70
    32
  0
VERTEX
  8
T56SSILL
 62
8
 10
5913.952
 20
-8490.393
 30
-361.007
 70
    32
  0
VERTEX
  8
T56SSILL
 62
8
 10
5912.227
 20
-8497.431
 30
-361.005
 70
    32
  0
VERTEX
  8
T56SSILL
 62
8
 10
5918.909
 20
-8507.917
 30
-361.002
 70
    32
  0
VERTEX
  8
T56SSILL
 62
8
 10
5910.289
 20
-8541.467
 30
-360.993
 70
    32
  0
VERTEX
  8
T56SSILL
 62
8
 10
5922.055
 20
-8559.357
 30
-360.988
 70
    32
  0
VERTEX
  8
T56SSILL
 62
8
 10
5921.254
 20
-8565.720
 30
-360.986
 70
    32
  0
VERTEX
  8
T56SSILL
 62
8
 10
5898.762
 20
-8582.374
 30
-360.983
 70
    32
  0
VERTEX
  8
T56SSILL
 62
8
 10
5888.245
 20
-8618.401
 30
-360.973
 70
    32
  0
VERTEX
  8
T56SSILL
 62
8
 10
5879.737
 20
-8678.357
 30
-360.961
 70
    32
  0
VERTEX
  8
T56SSILL
 62
8
 10
5872.079
 20
-8676.977
 30
-360.980
 70
    32
  0
VERTEX
  8
T56SSILL
 62
8
 10
5880.322
 20
-8619.939
 30
-360.973
 70
    32
  0
VERTEX
  8
T56SSILL
 62
8
 10
5877.898
 20
-8615.279
 30
-360.977
 70
    32
  0
VERTEX
  8
T56SSILL
 62
8
 10
5907.445
 20
-8508.338
 30
-361.002
 70
    32
  0
VERTEX
  8
T56SSILL
 62
8
 10
5901.615
 20
-8500.062
 30
-361.005
 70
    32
  0
VERTEX
  8
T56SSILL
 62
8
 10
5565.066
 20
-8745.968
 30
-360.309
 70
    32
  0
VERTEX
  8
T56SSILL
 62
8
 10
5332.915
 20
-8908.846
 30
-359.743
 70
    32
  0
VERTEX
  8
T56SSILL
 62
8
 10
5323.600
 20
-8919.239
 30
-359.722
 70
    32
  0
VERTEX
  8
T56SSILL
 62
8
 10
5320.738
 20
-8925.056
 30
-359.717
 70
    32
  0
VERTEX
  8
T56SSILL
 62
8
 10
5316.688
 20
-8942.373
 30
-359.714
 70
    32
  0
VERTEX
  8
T56SSILL
 62
8
 10
5317.420
 20
-8954.949
 30
-359.722
 70
    32
  0
VERTEX
  8
T56SSILL
 62
8
 10
5325.067
 20
-8971.539
 30
-359.751
 70
    32
  0
VERTEX
  8
T56SSILL
 62
8
 10
5342.863
 20
-8995.091
 30
-359.811
 70
    32
  0
VERTEX
  8
T56SSILL
 62
8
 10
5357.049
 20
-9001.411
 30
-359.854
 70
    32
  0
VERTEX
  8
T56SSILL
 62
8
 10
5369.510
 20
-8999.221
 30
-359.887
 70
    32
  0
VERTEX
  8
T56SSILL
 62
8
 10
5462.938
 20
-8932.383
 30
-360.114
 70
    32
  0
VERTEX
  8
T56SSILL
 62
8
 10
5466.789
 20
-8938.173
 30
-360.127
 70
    32
  0
VERTEX
  8
T56SSILL
 62
8
 10
5378.067
 20
-9001.766
 30
-359.912
 70
    32
  0
VERTEX
  8
T56SSILL
 62
8
 10
5364.241
 20
-9007.532
 30
-359.876
 70
    32
  0
VERTEX
  8
T56SSILL
 62
8
 10
5354.384
 20
-9007.631
 30
-359.849
 70
    32
  0
VERTEX
  8
T56SSILL
 62
8
 10
5350.439
 20
-9006.216
 30
-359.838
 70
    32
  0
VERTEX
  8
T56SSILL
 62
8
 10
5435.899
 20
-9125.879
 30
-360.131
 70
    32
  0
VERTEX
  8
T56SSILL
 62
8
 10
5449.752
 20
-9116.230
 30
-360.164
 70
    32
  0
VERTEX
  8
T56SSILL
 62
8
 10
5453.693
 20
-9122.283
 30
-360.178
 70
    32
  0
VERTEX
  8
T56SSILL
 62
8
 10
5439.946
 20
-9132.073
 30
-360.145
 70
    32
  0
VERTEX
  8
T56SSILL
 62
8
 10
5601.841
 20
-9358.947
 30
-360.700
 70
    32
  0
VERTEX
  8
T56SSILL
 62
8
 10
5609.817
 20
-9353.324
 30
-360.719
 70
    32
  0
VERTEX
  8
T56SSILL
 62
8
 10
5613.581
 20
-9359.291
 30
-360.732
 70
    32
  0
VERTEX
  8
T56SSILL
 62
8
 10
5606.045
 20
-9364.911
 30
-360.714
 70
    32
  0
VERTEX
  8
T56SSILL
 62
8
 10
5759.455
 20
-9577.666
 30
-361.096
 70
    32
  0
VERTEX
  8
T56SSILL
 62
8
 10
5771.173
 20
-9581.231
 30
-361.066
 70
    32
  0
VERTEX
  8
T56SSILL
 62
8
 10
5781.727
 20
-9581.250
 30
-361.040
 70
    32
  0
VERTEX
  8
T56SSILL
 62
8
 10
5811.524
 20
-9559.880
 30
-360.970
 70
    32
  0
VERTEX
  8
T56SSILL
 62
8
 10
5807.051
 20
-9548.102
 30
-360.983
 70
    32
  0
VERTEX
  8
T56SSILL
 62
8
 10
5821.614
 20
-9533.068
 30
-360.949
 70
    32
  0
VERTEX
  8
T56SSILL
 62
8
 10
5819.637
 20
-9530.921
 30
-360.955
 70
    32
  0
VERTEX
  8
T56SSILL
 62
8
 10
5822.689
 20
-9527.807
 30
-360.948
 70
    32
  0
VERTEX
  8
T56SSILL
 62
8
 10
5827.332
 20
-9526.915
 30
-360.936
 70
    32
  0
VERTEX
  8
T56SSILL
 62
8
 10
5836.585
 20
-9541.907
 30
-360.911
 70
    32
  0
VERTEX
  8
T56SSILL
 62
8
 10
5896.107
 20
-9499.219
 30
-360.770
 70
    32
  0
VERTEX
  8
T56SSILL
 62
8
 10
5900.964
 20
-9505.708
 30
-360.757
 70
    32
  0
VERTEX
  8
T56SSILL
 62
8
 10
5841.902
 20
-9548.112
 30
-360.896
 70
    32
  0
VERTEX
  8
T56SSILL
 62
8
 10
5843.120
 20
-9549.998
 30
-360.893
 70
    32
  0
VERTEX
  8
T56SSILL
 62
8
 10
5837.196
 20
-9556.752
 30
-360.906
 70
    32
  0
VERTEX
  8
T56SSILL
 62
8
 10
5845.333
 20
-9575.930
 30
-360.882
 70
    32
  0
VERTEX
  8
T56SSILL
 62
8
 10
5838.195
 20
-9580.952
 30
-360.899
 70
    32
  0
VERTEX
  8
T56SSILL
 62
8
 10
5835.781
 20
-9572.148
 30
-360.907
 70
    32
  0
VERTEX
  8
T56SSILL
 62
8
 10
5831.315
 20
-9566.026
 30
-360.919
 70
    32
  0
VERTEX
  8
T56SSILL
 62
8
 10
5827.255
 20
-9563.476
 30
-360.930
 70
    32
  0
VERTEX
  8
T56SSILL
 62
8
 10
5816.576
 20
-9568.657
 30
-360.955
 70
    32
  0
VERTEX
  8
T56SSILL
 62
8
 10
5816.110
 20
-9566.629
 30
-360.957
 70
    32
  0
VERTEX
  8
T56SSILL
 62
8
 10
5773.097
 20
-9597.510
 30
-361.059
 70
    32
  0
VERTEX
  8
T56SSILL
 62
8
 10
5857.614
 20
-9713.980
 30
-360.842
 70
    32
  0
VERTEX
  8
T56SSILL
 62
8
 10
5873.144
 20
-9725.278
 30
-360.786
 70
    32
  0
VERTEX
  8
T56SSILL
 62
8
 10
5879.892
 20
-9726.991
 30
-360.766
 70
    32
  0
VERTEX
  8
T56SSILL
 62
8
 10
5888.224
 20
-9728.599
 30
-360.743
 70
    32
  0
VERTEX
  8
T56SSILL
 62
8
 10
5909.182
 20
-9724.091
 30
-360.696
 70
    32
  0
VERTEX
  8
T56SSILL
 62
8
 10
5967.239
 20
-9683.411
 30
-360.679
 70
    32
  0
VERTEX
  8
T56SSILL
 62
8
 10
5966.097
 20
-9674.965
 30
-360.682
 70
    32
  0
VERTEX
  8
T56SSILL
 62
8
 10
5974.812
 20
-9668.958
 30
-360.683
 70
    32
  0
VERTEX
  8
T56SSILL
 62
8
 10
5980.096
 20
-9659.920
 30
-360.685
 70
    32
  0
VERTEX
  8
T56SSILL
 62
8
 10
5989.538
 20
-9657.905
 30
-360.686
 70
    32
  0
VERTEX
  8
T56SSILL
 62
8
 10
5995.434
 20
-9660.824
 30
-360.685
 70
    32
  0
VERTEX
  8
T56SSILL
 62
8
 10
6001.716
 20
-9674.100
 30
-360.683
 70
    32
  0
VERTEX
  8
T56SSILL
 62
8
 10
6012.752
 20
-9674.748
 30
-360.683
 70
    32
  0
VERTEX
  8
T56SSILL
 62
8
 10
6023.004
 20
-9677.993
 30
-360.683
 70
    32
  0
VERTEX
  8
T56SSILL
 62
8
 10
6067.604
 20
-9712.189
 30
-360.680
 70
    32
  0
VERTEX
  8
T56SSILL
 62
8
 10
6084.534
 20
-9697.784
 30
-360.684
 70
    32
  0
VERTEX
  8
T56SSILL
 62
8
 10
6094.643
 20
-9702.582
 30
-360.683
 70
    32
  0
VERTEX
  8
T56SSILL
 62
8
 10
6101.203
 20
-9699.556
 30
-360.684
 70
    32
  0
VERTEX
  8
T56SSILL
 62
8
 10
6110.957
 20
-9704.181
 30
-360.684
 70
    32
  0
VERTEX
  8
T56SSILL
 62
8
 10
6104.118
 20
-9728.723
 30
-360.680
 70
    32
  0
VERTEX
  8
T56SSILL
 62
8
 10
6102.533
 20
-9741.143
 30
-360.678
 70
    32
  0
VERTEX
  8
T56SSILL
 62
8
 10
6122.804
 20
-9757.909
 30
-360.676
 70
    32
  0
VERTEX
  8
T56SSILL
 62
8
 10
6116.794
 20
-9764.840
 30
-360.675
 70
    32
  0
VERTEX
  8
T56SSILL
 62
8
 10
6098.232
 20
-9749.872
 30
-360.676
 70
    32
  0
VERTEX
  8
T56SSILL
 62
8
 10
6093.109
 20
-9759.121
 30
-360.674
 70
    32
  0
VERTEX
  8
T56SSILL
 62
8
 10
6092.124
 20
-9764.645
 30
-360.673
 70
    32
  0
VERTEX
  8
T56SSILL
 62
8
 10
6083.821
 20
-9776.551
 30
-360.671
 70
    32
  0
VERTEX
  8
T56SSILL
 62
8
 10
6076.930
 20
-9776.390
 30
-360.670
 70
    32
  0
VERTEX
  8
T56SSILL
 62
8
 10
6069.031
 20
-9770.566
 30
-360.671
 70
    32
  0
VERTEX
  8
T56SSILL
 62
8
 10
6071.563
 20
-9757.644
 30
-360.673
 70
    32
  0
VERTEX
  8
T56SSILL
 62
8
 10
6073.981
 20
-9752.686
 30
-360.674
 70
    32
  0
VERTEX
  8
T56SSILL
 62
8
 10
6067.550
 20
-9743.852
 30
-360.675
 70
    32
  0
VERTEX
  8
T56SSILL
 62
8
 10
6072.128
 20
-9738.239
 30
-360.676
 70
    32
  0
VERTEX
  8
T56SSILL
 62
8
 10
6074.877
 20
-9731.252
 30
-360.678
 70
    32
  0
VERTEX
  8
T56SSILL
 62
8
 10
6027.960
 20
-9692.727
 30
-360.681
 70
    32
  0
VERTEX
  8
T56SSILL
 62
8
 10
6015.763
 20
-9685.201
 30
-360.682
 70
    32
  0
VERTEX
  8
T56SSILL
 62
8
 10
6003.352
 20
-9691.597
 30
-360.680
 70
    32
  0
VERTEX
  8
T56SSILL
 62
8
 10
5999.360
 20
-9699.425
 30
-360.679
 70
    32
  0
VERTEX
  8
T56SSILL
 62
8
 10
5994.620
 20
-9702.943
 30
-360.678
 70
    32
  0
VERTEX
  8
T56SSILL
 62
8
 10
5991.612
 20
-9710.461
 30
-360.676
 70
    32
  0
VERTEX
  8
T56SSILL
 62
8
 10
5988.037
 20
-9714.197
 30
-360.675
 70
    32
  0
VERTEX
  8
T56SSILL
 62
8
 10
5987.599
 20
-9717.972
 30
-360.675
 70
    32
  0
VERTEX
  8
T56SSILL
 62
8
 10
5983.538
 20
-9722.523
 30
-360.674
 70
    32
  0
VERTEX
  8
T56SSILL
 62
8
 10
5976.805
 20
-9716.917
 30
-360.674
 70
    32
  0
VERTEX
  8
T56SSILL
 62
8
 10
5980.141
 20
-9706.928
 30
-360.676
 70
    32
  0
VERTEX
  8
T56SSILL
 62
8
 10
5970.513
 20
-9693.774
 30
-360.678
 70
    32
  0
VERTEX
  8
T56SSILL
 62
8
 10
5914.061
 20
-9732.782
 30
-360.675
 70
    32
  0
VERTEX
  8
T56SSILL
 62
8
 10
5903.690
 20
-9737.061
 30
-360.686
 70
    32
  0
VERTEX
  8
T56SSILL
 62
8
 10
5893.717
 20
-9738.817
 30
-360.703
 70
    32
  0
VERTEX
  8
T56SSILL
 62
8
 10
5887.959
 20
-9739.121
 30
-360.716
 70
    32
  0
VERTEX
  8
T56SSILL
 62
8
 10
5880.515
 20
-9736.499
 30
-360.745
 70
    32
  0
VERTEX
  8
T56SSILL
 62
8
 10
5877.340
 20
-9741.482
 30
-360.739
 70
    32
  0
VERTEX
  8
T56SSILL
 62
8
 10
5935.409
 20
-9822.394
 30
-360.713
 70
    32
  0
VERTEX
  8
T56SSILL
 62
8
 10
5957.850
 20
-9805.767
 30
-360.702
 70
    32
  0
VERTEX
  8
T56SSILL
 62
8
 10
5961.612
 20
-9811.985
 30
-360.704
 70
    32
  0
VERTEX
  8
T56SSILL
 62
8
 10
5939.323
 20
-9827.941
 30
-360.715
 70
    32
  0
VERTEX
  8
T56SSILL
 62
8
 10
6030.536
 20
-9955.039
 30
-360.716
 70
    32
  0
VERTEX
  8
T56SSILL
 62
8
 10
6044.252
 20
-9961.069
 30
-360.713
 70
    32
  0
VERTEX
  8
T56SSILL
 62
8
 10
6058.255
 20
-9980.083
 30
-360.714
 70
    32
  0
VERTEX
  8
T56SSILL
 62
8
 10
6056.850
 20
-9991.144
 30
-360.716
 70
    32
  0
VERTEX
  8
T56SSILL
 62
8
 10
6101.410
 20
-10053.109
 30
-360.720
 70
    32
  0
VERTEX
  8
T56SSILL
 62
8
 10
6122.085
 20
-10037.944
 30
-360.714
 70
    32
  0
VERTEX
  8
T56SSILL
 62
8
 10
6126.497
 20
-10043.997
 30
-360.715
 70
    32
  0
VERTEX
  8
T56SSILL
 62
8
 10
6105.612
 20
-10059.322
 30
-360.720
 70
    32
  0
VERTEX
  8
T56SSILL
 62
8
 10
6274.331
 20
-10292.283
 30
-360.735
 70
    32
  0
VERTEX
  8
T56SSILL
 62
8
 10
6268.229
 20
-10297.065
 30
-360.737
 70
    32
  0
VERTEX
  8
T56SSILL
 62
8
 10
6099.276
 20
-10063.508
 30
-360.722
 70
    32
  0
VERTEX
  8
T56SSILL
 62
8
 10
6077.542
 20
-10078.596
 30
-360.727
 70
    32
  0
VERTEX
  8
T56SSILL
 62
8
 10
6073.517
 20
-10072.469
 30
-360.727
 70
    32
  0
VERTEX
  8
T56SSILL
 62
8
 10
6094.686
 20
-10057.369
 30
-360.721
 70
    32
  0
VERTEX
  8
T56SSILL
 62
8
 10
5932.353
 20
-9832.168
 30
-360.718
 70
    32
  0
VERTEX
  8
T56SSILL
 62
8
 10
5910.912
 20
-9848.363
 30
-360.729
 70
    32
  0
VERTEX
  8
T56SSILL
 62
8
 10
5907.031
 20
-9842.569
 30
-360.727
 70
    32
  0
VERTEX
  8
T56SSILL
 62
8
 10
5928.830
 20
-9826.988
 30
-360.716
 70
    32
  0
VERTEX
  8
T56SSILL
 62
8
 10
5905.705
 20
-9794.323
 30
-360.705
 70
    32
  0
VERTEX
  8
T56SSILL
 62
8
 10
5850.136
 20
-9834.354
 30
-360.733
 70
    32
  0
VERTEX
  8
T56SSILL
 62
8
 10
5847.919
 20
-9853.324
 30
-360.742
 70
    32
  0
VERTEX
  8
T56SSILL
 62
8
 10
5849.774
 20
-9871.542
 30
-360.750
 70
    32
  0
VERTEX
  8
T56SSILL
 62
8
 10
5843.567
 20
-9880.004
 30
-360.755
 70
    32
  0
VERTEX
  8
T56SSILL
 62
8
 10
5844.381
 20
-9890.872
 30
-360.760
 70
    32
  0
VERTEX
  8
T56SSILL
 62
8
 10
5854.941
 20
-9919.733
 30
-360.765
 70
    32
  0
VERTEX
  8
T56SSILL
 62
8
 10
5860.662
 20
-9926.336
 30
-360.764
 70
    32
  0
VERTEX
  8
T56SSILL
 62
8
 10
5867.360
 20
-9921.319
 30
-360.762
 70
    32
  0
VERTEX
  8
T56SSILL
 62
8
 10
5873.297
 20
-9930.087
 30
-360.760
 70
    32
  0
VERTEX
  8
T56SSILL
 62
8
 10
5864.833
 20
-9934.682
 30
-360.763
 70
    32
  0
VERTEX
  8
T56SSILL
 62
8
 10
5863.999
 20
-9944.751
 30
-360.764
 70
    32
  0
VERTEX
  8
T56SSILL
 62
8
 10
5894.452
 20
-10032.052
 30
-360.759
 70
    32
  0
VERTEX
  8
T56SSILL
 62
8
 10
5903.459
 20
-10039.469
 30
-360.756
 70
    32
  0
VERTEX
  8
T56SSILL
 62
8
 10
5913.663
 20
-10039.755
 30
-360.753
 70
    32
  0
VERTEX
  8
T56SSILL
 62
8
 10
5925.635
 20
-10083.068
 30
-360.752
 70
    32
  0
VERTEX
  8
T56SSILL
 62
8
 10
5923.992
 20
-10087.877
 30
-360.752
 70
    32
  0
VERTEX
  8
T56SSILL
 62
8
 10
5919.545
 20
-10092.502
 30
-360.754
 70
    32
  0
VERTEX
  8
T56SSILL
 62
8
 10
5919.288
 20
-10096.804
 30
-360.754
 70
    32
  0
VERTEX
  8
T56SSILL
 62
8
 10
5914.877
 20
-10099.737
 30
-360.756
 70
    32
  0
VERTEX
  8
T56SSILL
 62
8
 10
5908.744
 20
-10099.552
 30
-360.757
 70
    32
  0
VERTEX
  8
T56SSILL
 62
8
 10
5907.910
 20
-10095.419
 30
-360.757
 70
    32
  0
VERTEX
  8
T56SSILL
 62
8
 10
5903.978
 20
-10095.212
 30
-360.758
 70
    32
  0
VERTEX
  8
T56SSILL
 62
8
 10
5901.996
 20
-10090.739
 30
-360.759
 70
    32
  0
VERTEX
  8
T56SSILL
 62
8
 10
5904.629
 20
-10082.731
 30
-360.758
 70
    32
  0
VERTEX
  8
T56SSILL
 62
8
 10
5899.714
 20
-10068.631
 30
-360.759
 70
    32
  0
VERTEX
  8
T56SSILL
 62
8
 10
5895.707
 20
-10066.151
 30
-360.760
 70
    32
  0
VERTEX
  8
T56SSILL
 62
8
 10
5888.068
 20
-10066.897
 30
-360.762
 70
    32
  0
VERTEX
  8
T56SSILL
 62
8
 10
5890.840
 20
-10042.695
 30
-360.760
 70
    32
  0
VERTEX
  8
T56SSILL
 62
8
 10
5856.559
 20
-9947.785
 30
-360.766
 70
    32
  0
VERTEX
  8
T56SSILL
 62
8
 10
5846.241
 20
-9937.933
 30
-360.768
 70
    32
  0
VERTEX
  8
T56SSILL
 62
8
 10
5850.045
 20
-9930.583
 30
-360.767
 70
    32
  0
VERTEX
  8
T56SSILL
 62
8
 10
5837.166
 20
-9891.736
 30
-360.761
 70
    32
  0
VERTEX
  8
T56SSILL
 62
8
 10
5836.059
 20
-9875.916
 30
-360.754
 70
    32
  0
VERTEX
  8
T56SSILL
 62
8
 10
5828.702
 20
-9871.699
 30
-360.753
 70
    32
  0
VERTEX
  8
T56SSILL
 62
8
 10
5820.987
 20
-9863.072
 30
-360.750
 70
    32
  0
VERTEX
  8
T56SSILL
 62
8
 10
5818.238
 20
-9857.334
 30
-360.748
 70
    32
  0
VERTEX
  8
T56SSILL
 62
8
 10
5758.684
 20
-9900.235
 30
-360.796
 70
    32
  0
VERTEX
  8
T56SSILL
 62
8
 10
5742.363
 20
-9906.741
 30
-360.819
 70
    32
  0
VERTEX
  8
T56SSILL
 62
8
 10
5728.440
 20
-9904.642
 30
-360.840
 70
    32
  0
VERTEX
  8
T56SSILL
 62
8
 10
5729.690
 20
-9915.113
 30
-360.827
 70
    32
  0
VERTEX
  8
T56SSILL
 62
8
 10
5803.257
 20
-10097.994
 30
-360.787
 70
    32
  0
VERTEX
  8
T56SSILL
 62
8
 10
5795.870
 20
-10101.098
 30
-360.790
 70
    32
  0
VERTEX
  8
T56SSILL
 62
8
 10
5792.569
 20
-10100.409
 30
-360.791
 70
    32
  0
VERTEX
  8
T56SSILL
 62
8
 10
5780.826
 20
-10096.086
 30
-360.794
 70
    32
  0
VERTEX
  8
T56SSILL
 62
8
 10
5779.642
 20
-10092.221
 30
-360.794
 70
    32
  0
VERTEX
  8
T56SSILL
 62
8
 10
5774.951
 20
-10088.268
 30
-360.795
 70
    32
  0
VERTEX
  8
T56SSILL
 62
8
 10
5767.332
 20
-10068.028
 30
-360.796
 70
    32
  0
VERTEX
  8
T56SSILL
 62
8
 10
5763.589
 20
-10046.041
 30
-360.796
 70
    32
  0
VERTEX
  8
T56SSILL
 62
8
 10
5747.574
 20
-10021.357
 30
-360.800
 70
    32
  0
VERTEX
  8
T56SSILL
 62
8
 10
5756.619
 20
-10002.449
 30
-360.797
 70
    32
  0
VERTEX
  8
T56SSILL
 62
8
 10
5754.092
 20
-9996.396
 30
-360.797
 70
    32
  0
VERTEX
  8
T56SSILL
 62
8
 10
5724.037
 20
-9980.908
 30
-360.783
 70
    32
  0
VERTEX
  8
T56SSILL
 62
8
 10
5713.489
 20
-9970.899
 30
-360.775
 70
    32
  0
VERTEX
  8
T56SSILL
 62
8
 10
5708.686
 20
-9959.265
 30
-360.772
 70
    32
  0
VERTEX
  8
T56SSILL
 62
8
 10
5681.691
 20
-9810.402
 30
-360.901
 70
    32
  0
VERTEX
  8
T56SSILL
 62
8
 10
5682.436
 20
-9803.840
 30
-360.926
 70
    32
  0
VERTEX
  8
T56SSILL
 62
8
 10
5687.341
 20
-9793.871
 30
-360.974
 70
    32
  0
VERTEX
  8
T56SSILL
 62
8
 10
5708.797
 20
-9763.352
 30
-361.134
 70
    32
  0
VERTEX
  8
T56SSILL
 62
8
 10
5701.875
 20
-9698.087
 30
-361.247
 70
    32
  0
VERTEX
  8
T56SSILL
 62
8
 10
5694.293
 20
-9692.243
 30
-361.242
 70
    32
  0
VERTEX
  8
T56SSILL
 62
8
 10
5700.894
 20
-9682.750
 30
-361.275
 70
    32
  0
VERTEX
  8
T56SSILL
 62
8
 10
5696.866
 20
-9651.551
 30
-361.305
 70
    32
  0
VERTEX
  8
T56SSILL
 62
8
 10
5699.163
 20
-9645.132
 30
-361.309
 70
    32
  0
VERTEX
  8
T56SSILL
 62
8
 10
5708.306
 20
-9632.584
 30
-361.245
 70
    32
  0
VERTEX
  8
T56SSILL
 62
8
 10
5762.273
 20
-9595.257
 30
-361.086
 70
    32
  0
VERTEX
  8
T56SSILL
 62
8
 10
5711.356
 20
-9524.845
 30
-361.081
 70
    32
  0
VERTEX
  8
T56SSILL
 62
8
 10
5665.187
 20
-9557.866
 30
-360.969
 70
    32
  0
VERTEX
  8
T56SSILL
 62
8
 10
5661.108
 20
-9551.669
 30
-360.955
 70
    32
  0
VERTEX
  8
T56SSILL
 62
8
 10
5702.093
 20
-9521.731
 30
-361.054
 70
    32
  0
VERTEX
  8
T56SSILL
 62
8
 10
5702.483
 20
-9513.111
 30
-361.051
 70
    32
  0
VERTEX
  8
T56SSILL
 62
8
 10
5599.062
 20
-9369.227
 30
-360.697
 70
    32
  0
VERTEX
  8
T56SSILL
 62
8
 10
5592.522
 20
-9373.978
 30
-360.681
 70
    32
  0
VERTEX
  8
T56SSILL
 62
8
 10
5588.564
 20
-9368.048
 30
-360.667
 70
    32
  0
VERTEX
  8
T56SSILL
 62
8
 10
5594.861
 20
-9363.702
 30
-360.683
 70
    32
  0
VERTEX
  8
T56SSILL
 62
8
 10
5432.650
 20
-9136.847
 30
-360.127
 70
    32
  0
VERTEX
  8
T56SSILL
 62
8
 10
5419.342
 20
-9146.634
 30
-360.095
 70
    32
  0
VERTEX
  8
T56SSILL
 62
8
 10
5415.109
 20
-9142.083
 30
-360.081
 70
    32
  0
VERTEX
  8
T56SSILL
 62
8
 10
5428.748
 20
-9132.112
 30
-360.114
 70
    32
  0
VERTEX
  8
T56SSILL
 62
8
 10
5318.859
 20
-8977.033
 30
-359.737
 70
    32
  0
VERTEX
  8
T56SSILL
 62
8
 10
5312.865
 20
-8965.559
 30
-359.715
 70
    32
  0
VERTEX
  8
T56SSILL
 62
8
 10
5308.868
 20
-8950.900
 30
-359.697
 70
    32
  0
VERTEX
  8
T56SSILL
 62
8
 10
5308.733
 20
-8943.476
 30
-359.693
 70
    32
  0
VERTEX
  8
T56SSILL
 62
8
 10
5312.685
 20
-8924.297
 30
-359.695
 70
    32
  0
VERTEX
  8
T56SSILL
 62
8
 10
5200.274
 20
-9005.259
 30
-359.422
 70
    32
  0
VERTEX
  8
T56SSILL
 62
8
 10
5188.236
 20
-9080.534
 30
-359.424
 70
    32
  0
VERTEX
  8
T56SSILL
 62
8
 10
5204.731
 20
-9089.525
 30
-359.474
 70
    32
  0
VERTEX
  8
T56SSILL
 62
8
 10
5219.349
 20
-9084.894
 30
-359.512
 70
    32
  0
VERTEX
  8
T56SSILL
 62
8
 10
5227.041
 20
-9095.403
 30
-359.538
 70
    32
  0
VERTEX
  8
T56SSILL
 62
8
 10
5233.891
 20
-9100.025
 30
-359.560
 70
    32
  0
VERTEX
  8
T56SSILL
 62
8
 10
5236.778
 20
-9132.799
 30
-359.583
 70
    32
  0
VERTEX
  8
T56SSILL
 62
8
 10
5242.480
 20
-9143.167
 30
-359.604
 70
    32
  0
VERTEX
  8
T56SSILL
 62
8
 10
5238.469
 20
-9153.425
 30
-359.597
 70
    32
  0
VERTEX
  8
T56SSILL
 62
8
 10
5230.385
 20
-9160.815
 30
-359.579
 70
    32
  0
VERTEX
  8
T56SSILL
 62
8
 10
5225.011
 20
-9162.040
 30
-359.564
 70
    32
  0
VERTEX
  8
T56SSILL
 62
8
 10
5219.565
 20
-9160.996
 30
-359.549
 70
    32
  0
VERTEX
  8
T56SSILL
 62
8
 10
5216.008
 20
-9162.716
 30
-359.540
 70
    32
  0
VERTEX
  8
T56SSILL
 62
8
 10
5197.753
 20
-9137.359
 30
-359.477
 70
    32
  0
VERTEX
  8
T56SSILL
 62
8
 10
5191.031
 20
-9133.194
 30
-359.457
 70
    32
  0
VERTEX
  8
T56SSILL
 62
8
 10
5182.550
 20
-9114.984
 30
-359.425
 70
    32
  0
VERTEX
  8
T56SSILL
 62
8
 10
5177.043
 20
-9147.638
 30
-359.425
 70
    32
  0
VERTEX
  8
T56SSILL
 62
8
 10
5143.039
 20
-9173.270
 30
-359.343
 70
    32
  0
VERTEX
  8
T56SSILL
 62
8
 10
5138.844
 20
-9186.767
 30
-359.338
 70
    32
  0
VERTEX
  8
T56SSILL
 62
8
 10
5151.792
 20
-9206.768
 30
-359.383
 70
    32
  0
VERTEX
  8
T56SSILL
 62
8
 10
5160.432
 20
-9213.011
 30
-359.410
 70
    32
  0
VERTEX
  8
T56SSILL
 62
8
 10
5168.999
 20
-9231.043
 30
-359.442
 70
    32
  0
VERTEX
  8
T56SSILL
 62
8
 10
5168.660
 20
-9238.718
 30
-359.445
 70
    32
  0
VERTEX
  8
T56SSILL
 62
8
 10
5216.915
 20
-9306.699
 30
-359.738
 70
    32
  0
VERTEX
  8
T56SSILL
 62
8
 10
5245.156
 20
-9416.749
 30
-360.313
 70
    32
  0
VERTEX
  8
T56SSILL
 62
8
 10
5257.701
 20
-9430.859
 30
-360.382
 70
    32
  0
VERTEX
  8
T56SSILL
 62
8
 10
5289.902
 20
-9408.375
 30
-360.244
 70
    32
  0
VERTEX
  8
T56SSILL
 62
8
 10
5295.234
 20
-9413.061
 30
-360.266
 70
    32
  0
VERTEX
  8
T56SSILL
 62
8
 10
5280.081
 20
-9424.507
 30
-360.336
 70
    32
  0
VERTEX
  8
T56SSILL
 62
8
 10
5283.813
 20
-9430.845
 30
-360.367
 70
    32
  0
VERTEX
  8
T56SSILL
 62
8
 10
5266.461
 20
-9442.767
 30
-360.441
 70
    32
  0
VERTEX
  8
T56SSILL
 62
8
 10
5361.692
 20
-9555.020
 30
-360.782
 70
    32
  0
VERTEX
  8
T56SSILL
 62
8
 10
5401.157
 20
-9646.427
 30
-360.645
 70
    32
  0
VERTEX
  8
T56SSILL
 62
8
 10
5417.652
 20
-9655.417
 30
-360.662
 70
    32
  0
VERTEX
  8
T56SSILL
 62
8
 10
5414.144
 20
-9662.855
 30
-360.626
 70
    32
  0
VERTEX
  8
T56SSILL
 62
8
 10
5407.289
 20
-9659.677
 30
-360.617
 70
    32
  0
VERTEX
  8
T56SSILL
 62
8
 10
5444.315
 20
-9744.401
 30
-360.557
 70
    32
  0
VERTEX
  8
T56SSILL
 62
8
 10
5438.051
 20
-9747.088
 30
-360.546
 70
    32
  0
VERTEX
  8
T56SSILL
 62
8
 10
5397.296
 20
-9653.692
 30
-360.609
 70
    32
  0
VERTEX
  8
T56SSILL
 62
8
 10
5392.048
 20
-9651.168
 30
-360.602
 70
    32
  0
VERTEX
  8
T56SSILL
 62
8
 10
5394.386
 20
-9646.837
 30
-360.624
 70
    32
  0
VERTEX
  8
T56SSILL
 62
8
 10
5357.874
 20
-9563.885
 30
-360.756
 70
    32
  0
VERTEX
  8
T56SSILL
 62
8
 10
5256.141
 20
-9443.894
 30
-360.453
 70
    32
  0
VERTEX
  8
T56SSILL
 62
8
 10
5253.587
 20
-9454.215
 30
-360.510
 70
    32
  0
VERTEX
  8
T56SSILL
 62
8
 10
5275.858
 20
-9545.432
 30
-360.612
 70
    32
  0
VERTEX
  8
T56SSILL
 62
8
 10
5268.087
 20
-9547.330
 30
-360.592
 70
    32
  0
VERTEX
  8
T56SSILL
 62
8
 10
5244.199
 20
-9449.493
 30
-360.489
 70
    32
  0
VERTEX
  8
T56SSILL
 62
8
 10
5182.108
 20
-9494.224
 30
-360.507
 70
    32
  0
VERTEX
  8
T56SSILL
 62
8
 10
5177.838
 20
-9486.412
 30
-360.513
 70
    32
  0
VERTEX
  8
T56SSILL
 62
8
 10
5229.989
 20
-9448.748
 30
-360.493
 70
    32
  0
VERTEX
  8
T56SSILL
 62
8
 10
5240.986
 20
-9429.682
 30
-360.385
 70
    32
  0
VERTEX
  8
T56SSILL
 62
8
 10
5211.310
 20
-9309.214
 30
-359.755
 70
    32
  0
VERTEX
  8
T56SSILL
 62
8
 10
5156.813
 20
-9232.890
 30
-359.409
 70
    32
  0
VERTEX
  8
T56SSILL
 62
8
 10
5153.656
 20
-9231.206
 30
-359.399
 70
    32
  0
VERTEX
  8
T56SSILL
 62
8
 10
5146.463
 20
-9232.923
 30
-359.381
 70
    32
  0
VERTEX
  8
T56SSILL
 62
8
 10
5139.148
 20
-9221.268
 30
-359.355
 70
    32
  0
VERTEX
  8
T56SSILL
 62
8
 10
5113.575
 20
-9190.827
 30
-359.270
 70
    32
  0
VERTEX
  8
T56SSILL
 62
8
 10
5102.699
 20
-9198.875
 30
-359.243
 70
    32
  0
VERTEX
  8
T56SSILL
 62
8
 10
5100.471
 20
-9255.751
 30
-359.529
 70
    32
  0
VERTEX
  8
T56SSILL
 62
8
 10
5115.773
 20
-9276.894
 30
-359.634
 70
    32
  0
VERTEX
  8
T56SSILL
 62
8
 10
5124.433
 20
-9279.139
 30
-359.641
 70
    32
  0
VERTEX
  8
T56SSILL
 62
8
 10
5131.528
 20
-9275.842
 30
-359.620
 70
    32
  0
VERTEX
  8
T56SSILL
 62
8
 10
5138.365
 20
-9284.108
 30
-359.660
 70
    32
  0
VERTEX
  8
T56SSILL
 62
8
 10
5128.216
 20
-9293.259
 30
-359.715
 70
    32
  0
VERTEX
  8
T56SSILL
 62
8
 10
5139.122
 20
-9308.475
 30
-359.791
 70
    32
  0
VERTEX
  8
T56SSILL
 62
8
 10
5132.615
 20
-9312.981
 30
-359.819
 70
    32
  0
VERTEX
  8
T56SSILL
 62
8
 10
5125.308
 20
-9302.644
 30
-359.767
 70
    32
  0
VERTEX
  8
T56SSILL
 62
8
 10
5110.680
 20
-9298.646
 30
-359.754
 70
    32
  0
VERTEX
  8
T56SSILL
 62
8
 10
5107.417
 20
-9294.063
 30
-359.731
 70
    32
  0
VERTEX
  8
T56SSILL
 62
8
 10
5111.509
 20
-9291.172
 30
-359.713
 70
    32
  0
VERTEX
  8
T56SSILL
 62
8
 10
5107.050
 20
-9281.098
 30
-359.662
 70
    32
  0
VERTEX
  8
T56SSILL
 62
8
 10
5091.482
 20
-9259.605
 30
-359.555
 70
    32
  0
VERTEX
  8
T56SSILL
 62
8
 10
5094.074
 20
-9204.660
 30
-359.259
 70
    32
  0
VERTEX
  8
T56SSILL
 62
8
 10
5065.903
 20
-9225.526
 30
-359.386
 70
    32
  0
VERTEX
  8
T56SSILL
 62
8
 10
5066.111
 20
-9227.686
 30
-359.398
 70
    32
  0
VERTEX
  8
T56SSILL
 62
8
 10
5054.745
 20
-9236.107
 30
-359.449
 70
    32
  0
VERTEX
  8
T56SSILL
 62
8
 10
5050.512
 20
-9241.863
 30
-359.482
 70
    32
  0
VERTEX
  8
T56SSILL
 62
8
 10
5053.448
 20
-9244.708
 30
-359.496
 70
    32
  0
VERTEX
  8
T56SSILL
 62
8
 10
5035.197
 20
-9259.025
 30
-359.583
 70
    32
  0
VERTEX
  8
T56SSILL
 62
8
 10
5028.174
 20
-9257.191
 30
-359.577
 70
    32
  0
VERTEX
  8
T56SSILL
 62
8
 10
5025.393
 20
-9253.677
 30
-359.559
 70
    32
  0
VERTEX
  8
T56SSILL
 62
8
 10
4952.088
 20
-9306.310
 30
-359.882
 70
    32
  0
VERTEX
  8
T56SSILL
 62
8
 10
4895.038
 20
-9350.041
 30
-360.155
 70
    32
  0
VERTEX
  8
T56SSILL
 62
8
 10
4884.798
 20
-9364.139
 30
-360.106
 70
    32
  0
VERTEX
  8
T56SSILL
 62
8
 10
4880.175
 20
-9382.393
 30
-360.070
 70
    32
  0
VERTEX
  8
T56SSILL
 62
8
 10
4881.975
 20
-9396.304
 30
-360.070
 70
    32
  0
VERTEX
  8
T56SSILL
 62
8
 10
4949.130
 20
-9556.200
 30
-359.804
 70
    32
  0
VERTEX
  8
T56SSILL
 62
8
 10
4942.131
 20
-9559.326
 30
-359.760
 70
    32
  0
VERTEX
  8
T56SSILL
 62
8
 10
4896.379
 20
-9449.986
 30
-359.977
 70
    32
  0
VERTEX
  8
T56SSILL
 62
8
 10
4890.449
 20
-9449.683
 30
-359.951
 70
    32
  0
VERTEX
  8
T56SSILL
 62
8
 10
4882.273
 20
-9452.260
 30
-359.905
 70
    32
  0
VERTEX
  8
T56SSILL
 62
8
 10
4879.660
 20
-9444.330
 30
-359.924
 70
    32
  0
VERTEX
  8
T56SSILL
 62
8
 10
4872.883
 20
-9439.501
 30
-359.912
 70
    32
  0
VERTEX
  8
T56SSILL
 62
8
 10
4864.617
 20
-9422.505
 30
-359.940
 70
    32
  0
VERTEX
  8
T56SSILL
 62
8
 10
4853.498
 20
-9410.814
 30
-359.935
 70
    32
  0
VERTEX
  8
T56SSILL
 62
8
 10
4853.163
 20
-9401.079
 30
-359.971
 70
    32
  0
VERTEX
  8
T56SSILL
 62
8
 10
4847.826
 20
-9391.996
 30
-359.982
 70
    32
  0
VERTEX
  8
T56SSILL
 62
8
 10
4838.952
 20
-9392.898
 30
-359.939
 70
    32
  0
VERTEX
  8
T56SSILL
 62
8
 10
4837.937
 20
-9391.240
 30
-359.941
 70
    32
  0
VERTEX
  8
T56SSILL
 62
8
 10
4823.047
 20
-9401.010
 30
-359.837
 70
    32
  0
VERTEX
  8
T56SSILL
 62
8
 10
4819.159
 20
-9395.346
 30
-359.841
 70
    32
  0
VERTEX
  8
T56SSILL
 62
8
 10
4844.038
 20
-9377.920
 30
-360.020
 70
    32
  0
VERTEX
  8
T56SSILL
 62
8
 10
4835.272
 20
-9378.083
 30
-359.980
 70
    32
  0
VERTEX
  8
T56SSILL
 62
8
 10
4817.440
 20
-9373.585
 30
-359.917
 70
    32
  0
VERTEX
  8
T56SSILL
 62
8
 10
4803.336
 20
-9365.105
 30
-359.887
 70
    32
  0
VERTEX
  8
T56SSILL
 62
8
 10
4796.425
 20
-9358.181
 30
-359.882
 70
    32
  0
VERTEX
  8
T56SSILL
 62
8
 10
4787.903
 20
-9343.789
 30
-359.899
 70
    32
  0
VERTEX
  8
T56SSILL
 62
8
 10
4731.300
 20
-9226.948
 30
-359.665
 70
    32
  0
VERTEX
  8
T56SSILL
 62
8
 10
4722.750
 20
-9225.633
 30
-359.644
 70
    32
  0
VERTEX
  8
T56SSILL
 62
8
 10
4715.689
 20
-9226.612
 30
-359.632
 70
    32
  0
VERTEX
  8
T56SSILL
 62
8
 10
4708.670
 20
-9220.427
 30
-359.599
 70
    32
  0
VERTEX
  8
T56SSILL
 62
8
 10
4704.238
 20
-9219.337
 30
-359.587
 70
    32
  0
VERTEX
  8
T56SSILL
 62
8
 10
4699.102
 20
-9213.177
 30
-359.558
 70
    32
  0
VERTEX
  8
T56SSILL
 62
8
 10
4685.299
 20
-9209.080
 30
-359.518
 70
    32
  0
VERTEX
  8
T56SSILL
 62
8
 10
4679.366
 20
-9209.658
 30
-359.507
 70
    32
  0
VERTEX
  8
T56SSILL
 62
8
 10
4666.042
 20
-9204.437
 30
-359.464
 70
    32
  0
VERTEX
  8
T56SSILL
 62
8
 10
4654.753
 20
-9206.369
 30
-359.446
 70
    32
  0
VERTEX
  8
T56SSILL
 62
8
 10
4641.274
 20
-9195.339
 30
-359.386
 70
    32
  0
VERTEX
  8
T56SSILL
 62
8
 10
4649.061
 20
-9182.957
 30
-359.367
 70
    32
  0
VERTEX
  8
T56SSILL
 62
8
 10
4668.976
 20
-9190.841
 30
-359.432
 70
    32
  0
VERTEX
  8
T56SSILL
 62
8
 10
4693.723
 20
-9191.068
 30
-359.484
 70
    32
  0
VERTEX
  8
T56SSILL
 62
8
 10
4702.773
 20
-9179.941
 30
-359.472
 70
    32
  0
VERTEX
  8
T56SSILL
 62
8
 10
4703.753
 20
-9176.688
 30
-359.464
 70
    32
  0
VERTEX
  8
T56SSILL
 62
8
 10
4700.878
 20
-9163.248
 30
-359.420
 70
    32
  0
VERTEX
  8
T56SSILL
 62
8
 10
4659.448
 20
-9076.364
 30
-359.111
 70
    32
  0
VERTEX
  8
T56SSILL
 62
8
 10
4377.781
 20
-8685.690
 30
-358.225
 70
    32
  0
VERTEX
  8
T56SSILL
 62
8
 10
4383.569
 20
-8681.380
 30
-358.185
 70
    32
  0
VERTEX
  8
T56SSILL
 62
8
 10
4667.574
 20
-9077.995
 30
-359.091
 70
    32
  0
VERTEX
  8
T56SSILL
 62
8
 10
4671.817
 20
-9077.798
 30
-359.076
 70
    32
  0
VERTEX
  8
T56SSILL
 62
8
 10
4679.531
 20
-9060.725
 30
-358.968
 70
    32
  0
VERTEX
  8
T56SSILL
 62
8
 10
4690.335
 20
-9048.491
 30
-358.873
 70
    32
  0
VERTEX
  8
T56SSILL
 62
8
 10
4875.624
 20
-8913.654
 30
-358.521
 70
    32
  0
VERTEX
  8
T56SSILL
 62
8
 10
4879.952
 20
-8919.758
 30
-358.524
 70
    32
  0
VERTEX
  8
T56SSILL
 62
8
 10
4696.158
 20
-9052.347
 30
-358.871
 70
    32
  0
VERTEX
  8
T56SSILL
 62
8
 10
4691.444
 20
-9056.611
 30
-358.908
 70
    32
  0
VERTEX
  8
T56SSILL
 62
8
 10
4680.920
 20
-9072.837
 30
-359.021
 70
    32
  0
VERTEX
  8
T56SSILL
 62
8
 10
4679.165
 20
-9095.478
 30
-359.143
 70
    32
  0
VERTEX
  8
T56SSILL
 62
8
 10
4682.587
 20
-9108.620
 30
-359.203
 70
    32
  0
VERTEX
  8
T56SSILL
 62
8
 10
4692.370
 20
-9129.864
 30
-359.286
 70
    32
  0
VERTEX
  8
T56SSILL
 62
8
 10
4704.241
 20
-9132.545
 30
-359.265
 70
    32
  0
VERTEX
  8
T56SSILL
 62
8
 10
4706.961
 20
-9124.705
 30
-359.216
 70
    32
  0
VERTEX
  8
T56SSILL
 62
8
 10
4712.931
 20
-9123.881
 30
-359.194
 70
    32
  0
VERTEX
  8
T56SSILL
 62
8
 10
4714.018
 20
-9125.046
 30
-359.197
 70
    32
  0
VERTEX
  8
T56SSILL
 62
8
 10
4711.456
 20
-9133.099
 30
-359.247
 70
    32
  0
VERTEX
  8
T56SSILL
 62
8
 10
4713.058
 20
-9138.050
 30
-359.268
 70
    32
  0
VERTEX
  8
T56SSILL
 62
8
 10
4712.792
 20
-9153.609
 30
-359.352
 70
    32
  0
VERTEX
  8
T56SSILL
 62
8
 10
4714.421
 20
-9166.111
 30
-359.413
 70
    32
  0
VERTEX
  8
T56SSILL
 62
8
 10
4717.950
 20
-9173.798
 30
-359.443
 70
    32
  0
VERTEX
  8
T56SSILL
 62
8
 10
4717.006
 20
-9181.962
 30
-359.489
 70
    32
  0
VERTEX
  8
T56SSILL
 62
8
 10
4769.430
 20
-9290.832
 30
-359.911
 70
    32
  0
VERTEX
  8
T56SSILL
 62
8
 10
4776.197
 20
-9298.741
 30
-359.938
 70
    32
  0
VERTEX
  8
T56SSILL
 62
8
 10
4806.904
 20
-9303.717
 30
-359.948
 70
    32
  0
VERTEX
  8
T56SSILL
 62
8
 10
4813.352
 20
-9294.118
 30
-359.893
 70
    32
  0
VERTEX
  8
T56SSILL
 62
8
 10
4826.218
 20
-9289.147
 30
-359.859
 70
    32
  0
VERTEX
  8
T56SSILL
 62
8
 10
4836.427
 20
-9289.006
 30
-359.853
 70
    32
  0
VERTEX
  8
T56SSILL
 62
8
 10
4858.030
 20
-9297.390
 30
-359.886
 70
    32
  0
VERTEX
  8
T56SSILL
 62
8
 10
4864.261
 20
-9297.358
 30
-359.882
 70
    32
  0
VERTEX
  8
T56SSILL
 62
8
 10
4868.559
 20
-9296.353
 30
-359.875
 70
    32
  0
VERTEX
  8
T56SSILL
 62
8
 10
4871.973
 20
-9291.507
 30
-359.847
 70
    32
  0
VERTEX
  8
T56SSILL
 62
8
 10
4879.870
 20
-9288.260
 30
-359.825
 70
    32
  0
VERTEX
  8
T56SSILL
 62
8
 10
4888.558
 20
-9290.350
 30
-359.832
 70
    32
  0
VERTEX
  8
T56SSILL
 62
8
 10
4888.203
 20
-9296.210
 30
-359.863
 70
    32
  0
VERTEX
  8
T56SSILL
 62
8
 10
4891.312
 20
-9302.892
 30
-359.897
 70
    32
  0
VERTEX
  8
T56SSILL
 62
8
 10
4885.243
 20
-9306.971
 30
-359.922
 70
    32
  0
VERTEX
  8
T56SSILL
 62
8
 10
4883.882
 20
-9316.191
 30
-359.973
 70
    32
  0
VERTEX
  8
T56SSILL
 62
8
 10
4921.062
 20
-9322.216
 30
-359.985
 70
    32
  0
VERTEX
  8
T56SSILL
 62
8
 10
4947.594
 20
-9299.727
 30
-359.849
 70
    32
  0
VERTEX
  8
T56SSILL
 62
8
 10
5021.063
 20
-9247.257
 30
-359.527
 70
    32
  0
VERTEX
  8
T56SSILL
 62
8
 10
5017.315
 20
-9238.408
 30
-359.482
 70
    32
  0
VERTEX
  8
T56SSILL
 62
8
 10
5012.967
 20
-9234.430
 30
-359.463
 70
    32
  0
VERTEX
  8
T56SSILL
 62
8
 10
5002.462
 20
-9226.856
 30
-359.428
 70
    32
  0
VERTEX
  8
T56SSILL
 62
8
 10
4993.503
 20
-9224.507
 30
-359.421
 70
    32
  0
VERTEX
  8
T56SSILL
 62
8
 10
4989.481
 20
-9219.508
 30
-359.396
 70
    32
  0
VERTEX
  8
T56SSILL
 62
8
 10
5002.851
 20
-9211.797
 30
-359.347
 70
    32
  0
VERTEX
  8
T56SSILL
 62
8
 10
5008.159
 20
-9211.974
 30
-359.345
 70
    32
  0
VERTEX
  8
T56SSILL
 62
8
 10
5029.672
 20
-9201.533
 30
-359.277
 70
    32
  0
VERTEX
  8
T56SSILL
 62
8
 10
5043.877
 20
-9218.765
 30
-359.362
 70
    32
  0
VERTEX
  8
T56SSILL
 62
8
 10
5044.712
 20
-9222.766
 30
-359.383
 70
    32
  0
VERTEX
  8
T56SSILL
 62
8
 10
5074.319
 20
-9209.305
 30
-359.294
 70
    32
  0
VERTEX
  8
T56SSILL
 62
8
 10
5111.070
 20
-9183.696
 30
-359.259
 70
    32
  0
VERTEX
  8
T56SSILL
 62
8
 10
5109.429
 20
-9177.237
 30
-359.252
 70
    32
  0
VERTEX
  8
T56SSILL
 62
8
 10
5105.027
 20
-9170.747
 30
-359.236
 70
    32
  0
VERTEX
  8
T56SSILL
 62
8
 10
5096.150
 20
-9133.026
 30
-359.194
 70
    32
  0
VERTEX
  8
T56SSILL
 62
8
 10
5099.510
 20
-9130.903
 30
-359.202
 70
    32
  0
VERTEX
  8
T56SSILL
 62
8
 10
5101.790
 20
-9132.151
 30
-359.209
 70
    32
  0
VERTEX
  8
T56SSILL
 62
8
 10
5118.978
 20
-9156.109
 30
-359.268
 70
    32
  0
VERTEX
  8
T56SSILL
 62
8
 10
5123.013
 20
-9158.785
 30
-359.281
 70
    32
  0
VERTEX
  8
T56SSILL
 62
8
 10
5130.323
 20
-9167.924
 30
-359.305
 70
    32
  0
VERTEX
  8
T56SSILL
 62
8
 10
5134.906
 20
-9167.087
 30
-359.317
 70
    32
  0
VERTEX
  8
T56SSILL
 62
8
 10
5171.711
 20
-9141.439
 30
-359.407
 70
    32
  0
VERTEX
  8
T56SSILL
 62
8
 10
5178.427
 20
-9100.388
 30
-359.406
 70
    32
  0
VERTEX
  8
T56SSILL
 62
8
 10
5174.490
 20
-9090.366
 30
-359.391
 70
    32
  0
VERTEX
  8
T56SSILL
 62
8
 10
5180.557
 20
-9087.371
 30
-359.406
 70
    32
  0
VERTEX
  8
T56SSILL
 62
8
 10
5193.404
 20
-9008.845
 30
-359.404
 70
    32
  0
VERTEX
  8
T56SSILL
 62
8
 10
5009.289
 20
-9139.994
 30
-358.959
 70
    32
  0
VERTEX
  8
T56SSILL
 62
8
 10
5006.938
 20
-9149.562
 30
-359.011
 70
    32
  0
VERTEX
  8
T56SSILL
 62
8
 10
5013.413
 20
-9178.047
 30
-359.160
 70
    32
  0
VERTEX
  8
T56SSILL
 62
8
 10
5022.745
 20
-9195.053
 30
-359.246
 70
    32
  0
VERTEX
  8
T56SSILL
 62
8
 10
5007.363
 20
-9211.134
 30
-359.341
 70
    32
  0
VERTEX
  8
T56SSILL
 62
8
 10
5002.188
 20
-9209.984
 30
-359.338
 70
    32
  0
VERTEX
  8
T56SSILL
 62
8
 10
4982.047
 20
-9176.980
 30
-359.172
 70
    32
  0
VERTEX
  8
T56SSILL
 62
8
 10
4971.005
 20
-9167.265
 30
-359.126
 70
    32
  0
VERTEX
  8
T56SSILL
 62
8
 10
4882.770
 20
-9230.118
 30
-359.512
 70
    32
  0
VERTEX
  8
T56SSILL
 62
8
 10
4875.866
 20
-9219.585
 30
-359.459
 70
    32
  0
VERTEX
  8
T56SSILL
 62
8
 10
4878.728
 20
-9216.526
 30
-359.441
 70
    32
  0
VERTEX
  8
T56SSILL
 62
8
 10
4881.550
 20
-9215.594
 30
-359.434
 70
    32
  0
VERTEX
  8
T56SSILL
 62
8
 10
4885.888
 20
-9217.815
 30
-359.444
 70
    32
  0
VERTEX
  8
T56SSILL
 62
8
 10
5085.813
 20
-9075.635
 30
-359.138
 70
    32
  0
VERTEX
  8
T56SSILL
 62
8
 10
5069.766
 20
-9069.626
 30
-359.091
 70
    32
  0
VERTEX
  8
T56SSILL
 62
8
 10
5060.694
 20
-9060.742
 30
-359.062
 70
    32
  0
VERTEX
  8
T56SSILL
 62
8
 10
4979.678
 20
-8946.198
 30
-358.784
 70
    32
  0
VERTEX
  8
T56SSILL
 62
8
 10
4985.852
 20
-8941.835
 30
-358.799
 70
    32
  0
VERTEX
  8
T56SSILL
 62
8
 10
5069.149
 20
-9058.507
 30
-359.084
 70
    32
  0
VERTEX
  8
T56SSILL
 62
8
 10
5078.333
 20
-9065.651
 30
-359.113
 70
    32
  0
VERTEX
  8
T56SSILL
 62
8
 10
5089.894
 20
-9068.229
 30
-359.146
 70
    32
  0
VERTEX
  8
T56SSILL
 62
8
 10
5099.787
 20
-9065.563
 30
-359.172
 70
    32
  0
VERTEX
  8
T56SSILL
 62
8
 10
5297.234
 20
-8925.931
 30
-359.653
 70
    32
  0
VERTEX
  8
T56SSILL
 62
8
 10
5282.807
 20
-8920.455
 30
-359.610
 70
    32
  0
VERTEX
  8
T56SSILL
 62
8
 10
5273.477
 20
-8912.539
 30
-359.581
 70
    32
  0
VERTEX
  8
T56SSILL
 62
8
 10
5102.260
 20
-8673.549
 30
-359.223
 70
    32
  0
VERTEX
  8
T56SSILL
 62
8
 10
5088.253
 20
-8683.867
 30
-359.184
 70
    32
  0
VERTEX
  8
T56SSILL
 62
8
 10
5083.840
 20
-8678.063
 30
-359.181
 70
    32
  0
VERTEX
  8
T56SSILL
 62
8
 10
5098.113
 20
-8668.094
 30
-359.220
 70
    32
  0
VERTEX
  8
T56SSILL
 62
8
 10
5083.353
 20
-8646.648
 30
-359.212
 70
    32
  0
VERTEX
  8
T56SSILL
 62
8
 10
5076.517
 20
-8641.141
 30
-359.203
 70
    32
  0
VERTEX
  8
T56SSILL
 62
8
 10
4764.368
 20
-8518.571
 30
-358.689
 70
    32
  0
VERTEX
  8
T56SSILL
 62
8
 10
4745.169
 20
-8519.593
 30
-358.649
 70
    32
  0
VERTEX
  8
T56SSILL
 62
8
 10
4637.155
 20
-8596.859
 30
-358.352
 70
    32
  0
VERTEX
  8
T56SSILL
 62
8
 10
4632.957
 20
-8591.773
 30
-358.348
 70
    32
  0
VERTEX
  8
T56SSILL
 62
8
 10
4746.010
 20
-8511.118
 30
-358.659
 70
    32
  0
VERTEX
  8
T56SSILL
 62
8
 10
4714.549
 20
-8499.091
 30
-358.607
 70
    32
  0
VERTEX
  8
T56SSILL
 62
8
 10
4654.427
 20
-8479.262
 30
-358.505
 70
    32
  0
VERTEX
  8
T56SSILL
 62
8
 10
4644.243
 20
-8479.580
 30
-358.484
 70
    32
  0
VERTEX
  8
T56SSILL
 62
8
 10
4637.557
 20
-8482.032
 30
-358.467
 70
    32
  0
VERTEX
  8
T56SSILL
 62
8
 10
4525.892
 20
-8560.665
 30
-358.161
 70
    32
  0
VERTEX
  8
T56SSILL
 62
8
 10
4522.352
 20
-8554.874
 30
-358.160
 70
    32
  0
VERTEX
  8
T56SSILL
 62
8
 10
4643.348
 20
-8470.249
 30
-358.491
 70
    32
  0
VERTEX
  8
T56SSILL
 62
8
 10
4429.984
 20
-8173.291
 30
-358.353
 70
    32
  0
VERTEX
  8
T56SSILL
 62
8
 10
4413.495
 20
-8184.681
 30
-358.308
 70
    32
  0
VERTEX
  8
T56SSILL
 62
8
 10
4405.316
 20
-8173.678
 30
-358.303
 70
    32
  0
VERTEX
  8
T56SSILL
 62
8
 10
4408.551
 20
-8171.554
 30
-358.311
 70
    32
  0
VERTEX
  8
T56SSILL
 62
8
 10
4409.158
 20
-8168.945
 30
-358.315
 70
    32
  0
VERTEX
  8
T56SSILL
 62
8
 10
4423.639
 20
-8163.023
 30
-358.333
 70
    32
  0
VERTEX
  8
T56SSILL
 62
8
 10
4416.374
 20
-8156.131
 30
-358.311
 70
    32
  0
VERTEX
  8
T56SSILL
 62
8
 10
4405.643
 20
-8150.445
 30
-358.286
 70
    32
  0
VERTEX
  8
T56SSILL
 62
8
 10
4389.927
 20
-8146.415
 30
-358.255
 70
    32
  0
VERTEX
  8
T56SSILL
 62
8
 10
4374.125
 20
-8148.412
 30
-358.234
 70
    32
  0
VERTEX
  8
T56SSILL
 62
8
 10
4361.991
 20
-8153.830
 30
-358.223
 70
    32
  0
VERTEX
  8
T56SSILL
 62
8
 10
3802.464
 20
-8553.798
 30
-356.654
 70
    32
  0
VERTEX
  8
T56SSILL
 62
8
 10
3792.699
 20
-8571.066
 30
-356.609
 70
    32
  0
VERTEX
  8
T56SSILL
 62
8
 10
3786.490
 20
-8589.370
 30
-356.574
 70
    32
  0
VERTEX
  8
T56SSILL
 62
8
 10
3788.090
 20
-8597.978
 30
-356.570
 70
    32
  0
VERTEX
  8
T56SSILL
 62
8
 10
3796.433
 20
-8613.144
 30
-356.581
 70
    32
  0
VERTEX
  8
T56SSILL
 62
8
 10
3794.291
 20
-8615.758
 30
-356.572
 70
    32
  0
VERTEX
  8
T56SSILL
 62
8
 10
3795.490
 20
-8618.043
 30
-356.574
 70
    32
  0
VERTEX
  8
T56SSILL
 62
8
 10
3813.549
 20
-8643.928
 30
-356.603
 70
    32
  0
VERTEX
  8
T56SSILL
 62
8
 10
3824.126
 20
-8650.240
 30
-356.628
 70
    32
  0
VERTEX
  8
T56SSILL
 62
8
 10
3821.042
 20
-8654.719
 30
-356.615
 70
    32
  0
VERTEX
  8
T56SSILL
 62
8
 10
3842.924
 20
-8685.348
 30
-356.651
 70
    32
  0
VERTEX
  8
T56SSILL
 62
8
 10
3851.153
 20
-8690.953
 30
-356.670
 70
    32
  0
VERTEX
  8
T56SSILL
 62
8
 10
3850.149
 20
-8695.462
 30
-356.663
 70
    32
  0
VERTEX
  8
T56SSILL
 62
8
 10
3870.535
 20
-8723.694
 30
-356.696
 70
    32
  0
VERTEX
  8
T56SSILL
 62
8
 10
3879.451
 20
-8729.350
 30
-356.720
 70
    32
  0
VERTEX
  8
T56SSILL
 62
8
 10
3876.500
 20
-8731.892
 30
-356.709
 70
    32
  0
VERTEX
  8
T56SSILL
 62
8
 10
3898.197
 20
-8762.111
 30
-356.805
 70
    32
  0
VERTEX
  8
T56SSILL
 62
8
 10
3907.657
 20
-8768.679
 30
-356.838
 70
    32
  0
VERTEX
  8
T56SSILL
 62
8
 10
3905.802
 20
-8772.605
 30
-356.840
 70
    32
  0
VERTEX
  8
T56SSILL
 62
8
 10
3926.526
 20
-8801.461
 30
-356.939
 70
    32
  0
VERTEX
  8
T56SSILL
 62
8
 10
3933.659
 20
-8806.441
 30
-356.964
 70
    32
  0
VERTEX
  8
T56SSILL
 62
8
 10
3934.387
 20
-8807.763
 30
-356.968
 70
    32
  0
VERTEX
  8
T56SSILL
 62
8
 10
3932.245
 20
-8809.618
 30
-356.966
 70
    32
  0
VERTEX
  8
T56SSILL
 62
8
 10
3953.758
 20
-8839.428
 30
-357.068
 70
    32
  0
VERTEX
  8
T56SSILL
 62
8
 10
3962.828
 20
-8846.058
 30
-357.101
 70
    32
  0
VERTEX
  8
T56SSILL
 62
8
 10
3960.820
 20
-8849.768
 30
-357.103
 70
    32
  0
VERTEX
  8
T56SSILL
 62
8
 10
3982.138
 20
-8879.608
 30
-357.204
 70
    32
  0
VERTEX
  8
T56SSILL
 62
8
 10
3992.592
 20
-8886.658
 30
-357.240
 70
    32
  0
VERTEX
  8
T56SSILL
 62
8
 10
3990.440
 20
-8889.712
 30
-357.241
 70
    32
  0
VERTEX
  8
T56SSILL
 62
8
 10
3999.045
 20
-8901.912
 30
-357.282
 70
    32
  0
VERTEX
  8
T56SSILL
 62
8
 10
3991.823
 20
-8906.360
 30
-357.273
 70
    32
  0
VERTEX
  8
T56SSILL
 62
8
 10
3787.497
 20
-8621.262
 30
-356.547
 70
    32
  0
VERTEX
  8
T56SSILL
 62
8
 10
3782.198
 20
-8610.963
 30
-356.541
 70
    32
  0
VERTEX
  8
T56SSILL
 62
8
 10
3778.569
 20
-8598.604
 30
-356.542
 70
    32
  0
VERTEX
  8
T56SSILL
 62
8
 10
3777.687
 20
-8592.517
 30
-356.545
 70
    32
  0
VERTEX
  8
T56SSILL
 62
8
 10
3781.601
 20
-8577.370
 30
-356.570
 70
    32
  0
VERTEX
  8
T56SSILL
 62
8
 10
3779.018
 20
-8571.631
 30
-356.568
 70
    32
  0
VERTEX
  8
T56SSILL
 62
8
 10
3717.882
 20
-8616.174
 30
-356.394
 70
    32
  0
VERTEX
  8
T56SSILL
 62
8
 10
3718.979
 20
-8620.591
 30
-356.399
 70
    32
  0
VERTEX
  8
T56SSILL
 62
8
 10
3723.744
 20
-8621.953
 30
-356.406
 70
    32
  0
VERTEX
  8
T56SSILL
 62
8
 10
3720.158
 20
-8630.582
 30
-356.410
 70
    32
  0
VERTEX
  8
T56SSILL
 62
8
 10
3709.644
 20
-8627.693
 30
-356.394
 70
    32
  0
VERTEX
  8
T56SSILL
 62
8
 10
3704.541
 20
-8639.356
 30
-356.399
 70
    32
  0
VERTEX
  8
T56SSILL
 62
8
 10
3703.158
 20
-8648.036
 30
-356.406
 70
    32
  0
VERTEX
  8
T56SSILL
 62
8
 10
3696.046
 20
-8647.483
 30
-356.397
 70
    32
  0
VERTEX
  8
T56SSILL
 62
8
 10
3702.613
 20
-8624.374
 30
-356.383
 70
    32
  0
VERTEX
  8
T56SSILL
 62
8
 10
3696.792
 20
-8621.382
 30
-356.373
 70
    32
  0
VERTEX
  8
T56SSILL
 62
8
 10
3699.507
 20
-8613.808
 30
-356.369
 70
    32
  0
VERTEX
  8
T56SSILL
 62
8
 10
3706.076
 20
-8615.724
 30
-356.379
 70
    32
  0
VERTEX
  8
T56SSILL
 62
8
 10
3718.752
 20
-8606.776
 30
-356.386
 70
    32
  0
VERTEX
  8
T56SSILL
 62
8
 10
3704.815
 20
-8606.983
 30
-356.369
 70
    32
  0
VERTEX
  8
T56SSILL
 62
8
 10
3693.224
 20
-8604.104
 30
-356.352
 70
    32
  0
VERTEX
  8
T56SSILL
 62
8
 10
3679.430
 20
-8595.866
 30
-356.328
 70
    32
  0
VERTEX
  8
T56SSILL
 62
8
 10
3669.017
 20
-8585.536
 30
-356.305
 70
    32
  0
VERTEX
  8
T56SSILL
 62
8
 10
3509.355
 20
-8362.656
 30
-356.299
 70
    32
  0
VERTEX
  8
T56SSILL
 62
8
 10
3502.807
 20
-8367.442
 30
-356.287
 70
    32
  0
VERTEX
  8
T56SSILL
 62
8
 10
3500.235
 20
-8364.296
 30
-356.291
 70
    32
  0
VERTEX
  8
T56SSILL
 62
8
 10
3498.247
 20
-8365.608
 30
-356.288
 70
    32
  0
VERTEX
  8
T56SSILL
 62
8
 10
3494.229
 20
-8360.136
 30
-356.296
 70
    32
  0
VERTEX
  8
T56SSILL
 62
8
 10
3496.238
 20
-8358.701
 30
-356.300
 70
    32
  0
VERTEX
  8
T56SSILL
 62
8
 10
3488.233
 20
-8347.193
 30
-356.318
 70
    32
  0
VERTEX
  8
T56SSILL
 62
8
 10
3495.007
 20
-8342.571
 30
-356.329
 70
    32
  0
VERTEX
  8
T56SSILL
 62
8
 10
3479.131
 20
-8320.651
 30
-356.363
 70
    32
  0
VERTEX
  8
T56SSILL
 62
8
 10
3455.090
 20
-8338.259
 30
-356.319
 70
    32
  0
VERTEX
  8
T56SSILL
 62
8
 10
3445.673
 20
-8347.371
 30
-356.298
 70
    32
  0
VERTEX
  8
T56SSILL
 62
8
 10
3434.727
 20
-8331.897
 30
-356.322
 70
    32
  0
VERTEX
  8
T56SSILL
 62
8
 10
3445.272
 20
-8325.122
 30
-356.339
 70
    32
  0
VERTEX
  8
T56SSILL
 62
8
 10
3450.816
 20
-8332.429
 30
-356.328
 70
    32
  0
VERTEX
  8
T56SSILL
 62
8
 10
3475.451
 20
-8315.046
 30
-356.371
 70
    32
  0
VERTEX
  8
T56SSILL
 62
8
 10
3439.969
 20
-8266.289
 30
-356.446
 70
    32
  0
VERTEX
  8
T56SSILL
 62
8
 10
3427.742
 20
-8262.672
 30
-356.447
 70
    32
  0
VERTEX
  8
T56SSILL
 62
8
 10
3420.794
 20
-8264.169
 30
-356.441
 70
    32
  0
VERTEX
  8
T56SSILL
 62
8
 10
3409.531
 20
-8250.981
 30
-356.460
 70
    32
  0
VERTEX
  8
T56SSILL
 62
8
 10
3404.632
 20
-8249.280
 30
-356.461
 70
    32
  0
VERTEX
  8
T56SSILL
 62
8
 10
3401.619
 20
-8249.916
 30
-356.459
 70
    32
  0
VERTEX
  8
T56SSILL
 62
8
 10
3395.234
 20
-8241.585
 30
-356.471
 70
    32
  0
VERTEX
  8
T56SSILL
 62
8
 10
3401.217
 20
-8222.359
 30
-356.509
 70
    32
  0
VERTEX
  8
T56SSILL
 62
8
 10
3400.981
 20
-8218.844
 30
-356.516
 70
    32
  0
VERTEX
  8
T56SSILL
 62
8
 10
3404.793
 20
-8213.412
 30
-356.528
 70
    32
  0
VERTEX
  8
T56SSILL
 62
8
 10
3410.409
 20
-8210.809
 30
-356.535
 70
    32
  0
VERTEX
  8
T56SSILL
 62
8
 10
3414.805
 20
-8211.352
 30
-356.536
 70
    32
  0
VERTEX
  8
T56SSILL
 62
8
 10
3424.070
 20
-8217.192
 30
-356.529
 70
    32
  0
VERTEX
  8
T56SSILL
 62
8
 10
3433.110
 20
-8233.486
 30
-356.503
 70
    32
  0
VERTEX
  8
T56SSILL
 62
8
 10
3435.057
 20
-8234.695
 30
-356.502
 70
    32
  0
VERTEX
  8
T56SSILL
 62
8
 10
3440.695
 20
-8247.894
 30
-356.480
 70
    32
  0
VERTEX
  8
T56SSILL
 62
8
 10
3439.854
 20
-8249.144
 30
-356.477
 70
    32
  0
VERTEX
  8
T56SSILL
 62
8
 10
3447.695
 20
-8265.428
 30
-356.451
 70
    32
  0
VERTEX
  8
T56SSILL
 62
8
 10
3594.156
 20
-8467.404
 30
-356.147
 70
    32
  0
VERTEX
  8
T56SSILL
 62
8
 10
3604.137
 20
-8460.598
 30
-356.177
 70
    32
  0
VERTEX
  8
T56SSILL
 62
8
 10
3608.011
 20
-8466.173
 30
-356.169
 70
    32
  0
VERTEX
  8
T56SSILL
 62
8
 10
3598.245
 20
-8473.583
 30
-356.138
 70
    32
  0
VERTEX
  8
T56SSILL
 62
8
 10
3632.068
 20
-8520.926
 30
-356.199
 70
    32
  0
VERTEX
  8
T56SSILL
 62
8
 10
3635.726
 20
-8519.829
 30
-356.203
 70
    32
  0
VERTEX
  8
T56SSILL
 62
8
 10
3643.606
 20
-8512.358
 30
-356.224
 70
    32
  0
VERTEX
  8
T56SSILL
 62
8
 10
3652.861
 20
-8524.706
 30
-356.240
 70
    32
  0
VERTEX
  8
T56SSILL
 62
8
 10
3642.512
 20
-8535.241
 30
-356.225
 70
    32
  0
VERTEX
  8
T56SSILL
 62
8
 10
3678.650
 20
-8584.613
 30
-356.316
 70
    32
  0
VERTEX
  8
T56SSILL
 62
8
 10
3690.252
 20
-8593.877
 30
-356.339
 70
    32
  0
VERTEX
  8
T56SSILL
 62
8
 10
3700.859
 20
-8598.108
 30
-356.356
 70
    32
  0
VERTEX
  8
T56SSILL
 62
8
 10
3708.473
 20
-8599.819
 30
-356.367
 70
    32
  0
VERTEX
  8
T56SSILL
 62
8
 10
3724.316
 20
-8598.793
 30
-356.385
 70
    32
  0
VERTEX
  8
T56SSILL
 62
8
 10
3735.958
 20
-8593.401
 30
-356.421
 70
    32
  0
VERTEX
  8
T56SSILL
 62
8
 10
4048.237
 20
-8369.006
 30
-357.550
 70
    32
  0
VERTEX
  8
T56SSILL
 62
8
 10
4044.895
 20
-8360.992
 30
-357.547
 70
    32
  0
VERTEX
  8
T56SSILL
 62
8
 10
4052.110
 20
-8356.380
 30
-357.572
 70
    32
  0
VERTEX
  8
T56SSILL
 62
8
 10
4057.664
 20
-8361.729
 30
-357.584
 70
    32
  0
VERTEX
  8
T56SSILL
 62
8
 10
4068.081
 20
-8355.428
 30
-357.621
 70
    32
  0
VERTEX
  8
T56SSILL
 62
8
 10
4356.431
 20
-8150.043
 30
-358.208
 70
    32
  0
VERTEX
  8
T56SSILL
 62
8
 10
4365.509
 20
-8144.450
 30
-358.214
 70
    32
  0
VERTEX
  8
T56SSILL
 62
8
 10
4377.672
 20
-8140.422
 30
-358.227
 70
    32
  0
VERTEX
  8
T56SSILL
 62
8
 10
4388.424
 20
-8139.692
 30
-358.243
 70
    32
  0
VERTEX
  8
T56SSILL
 62
8
 10
4404.266
 20
-8142.547
 30
-358.272
 70
    32
  0
VERTEX
  8
T56SSILL
 62
8
 10
4418.612
 20
-8149.630
 30
-358.305
 70
    32
  0
VERTEX
  8
T56SSILL
 62
8
 10
4429.454
 20
-8160.116
 30
-358.337
 70
    32
  0
VERTEX
  8
T56SSILL
 62
8
 10
4600.332
 20
-8397.460
 30
-358.476
 70
    32
  0
VERTEX
  8
T56SSILL
 62
8
 10
4604.099
 20
-8383.779
 30
-358.498
 70
    32
  0
VERTEX
  8
T56SSILL
 62
8
 10
4609.368
 20
-8376.820
 30
-358.515
 70
    32
  0
VERTEX
  8
T56SSILL
 62
8
 10
4687.248
 20
-8322.851
 30
-358.728
 70
    32
  0
VERTEX
  8
T56SSILL
 62
8
 10
4691.053
 20
-8328.559
 30
-358.730
 70
    32
  0
VERTEX
  8
T56SSILL
 62
8
 10
4618.941
 20
-8380.306
 30
-358.531
 70
    32
  0
VERTEX
  8
T56SSILL
 62
8
 10
4612.047
 20
-8388.766
 30
-358.509
 70
    32
  0
VERTEX
  8
T56SSILL
 62
8
 10
4608.915
 20
-8396.131
 30
-358.495
 70
    32
  0
VERTEX
  8
T56SSILL
 62
8
 10
4609.630
 20
-8407.762
 30
-358.485
 70
    32
  0
VERTEX
  8
T56SSILL
 62
8
 10
4612.426
 20
-8413.874
 30
-358.484
 70
    32
  0
VERTEX
  8
T56SSILL
 62
8
 10
4652.707
 20
-8468.792
 30
-358.512
 70
    32
  0
VERTEX
  8
T56SSILL
 62
8
 10
4661.649
 20
-8474.253
 30
-358.524
 70
    32
  0
VERTEX
  8
T56SSILL
 62
8
 10
4720.631
 20
-8493.398
 30
-358.625
 70
    32
  0
VERTEX
  8
T56SSILL
 62
8
 10
5085.354
 20
-8635.636
 30
-359.227
 70
    32
  0
VERTEX
  8
T56SSILL
 62
8
 10
5277.933
 20
-8906.061
 30
-359.590
 70
    32
  0
VERTEX
  8
T56SSILL
 62
8
 10
5285.237
 20
-8913.200
 30
-359.613
 70
    32
  0
VERTEX
  8
T56SSILL
 62
8
 10
5297.515
 20
-8917.881
 30
-359.650
 70
    32
  0
VERTEX
  8
T56SSILL
 62
8
 10
5310.066
 20
-8915.954
 30
-359.683
 70
    32
  0
VERTEX
  8
T56SSILL
 62
8
 10
5487.969
 20
-8789.083
 30
-360.116
 70
    32
  0
VERTEX
  8
T56SSILL
 62
8
 10
5491.622
 20
-8780.677
 30
-360.122
 70
    32
  0
VERTEX
  8
T56SSILL
 62
8
 10
5494.247
 20
-8784.420
 30
-360.131
 70
    32
  0
VERTEX
  8
T56SSILL
 62
8
 10
5505.546
 20
-8776.492
 30
-360.158
 70
    32
  0
VERTEX
  8
T56SSILL
 62
8
 10
5494.906
 20
-8761.626
 30
-360.122
 70
    32
  0
VERTEX
  8
T56SSILL
 62
8
 10
5501.583
 20
-8756.328
 30
-360.138
 70
    32
  0
VERTEX
  8
T56SSILL
 62
8
 10
5512.646
 20
-8771.315
 30
-360.176
 70
    32
  0
VERTEX
  8
T56SSILL
 62
8
 10
5528.911
 20
-8759.611
 30
-360.215
 70
    32
  0
VERTEX
  8
T56SSILL
 62
8
 10
5523.767
 20
-8752.265
 30
-360.197
 70
    32
  0
VERTEX
  8
T56SSILL
 62
8
 10
5530.008
 20
-8747.409
 30
-360.212
 70
    32
  0
VERTEX
  8
T56SSILL
 62
8
 10
5535.258
 20
-8754.895
 30
-360.230
 70
    32
  0
VERTEX
  8
T56SSILL
 62
8
 10
5561.057
 20
-8737.977
 30
-360.294
 70
    32
  0
VERTEX
  8
T56SSILL
 62
8
 10
5763.372
 20
-8591.166
 30
-360.784
 70
    32
  0
VERTEX
  8
T56SSILL
 62
8
 10
5762.462
 20
-8586.490
 30
-360.779
 70
    32
  0
VERTEX
  8
T56SSILL
 62
8
 10
5747.936
 20
-8575.413
 30
-360.734
 70
    32
  0
VERTEX
  8
T56SSILL
 62
8
 10
5754.135
 20
-8569.575
 30
-360.748
 70
    32
  0
VERTEX
  8
T56SSILL
 62
8
 10
5766.294
 20
-8578.457
 30
-360.786
 70
    32
  0
VERTEX
  8
T56SSILL
 62
8
 10
5770.308
 20
-8579.775
 30
-360.798
 70
    32
  0
VERTEX
  8
T56SSILL
 62
8
 10
5782.221
 20
-8577.282
 30
-360.830
 70
    32
  0
VERTEX
  8
T56SSILL
 62
8
 10
5876.567
 20
-8508.447
 30
-361.003
 70
    32
  0
VERTEX
  8
T56SSILL
 62
8
 10
5888.623
 20
-8494.514
 30
-361.007
 70
    32
  0
VERTEX
  8
T56SSILL
 62
8
 10
5891.659
 20
-8483.902
 30
-361.010
 70
    32
  0
VERTEX
  8
T56SSILL
 62
8
 10
5891.186
 20
-8480.868
 30
-361.010
 70
    32
  0
VERTEX
  8
T56SSILL
 62
8
 10
5870.055
 20
-8447.678
 30
-361.014
 70
    32
  0
SEQEND
  8
T56SSILL
  0
POLYLINE
  8
T56SSILL
 62
8
 66
     1
 70
     9
  0
VERTEX
  8
T56SSILL
 62
8
 10
4880.048
 20
-9343.318
 30
-360.123
 70
    32
  0
VERTEX
  8
T56SSILL
 62
8
 10
4881.346
 20
-9322.872
 30
-360.010
 70
    32
  0
VERTEX
  8
T56SSILL
 62
8
 10
4913.790
 20
-9328.069
 30
-360.020
 70
    32
  0
VERTEX
  8
T56SSILL
 62
8
 10
4886.786
 20
-9347.514
 30
-360.143
 70
    32
  0
VERTEX
  8
T56SSILL
 62
8
 10
4882.006
 20
-9347.126
 30
-360.136
 70
    32
  0
VERTEX
  8
T56SSILL
 62
8
 10
4880.517
 20
-9344.742
 30
-360.134
 70
    32
  0
SEQEND
  8
T56SSILL
  0
POLYLINE
  8
T56SSILL
 62
8
 66
     1
 70
     9
  0
VERTEX
  8
T56SSILL
 62
8
 10
4853.416
 20
-9368.852
 30
-360.047
 70
    32
  0
VERTEX
  8
T56SSILL
 62
8
 10
4838.127
 20
-9371.897
 30
-360.016
 70
    32
  0
VERTEX
  8
T56SSILL
 62
8
 10
4830.033
 20
-9371.341
 30
-359.982
 70
    32
  0
VERTEX
  8
T56SSILL
 62
8
 10
4824.159
 20
-9369.789
 30
-359.962
 70
    32
  0
VERTEX
  8
T56SSILL
 62
8
 10
4808.420
 20
-9360.881
 30
-359.926
 70
    32
  0
VERTEX
  8
T56SSILL
 62
8
 10
4797.288
 20
-9347.993
 30
-359.925
 70
    32
  0
VERTEX
  8
T56SSILL
 62
8
 10
4776.875
 20
-9306.136
 30
-359.978
 70
    32
  0
VERTEX
  8
T56SSILL
 62
8
 10
4803.305
 20
-9310.370
 30
-359.986
 70
    32
  0
VERTEX
  8
T56SSILL
 62
8
 10
4819.396
 20
-9342.613
 30
-360.018
 70
    32
  0
VERTEX
  8
T56SSILL
 62
8
 10
4826.990
 20
-9345.298
 30
-360.025
 70
    32
  0
VERTEX
  8
T56SSILL
 62
8
 10
4834.153
 20
-9355.655
 30
-360.030
 70
    32
  0
VERTEX
  8
T56SSILL
 62
8
 10
4845.607
 20
-9356.891
 30
-360.041
 70
    32
  0
VERTEX
  8
T56SSILL
 62
8
 10
4848.866
 20
-9361.268
 30
-360.043
 70
    32
  0
VERTEX
  8
T56SSILL
 62
8
 10
4848.908
 20
-9364.419
 30
-360.043
 70
    32
  0
VERTEX
  8
T56SSILL
 62
8
 10
4853.832
 20
-9368.766
 30
-360.047
 70
    32
  0
SEQEND
  8
T56SSILL
  0
POLYLINE
  8
T56SSILL
 62
8
 66
     1
 70
     9
  0
VERTEX
  8
T56SSILL
 62
8
 10
5719.559
 20
-9948.832
 30
-360.784
 70
    32
  0
VERTEX
  8
T56SSILL
 62
8
 10
5716.000
 20
-9950.559
 30
-360.780
 70
    32
  0
VERTEX
  8
T56SSILL
 62
8
 10
5717.319
 20
-9960.976
 30
-360.780
 70
    32
  0
VERTEX
  8
T56SSILL
 62
8
 10
5721.881
 20
-9969.688
 30
-360.783
 70
    32
  0
VERTEX
  8
T56SSILL
 62
8
 10
5744.324
 20
-9983.349
 30
-360.799
 70
    32
  0
VERTEX
  8
T56SSILL
 62
8
 10
5748.522
 20
-9982.021
 30
-360.798
 70
    32
  0
VERTEX
  8
T56SSILL
 62
8
 10
5731.389
 20
-9940.662
 30
-360.796
 70
    32
  0
VERTEX
  8
T56SSILL
 62
8
 10
5718.889
 20
-9943.464
 30
-360.784
 70
    32
  0
SEQEND
  8
T56SSILL
  0
POLYLINE
  8
T56SSILL
 62
8
 66
     1
 70
     9
  0
VERTEX
  8
T56SSILL
 62
8
 10
5707.778
 20
-9894.610
 30
-360.817
 70
    32
  0
VERTEX
  8
T56SSILL
 62
8
 10
5705.394
 20
-9899.321
 30
-360.806
 70
    32
  0
VERTEX
  8
T56SSILL
 62
8
 10
5712.174
 20
-9934.404
 30
-360.779
 70
    32
  0
VERTEX
  8
T56SSILL
 62
8
 10
5718.696
 20
-9936.401
 30
-360.784
 70
    32
  0
VERTEX
  8
T56SSILL
 62
8
 10
5729.191
 20
-9934.024
 30
-360.797
 70
    32
  0
VERTEX
  8
T56SSILL
 62
8
 10
5723.881
 20
-9921.003
 30
-360.807
 70
    32
  0
VERTEX
  8
T56SSILL
 62
8
 10
5720.604
 20
-9892.668
 30
-360.844
 70
    32
  0
SEQEND
  8
T56SSILL
  0
POLYLINE
  8
T56SSILL
 62
8
 66
     1
 70
     9
  0
VERTEX
  8
T56SSILL
 62
8
 10
5689.977
 20
-9803.835
 30
-360.948
 70
    32
  0
VERTEX
  8
T56SSILL
 62
8
 10
5689.261
 20
-9816.810
 30
-360.901
 70
    32
  0
VERTEX
  8
T56SSILL
 62
8
 10
5695.457
 20
-9851.565
 30
-360.860
 70
    32
  0
VERTEX
  8
T56SSILL
 62
8
 10
5700.466
 20
-9857.382
 30
-360.860
 70
    32
  0
VERTEX
  8
T56SSILL
 62
8
 10
5717.761
 20
-9854.902
 30
-360.896
 70
    32
  0
VERTEX
  8
T56SSILL
 62
8
 10
5709.825
 20
-9774.548
 30
-361.106
 70
    32
  0
VERTEX
  8
T56SSILL
 62
8
 10
5691.765
 20
-9799.360
 30
-360.968
 70
    32
  0
SEQEND
  8
T56SSILL
  0
POLYLINE
  8
T56SSILL
 62
8
 66
     1
 70
     9
  0
VERTEX
  8
T56SSILL
 62
8
 10
5710.798
 20
-9642.215
 30
-361.276
 70
    32
  0
VERTEX
  8
T56SSILL
 62
8
 10
5703.875
 20
-9656.503
 30
-361.309
 70
    32
  0
VERTEX
  8
T56SSILL
 62
8
 10
5706.300
 20
-9677.058
 30
-361.281
 70
    32
  0
VERTEX
  8
T56SSILL
 62
8
 10
5715.666
 20
-9686.973
 30
-361.243
 70
    32
  0
VERTEX
  8
T56SSILL
 62
8
 10
5715.035
 20
-9690.785
 30
-361.239
 70
    32
  0
VERTEX
  8
T56SSILL
 62
8
 10
5721.907
 20
-9694.399
 30
-361.216
 70
    32
  0
VERTEX
  8
T56SSILL
 62
8
 10
5719.047
 20
-9702.691
 30
-361.211
 70
    32
  0
VERTEX
  8
T56SSILL
 62
8
 10
5712.913
 20
-9700.620
 30
-361.230
 70
    32
  0
VERTEX
  8
T56SSILL
 62
8
 10
5708.682
 20
-9702.195
 30
-361.238
 70
    32
  0
VERTEX
  8
T56SSILL
 62
8
 10
5711.839
 20
-9729.069
 30
-361.190
 70
    32
  0
VERTEX
  8
T56SSILL
 62
8
 10
5721.941
 20
-9736.756
 30
-361.153
 70
    32
  0
VERTEX
  8
T56SSILL
 62
8
 10
5723.506
 20
-9745.321
 30
-361.137
 70
    32
  0
VERTEX
  8
T56SSILL
 62
8
 10
5713.095
 20
-9750.852
 30
-361.155
 70
    32
  0
VERTEX
  8
T56SSILL
 62
8
 10
5728.202
 20
-9898.389
 30
-360.849
 70
    32
  0
VERTEX
  8
T56SSILL
 62
8
 10
5737.120
 20
-9895.111
 30
-360.839
 70
    32
  0
VERTEX
  8
T56SSILL
 62
8
 10
5753.643
 20
-9894.665
 30
-360.810
 70
    32
  0
VERTEX
  8
T56SSILL
 62
8
 10
5822.876
 20
-9844.567
 30
-360.742
 70
    32
  0
VERTEX
  8
T56SSILL
 62
8
 10
5819.950
 20
-9815.492
 30
-360.764
 70
    32
  0
VERTEX
  8
T56SSILL
 62
8
 10
5823.920
 20
-9778.944
 30
-360.791
 70
    32
  0
VERTEX
  8
T56SSILL
 62
8
 10
5829.869
 20
-9772.947
 30
-360.786
 70
    32
  0
VERTEX
  8
T56SSILL
 62
8
 10
5824.038
 20
-9680.996
 30
-360.926
 70
    32
  0
VERTEX
  8
T56SSILL
 62
8
 10
5766.867
 20
-9601.836
 30
-361.073
 70
    32
  0
VERTEX
  8
T56SSILL
 62
8
 10
5713.324
 20
-9639.282
 30
-361.260
 70
    32
  0
SEQEND
  8
T56SSILL
  0
POLYLINE
  8
T56SSILL
 62
8
 66
     1
 70
     9
  0
VERTEX
  8
T56SSILL
 62
8
 10
5840.497
 20
-9785.669
 30
-360.755
 70
    32
  0
VERTEX
  8
T56SSILL
 62
8
 10
5847.971
 20
-9810.790
 30
-360.722
 70
    32
  0
VERTEX
  8
T56SSILL
 62
8
 10
5856.001
 20
-9808.525
 30
-360.720
 70
    32
  0
VERTEX
  8
T56SSILL
 62
8
 10
5862.506
 20
-9815.891
 30
-360.722
 70
    32
  0
VERTEX
  8
T56SSILL
 62
8
 10
5890.792
 20
-9795.422
 30
-360.708
 70
    32
  0
VERTEX
  8
T56SSILL
 62
8
 10
5893.807
 20
-9777.914
 30
-360.699
 70
    32
  0
VERTEX
  8
T56SSILL
 62
8
 10
5832.220
 20
-9692.261
 30
-360.915
 70
    32
  0
VERTEX
  8
T56SSILL
 62
8
 10
5837.325
 20
-9782.106
 30
-360.764
 70
    32
  0
VERTEX
  8
T56SSILL
 62
8
 10
5838.788
 20
-9783.871
 30
-360.760
 70
    32
  0
SEQEND
  8
T56SSILL
  0
POLYLINE
  8
T56SSILL
 62
8
 66
     1
 70
     9
  0
VERTEX
  8
T56SSILL
 62
8
 10
6460.942
 20
-7898.743
 30
-361.084
 70
    32
  0
VERTEX
  8
T56SSILL
 62
8
 10
6371.642
 20
-7963.530
 30
-361.071
 70
    32
  0
VERTEX
  8
T56SSILL
 62
8
 10
6391.357
 20
-7836.608
 30
-361.099
 70
    32
  0
VERTEX
  8
T56SSILL
 62
8
 10
6398.586
 20
-7826.681
 30
-361.101
 70
    32
  0
VERTEX
  8
T56SSILL
 62
8
 10
6501.321
 20
-7753.828
 30
-361.116
 70
    32
  0
VERTEX
  8
T56SSILL
 62
8
 10
6527.504
 20
-7753.905
 30
-361.115
 70
    32
  0
VERTEX
  8
T56SSILL
 62
8
 10
6555.274
 20
-7792.530
 30
-361.107
 70
    32
  0
VERTEX
  8
T56SSILL
 62
8
 10
6551.170
 20
-7809.118
 30
-361.103
 70
    32
  0
VERTEX
  8
T56SSILL
 62
8
 10
6545.947
 20
-7810.458
 30
-361.103
 70
    32
  0
VERTEX
  8
T56SSILL
 62
8
 10
6544.159
 20
-7815.095
 30
-361.102
 70
    32
  0
VERTEX
  8
T56SSILL
 62
8
 10
6549.061
 20
-7818.319
 30
-361.101
 70
    32
  0
VERTEX
  8
T56SSILL
 62
8
 10
6551.888
 20
-7822.714
 30
-361.100
 70
    32
  0
VERTEX
  8
T56SSILL
 62
8
 10
6551.689
 20
-7833.249
 30
-361.098
 70
    32
  0
VERTEX
  8
T56SSILL
 62
8
 10
6506.824
 20
-7865.037
 30
-361.091
 70
    32
  0
VERTEX
  8
T56SSILL
 62
8
 10
6502.492
 20
-7835.712
 30
-361.098
 70
    32
  0
VERTEX
  8
T56SSILL
 62
8
 10
6497.456
 20
-7832.908
 30
-361.098
 70
    32
  0
VERTEX
  8
T56SSILL
 62
8
 10
6492.280
 20
-7824.892
 30
-361.100
 70
    32
  0
VERTEX
  8
T56SSILL
 62
8
 10
6485.542
 20
-7820.158
 30
-361.101
 70
    32
  0
VERTEX
  8
T56SSILL
 62
8
 10
6464.818
 20
-7818.462
 30
-361.102
 70
    32
  0
VERTEX
  8
T56SSILL
 62
8
 10
6453.886
 20
-7826.694
 30
-361.100
 70
    32
  0
VERTEX
  8
T56SSILL
 62
8
 10
6448.636
 20
-7856.567
 30
-361.094
 70
    32
  0
VERTEX
  8
T56SSILL
 62
8
 10
6449.250
 20
-7874.451
 30
-361.090
 70
    32
  0
VERTEX
  8
T56SSILL
 62
8
 10
6456.667
 20
-7892.902
 30
-361.086
 70
    32
  0
SEQEND
  8
T56SSILL
  0
POLYLINE
  8
T56SSILL
 62
8
 66
     1
 70
     9
  0
VERTEX
  8
T56SSILL
 62
8
 10
439.449
 20
-5483.907
 30
-347.927
 70
    32
  0
VERTEX
  8
T56SSILL
 62
8
 10
437.567
 20
-5486.934
 30
-347.929
 70
    32
  0
VERTEX
  8
T56SSILL
 62
8
 10
447.824
 20
-5500.477
 30
-347.935
 70
    32
  0
VERTEX
  8
T56SSILL
 62
8
 10
457.451
 20
-5510.475
 30
-347.939
 70
    32
  0
VERTEX
  8
T56SSILL
 62
8
 10
463.526
 20
-5514.115
 30
-347.939
 70
    32
  0
VERTEX
  8
T56SSILL
 62
8
 10
465.315
 20
-5514.057
 30
-347.938
 70
    32
  0
VERTEX
  8
T56SSILL
 62
8
 10
468.664
 20
-5508.183
 30
-347.933
 70
    32
  0
VERTEX
  8
T56SSILL
 62
8
 10
457.444
 20
-5492.942
 30
-347.927
 70
    32
  0
VERTEX
  8
T56SSILL
 62
8
 10
447.104
 20
-5485.482
 30
-347.925
 70
    32
  0
VERTEX
  8
T56SSILL
 62
8
 10
441.272
 20
-5484.364
 30
-347.926
 70
    32
  0
SEQEND
  8
T56SSILL
  0
POLYLINE
  8
T56SSILL
 62
8
 66
     1
 70
     9
  0
VERTEX
  8
T56SSILL
 62
8
 10
510.937
 20
-5574.077
 30
-347.964
 70
    32
  0
VERTEX
  8
T56SSILL
 62
8
 10
493.672
 20
-5574.005
 30
-347.969
 70
    32
  0
VERTEX
  8
T56SSILL
 62
8
 10
478.170
 20
-5581.748
 30
-347.980
 70
    32
  0
VERTEX
  8
T56SSILL
 62
8
 10
474.986
 20
-5579.330
 30
-347.979
 70
    32
  0
VERTEX
  8
T56SSILL
 62
8
 10
475.004
 20
-5575.013
 30
-347.976
 70
    32
  0
VERTEX
  8
T56SSILL
 62
8
 10
483.238
 20
-5550.902
 30
-347.957
 70
    32
  0
VERTEX
  8
T56SSILL
 62
8
 10
488.372
 20
-5540.777
 30
-347.949
 70
    32
  0
VERTEX
  8
T56SSILL
 62
8
 10
494.145
 20
-5549.253
 30
-347.953
 70
    32
  0
VERTEX
  8
T56SSILL
 62
8
 10
490.010
 20
-5552.444
 30
-347.956
 70
    32
  0
VERTEX
  8
T56SSILL
 62
8
 10
493.863
 20
-5557.841
 30
-347.958
 70
    32
  0
VERTEX
  8
T56SSILL
 62
8
 10
498.356
 20
-5555.477
 30
-347.955
 70
    32
  0
SEQEND
  8
T56SSILL
  0
POLYLINE
  8
T56SSILL
 62
8
 66
     1
 70
     9
  0
VERTEX
  8
T56SSILL
 62
8
 10
907.401
 20
-6670.045
 30
-350.065
 70
    32
  0
VERTEX
  8
T56SSILL
 62
8
 10
886.218
 20
-6661.783
 30
-350.082
 70
    32
  0
VERTEX
  8
T56SSILL
 62
8
 10
905.087
 20
-6732.519
 30
-350.496
 70
    32
  0
VERTEX
  8
T56SSILL
 62
8
 10
909.304
 20
-6734.510
 30
-350.495
 70
    32
  0
VERTEX
  8
T56SSILL
 62
8
 10
908.087
 20
-6743.798
 30
-350.562
 70
    32
  0
VERTEX
  8
T56SSILL
 62
8
 10
932.404
 20
-6832.946
 30
-351.083
 70
    32
  0
VERTEX
  8
T56SSILL
 62
8
 10
939.163
 20
-6839.299
 30
-351.102
 70
    32
  0
VERTEX
  8
T56SSILL
 62
8
 10
935.986
 20
-6844.895
 30
-351.151
 70
    32
  0
VERTEX
  8
T56SSILL
 62
8
 10
941.536
 20
-6865.286
 30
-351.270
 70
    32
  0
VERTEX
  8
T56SSILL
 62
8
 10
949.765
 20
-6877.084
 30
-351.322
 70
    32
  0
VERTEX
  8
T56SSILL
 62
8
 10
965.908
 20
-6888.152
 30
-351.341
 70
    32
  0
VERTEX
  8
T56SSILL
 62
8
 10
970.773
 20
-6889.685
 30
-351.335
 70
    32
  0
VERTEX
  8
T56SSILL
 62
8
 10
984.186
 20
-6878.693
 30
-351.214
 70
    32
  0
VERTEX
  8
T56SSILL
 62
8
 10
978.294
 20
-6824.179
 30
-350.865
 70
    32
  0
VERTEX
  8
T56SSILL
 62
8
 10
913.379
 20
-6719.635
 30
-350.380
 70
    32
  0
VERTEX
  8
T56SSILL
 62
8
 10
926.113
 20
-6678.325
 30
-350.056
 70
    32
  0
VERTEX
  8
T56SSILL
 62
8
 10
920.348
 20
-6676.132
 30
-350.062
 70
    32
  0
SEQEND
  8
T56SSILL
  0
POLYLINE
  8
T56SSILL
 62
8
 66
     1
 70
     9
  0
VERTEX
  8
T56SSILL
 62
8
 10
948.587
 20
-6893.153
 30
-351.435
 70
    32
  0
VERTEX
  8
T56SSILL
 62
8
 10
955.940
 20
-6891.631
 30
-351.399
 70
    32
  0
VERTEX
  8
T56SSILL
 62
8
 10
967.711
 20
-6896.820
 30
-351.394
 70
    32
  0
VERTEX
  8
T56SSILL
 62
8
 10
974.480
 20
-6897.223
 30
-351.373
 70
    32
  0
VERTEX
  8
T56SSILL
 62
8
 10
987.381
 20
-6912.419
 30
-351.431
 70
    32
  0
VERTEX
  8
T56SSILL
 62
8
 10
991.217
 20
-6947.205
 30
-351.654
 70
    32
  0
VERTEX
  8
T56SSILL
 62
8
 10
985.956
 20
-6957.192
 30
-351.740
 70
    32
  0
VERTEX
  8
T56SSILL
 62
8
 10
992.129
 20
-6961.798
 30
-351.750
 70
    32
  0
VERTEX
  8
T56SSILL
 62
8
 10
994.779
 20
-6961.114
 30
-351.736
 70
    32
  0
VERTEX
  8
T56SSILL
 62
8
 10
1025.849
 20
-7031.224
 30
-352.104
 70
    32
  0
VERTEX
  8
T56SSILL
 62
8
 10
1017.483
 20
-7034.219
 30
-352.153
 70
    32
  0
VERTEX
  8
T56SSILL
 62
8
 10
1009.073
 20
-7040.055
 30
-352.222
 70
    32
  0
VERTEX
  8
T56SSILL
 62
8
 10
982.786
 20
-7022.431
 30
-352.193
 70
    32
  0
VERTEX
  8
T56SSILL
 62
8
 10
962.675
 20
-6945.657
 30
-351.742
 70
    32
  0
VERTEX
  8
T56SSILL
 62
8
 10
965.589
 20
-6939.383
 30
-351.689
 70
    32
  0
VERTEX
  8
T56SSILL
 62
8
 10
958.794
 20
-6929.921
 30
-351.649
 70
    32
  0
SEQEND
  8
T56SSILL
  0
POLYLINE
  8
T56SSILL
 62
8
 66
     1
 70
     9
  0
VERTEX
  8
T56SSILL
 62
8
 10
995.366
 20
-6889.162
 30
-351.246
 70
    32
  0
VERTEX
  8
T56SSILL
 62
8
 10
1020.040
 20
-6882.638
 30
-351.117
 70
    32
  0
VERTEX
  8
T56SSILL
 62
8
 10
1030.551
 20
-6855.003
 30
-350.817
 70
    32
  0
VERTEX
  8
T56SSILL
 62
8
 10
1028.904
 20
-6843.956
 30
-350.759
 70
    32
  0
VERTEX
  8
T56SSILL
 62
8
 10
1022.784
 20
-6844.931
 30
-350.851
 70
    32
  0
VERTEX
  8
T56SSILL
 62
8
 10
997.862
 20
-6870.216
 30
-351.109
 70
    32
  0
VERTEX
  8
T56SSILL
 62
8
 10
993.243
 20
-6876.831
 30
-351.170
 70
    32
  0
SEQEND
  8
T56SSILL
  0
POLYLINE
  8
T56SSILL
 62
8
 66
     1
 70
     9
  0
VERTEX
  8
T56SSILL
 62
8
 10
991.516
 20
-6859.249
 30
-351.057
 70
    32
  0
VERTEX
  8
T56SSILL
 62
8
 10
1024.594
 20
-6827.767
 30
-350.701
 70
    32
  0
VERTEX
  8
T56SSILL
 62
8
 10
1014.999
 20
-6777.492
 30
-350.422
 70
    32
  0
VERTEX
  8
T56SSILL
 62
8
 10
984.399
 20
-6730.066
 30
-350.206
 70
    32
  0
VERTEX
  8
T56SSILL
 62
8
 10
962.379
 20
-6743.250
 30
-350.371
 70
    32
  0
VERTEX
  8
T56SSILL
 62
8
 10
955.171
 20
-6768.984
 30
-350.571
 70
    32
  0
VERTEX
  8
T56SSILL
 62
8
 10
987.405
 20
-6819.793
 30
-350.804
 70
    32
  0
SEQEND
  8
T56SSILL
  0
POLYLINE
  8
T56SSILL
 62
8
 66
     1
 70
     9
  0
VERTEX
  8
T56SSILL
 62
8
 10
1012.315
 20
-6976.600
 30
-351.780
 70
    32
  0
VERTEX
  8
T56SSILL
 62
8
 10
1018.397
 20
-6976.949
 30
-351.762
 70
    32
  0
VERTEX
  8
T56SSILL
 62
8
 10
1040.750
 20
-6944.510
 30
-351.326
 70
    32
  0
VERTEX
  8
T56SSILL
 62
8
 10
1044.402
 20
-6930.259
 30
-351.172
 70
    32
  0
VERTEX
  8
T56SSILL
 62
8
 10
1040.640
 20
-6907.199
 30
-351.057
 70
    32
  0
VERTEX
  8
T56SSILL
 62
8
 10
1036.490
 20
-6904.080
 30
-351.091
 70
    32
  0
VERTEX
  8
T56SSILL
 62
8
 10
1029.981
 20
-6905.114
 30
-351.189
 70
    32
  0
VERTEX
  8
T56SSILL
 62
8
 10
1009.715
 20
-6936.835
 30
-351.520
 70
    32
  0
VERTEX
  8
T56SSILL
 62
8
 10
1011.819
 20
-6946.694
 30
-351.579
 70
    32
  0
VERTEX
  8
T56SSILL
 62
8
 10
1009.131
 20
-6954.969
 30
-351.645
 70
    32
  0
VERTEX
  8
T56SSILL
 62
8
 10
1005.193
 20
-6958.724
 30
-351.684
 70
    32
  0
SEQEND
  8
T56SSILL
  0
POLYLINE
  8
T56SSILL
 62
8
 66
     1
 70
     9
  0
VERTEX
  8
T56SSILL
 62
8
 10
1031.352
 20
-7020.203
 30
-352.006
 70
    32
  0
VERTEX
  8
T56SSILL
 62
8
 10
1039.717
 20
-7017.209
 30
-351.869
 70
    32
  0
VERTEX
  8
T56SSILL
 62
8
 10
1055.151
 20
-6981.555
 30
-351.396
 70
    32
  0
VERTEX
  8
T56SSILL
 62
8
 10
1050.631
 20
-6960.328
 30
-351.305
 70
    32
  0
VERTEX
  8
T56SSILL
 62
8
 10
1042.929
 20
-6957.991
 30
-351.394
 70
    32
  0
VERTEX
  8
T56SSILL
 62
8
 10
1030.533
 20
-6974.855
 30
-351.688
 70
    32
  0
VERTEX
  8
T56SSILL
 62
8
 10
1021.501
 20
-6998.313
 30
-351.896
 70
    32
  0
VERTEX
  8
T56SSILL
 62
8
 10
1030.949
 20
-7019.308
 30
-352.005
 70
    32
  0
SEQEND
  8
T56SSILL
  0
POLYLINE
  8
T56SSILL
 62
8
 66
     1
 70
     9
  0
VERTEX
  8
T56SSILL
 62
8
 10
1056.536
 20
-7198.501
 30
-352.954
 70
    32
  0
VERTEX
  8
T56SSILL
 62
8
 10
1067.146
 20
-7202.083
 30
-352.833
 70
    32
  0
VERTEX
  8
T56SSILL
 62
8
 10
1057.740
 20
-7225.781
 30
-353.136
 70
    32
  0
VERTEX
  8
T56SSILL
 62
8
 10
1059.184
 20
-7229.309
 30
-353.141
 70
    32
  0
VERTEX
  8
T56SSILL
 62
8
 10
1071.181
 20
-7228.310
 30
-352.968
 70
    32
  0
VERTEX
  8
T56SSILL
 62
8
 10
1106.284
 20
-7202.262
 30
-352.293
 70
    32
  0
VERTEX
  8
T56SSILL
 62
8
 10
1109.544
 20
-7184.386
 30
-352.118
 70
    32
  0
VERTEX
  8
T56SSILL
 62
8
 10
1107.060
 20
-7174.106
 30
-352.078
 70
    32
  0
VERTEX
  8
T56SSILL
 62
8
 10
1103.868
 20
-7168.898
 30
-352.084
 70
    32
  0
VERTEX
  8
T56SSILL
 62
8
 10
1095.873
 20
-7164.418
 30
-352.162
 70
    32
  0
VERTEX
  8
T56SSILL
 62
8
 10
1081.472
 20
-7143.128
 30
-352.207
 70
    32
  0
VERTEX
  8
T56SSILL
 62
8
 10
1083.087
 20
-7134.472
 30
-352.121
 70
    32
  0
VERTEX
  8
T56SSILL
 62
8
 10
1048.597
 20
-7076.085
 30
-352.174
 70
    32
  0
VERTEX
  8
T56SSILL
 62
8
 10
986.949
 20
-7033.918
 30
-352.256
 70
    32
  0
VERTEX
  8
T56SSILL
 62
8
 10
1035.251
 20
-7210.182
 30
-353.284
 70
    32
  0
VERTEX
  8
T56SSILL
 62
8
 10
1040.762
 20
-7220.138
 30
-353.329
 70
    32
  0
VERTEX
  8
T56SSILL
 62
8
 10
1045.038
 20
-7223.373
 30
-353.294
 70
    32
  0
VERTEX
  8
T56SSILL
 62
8
 10
1047.902
 20
-7223.275
 30
-353.253
 70
    32
  0
SEQEND
  8
T56SSILL
  0
POLYLINE
  8
T56SSILL
 62
8
 66
     1
 70
     9
  0
VERTEX
  8
T56SSILL
 62
8
 10
1062.211
 20
-7072.948
 30
-351.963
 70
    32
  0
VERTEX
  8
T56SSILL
 62
8
 10
1055.849
 20
-7063.169
 30
-351.980
 70
    32
  0
VERTEX
  8
T56SSILL
 62
8
 10
1048.399
 20
-7043.086
 30
-351.937
 70
    32
  0
VERTEX
  8
T56SSILL
 62
8
 10
1048.977
 20
-7024.199
 30
-351.792
 70
    32
  0
VERTEX
  8
T56SSILL
 62
8
 10
1056.808
 20
-7003.152
 30
-351.530
 70
    32
  0
VERTEX
  8
T56SSILL
 62
8
 10
1069.502
 20
-7001.762
 30
-351.345
 70
    32
  0
VERTEX
  8
T56SSILL
 62
8
 10
1077.524
 20
-7014.915
 30
-351.329
 70
    32
  0
VERTEX
  8
T56SSILL
 62
8
 10
1079.365
 20
-7022.178
 30
-351.357
 70
    32
  0
VERTEX
  8
T56SSILL
 62
8
 10
1079.030
 20
-7028.830
 30
-351.410
 70
    32
  0
SEQEND
  8
T56SSILL
  0
POLYLINE
  8
T56SSILL
 62
8
 66
     1
 70
     9
  0
VERTEX
  8
T56SSILL
 62
8
 10
1247.232
 20
-7742.334
 30
-354.507
 70
    32
  0
VERTEX
  8
T56SSILL
 62
8
 10
1249.999
 20
-7751.079
 30
-354.623
 70
    32
  0
VERTEX
  8
T56SSILL
 62
8
 10
1250.630
 20
-7777.607
 30
-355.097
 70
    32
  0
VERTEX
  8
T56SSILL
 62
8
 10
1255.632
 20
-7799.894
 30
-355.407
 70
    32
  0
VERTEX
  8
T56SSILL
 62
8
 10
1255.773
 20
-7805.189
 30
-355.525
 70
    32
  0
VERTEX
  8
T56SSILL
 62
8
 10
1253.727
 20
-7809.208
 30
-355.638
 70
    32
  0
VERTEX
  8
T56SSILL
 62
8
 10
1244.235
 20
-7802.572
 30
-355.631
 70
    32
  0
VERTEX
  8
T56SSILL
 62
8
 10
1237.539
 20
-7779.096
 30
-355.376
 70
    32
  0
VERTEX
  8
T56SSILL
 62
8
 10
1238.064
 20
-7765.029
 30
-355.104
 70
    32
  0
VERTEX
  8
T56SSILL
 62
8
 10
1242.199
 20
-7757.825
 30
-354.892
 70
    32
  0
VERTEX
  8
T56SSILL
 62
8
 10
1243.296
 20
-7745.192
 30
-354.632
 70
    32
  0
VERTEX
  8
T56SSILL
 62
8
 10
1244.833
 20
-7743.686
 30
-354.576
 70
    32
  0
SEQEND
  8
T56SSILL
  0
POLYLINE
  8
T56SSILL
 62
8
 66
     1
 70
     9
  0
VERTEX
  8
T56SSILL
 62
8
 10
1304.661
 20
-7797.347
 30
-354.829
 70
    32
  0
VERTEX
  8
T56SSILL
 62
8
 10
1255.732
 20
-7711.583
 30
-353.769
 70
    32
  0
VERTEX
  8
T56SSILL
 62
8
 10
1250.854
 20
-7714.020
 30
-353.903
 70
    32
  0
VERTEX
  8
T56SSILL
 62
8
 10
1249.744
 20
-7717.061
 30
-353.981
 70
    32
  0
VERTEX
  8
T56SSILL
 62
8
 10
1250.617
 20
-7721.090
 30
-354.042
 70
    32
  0
VERTEX
  8
T56SSILL
 62
8
 10
1255.967
 20
-7734.611
 30
-354.202
 70
    32
  0
VERTEX
  8
T56SSILL
 62
8
 10
1264.293
 20
-7749.613
 30
-354.336
 70
    32
  0
VERTEX
  8
T56SSILL
 62
8
 10
1264.497
 20
-7765.651
 30
-354.631
 70
    32
  0
VERTEX
  8
T56SSILL
 62
8
 10
1269.670
 20
-7774.442
 30
-354.682
 70
    32
  0
VERTEX
  8
T56SSILL
 62
8
 10
1277.975
 20
-7778.455
 30
-354.685
 70
    32
  0
VERTEX
  8
T56SSILL
 62
8
 10
1285.228
 20
-7794.854
 30
-354.979
 70
    32
  0
VERTEX
  8
T56SSILL
 62
8
 10
1268.551
 20
-7805.105
 30
-355.388
 70
    32
  0
VERTEX
  8
T56SSILL
 62
8
 10
1271.322
 20
-7809.533
 30
-355.459
 70
    32
  0
VERTEX
  8
T56SSILL
 62
8
 10
1282.076
 20
-7805.471
 30
-355.253
 70
    32
  0
VERTEX
  8
T56SSILL
 62
8
 10
1289.550
 20
-7807.367
 30
-355.216
 70
    32
  0
SEQEND
  8
T56SSILL
  0
POLYLINE
  8
T56SSILL
 62
8
 66
     1
 70
     9
  0
VERTEX
  8
T56SSILL
 62
8
 10
630.031
 20
-5828.405
 30
-348.134
 70
    32
  0
VERTEX
  8
T56SSILL
 62
8
 10
611.614
 20
-5841.184
 30
-348.145
 70
    32
  0
VERTEX
  8
T56SSILL
 62
8
 10
605.833
 20
-5839.536
 30
-348.144
 70
    32
  0
VERTEX
  8
T56SSILL
 62
8
 10
568.397
 20
-5766.147
 30
-348.090
 70
    32
  0
VERTEX
  8
T56SSILL
 62
8
 10
566.271
 20
-5758.541
 30
-348.084
 70
    32
  0
VERTEX
  8
T56SSILL
 62
8
 10
566.970
 20
-5754.991
 30
-348.081
 70
    32
  0
VERTEX
  8
T56SSILL
 62
8
 10
568.162
 20
-5752.491
 30
-348.079
 70
    32
  0
VERTEX
  8
T56SSILL
 62
8
 10
576.028
 20
-5747.108
 30
-348.074
 70
    32
  0
VERTEX
  8
T56SSILL
 62
8
 10
591.111
 20
-5740.922
 30
-348.068
 70
    32
  0
VERTEX
  8
T56SSILL
 62
8
 10
605.553
 20
-5741.860
 30
-348.067
 70
    32
  0
VERTEX
  8
T56SSILL
 62
8
 10
620.278
 20
-5747.496
 30
-348.071
 70
    32
  0
VERTEX
  8
T56SSILL
 62
8
 10
629.649
 20
-5754.811
 30
-348.076
 70
    32
  0
VERTEX
  8
T56SSILL
 62
8
 10
644.213
 20
-5806.778
 30
-348.115
 70
    32
  0
VERTEX
  8
T56SSILL
 62
8
 10
639.932
 20
-5816.432
 30
-348.123
 70
    32
  0
VERTEX
  8
T56SSILL
 62
8
 10
641.075
 20
-5822.017
 30
-348.128
 70
    32
  0
VERTEX
  8
T56SSILL
 62
8
 10
637.760
 20
-5824.202
 30
-348.130
 70
    32
  0
SEQEND
  8
T56SSILL
  0
POLYLINE
  8
T56SSILL
 62
8
 66
     1
 70
     9
  0
VERTEX
  8
T56SSILL
 62
8
 10
1131.254
 20
-7705.668
 30
-355.160
 70
    32
  0
VERTEX
  8
T56SSILL
 62
8
 10
1139.218
 20
-7686.965
 30
-354.397
 70
    32
  0
VERTEX
  8
T56SSILL
 62
8
 10
1146.260
 20
-7674.890
 30
-353.888
 70
    32
  0
VERTEX
  8
T56SSILL
 62
8
 10
1154.106
 20
-7672.941
 30
-353.745
 70
    32
  0
VERTEX
  8
T56SSILL
 62
8
 10
1179.463
 20
-7760.977
 30
-355.893
 70
    32
  0
VERTEX
  8
T56SSILL
 62
8
 10
1178.710
 20
-7770.734
 30
-356.118
 70
    32
  0
VERTEX
  8
T56SSILL
 62
8
 10
1191.322
 20
-7816.172
 30
-356.613
 70
    32
  0
VERTEX
  8
T56SSILL
 62
8
 10
1188.921
 20
-7822.503
 30
-356.442
 70
    32
  0
VERTEX
  8
T56SSILL
 62
8
 10
1185.235
 20
-7821.691
 30
-356.252
 70
    32
  0
VERTEX
  8
T56SSILL
 62
8
 10
1163.289
 20
-7810.796
 30
-355.187
 70
    32
  0
VERTEX
  8
T56SSILL
 62
8
 10
1160.886
 20
-7807.399
 30
-355.145
 70
    32
  0
VERTEX
  8
T56SSILL
 62
8
 10
1153.785
 20
-7789.339
 30
-355.192
 70
    32
  0
VERTEX
  8
T56SSILL
 62
8
 10
1131.955
 20
-7711.686
 30
-355.376
 70
    32
  0
SEQEND
  8
T56SSILL
  0
POLYLINE
  8
T56SSILL
 62
8
 66
     1
 70
     9
  0
VERTEX
  8
T56SSILL
 62
8
 10
1204.122
 20
-7801.055
 30
-356.387
 70
    32
  0
VERTEX
  8
T56SSILL
 62
8
 10
1201.112
 20
-7800.666
 30
-356.440
 70
    32
  0
VERTEX
  8
T56SSILL
 62
8
 10
1198.601
 20
-7803.176
 30
-356.530
 70
    32
  0
VERTEX
  8
T56SSILL
 62
8
 10
1212.974
 20
-7856.862
 30
-357.148
 70
    32
  0
VERTEX
  8
T56SSILL
 62
8
 10
1220.533
 20
-7857.795
 30
-357.089
 70
    32
  0
VERTEX
  8
T56SSILL
 62
8
 10
1263.261
 20
-7826.710
 30
-355.933
 70
    32
  0
VERTEX
  8
T56SSILL
 62
8
 10
1256.960
 20
-7824.640
 30
-355.953
 70
    32
  0
VERTEX
  8
T56SSILL
 62
8
 10
1249.925
 20
-7825.996
 30
-356.058
 70
    32
  0
VERTEX
  8
T56SSILL
 62
8
 10
1228.287
 20
-7802.650
 30
-355.943
 70
    32
  0
VERTEX
  8
T56SSILL
 62
8
 10
1222.813
 20
-7803.298
 30
-356.060
 70
    32
  0
SEQEND
  8
T56SSILL
  0
POLYLINE
  8
T56SSILL
 62
8
 66
     1
 70
     9
  0
VERTEX
  8
T56SSILL
 62
8
 10
1191.886
 20
-7776.668
 30
-356.091
 70
    32
  0
VERTEX
  8
T56SSILL
 62
8
 10
1194.302
 20
-7764.893
 30
-355.801
 70
    32
  0
VERTEX
  8
T56SSILL
 62
8
 10
1200.616
 20
-7758.044
 30
-355.574
 70
    32
  0
VERTEX
  8
T56SSILL
 62
8
 10
1232.328
 20
-7737.215
 30
-354.679
 70
    32
  0
VERTEX
  8
T56SSILL
 62
8
 10
1229.539
 20
-7727.513
 30
-354.546
 70
    32
  0
VERTEX
  8
T56SSILL
 62
8
 10
1232.423
 20
-7727.008
 30
-354.484
 70
    32
  0
VERTEX
  8
T56SSILL
 62
8
 10
1234.702
 20
-7730.270
 30
-354.505
 70
    32
  0
VERTEX
  8
T56SSILL
 62
8
 10
1224.978
 20
-7770.075
 30
-355.437
 70
    32
  0
VERTEX
  8
T56SSILL
 62
8
 10
1226.026
 20
-7790.656
 30
-355.790
 70
    32
  0
VERTEX
  8
T56SSILL
 62
8
 10
1218.212
 20
-7792.149
 30
-355.967
 70
    32
  0
VERTEX
  8
T56SSILL
 62
8
 10
1208.745
 20
-7791.718
 30
-356.142
 70
    32
  0
VERTEX
  8
T56SSILL
 62
8
 10
1195.003
 20
-7784.238
 30
-356.220
 70
    32
  0
SEQEND
  8
T56SSILL
  0
POLYLINE
  8
T56SSILL
 62
8
 66
     1
 70
     9
  0
VERTEX
  8
T56SSILL
 62
8
 10
1146.135
 20
-7547.200
 30
-351.483
 70
    32
  0
VERTEX
  8
T56SSILL
 62
8
 10
1147.072
 20
-7548.681
 30
-351.461
 70
    32
  0
VERTEX
  8
T56SSILL
 62
8
 10
1155.326
 20
-7544.747
 30
-351.012
 70
    32
  0
VERTEX
  8
T56SSILL
 62
8
 10
1157.533
 20
-7546.979
 30
-350.941
 70
    32
  0
VERTEX
  8
T56SSILL
 62
8
 10
1165.008
 20
-7547.797
 30
-350.599
 70
    32
  0
VERTEX
  8
T56SSILL
 62
8
 10
1167.533
 20
-7552.181
 30
-350.545
 70
    32
  0
VERTEX
  8
T56SSILL
 62
8
 10
1164.361
 20
-7560.763
 30
-350.858
 70
    32
  0
VERTEX
  8
T56SSILL
 62
8
 10
1178.913
 20
-7588.997
 30
-352.223
 70
    32
  0
VERTEX
  8
T56SSILL
 62
8
 10
1197.610
 20
-7606.028
 30
-352.411
 70
    32
  0
VERTEX
  8
T56SSILL
 62
8
 10
1231.043
 20
-7667.454
 30
-353.193
 70
    32
  0
VERTEX
  8
T56SSILL
 62
8
 10
1230.943
 20
-7675.184
 30
-353.292
 70
    32
  0
VERTEX
  8
T56SSILL
 62
8
 10
1223.781
 20
-7689.789
 30
-353.733
 70
    32
  0
VERTEX
  8
T56SSILL
 62
8
 10
1216.297
 20
-7700.845
 30
-354.121
 70
    32
  0
VERTEX
  8
T56SSILL
 62
8
 10
1210.686
 20
-7705.628
 30
-354.294
 70
    32
  0
VERTEX
  8
T56SSILL
 62
8
 10
1213.686
 20
-7722.734
 30
-354.636
 70
    32
  0
VERTEX
  8
T56SSILL
 62
8
 10
1209.833
 20
-7739.450
 30
-355.052
 70
    32
  0
VERTEX
  8
T56SSILL
 62
8
 10
1194.026
 20
-7750.173
 30
-355.479
 70
    32
  0
VERTEX
  8
T56SSILL
 62
8
 10
1188.251
 20
-7757.803
 30
-355.717
 70
    32
  0
VERTEX
  8
T56SSILL
 62
8
 10
1183.929
 20
-7741.933
 30
-355.419
 70
    32
  0
VERTEX
  8
T56SSILL
 62
8
 10
1185.863
 20
-7730.311
 30
-355.139
 70
    32
  0
VERTEX
  8
T56SSILL
 62
8
 10
1191.170
 20
-7716.138
 30
-354.761
 70
    32
  0
VERTEX
  8
T56SSILL
 62
8
 10
1197.676
 20
-7705.227
 30
-354.442
 70
    32
  0
VERTEX
  8
T56SSILL
 62
8
 10
1200.448
 20
-7708.576
 30
-354.483
 70
    32
  0
VERTEX
  8
T56SSILL
 62
8
 10
1206.181
 20
-7704.893
 30
-354.332
 70
    32
  0
VERTEX
  8
T56SSILL
 62
8
 10
1202.616
 20
-7696.705
 30
-354.180
 70
    32
  0
VERTEX
  8
T56SSILL
 62
8
 10
1224.452
 20
-7657.713
 30
-353.069
 70
    32
  0
VERTEX
  8
T56SSILL
 62
8
 10
1223.366
 20
-7656.314
 30
-353.051
 70
    32
  0
VERTEX
  8
T56SSILL
 62
8
 10
1211.189
 20
-7655.870
 30
-353.047
 70
    32
  0
VERTEX
  8
T56SSILL
 62
8
 10
1206.282
 20
-7660.270
 30
-353.104
 70
    32
  0
VERTEX
  8
T56SSILL
 62
8
 10
1195.220
 20
-7624.527
 30
-352.648
 70
    32
  0
VERTEX
  8
T56SSILL
 62
8
 10
1182.325
 20
-7624.908
 30
-352.654
 70
    32
  0
VERTEX
  8
T56SSILL
 62
8
 10
1175.948
 20
-7628.286
 30
-352.698
 70
    32
  0
VERTEX
  8
T56SSILL
 62
8
 10
1169.958
 20
-7635.923
 30
-352.797
 70
    32
  0
VERTEX
  8
T56SSILL
 62
8
 10
1168.261
 20
-7648.005
 30
-352.951
 70
    32
  0
VERTEX
  8
T56SSILL
 62
8
 10
1176.347
 20
-7663.282
 30
-353.186
 70
    32
  0
VERTEX
  8
T56SSILL
 62
8
 10
1175.767
 20
-7664.766
 30
-353.246
 70
    32
  0
VERTEX
  8
T56SSILL
 62
8
 10
1170.724
 20
-7666.349
 30
-353.350
 70
    32
  0
VERTEX
  8
T56SSILL
 62
8
 10
1175.054
 20
-7677.023
 30
-353.705
 70
    32
  0
VERTEX
  8
T56SSILL
 62
8
 10
1176.542
 20
-7692.272
 30
-354.254
 70
    32
  0
VERTEX
  8
T56SSILL
 62
8
 10
1179.949
 20
-7697.766
 30
-354.426
 70
    32
  0
VERTEX
  8
T56SSILL
 62
8
 10
1181.701
 20
-7708.300
 30
-354.702
 70
    32
  0
VERTEX
  8
T56SSILL
 62
8
 10
1180.980
 20
-7713.443
 30
-354.825
 70
    32
  0
VERTEX
  8
T56SSILL
 62
8
 10
1177.469
 20
-7718.228
 30
-354.973
 70
    32
  0
VERTEX
  8
T56SSILL
 62
8
 10
1155.394
 20
-7637.313
 30
-352.838
 70
    32
  0
VERTEX
  8
T56SSILL
 62
8
 10
1150.014
 20
-7627.867
 30
-352.892
 70
    32
  0
VERTEX
  8
T56SSILL
 62
8
 10
1128.317
 20
-7549.166
 30
-352.356
 70
    32
  0
VERTEX
  8
T56SSILL
 62
8
 10
1133.459
 20
-7514.073
 30
-351.591
 70
    32
  0
VERTEX
  8
T56SSILL
 62
8
 10
1137.379
 20
-7512.736
 30
-351.386
 70
    32
  0
VERTEX
  8
T56SSILL
 62
8
 10
1142.284
 20
-7520.527
 30
-351.269
 70
    32
  0
VERTEX
  8
T56SSILL
 62
8
 10
1150.736
 20
-7522.279
 30
-350.895
 70
    32
  0
VERTEX
  8
T56SSILL
 62
8
 10
1155.431
 20
-7530.541
 30
-350.796
 70
    32
  0
VERTEX
  8
T56SSILL
 62
8
 10
1144.896
 20
-7542.774
 30
-351.476
 70
    32
  0
SEQEND
  8
T56SSILL
  0
POLYLINE
  8
T56SSILL
 62
8
 66
     1
 70
     9
  0
VERTEX
  8
T56SSILL
 62
8
 10
4861.405
 20
-9394.613
 30
-360.033
 70
    32
  0
VERTEX
  8
T56SSILL
 62
8
 10
4861.050
 20
-9400.473
 30
-360.009
 70
    32
  0
VERTEX
  8
T56SSILL
 62
8
 10
4866.832
 20
-9408.238
 30
-360.005
 70
    32
  0
VERTEX
  8
T56SSILL
 62
8
 10
4878.056
 20
-9414.913
 30
-360.030
 70
    32
  0
VERTEX
  8
T56SSILL
 62
8
 10
4881.580
 20
-9413.605
 30
-360.051
 70
    32
  0
VERTEX
  8
T56SSILL
 62
8
 10
4875.594
 20
-9399.081
 30
-360.063
 70
    32
  0
VERTEX
  8
T56SSILL
 62
8
 10
4873.253
 20
-9388.864
 30
-360.063
 70
    32
  0
VERTEX
  8
T56SSILL
 62
8
 10
4873.784
 20
-9377.935
 30
-360.065
 70
    32
  0
VERTEX
  8
T56SSILL
 62
8
 10
4878.098
 20
-9362.215
 30
-360.093
 70
    32
  0
VERTEX
  8
T56SSILL
 62
8
 10
4859.414
 20
-9375.139
 30
-360.051
 70
    32
  0
VERTEX
  8
T56SSILL
 62
8
 10
4862.269
 20
-9389.142
 30
-360.052
 70
    32
  0
VERTEX
  8
T56SSILL
 62
8
 10
4861.052
 20
-9389.719
 30
-360.051
 70
    32
  0
VERTEX
  8
T56SSILL
 62
8
 10
4861.221
 20
-9392.008
 30
-360.042
 70
    32
  0
SEQEND
  8
T56SSILL
  0
POLYLINE
  8
T56SSILL
 62
3
 66
     1
 70
     9
  0
VERTEX
  8
T56SSILL
 62
3
 10
401.947
 20
-5684.662
 30
-348.073
 70
    32
  0
VERTEX
  8
T56SSILL
 62
3
 10
411.403
 20
-5674.873
 30
-348.064
 70
    32
  0
VERTEX
  8
T56SSILL
 62
3
 10
432.413
 20
-5706.620
 30
-336.400
 70
    32
  0
VERTEX
  8
T56SSILL
 62
3
 10
424.783
 20
-5716.977
 30
-332.514
 70
    32
  0
SEQEND
  8
T56SSILL
  0
POLYLINE
  8
T56SSILL
 62
3
 66
     1
 70
     9
  0
VERTEX
  8
T56SSILL
 62
3
 10
955.560
 20
-7292.526
 30
-347.544
 70
    32
  0
VERTEX
  8
T56SSILL
 62
3
 10
978.278
 20
-7291.650
 30
-353.493
 70
    32
  0
VERTEX
  8
T56SSILL
 62
3
 10
990.709
 20
-7305.355
 30
-353.605
 70
    32
  0
VERTEX
  8
T56SSILL
 62
3
 10
975.315
 20
-7303.014
 30
-350.294
 70
    32
  0
VERTEX
  8
T56SSILL
 62
3
 10
959.684
 20
-7303.241
 30
-347.421
 70
    32
  0
SEQEND
  8
T56SSILL
  0
POLYLINE
  8
T56SSILL
 62
3
 66
     1
 70
     9
  0
VERTEX
  8
T56SSILL
 62
3
 10
366.864
 20
-5661.390
 30
-348.070
 70
    32
  0
VERTEX
  8
T56SSILL
 62
3
 10
360.308
 20
-5654.265
 30
-351.722
 70
    32
  0
VERTEX
  8
T56SSILL
 62
3
 10
353.688
 20
-5650.217
 30
-353.480
 70
    32
  0
VERTEX
  8
T56SSILL
 62
3
 10
346.032
 20
-5647.402
 30
-354.972
 70
    32
  0
VERTEX
  8
T56SSILL
 62
3
 10
349.018
 20
-5634.908
 30
-354.996
 70
    32
  0
VERTEX
  8
T56SSILL
 62
3
 10
361.130
 20
-5640.805
 30
-352.986
 70
    32
  0
VERTEX
  8
T56SSILL
 62
3
 10
376.252
 20
-5651.811
 30
-348.060
 70
    32
  0
SEQEND
  8
T56SSILL
  0
POLYLINE
  8
T56SSILL
 62
3
 66
     1
 70
     9
  0
VERTEX
  8
T56SSILL
 62
3
 10
1015.831
 20
-7293.545
 30
-353.644
 70
    32
  0
VERTEX
  8
T56SSILL
 62
3
 10
1012.583
 20
-7313.644
 30
-357.522
 70
    32
  0
VERTEX
  8
T56SSILL
 62
3
 10
1023.197
 20
-7314.419
 30
-357.809
 70
    32
  0
VERTEX
  8
T56SSILL
 62
3
 10
1026.961
 20
-7290.126
 30
-353.670
 70
    32
  0
SEQEND
  8
T56SSILL
  0
POLYLINE
  8
T56SSILL
 62
3
 66
     1
 70
     9
  0
VERTEX
  8
T56SSILL
 62
3
 10
1176.445
 20
-7142.376
 30
-350.916
 70
    32
  0
VERTEX
  8
T56SSILL
 62
3
 10
1178.614
 20
-7117.676
 30
-355.471
 70
    32
  0
VERTEX
  8
T56SSILL
 62
3
 10
1189.622
 20
-7114.996
 30
-355.659
 70
    32
  0
VERTEX
  8
T56SSILL
 62
3
 10
1190.462
 20
-7119.500
 30
-355.538
 70
    32
  0
VERTEX
  8
T56SSILL
 62
3
 10
1188.199
 20
-7132.858
 30
-350.897
 70
    32
  0
SEQEND
  8
T56SSILL
  0
TEXT
  8
T56SSILL
 62
8
 10
5607.394
 20
-8980.995
 30
-348.959
 40
0.200
  1
5600
 41
 1.0 
  0
TEXT
  8
T56SSILL
 62
3
 10
392.919
 20
-5723.583
 30
-348.491
 40
0.200
  1
U
 41
 1.0 
  0
TEXT
  8
T56SSILL
 62
3
 10
976.689
 20
-7338.130
 30
-357.105
 40
0.200
  1
U
 41
 1.0 
  0
TEXT
  8
T56SSILL
 62
3
 10
369.100
 20
-5635.899
 30
-352.986
 40
0.200
  1
D
 41
 1.0 
  0
TEXT
  8
T56SSILL
 62
3
 10
1036.591
 20
-7307.332
 30
-353.644
 40
0.200
  1
D
 41
 1.0 
  0
TEXT
  8
T56SSILL
 62
3
 10
1160.102
 20
-7131.767
 30
-355.471
 40
0.200
  1
D
 41
 1.0 
  0
TEXT
  8
T56SSILL
 62
8
 10
1025.578
 20
-6476.750
 30
-357.640
 40
0.200
  1
5600
 41
 1.0 
  0
POLYLINE
  8
T56SSILL
 62
8
 66
     1
 70
     9
  0
VERTEX
  8
T56SSILL
 62
8
 10
1245.818
 20
-8272.684
 30
-356.666
 70
    32
  0
VERTEX
  8
T56SSILL
 62
8
 10
1220.667
 20
-8243.205
 30
-356.666
 70
    32
  0
VERTEX
  8
T56SSILL
 62
8
 10
1220.660
 20
-8238.574
 30
-356.647
 70
    32
  0
VERTEX
  8
T56SSILL
 62
8
 10
1296.832
 20
-8183.537
 30
-356.148
 70
    32
  0
VERTEX
  8
T56SSILL
 62
8
 10
1302.605
 20
-8175.615
 30
-356.094
 70
    32
  0
VERTEX
  8
T56SSILL
 62
8
 10
1304.422
 20
-8170.356
 30
-356.066
 70
    32
  0
VERTEX
  8
T56SSILL
 62
8
 10
1363.998
 20
-8311.691
 30
-356.436
 70
    32
  0
VERTEX
  8
T56SSILL
 62
8
 10
1320.919
 20
-8342.127
 30
-356.715
 70
    32
  0
VERTEX
  8
T56SSILL
 62
8
 10
1313.011
 20
-8332.801
 30
-356.705
 70
    32
  0
VERTEX
  8
T56SSILL
 62
8
 10
1303.125
 20
-8339.660
 30
-356.769
 70
    32
  0
SEQEND
  8
T56SSILL
  0
POLYLINE
  8
T56SSILL
 62
8
 66
     1
 70
     9
  0
VERTEX
  8
T56SSILL
 62
8
 10
501.447
 20
-5701.824
 30
-348.052
 70
    32
  0
VERTEX
  8
T56SSILL
 62
8
 10
506.963
 20
-5713.532
 30
-348.058
 70
    32
  0
VERTEX
  8
T56SSILL
 62
8
 10
507.697
 20
-5722.071
 30
-348.064
 70
    32
  0
VERTEX
  8
T56SSILL
 62
8
 10
527.826
 20
-5751.603
 30
-348.081
 70
    32
  0
VERTEX
  8
T56SSILL
 62
8
 10
533.912
 20
-5765.903
 30
-348.092
 70
    32
  0
VERTEX
  8
T56SSILL
 62
8
 10
501.744
 20
-5788.438
 30
-348.113
 70
    32
  0
VERTEX
  8
T56SSILL
 62
8
 10
499.740
 20
-5772.462
 30
-348.100
 70
    32
  0
VERTEX
  8
T56SSILL
 62
8
 10
500.062
 20
-5756.626
 30
-348.090
 70
    32
  0
VERTEX
  8
T56SSILL
 62
8
 10
493.658
 20
-5742.645
 30
-348.082
 70
    32
  0
VERTEX
  8
T56SSILL
 62
8
 10
490.789
 20
-5740.426
 30
-348.082
 70
    32
  0
VERTEX
  8
T56SSILL
 62
8
 10
487.859
 20
-5734.316
 30
-348.079
 70
    32
  0
VERTEX
  8
T56SSILL
 62
8
 10
485.302
 20
-5713.398
 30
-348.065
 70
    32
  0
VERTEX
  8
T56SSILL
 62
8
 10
487.861
 20
-5709.450
 30
-348.062
 70
    32
  0
SEQEND
  8
T56SSILL
  0
POLYLINE
  8
T56SSILL
 62
8
 66
     1
 70
     9
  0
VERTEX
  8
T56SSILL
 62
8
 10
1224.545
 20
-8122.832
 30
-356.694
 70
    32
  0
VERTEX
  8
T56SSILL
 62
8
 10
1238.614
 20
-8105.960
 30
-356.597
 70
    32
  0
VERTEX
  8
T56SSILL
 62
8
 10
1246.128
 20
-8105.699
 30
-356.532
 70
    32
  0
VERTEX
  8
T56SSILL
 62
8
 10
1261.992
 20
-8085.333
 30
-356.424
 70
    32
  0
VERTEX
  8
T56SSILL
 62
8
 10
1262.632
 20
-8075.080
 30
-356.435
 70
    32
  0
VERTEX
  8
T56SSILL
 62
8
 10
1264.289
 20
-8074.051
 30
-356.422
 70
    32
  0
VERTEX
  8
T56SSILL
 62
8
 10
1299.850
 20
-8157.818
 30
-356.031
 70
    32
  0
VERTEX
  8
T56SSILL
 62
8
 10
1297.918
 20
-8167.686
 30
-356.078
 70
    32
  0
VERTEX
  8
T56SSILL
 62
8
 10
1295.378
 20
-8172.374
 30
-356.107
 70
    32
  0
VERTEX
  8
T56SSILL
 62
8
 10
1286.399
 20
-8181.568
 30
-356.177
 70
    32
  0
VERTEX
  8
T56SSILL
 62
8
 10
1216.522
 20
-8232.200
 30
-356.635
 70
    32
  0
VERTEX
  8
T56SSILL
 62
8
 10
1210.604
 20
-8230.521
 30
-356.649
 70
    32
  0
VERTEX
  8
T56SSILL
 62
8
 10
1203.152
 20
-8237.893
 30
-356.706
 70
    32
  0
VERTEX
  8
T56SSILL
 62
8
 10
1194.745
 20
-8238.819
 30
-356.772
 70
    32
  0
VERTEX
  8
T56SSILL
 62
8
 10
1194.267
 20
-8243.680
 30
-356.768
 70
    32
  0
VERTEX
  8
T56SSILL
 62
8
 10
1155.350
 20
-8265.852
 30
-357.075
 70
    32
  0
VERTEX
  8
T56SSILL
 62
8
 10
1158.634
 20
-8271.315
 30
-357.038
 70
    32
  0
VERTEX
  8
T56SSILL
 62
8
 10
1196.936
 20
-8251.190
 30
-356.783
 70
    32
  0
VERTEX
  8
T56SSILL
 62
8
 10
1200.770
 20
-8256.052
 30
-356.790
 70
    32
  0
VERTEX
  8
T56SSILL
 62
8
 10
1215.060
 20
-8248.746
 30
-356.709
 70
    32
  0
VERTEX
  8
T56SSILL
 62
8
 10
1240.835
 20
-8276.949
 30
-356.733
 70
    32
  0
VERTEX
  8
T56SSILL
 62
8
 10
1233.157
 20
-8306.792
 30
-356.883
 70
    32
  0
VERTEX
  8
T56SSILL
 62
8
 10
1242.693
 20
-8310.251
 30
-356.863
 70
    32
  0
VERTEX
  8
T56SSILL
 62
8
 10
1254.998
 20
-8329.988
 30
-356.901
 70
    32
  0
VERTEX
  8
T56SSILL
 62
8
 10
1255.431
 20
-8335.074
 30
-356.920
 70
    32
  0
VERTEX
  8
T56SSILL
 62
8
 10
1264.800
 20
-8345.225
 30
-356.929
 70
    32
  0
VERTEX
  8
T56SSILL
 62
8
 10
1268.156
 20
-8353.871
 30
-356.952
 70
    32
  0
VERTEX
  8
T56SSILL
 62
8
 10
1272.663
 20
-8357.076
 30
-356.949
 70
    32
  0
VERTEX
  8
T56SSILL
 62
8
 10
1274.739
 20
-8363.277
 30
-356.967
 70
    32
  0
VERTEX
  8
T56SSILL
 62
8
 10
1281.815
 20
-8366.301
 30
-356.955
 70
    32
  0
VERTEX
  8
T56SSILL
 62
8
 10
1289.295
 20
-8373.139
 30
-356.956
 70
    32
  0
VERTEX
  8
T56SSILL
 62
8
 10
1298.541
 20
-8375.722
 30
-356.934
 70
    32
  0
VERTEX
  8
T56SSILL
 62
8
 10
1305.104
 20
-8362.613
 30
-356.856
 70
    32
  0
VERTEX
  8
T56SSILL
 62
8
 10
1343.088
 20
-8336.028
 30
-356.611
 70
    32
  0
VERTEX
  8
T56SSILL
 62
8
 10
1308.132
 20
-8409.755
 30
-357.040
 70
    32
  0
VERTEX
  8
T56SSILL
 62
8
 10
1314.542
 20
-8413.677
 30
-357.033
 70
    32
  0
VERTEX
  8
T56SSILL
 62
8
 10
1321.394
 20
-8398.209
 30
-356.945
 70
    32
  0
VERTEX
  8
T56SSILL
 62
8
 10
1331.081
 20
-8399.729
 30
-356.916
 70
    32
  0
VERTEX
  8
T56SSILL
 62
8
 10
1335.952
 20
-8398.391
 30
-356.893
 70
    32
  0
VERTEX
  8
T56SSILL
 62
8
 10
1331.305
 20
-8393.192
 30
-356.889
 70
    32
  0
VERTEX
  8
T56SSILL
 62
8
 10
1324.766
 20
-8391.322
 30
-356.904
 70
    32
  0
VERTEX
  8
T56SSILL
 62
8
 10
1353.905
 20
-8327.918
 30
-356.539
 70
    32
  0
VERTEX
  8
T56SSILL
 62
8
 10
1367.536
 20
-8318.593
 30
-356.452
 70
    32
  0
VERTEX
  8
T56SSILL
 62
8
 10
1418.193
 20
-8440.409
 30
-356.773
 70
    32
  0
VERTEX
  8
T56SSILL
 62
8
 10
1424.683
 20
-8437.052
 30
-356.736
 70
    32
  0
VERTEX
  8
T56SSILL
 62
8
 10
1430.701
 20
-8445.344
 30
-356.748
 70
    32
  0
VERTEX
  8
T56SSILL
 62
8
 10
1422.309
 20
-8451.218
 30
-356.802
 70
    32
  0
VERTEX
  8
T56SSILL
 62
8
 10
1426.273
 20
-8457.498
 30
-356.814
 70
    32
  0
VERTEX
  8
T56SSILL
 62
8
 10
1435.042
 20
-8458.475
 30
-356.787
 70
    32
  0
VERTEX
  8
T56SSILL
 62
8
 10
1529.241
 20
-8754.623
 30
-357.671
 70
    32
  0
VERTEX
  8
T56SSILL
 62
8
 10
1535.933
 20
-8752.634
 30
-357.639
 70
    32
  0
VERTEX
  8
T56SSILL
 62
8
 10
1442.312
 20
-8460.393
 30
-356.769
 70
    32
  0
VERTEX
  8
T56SSILL
 62
8
 10
1448.346
 20
-8456.385
 30
-356.731
 70
    32
  0
VERTEX
  8
T56SSILL
 62
8
 10
1441.047
 20
-8446.726
 30
-356.717
 70
    32
  0
VERTEX
  8
T56SSILL
 62
8
 10
1448.984
 20
-8441.279
 30
-356.666
 70
    32
  0
VERTEX
  8
T56SSILL
 62
8
 10
1444.528
 20
-8434.912
 30
-356.656
 70
    32
  0
VERTEX
  8
T56SSILL
 62
8
 10
1436.663
 20
-8440.309
 30
-356.706
 70
    32
  0
VERTEX
  8
T56SSILL
 62
8
 10
1430.485
 20
-8431.482
 30
-356.692
 70
    32
  0
VERTEX
  8
T56SSILL
 62
8
 10
1418.252
 20
-8422.474
 30
-356.698
 70
    32
  0
VERTEX
  8
T56SSILL
 62
8
 10
1376.347
 20
-8321.481
 30
-356.432
 70
    32
  0
VERTEX
  8
T56SSILL
 62
8
 10
1381.644
 20
-8307.641
 30
-356.356
 70
    32
  0
VERTEX
  8
T56SSILL
 62
8
 10
1387.888
 20
-8303.163
 30
-356.315
 70
    32
  0
VERTEX
  8
T56SSILL
 62
8
 10
1385.479
 20
-8297.411
 30
-356.300
 70
    32
  0
VERTEX
  8
T56SSILL
 62
8
 10
1387.585
 20
-8291.949
 30
-356.270
 70
    32
  0
VERTEX
  8
T56SSILL
 62
8
 10
1378.021
 20
-8287.217
 30
-356.285
 70
    32
  0
VERTEX
  8
T56SSILL
 62
8
 10
1370.076
 20
-8306.360
 30
-356.392
 70
    32
  0
VERTEX
  8
T56SSILL
 62
8
 10
1270.620
 20
-8069.081
 30
-356.374
 70
    32
  0
VERTEX
  8
T56SSILL
 62
8
 10
1283.455
 20
-8061.391
 30
-356.274
 70
    32
  0
VERTEX
  8
T56SSILL
 62
8
 10
1279.505
 20
-8054.670
 30
-356.319
 70
    32
  0
VERTEX
  8
T56SSILL
 62
8
 10
1269.492
 20
-8061.463
 30
-356.397
 70
    32
  0
VERTEX
  8
T56SSILL
 62
8
 10
1217.398
 20
-7872.870
 30
-357.156
 70
    32
  0
VERTEX
  8
T56SSILL
 62
8
 10
1265.626
 20
-7838.094
 30
-356.165
 70
    32
  0
VERTEX
  8
T56SSILL
 62
8
 10
1274.929
 20
-7828.588
 30
-355.852
 70
    32
  0
VERTEX
  8
T56SSILL
 62
8
 10
1280.469
 20
-7839.603
 30
-356.042
 70
    32
  0
VERTEX
  8
T56SSILL
 62
8
 10
1285.359
 20
-7839.962
 30
-355.999
 70
    32
  0
VERTEX
  8
T56SSILL
 62
8
 10
1290.511
 20
-7837.764
 30
-355.894
 70
    32
  0
VERTEX
  8
T56SSILL
 62
8
 10
1300.695
 20
-7829.029
 30
-355.589
 70
    32
  0
VERTEX
  8
T56SSILL
 62
8
 10
1301.670
 20
-7824.248
 30
-355.470
 70
    32
  0
VERTEX
  8
T56SSILL
 62
8
 10
1294.889
 20
-7815.934
 30
-355.354
 70
    32
  0
VERTEX
  8
T56SSILL
 62
8
 10
1295.623
 20
-7813.588
 30
-355.293
 70
    32
  0
VERTEX
  8
T56SSILL
 62
8
 10
1308.126
 20
-7804.311
 30
-354.950
 70
    32
  0
VERTEX
  8
T56SSILL
 62
8
 10
1327.940
 20
-7848.331
 30
-355.737
 70
    32
  0
VERTEX
  8
T56SSILL
 62
8
 10
1326.624
 20
-7871.535
 30
-356.010
 70
    32
  0
VERTEX
  8
T56SSILL
 62
8
 10
1327.915
 20
-7878.939
 30
-355.996
 70
    32
  0
VERTEX
  8
T56SSILL
 62
8
 10
1333.663
 20
-7883.768
 30
-355.935
 70
    32
  0
VERTEX
  8
T56SSILL
 62
8
 10
1336.061
 20
-7892.449
 30
-355.908
 70
    32
  0
VERTEX
  8
T56SSILL
 62
8
 10
1346.589
 20
-7907.206
 30
-355.795
 70
    32
  0
VERTEX
  8
T56SSILL
 62
8
 10
1349.196
 20
-7908.620
 30
-355.767
 70
    32
  0
VERTEX
  8
T56SSILL
 62
8
 10
1350.169
 20
-7913.873
 30
-355.756
 70
    32
  0
VERTEX
  8
T56SSILL
 62
8
 10
1359.758
 20
-7926.051
 30
-355.654
 70
    32
  0
VERTEX
  8
T56SSILL
 62
8
 10
1363.112
 20
-7927.106
 30
-355.618
 70
    32
  0
VERTEX
  8
T56SSILL
 62
8
 10
1363.112
 20
-7927.106
 30
-355.607
 70
    32
  0
VERTEX
  8
T56SSILL
 62
8
 10
1392.654
 20
-7992.098
 30
-355.298
 70
    32
  0
VERTEX
  8
T56SSILL
 62
8
 10
1400.267
 20
-7989.113
 30
-355.218
 70
    32
  0
VERTEX
  8
T56SSILL
 62
8
 10
1373.751
 20
-7930.455
 30
-355.506
 70
    32
  0
VERTEX
  8
T56SSILL
 62
8
 10
1376.292
 20
-7912.662
 30
-355.481
 70
    32
  0
VERTEX
  8
T56SSILL
 62
8
 10
1374.626
 20
-7893.762
 30
-355.502
 70
    32
  0
VERTEX
  8
T56SSILL
 62
8
 10
1366.970
 20
-7884.657
 30
-355.584
 70
    32
  0
VERTEX
  8
T56SSILL
 62
8
 10
1353.346
 20
-7881.988
 30
-355.728
 70
    32
  0
VERTEX
  8
T56SSILL
 62
8
 10
1349.648
 20
-7876.697
 30
-355.767
 70
    32
  0
VERTEX
  8
T56SSILL
 62
8
 10
1346.585
 20
-7866.755
 30
-355.801
 70
    32
  0
VERTEX
  8
T56SSILL
 62
8
 10
1357.457
 20
-7859.158
 30
-355.669
 70
    32
  0
VERTEX
  8
T56SSILL
 62
8
 10
1352.956
 20
-7853.026
 30
-355.578
 70
    32
  0
VERTEX
  8
T56SSILL
 62
8
 10
1343.947
 20
-7859.430
 30
-355.818
 70
    32
  0
VERTEX
  8
T56SSILL
 62
8
 10
1341.174
 20
-7857.160
 30
-355.796
 70
    32
  0
VERTEX
  8
T56SSILL
 62
8
 10
1326.559
 20
-7826.057
 30
-355.247
 70
    32
  0
VERTEX
  8
T56SSILL
 62
8
 10
1329.015
 20
-7825.096
 30
-355.199
 70
    32
  0
VERTEX
  8
T56SSILL
 62
8
 10
1322.574
 20
-7808.777
 30
-354.898
 70
    32
  0
VERTEX
  8
T56SSILL
 62
8
 10
1326.930
 20
-7806.057
 30
-354.790
 70
    32
  0
VERTEX
  8
T56SSILL
 62
8
 10
1315.280
 20
-7789.387
 30
-354.537
 70
    32
  0
VERTEX
  8
T56SSILL
 62
8
 10
1313.874
 20
-7790.153
 30
-354.569
 70
    32
  0
VERTEX
  8
T56SSILL
 62
8
 10
1304.770
 20
-7778.824
 30
-354.409
 70
    32
  0
VERTEX
  8
T56SSILL
 62
8
 10
1303.676
 20
-7779.265
 30
-354.430
 70
    32
  0
VERTEX
  8
T56SSILL
 62
8
 10
1239.586
 20
-7664.397
 30
-353.204
 70
    32
  0
VERTEX
  8
T56SSILL
 62
8
 10
1235.054
 20
-7652.354
 30
-353.076
 70
    32
  0
VERTEX
  8
T56SSILL
 62
8
 10
1234.990
 20
-7641.611
 30
-353.002
 70
    32
  0
VERTEX
  8
T56SSILL
 62
8
 10
1225.801
 20
-7627.536
 30
-352.812
 70
    32
  0
VERTEX
  8
T56SSILL
 62
8
 10
1220.990
 20
-7610.618
 30
-352.648
 70
    32
  0
VERTEX
  8
T56SSILL
 62
8
 10
1210.108
 20
-7594.274
 30
-352.425
 70
    32
  0
VERTEX
  8
T56SSILL
 62
8
 10
1202.077
 20
-7591.580
 30
-352.325
 70
    32
  0
VERTEX
  8
T56SSILL
 62
8
 10
1179.899
 20
-7551.199
 30
-350.643
 70
    32
  0
VERTEX
  8
T56SSILL
 62
8
 10
1177.133
 20
-7531.341
 30
-350.469
 70
    32
  0
VERTEX
  8
T56SSILL
 62
8
 10
1186.323
 20
-7525.350
 30
-350.405
 70
    32
  0
VERTEX
  8
T56SSILL
 62
8
 10
1182.012
 20
-7517.791
 30
-350.544
 70
    32
  0
VERTEX
  8
T56SSILL
 62
8
 10
1166.604
 20
-7526.617
 30
-350.560
 70
    32
  0
VERTEX
  8
T56SSILL
 62
8
 10
1146.733
 20
-7491.852
 30
-350.958
 70
    32
  0
VERTEX
  8
T56SSILL
 62
8
 10
1138.060
 20
-7485.615
 30
-351.053
 70
    32
  0
VERTEX
  8
T56SSILL
 62
8
 10
1127.736
 20
-7462.438
 30
-351.305
 70
    32
  0
VERTEX
  8
T56SSILL
 62
8
 10
1127.412
 20
-7448.514
 30
-351.428
 70
    32
  0
VERTEX
  8
T56SSILL
 62
8
 10
1139.786
 20
-7434.542
 30
-351.493
 70
    32
  0
VERTEX
  8
T56SSILL
 62
8
 10
1152.108
 20
-7427.509
 30
-351.496
 70
    32
  0
VERTEX
  8
T56SSILL
 62
8
 10
1292.600
 20
-7327.663
 30
-351.356
 70
    32
  0
VERTEX
  8
T56SSILL
 62
8
 10
1314.293
 20
-7321.564
 30
-351.460
 70
    32
  0
VERTEX
  8
T56SSILL
 62
8
 10
1320.666
 20
-7312.883
 30
-351.472
 70
    32
  0
VERTEX
  8
T56SSILL
 62
8
 10
1318.624
 20
-7304.445
 30
-351.437
 70
    32
  0
VERTEX
  8
T56SSILL
 62
8
 10
1388.632
 20
-7254.443
 30
-351.692
 70
    32
  0
VERTEX
  8
T56SSILL
 62
8
 10
1384.638
 20
-7248.724
 30
-351.654
 70
    32
  0
VERTEX
  8
T56SSILL
 62
8
 10
1370.791
 20
-7258.656
 30
-351.604
 70
    32
  0
VERTEX
  8
T56SSILL
 62
8
 10
1364.089
 20
-7254.009
 30
-351.554
 70
    32
  0
VERTEX
  8
T56SSILL
 62
8
 10
1346.840
 20
-7266.925
 30
-351.493
 70
    32
  0
VERTEX
  8
T56SSILL
 62
8
 10
1348.764
 20
-7274.455
 30
-351.524
 70
    32
  0
VERTEX
  8
T56SSILL
 62
8
 10
1308.924
 20
-7303.140
 30
-351.380
 70
    32
  0
VERTEX
  8
T56SSILL
 62
8
 10
1303.104
 20
-7297.752
 30
-351.333
 70
    32
  0
VERTEX
  8
T56SSILL
 62
8
 10
1284.079
 20
-7311.072
 30
-351.263
 70
    32
  0
VERTEX
  8
T56SSILL
 62
8
 10
1286.348
 20
-7319.047
 30
-351.297
 70
    32
  0
VERTEX
  8
T56SSILL
 62
8
 10
1184.775
 20
-7392.449
 30
-351.650
 70
    32
  0
VERTEX
  8
T56SSILL
 62
8
 10
1134.120
 20
-7426.604
 30
-351.589
 70
    32
  0
VERTEX
  8
T56SSILL
 62
8
 10
1121.994
 20
-7438.703
 30
-351.540
 70
    32
  0
VERTEX
  8
T56SSILL
 62
8
 10
1116.241
 20
-7441.371
 30
-351.543
 70
    32
  0
VERTEX
  8
T56SSILL
 62
8
 10
1078.600
 20
-7373.483
 30
-352.371
 70
    32
  0
VERTEX
  8
T56SSILL
 62
8
 10
1045.299
 20
-7251.763
 30
-353.496
 70
    32
  0
VERTEX
  8
T56SSILL
 62
8
 10
1046.886
 20
-7249.430
 30
-353.457
 70
    32
  0
VERTEX
  8
T56SSILL
 62
8
 10
1060.563
 20
-7241.685
 30
-353.212
 70
    32
  0
VERTEX
  8
T56SSILL
 62
8
 10
1067.636
 20
-7242.153
 30
-353.118
 70
    32
  0
VERTEX
  8
T56SSILL
 62
8
 10
1074.846
 20
-7244.479
 30
-353.035
 70
    32
  0
VERTEX
  8
T56SSILL
 62
8
 10
1098.162
 20
-7257.746
 30
-352.809
 70
    32
  0
VERTEX
  8
T56SSILL
 62
8
 10
1104.498
 20
-7248.855
 30
-352.657
 70
    32
  0
VERTEX
  8
T56SSILL
 62
8
 10
1081.680
 20
-7232.949
 30
-352.857
 70
    32
  0
VERTEX
  8
T56SSILL
 62
8
 10
1082.390
 20
-7228.637
 30
-352.815
 70
    32
  0
VERTEX
  8
T56SSILL
 62
8
 10
1106.017
 20
-7212.342
 30
-352.370
 70
    32
  0
VERTEX
  8
T56SSILL
 62
8
 10
1110.929
 20
-7215.555
 30
-352.326
 70
    32
  0
VERTEX
  8
T56SSILL
 62
8
 10
1114.562
 20
-7215.015
 30
-352.271
 70
    32
  0
VERTEX
  8
T56SSILL
 62
8
 10
1131.062
 20
-7207.417
 30
-351.988
 70
    32
  0
VERTEX
  8
T56SSILL
 62
8
 10
1126.653
 20
-7199.605
 30
-351.992
 70
    32
  0
VERTEX
  8
T56SSILL
 62
8
 10
1132.039
 20
-7193.025
 30
-351.870
 70
    32
  0
VERTEX
  8
T56SSILL
 62
8
 10
1282.576
 20
-7084.615
 30
-350.784
 70
    32
  0
VERTEX
  8
T56SSILL
 62
8
 10
1278.306
 20
-7079.420
 30
-350.778
 70
    32
  0
VERTEX
  8
T56SSILL
 62
8
 10
1193.222
 20
-7140.013
 30
-350.906
 70
    32
  0
VERTEX
  8
T56SSILL
 62
8
 10
1188.199
 20
-7132.858
 30
-350.897
 70
    32
  0
VERTEX
  8
T56SSILL
 62
8
 10
1176.445
 20
-7142.376
 30
-350.916
 70
    32
  0
VERTEX
  8
T56SSILL
 62
8
 10
1164.018
 20
-7159.439
 30
-351.184
 70
    32
  0
VERTEX
  8
T56SSILL
 62
8
 10
1136.301
 20
-7178.667
 30
-351.707
 70
    32
  0
VERTEX
  8
T56SSILL
 62
8
 10
1124.755
 20
-7179.234
 30
-351.870
 70
    32
  0
VERTEX
  8
T56SSILL
 62
8
 10
1117.587
 20
-7177.421
 30
-351.956
 70
    32
  0
VERTEX
  8
T56SSILL
 62
8
 10
1111.219
 20
-7164.603
 30
-351.951
 70
    32
  0
VERTEX
  8
T56SSILL
 62
8
 10
1112.701
 20
-7156.369
 30
-351.871
 70
    32
  0
VERTEX
  8
T56SSILL
 62
8
 10
1096.294
 20
-7128.041
 30
-351.892
 70
    32
  0
VERTEX
  8
T56SSILL
 62
8
 10
1098.395
 20
-7115.668
 30
-351.773
 70
    32
  0
VERTEX
  8
T56SSILL
 62
8
 10
1110.103
 20
-7082.605
 30
-351.371
 70
    32
  0
VERTEX
  8
T56SSILL
 62
8
 10
1118.519
 20
-7077.220
 30
-351.215
 70
    32
  0
VERTEX
  8
T56SSILL
 62
8
 10
1123.451
 20
-7085.309
 30
-351.206
 70
    32
  0
VERTEX
  8
T56SSILL
 62
8
 10
1130.564
 20
-7081.382
 30
-351.079
 70
    32
  0
VERTEX
  8
T56SSILL
 62
8
 10
1125.742
 20
-7073.336
 30
-351.087
 70
    32
  0
VERTEX
  8
T56SSILL
 62
8
 10
1137.455
 20
-7065.598
 30
-350.869
 70
    32
  0
VERTEX
  8
T56SSILL
 62
8
 10
1127.556
 20
-7049.144
 30
-350.886
 70
    32
  0
VERTEX
  8
T56SSILL
 62
8
 10
1114.906
 20
-7057.544
 30
-351.122
 70
    32
  0
VERTEX
  8
T56SSILL
 62
8
 10
1065.198
 20
-6980.939
 30
-351.253
 70
    32
  0
VERTEX
  8
T56SSILL
 62
8
 10
1045.631
 20
-6883.680
 30
-350.817
 70
    32
  0
VERTEX
  8
T56SSILL
 62
8
 10
1072.781
 20
-6876.379
 30
-350.526
 70
    32
  0
VERTEX
  8
T56SSILL
 62
8
 10
1070.377
 20
-6869.001
 30
-350.515
 70
    32
  0
VERTEX
  8
T56SSILL
 62
8
 10
1044.350
 20
-6875.292
 30
-350.773
 70
    32
  0
VERTEX
  8
T56SSILL
 62
8
 10
1023.890
 20
-6774.018
 30
-350.379
 70
    32
  0
VERTEX
  8
T56SSILL
 62
8
 10
980.344
 20
-6706.132
 30
-350.058
 70
    32
  0
VERTEX
  8
T56SSILL
 62
8
 10
983.379
 20
-6702.475
 30
-350.050
 70
    32
  0
VERTEX
  8
T56SSILL
 62
8
 10
1023.350
 20
-6718.038
 30
-350.256
 70
    32
  0
VERTEX
  8
T56SSILL
 62
8
 10
1039.353
 20
-6727.173
 30
-350.298
 70
    32
  0
VERTEX
  8
T56SSILL
 62
8
 10
1072.368
 20
-6738.532
 30
-350.304
 70
    32
  0
VERTEX
  8
T56SSILL
 62
8
 10
1074.425
 20
-6732.930
 30
-350.294
 70
    32
  0
VERTEX
  8
T56SSILL
 62
8
 10
1059.647
 20
-6725.955
 30
-350.289
 70
    32
  0
VERTEX
  8
T56SSILL
 62
8
 10
1058.003
 20
-6715.954
 30
-350.273
 70
    32
  0
VERTEX
  8
T56SSILL
 62
8
 10
1044.523
 20
-6711.846
 30
-350.271
 70
    32
  0
VERTEX
  8
T56SSILL
 62
8
 10
1037.571
 20
-6706.850
 30
-350.262
 70
    32
  0
VERTEX
  8
T56SSILL
 62
8
 10
1026.092
 20
-6711.727
 30
-350.252
 70
    32
  0
VERTEX
  8
T56SSILL
 62
8
 10
889.267
 20
-6655.089
 30
-350.026
 70
    32
  0
VERTEX
  8
T56SSILL
 62
8
 10
882.932
 20
-6648.112
 30
-350.001
 70
    32
  0
VERTEX
  8
T56SSILL
 62
8
 10
880.059
 20
-6637.931
 30
-349.942
 70
    32
  0
VERTEX
  8
T56SSILL
 62
8
 10
882.094
 20
-6637.141
 30
-349.929
 70
    32
  0
VERTEX
  8
T56SSILL
 62
8
 10
880.976
 20
-6631.124
 30
-349.892
 70
    32
  0
VERTEX
  8
T56SSILL
 62
8
 10
877.773
 20
-6629.497
 30
-349.892
 70
    32
  0
VERTEX
  8
T56SSILL
 62
8
 10
851.829
 20
-6535.448
 30
-349.345
 70
    32
  0
VERTEX
  8
T56SSILL
 62
8
 10
854.998
 20
-6529.534
 30
-349.294
 70
    32
  0
VERTEX
  8
T56SSILL
 62
8
 10
849.415
 20
-6525.916
 30
-349.288
 70
    32
  0
VERTEX
  8
T56SSILL
 62
8
 10
830.917
 20
-6458.915
 30
-348.898
 70
    32
  0
VERTEX
  8
T56SSILL
 62
8
 10
834.570
 20
-6454.605
 30
-348.856
 70
    32
  0
VERTEX
  8
T56SSILL
 62
8
 10
834.050
 20
-6449.893
 30
-348.826
 70
    32
  0
VERTEX
  8
T56SSILL
 62
8
 10
827.879
 20
-6448.959
 30
-348.841
 70
    32
  0
VERTEX
  8
T56SSILL
 62
8
 10
824.091
 20
-6431.213
 30
-348.734
 70
    32
  0
VERTEX
  8
T56SSILL
 62
8
 10
824.890
 20
-6427.298
 30
-348.705
 70
    32
  0
VERTEX
  8
T56SSILL
 62
8
 10
821.117
 20
-6422.725
 30
-348.687
 70
    32
  0
VERTEX
  8
T56SSILL
 62
8
 10
819.655
 20
-6417.598
 30
-348.657
 70
    32
  0
VERTEX
  8
T56SSILL
 62
8
 10
821.769
 20
-6416.563
 30
-348.652
 70
    32
  0
VERTEX
  8
T56SSILL
 62
8
 10
820.997
 20
-6412.004
 30
-348.637
 70
    32
  0
VERTEX
  8
T56SSILL
 62
8
 10
816.391
 20
-6411.909
 30
-348.630
 70
    32
  0
VERTEX
  8
T56SSILL
 62
8
 10
813.731
 20
-6406.058
 30
-348.599
 70
    32
  0
VERTEX
  8
T56SSILL
 62
8
 10
791.788
 20
-6326.314
 30
-348.384
 70
    32
  0
VERTEX
  8
T56SSILL
 62
8
 10
793.103
 20
-6315.444
 30
-348.375
 70
    32
  0
VERTEX
  8
T56SSILL
 62
8
 10
786.471
 20
-6306.823
 30
-348.338
 70
    32
  0
VERTEX
  8
T56SSILL
 62
8
 10
764.303
 20
-6223.722
 30
-348.201
 70
    32
  0
VERTEX
  8
T56SSILL
 62
8
 10
771.097
 20
-6228.622
 30
-348.215
 70
    32
  0
VERTEX
  8
T56SSILL
 62
8
 10
780.041
 20
-6232.292
 30
-348.233
 70
    32
  0
VERTEX
  8
T56SSILL
 62
8
 10
859.342
 20
-6251.033
 30
-348.447
 70
    32
  0
VERTEX
  8
T56SSILL
 62
8
 10
971.160
 20
-6249.024
 30
-348.852
 70
    32
  0
VERTEX
  8
T56SSILL
 62
8
 10
970.724
 20
-6241.879
 30
-348.832
 70
    32
  0
VERTEX
  8
T56SSILL
 62
8
 10
860.643
 20
-6243.785
 30
-348.446
 70
    32
  0
VERTEX
  8
T56SSILL
 62
8
 10
788.076
 20
-6226.371
 30
-348.245
 70
    32
  0
VERTEX
  8
T56SSILL
 62
8
 10
766.770
 20
-6213.461
 30
-348.200
 70
    32
  0
VERTEX
  8
T56SSILL
 62
8
 10
762.325
 20
-6207.942
 30
-348.189
 70
    32
  0
VERTEX
  8
T56SSILL
 62
8
 10
759.522
 20
-6203.447
 30
-348.182
 70
    32
  0
VERTEX
  8
T56SSILL
 62
8
 10
739.561
 20
-6130.130
 30
-348.368
 70
    32
  0
VERTEX
  8
T56SSILL
 62
8
 10
739.252
 20
-6124.918
 30
-348.380
 70
    32
  0
VERTEX
  8
T56SSILL
 62
8
 10
741.908
 20
-6120.798
 30
-348.376
 70
    32
  0
VERTEX
  8
T56SSILL
 62
8
 10
740.205
 20
-6115.566
 30
-348.394
 70
    32
  0
VERTEX
  8
T56SSILL
 62
8
 10
734.445
 20
-6112.841
 30
-348.424
 70
    32
  0
VERTEX
  8
T56SSILL
 62
8
 10
709.790
 20
-6023.972
 30
-348.342
 70
    32
  0
VERTEX
  8
T56SSILL
 62
8
 10
713.567
 20
-6018.356
 30
-348.335
 70
    32
  0
VERTEX
  8
T56SSILL
 62
8
 10
712.251
 20
-6011.801
 30
-348.325
 70
    32
  0
VERTEX
  8
T56SSILL
 62
8
 10
705.732
 20
-6008.417
 30
-348.317
 70
    32
  0
VERTEX
  8
T56SSILL
 62
8
 10
680.333
 20
-5916.540
 30
-348.199
 70
    32
  0
VERTEX
  8
T56SSILL
 62
8
 10
684.553
 20
-5911.584
 30
-348.191
 70
    32
  0
VERTEX
  8
T56SSILL
 62
8
 10
682.334
 20
-5905.741
 30
-348.188
 70
    32
  0
VERTEX
  8
T56SSILL
 62
8
 10
679.518
 20
-5905.504
 30
-348.190
 70
    32
  0
VERTEX
  8
T56SSILL
 62
8
 10
677.406
 20
-5902.989
 30
-348.188
 70
    32
  0
VERTEX
  8
T56SSILL
 62
8
 10
674.544
 20
-5894.921
 30
-348.182
 70
    32
  0
VERTEX
  8
T56SSILL
 62
8
 10
689.078
 20
-5885.065
 30
-348.164
 70
    32
  0
VERTEX
  8
T56SSILL
 62
8
 10
687.879
 20
-5876.307
 30
-348.157
 70
    32
  0
VERTEX
  8
T56SSILL
 62
8
 10
672.403
 20
-5873.512
 30
-348.166
 70
    32
  0
VERTEX
  8
T56SSILL
 62
8
 10
668.087
 20
-5870.563
 30
-348.164
 70
    32
  0
VERTEX
  8
T56SSILL
 62
8
 10
662.622
 20
-5851.170
 30
-348.149
 70
    32
  0
VERTEX
  8
T56SSILL
 62
8
 10
661.412
 20
-5838.912
 30
-348.139
 70
    32
  0
VERTEX
  8
T56SSILL
 62
8
 10
665.238
 20
-5824.339
 30
-348.126
 70
    32
  0
VERTEX
  8
T56SSILL
 62
8
 10
669.910
 20
-5814.830
 30
-348.114
 70
    32
  0
VERTEX
  8
T56SSILL
 62
8
 10
676.886
 20
-5806.855
 30
-348.102
 70
    32
  0
VERTEX
  8
T56SSILL
 62
8
 10
1101.001
 20
-5503.116
 30
-348.145
 70
    32
  0
VERTEX
  8
T56SSILL
 62
8
 10
1108.646
 20
-5504.333
 30
-348.129
 70
    32
  0
VERTEX
  8
T56SSILL
 62
8
 10
1115.342
 20
-5499.586
 30
-348.117
 70
    32
  0
VERTEX
  8
T56SSILL
 62
8
 10
1121.206
 20
-5494.869
 30
-348.106
 70
    32
  0
VERTEX
  8
T56SSILL
 62
8
 10
1128.074
 20
-5483.293
 30
-348.095
 70
    32
  0
VERTEX
  8
T56SSILL
 62
8
 10
1928.433
 20
-4909.918
 30
-347.960
 70
    32
  0
VERTEX
  8
T56SSILL
 62
8
 10
1936.930
 20
-4906.883
 30
-348.022
 70
    32
  0
VERTEX
  8
T56SSILL
 62
8
 10
1940.038
 20
-4903.962
 30
-348.038
 70
    32
  0
VERTEX
  8
T56SSILL
 62
8
 10
1941.412
 20
-4899.786
 30
-348.034
 70
    32
  0
VERTEX
  8
T56SSILL
 62
8
 10
1984.569
 20
-4869.446
 30
-348.294
 70
    32
  0
VERTEX
  8
T56SSILL
 62
8
 10
2001.970
 20
-4865.341
 30
-348.429
 70
    32
  0
VERTEX
  8
T56SSILL
 62
8
 10
2030.741
 20
-4842.041
 30
-348.591
 70
    32
  0
VERTEX
  8
T56SSILL
 62
8
 10
2099.356
 20
-4793.179
 30
-348.916
 70
    32
  0
VERTEX
  8
T56SSILL
 62
8
 10
2124.053
 20
-4794.919
 30
-349.001
 70
    32
  0
VERTEX
  8
T56SSILL
 62
8
 10
2134.876
 20
-4797.980
 30
-349.043
 70
    32
  0
VERTEX
  8
T56SSILL
 62
8
 10
2141.161
 20
-4805.602
 30
-349.081
 70
    32
  0
VERTEX
  8
T56SSILL
 62
8
 10
2139.376
 20
-4815.096
 30
-349.097
 70
    32
  0
VERTEX
  8
T56SSILL
 62
8
 10
2150.555
 20
-4818.163
 30
-349.140
 70
    32
  0
VERTEX
  8
T56SSILL
 62
8
 10
2153.185
 20
-4805.457
 30
-349.120
 70
    32
  0
VERTEX
  8
T56SSILL
 62
8
 10
2155.377
 20
-4806.114
 30
-349.128
 70
    32
  0
VERTEX
  8
T56SSILL
 62
8
 10
2160.638
 20
-4787.931
 30
-349.104
 70
    32
  0
VERTEX
  8
T56SSILL
 62
8
 10
2145.954
 20
-4781.132
 30
-349.040
 70
    32
  0
VERTEX
  8
T56SSILL
 62
8
 10
2136.877
 20
-4787.790
 30
-349.026
 70
    32
  0
VERTEX
  8
T56SSILL
 62
8
 10
2126.470
 20
-4787.013
 30
-348.990
 70
    32
  0
VERTEX
  8
T56SSILL
 62
8
 10
2116.533
 20
-4784.299
 30
-348.952
 70
    32
  0
VERTEX
  8
T56SSILL
 62
8
 10
2114.289
 20
-4782.005
 30
-348.939
 70
    32
  0
VERTEX
  8
T56SSILL
 62
8
 10
2114.498
 20
-4775.854
 30
-348.926
 70
    32
  0
VERTEX
  8
T56SSILL
 62
8
 10
2171.687
 20
-4734.432
 30
-349.017
 70
    32
  0
VERTEX
  8
T56SSILL
 62
8
 10
2167.020
 20
-4728.361
 30
-348.988
 70
    32
  0
VERTEX
  8
T56SSILL
 62
8
 10
2131.629
 20
-4752.315
 30
-348.928
 70
    32
  0
VERTEX
  8
T56SSILL
 62
8
 10
2127.530
 20
-4747.671
 30
-348.904
 70
    32
  0
VERTEX
  8
T56SSILL
 62
8
 10
2132.071
 20
-4722.841
 30
-348.859
 70
    32
  0
VERTEX
  8
T56SSILL
 62
8
 10
2122.147
 20
-4721.834
 30
-348.814
 70
    32
  0
VERTEX
  8
T56SSILL
 62
8
 10
2115.722
 20
-4765.779
 30
-348.907
 70
    32
  0
VERTEX
  8
T56SSILL
 62
8
 10
2050.941
 20
-4812.607
 30
-348.684
 70
    32
  0
VERTEX
  8
T56SSILL
 62
8
 10
2033.100
 20
-4789.354
 30
-348.591
 70
    32
  0
VERTEX
  8
T56SSILL
 62
8
 10
2029.222
 20
-4791.632
 30
-348.568
 70
    32
  0
VERTEX
  8
T56SSILL
 62
8
 10
2020.549
 20
-4792.111
 30
-348.518
 70
    32
  0
VERTEX
  8
T56SSILL
 62
8
 10
2023.423
 20
-4803.294
 30
-348.530
 70
    32
  0
VERTEX
  8
T56SSILL
 62
8
 10
2033.629
 20
-4803.782
 30
-348.588
 70
    32
  0
VERTEX
  8
T56SSILL
 62
8
 10
2043.205
 20
-4818.115
 30
-348.637
 70
    32
  0
VERTEX
  8
T56SSILL
 62
8
 10
1938.705
 20
-4892.990
 30
-348.008
 70
    32
  0
VERTEX
  8
T56SSILL
 62
8
 10
1935.848
 20
-4891.661
 30
-347.992
 70
    32
  0
VERTEX
  8
T56SSILL
 62
8
 10
1932.692
 20
-4892.363
 30
-347.974
 70
    32
  0
VERTEX
  8
T56SSILL
 62
8
 10
1924.947
 20
-4898.627
 30
-347.927
 70
    32
  0
VERTEX
  8
T56SSILL
 62
8
 10
1924.516
 20
-4903.539
 30
-347.923
 70
    32
  0
VERTEX
  8
T56SSILL
 62
8
 10
1918.135
 20
-4908.529
 30
-347.884
 70
    32
  0
VERTEX
  8
T56SSILL
 62
8
 10
1906.592
 20
-4905.971
 30
-347.819
 70
    32
  0
VERTEX
  8
T56SSILL
 62
8
 10
1892.663
 20
-4915.051
 30
-347.736
 70
    32
  0
VERTEX
  8
T56SSILL
 62
8
 10
1890.700
 20
-4917.922
 30
-347.723
 70
    32
  0
VERTEX
  8
T56SSILL
 62
8
 10
1892.346
 20
-4926.424
 30
-347.729
 70
    32
  0
VERTEX
  8
T56SSILL
 62
8
 10
1836.094
 20
-4967.191
 30
-347.398
 70
    32
  0
VERTEX
  8
T56SSILL
 62
8
 10
1833.357
 20
-4966.957
 30
-347.396
 70
    32
  0
VERTEX
  8
T56SSILL
 62
8
 10
1829.364
 20
-4969.531
 30
-347.392
 70
    32
  0
VERTEX
  8
T56SSILL
 62
8
 10
1828.740
 20
-4972.325
 30
-347.391
 70
    32
  0
VERTEX
  8
T56SSILL
 62
8
 10
1561.825
 20
-5163.684
 30
-347.491
 70
    32
  0
VERTEX
  8
T56SSILL
 62
8
 10
1469.440
 20
-5229.026
 30
-347.594
 70
    32
  0
VERTEX
  8
T56SSILL
 62
8
 10
1465.257
 20
-5229.300
 30
-347.602
 70
    32
  0
VERTEX
  8
T56SSILL
 62
8
 10
1464.474
 20
-5232.708
 30
-347.608
 70
    32
  0
VERTEX
  8
T56SSILL
 62
8
 10
1302.164
 20
-5348.364
 30
-347.895
 70
    32
  0
VERTEX
  8
T56SSILL
 62
8
 10
1288.574
 20
-5333.802
 30
-347.893
 70
    32
  0
VERTEX
  8
T56SSILL
 62
8
 10
1281.171
 20
-5338.922
 30
-347.888
 70
    32
  0
VERTEX
  8
T56SSILL
 62
8
 10
1290.528
 20
-5356.989
 30
-347.886
 70
    32
  0
VERTEX
  8
T56SSILL
 62
8
 10
1281.319
 20
-5362.905
 30
-347.880
 70
    32
  0
VERTEX
  8
T56SSILL
 62
8
 10
1279.444
 20
-5360.765
 30
-347.880
 70
    32
  0
VERTEX
  8
T56SSILL
 62
8
 10
1271.894
 20
-5365.983
 30
-347.875
 70
    32
  0
VERTEX
  8
T56SSILL
 62
8
 10
1272.605
 20
-5369.551
 30
-347.874
 70
    32
  0
VERTEX
  8
T56SSILL
 62
8
 10
1265.056
 20
-5374.769
 30
-347.869
 70
    32
  0
VERTEX
  8
T56SSILL
 62
8
 10
1258.553
 20
-5368.942
 30
-347.868
 70
    32
  0
VERTEX
  8
T56SSILL
 62
8
 10
1250.134
 20
-5375.709
 30
-347.869
 70
    32
  0
VERTEX
  8
T56SSILL
 62
8
 10
1252.715
 20
-5384.085
 30
-347.865
 70
    32
  0
VERTEX
  8
T56SSILL
 62
8
 10
1123.600
 20
-5477.158
 30
-348.104
 70
    32
  0
VERTEX
  8
T56SSILL
 62
8
 10
1112.439
 20
-5466.812
 30
-348.124
 70
    32
  0
VERTEX
  8
T56SSILL
 62
8
 10
1096.329
 20
-5476.228
 30
-348.153
 70
    32
  0
VERTEX
  8
T56SSILL
 62
8
 10
1091.813
 20
-5481.204
 30
-348.162
 70
    32
  0
VERTEX
  8
T56SSILL
 62
8
 10
1096.705
 20
-5494.409
 30
-348.154
 70
    32
  0
VERTEX
  8
T56SSILL
 62
8
 10
1096.212
 20
-5497.301
 30
-348.155
 70
    32
  0
VERTEX
  8
T56SSILL
 62
8
 10
960.869
 20
-5595.318
 30
-348.301
 70
    32
  0
VERTEX
  8
T56SSILL
 62
8
 10
951.147
 20
-5584.626
 30
-348.301
 70
    32
  0
VERTEX
  8
T56SSILL
 62
8
 10
934.868
 20
-5592.039
 30
-348.298
 70
    32
  0
VERTEX
  8
T56SSILL
 62
8
 10
929.131
 20
-5597.268
 30
-348.297
 70
    32
  0
VERTEX
  8
T56SSILL
 62
8
 10
935.639
 20
-5613.305
 30
-348.296
 70
    32
  0
VERTEX
  8
T56SSILL
 62
8
 10
919.762
 20
-5624.486
 30
-348.293
 70
    32
  0
VERTEX
  8
T56SSILL
 62
8
 10
916.309
 20
-5623.615
 30
-348.293
 70
    32
  0
VERTEX
  8
T56SSILL
 62
8
 10
912.277
 20
-5626.001
 30
-348.292
 70
    32
  0
VERTEX
  8
T56SSILL
 62
8
 10
911.995
 20
-5630.015
 30
-348.292
 70
    32
  0
VERTEX
  8
T56SSILL
 62
8
 10
758.048
 20
-5739.979
 30
-347.979
 70
    32
  0
VERTEX
  8
T56SSILL
 62
8
 10
754.150
 20
-5737.812
 30
-347.979
 70
    32
  0
VERTEX
  8
T56SSILL
 62
8
 10
748.630
 20
-5741.621
 30
-347.987
 70
    32
  0
VERTEX
  8
T56SSILL
 62
8
 10
748.326
 20
-5746.713
 30
-347.992
 70
    32
  0
VERTEX
  8
T56SSILL
 62
8
 10
671.683
 20
-5801.633
 30
-348.101
 70
    32
  0
VERTEX
  8
T56SSILL
 62
8
 10
662.000
 20
-5813.335
 30
-348.119
 70
    32
  0
VERTEX
  8
T56SSILL
 62
8
 10
656.949
 20
-5827.030
 30
-348.130
 70
    32
  0
VERTEX
  8
T56SSILL
 62
8
 10
652.528
 20
-5813.313
 30
-348.120
 70
    32
  0
VERTEX
  8
T56SSILL
 62
8
 10
655.990
 20
-5808.653
 30
-348.116
 70
    32
  0
VERTEX
  8
T56SSILL
 62
8
 10
650.745
 20
-5805.902
 30
-348.114
 70
    32
  0
VERTEX
  8
T56SSILL
 62
8
 10
637.135
 20
-5753.933
 30
-348.074
 70
    32
  0
VERTEX
  8
T56SSILL
 62
8
 10
615.232
 20
-5720.172
 30
-348.049
 70
    32
  0
VERTEX
  8
T56SSILL
 62
8
 10
617.789
 20
-5715.588
 30
-348.046
 70
    32
  0
VERTEX
  8
T56SSILL
 62
8
 10
612.242
 20
-5710.171
 30
-348.042
 70
    32
  0
VERTEX
  8
T56SSILL
 62
8
 10
608.840
 20
-5710.327
 30
-348.042
 70
    32
  0
VERTEX
  8
T56SSILL
 62
8
 10
559.505
 20
-5635.038
 30
-347.989
 70
    32
  0
VERTEX
  8
T56SSILL
 62
8
 10
562.676
 20
-5631.530
 30
-347.985
 70
    32
  0
VERTEX
  8
T56SSILL
 62
8
 10
559.842
 20
-5624.611
 30
-347.982
 70
    32
  0
VERTEX
  8
T56SSILL
 62
8
 10
555.859
 20
-5626.752
 30
-347.984
 70
    32
  0
VERTEX
  8
T56SSILL
 62
8
 10
553.261
 20
-5625.413
 30
-347.984
 70
    32
  0
VERTEX
  8
T56SSILL
 62
8
 10
503.948
 20
-5549.684
 30
-347.950
 70
    32
  0
VERTEX
  8
T56SSILL
 62
8
 10
508.882
 20
-5546.268
 30
-347.946
 70
    32
  0
VERTEX
  8
T56SSILL
 62
8
 10
505.465
 20
-5541.016
 30
-347.943
 70
    32
  0
VERTEX
  8
T56SSILL
 62
8
 10
500.507
 20
-5544.554
 30
-347.947
 70
    32
  0
VERTEX
  8
T56SSILL
 62
8
 10
474.465
 20
-5504.912
 30
-347.929
 70
    32
  0
VERTEX
  8
T56SSILL
 62
8
 10
473.124
 20
-5494.760
 30
-347.923
 70
    32
  0
VERTEX
  8
T56SSILL
 62
8
 10
473.962
 20
-5488.368
 30
-347.918
 70
    32
  0
VERTEX
  8
T56SSILL
 62
8
 10
479.392
 20
-5478.360
 30
-347.910
 70
    32
  0
VERTEX
  8
T56SSILL
 62
8
 10
492.862
 20
-5468.154
 30
-347.899
 70
    32
  0
VERTEX
  8
T56SSILL
 62
8
 10
509.468
 20
-5473.634
 30
-347.897
 70
    32
  0
VERTEX
  8
T56SSILL
 62
8
 10
515.124
 20
-5466.589
 30
-347.890
 70
    32
  0
VERTEX
  8
T56SSILL
 62
8
 10
510.715
 20
-5462.870
 30
-347.889
 70
    32
  0
VERTEX
  8
T56SSILL
 62
8
 10
508.378
 20
-5457.175
 30
-347.886
 70
    32
  0
VERTEX
  8
T56SSILL
 62
8
 10
524.351
 20
-5445.770
 30
-347.873
 70
    32
  0
VERTEX
  8
T56SSILL
 62
8
 10
520.203
 20
-5440.255
 30
-347.871
 70
    32
  0
VERTEX
  8
T56SSILL
 62
8
 10
499.905
 20
-5455.198
 30
-347.888
 70
    32
  0
VERTEX
  8
T56SSILL
 62
8
 10
494.937
 20
-5451.759
 30
-347.887
 70
    32
  0
VERTEX
  8
T56SSILL
 62
8
 10
488.453
 20
-5459.163
 30
-347.894
 70
    32
  0
VERTEX
  8
T56SSILL
 62
8
 10
490.820
 20
-5461.179
 30
-347.895
 70
    32
  0
VERTEX
  8
T56SSILL
 62
8
 10
479.132
 20
-5469.610
 30
-347.904
 70
    32
  0
VERTEX
  8
T56SSILL
 62
8
 10
470.329
 20
-5478.945
 30
-347.913
 70
    32
  0
VERTEX
  8
T56SSILL
 62
8
 10
466.897
 20
-5490.903
 30
-347.922
 70
    32
  0
VERTEX
  8
T56SSILL
 62
8
 10
465.271
 20
-5491.816
 30
-347.924
 70
    32
  0
VERTEX
  8
T56SSILL
 62
8
 10
449.345
 20
-5467.465
 30
-347.912
 70
    32
  0
VERTEX
  8
T56SSILL
 62
8
 10
453.893
 20
-5464.095
 30
-347.909
 70
    32
  0
VERTEX
  8
T56SSILL
 62
8
 10
450.287
 20
-5458.742
 30
-347.906
 70
    32
  0
VERTEX
  8
T56SSILL
 62
8
 10
445.387
 20
-5461.604
 30
-347.910
 70
    32
  0
VERTEX
  8
T56SSILL
 62
8
 10
394.475
 20
-5384.810
 30
-347.875
 70
    32
  0
VERTEX
  8
T56SSILL
 62
8
 10
399.867
 20
-5380.639
 30
-347.870
 70
    32
  0
VERTEX
  8
T56SSILL
 62
8
 10
395.841
 20
-5375.147
 30
-347.868
 70
    32
  0
VERTEX
  8
T56SSILL
 62
8
 10
390.438
 20
-5378.680
 30
-347.872
 70
    32
  0
VERTEX
  8
T56SSILL
 62
8
 10
353.033
 20
-5322.750
 30
-347.847
 70
    32
  0
VERTEX
  8
T56SSILL
 62
8
 10
347.703
 20
-5326.233
 30
-347.851
 70
    32
  0
VERTEX
  8
T56SSILL
 62
8
 10
384.801
 20
-5382.807
 30
-347.877
 70
    32
  0
VERTEX
  8
T56SSILL
 62
8
 10
381.242
 20
-5385.276
 30
-347.880
 70
    32
  0
VERTEX
  8
T56SSILL
 62
8
 10
385.692
 20
-5391.226
 30
-347.882
 70
    32
  0
VERTEX
  8
T56SSILL
 62
8
 10
389.257
 20
-5389.076
 30
-347.880
 70
    32
  0
VERTEX
  8
T56SSILL
 62
8
 10
439.783
 20
-5466.245
 30
-347.915
 70
    32
  0
VERTEX
  8
T56SSILL
 62
8
 10
435.185
 20
-5469.542
 30
-347.918
 70
    32
  0
VERTEX
  8
T56SSILL
 62
8
 10
439.182
 20
-5474.839
 30
-347.921
 70
    32
  0
VERTEX
  8
T56SSILL
 62
8
 10
443.815
 20
-5472.055
 30
-347.917
 70
    32
  0
VERTEX
  8
T56SSILL
 62
8
 10
447.936
 20
-5478.772
 30
-347.920
 70
    32
  0
VERTEX
  8
T56SSILL
 62
8
 10
433.671
 20
-5476.510
 30
-347.924
 70
    32
  0
VERTEX
  8
T56SSILL
 62
8
 10
419.288
 20
-5467.875
 30
-347.923
 70
    32
  0
VERTEX
  8
T56SSILL
 62
8
 10
414.709
 20
-5462.982
 30
-347.921
 70
    32
  0
VERTEX
  8
T56SSILL
 62
8
 10
409.334
 20
-5471.984
 30
-347.929
 70
    32
  0
VERTEX
  8
T56SSILL
 62
8
 10
417.468
 20
-5482.157
 30
-347.933
 70
    32
  0
VERTEX
  8
T56SSILL
 62
8
 10
369.095
 20
-5517.116
 30
-347.972
 70
    32
  0
VERTEX
  8
T56SSILL
 62
8
 10
362.047
 20
-5513.936
 30
-347.972
 70
    32
  0
VERTEX
  8
T56SSILL
 62
8
 10
358.380
 20
-5521.214
 30
-347.978
 70
    32
  0
VERTEX
  8
T56SSILL
 62
8
 10
361.066
 20
-5523.224
 30
-347.979
 70
    32
  0
VERTEX
  8
T56SSILL
 62
8
 10
344.439
 20
-5535.083
 30
-347.992
 70
    32
  0
VERTEX
  8
T56SSILL
 62
8
 10
348.454
 20
-5541.335
 30
-347.995
 70
    32
  0
VERTEX
  8
T56SSILL
 62
8
 10
364.450
 20
-5529.807
 30
-347.982
 70
    32
  0
VERTEX
  8
T56SSILL
 62
8
 10
379.247
 20
-5532.991
 30
-347.979
 70
    32
  0
VERTEX
  8
T56SSILL
 62
8
 10
383.601
 20
-5525.774
 30
-347.973
 70
    32
  0
VERTEX
  8
T56SSILL
 62
8
 10
379.524
 20
-5518.811
 30
-347.970
 70
    32
  0
VERTEX
  8
T56SSILL
 62
8
 10
422.187
 20
-5488.029
 30
-347.935
 70
    32
  0
VERTEX
  8
T56SSILL
 62
8
 10
429.921
 20
-5495.144
 30
-347.937
 70
    32
  0
VERTEX
  8
T56SSILL
 62
8
 10
435.432
 20
-5504.017
 30
-347.941
 70
    32
  0
VERTEX
  8
T56SSILL
 62
8
 10
455.260
 20
-5523.293
 30
-347.948
 70
    32
  0
VERTEX
  8
T56SSILL
 62
8
 10
458.991
 20
-5530.065
 30
-347.951
 70
    32
  0
VERTEX
  8
T56SSILL
 62
8
 10
461.460
 20
-5538.897
 30
-347.956
 70
    32
  0
VERTEX
  8
T56SSILL
 62
8
 10
461.684
 20
-5551.007
 30
-347.964
 70
    32
  0
VERTEX
  8
T56SSILL
 62
8
 10
464.878
 20
-5563.209
 30
-347.972
 70
    32
  0
VERTEX
  8
T56SSILL
 62
8
 10
461.173
 20
-5583.117
 30
-347.986
 70
    32
  0
VERTEX
  8
T56SSILL
 62
8
 10
455.070
 20
-5596.375
 30
-347.997
 70
    32
  0
VERTEX
  8
T56SSILL
 62
8
 10
448.580
 20
-5603.460
 30
-348.004
 70
    32
  0
VERTEX
  8
T56SSILL
 62
8
 10
426.600
 20
-5618.924
 30
-348.021
 70
    32
  0
VERTEX
  8
T56SSILL
 62
8
 10
406.321
 20
-5619.006
 30
-348.028
 70
    32
  0
VERTEX
  8
T56SSILL
 62
8
 10
368.844
 20
-5613.374
 30
-348.036
 70
    32
  0
VERTEX
  8
T56SSILL
 62
8
 10
366.861
 20
-5621.528
 30
-348.043
 70
    32
  0
VERTEX
  8
T56SSILL
 62
8
 10
367.780
 20
-5623.472
 30
-348.044
 70
    32
  0
VERTEX
  8
T56SSILL
 62
8
 10
378.673
 20
-5625.061
 30
-348.041
 70
    32
  0
VERTEX
  8
T56SSILL
 62
8
 10
383.722
 20
-5630.166
 30
-348.043
 70
    32
  0
VERTEX
  8
T56SSILL
 62
8
 10
392.855
 20
-5633.405
 30
-348.042
 70
    32
  0
VERTEX
  8
T56SSILL
 62
8
 10
394.028
 20
-5637.111
 30
-348.044
 70
    32
  0
VERTEX
  8
T56SSILL
 62
8
 10
391.082
 20
-5643.566
 30
-348.049
 70
    32
  0
VERTEX
  8
T56SSILL
 62
8
 10
380.360
 20
-5651.220
 30
-348.058
 70
    32
  0
VERTEX
  8
T56SSILL
 62
8
 10
376.251
 20
-5651.811
 30
-348.060
 70
    32
  0
VERTEX
  8
T56SSILL
 62
8
 10
360.439
 20
-5667.946
 30
-348.076
 70
    32
  0
VERTEX
  8
T56SSILL
 62
8
 10
345.046
 20
-5678.948
 30
-348.088
 70
    32
  0
VERTEX
  8
T56SSILL
 62
8
 10
322.468
 20
-5672.770
 30
-348.091
 70
    32
  0
VERTEX
  8
T56SSILL
 62
8
 10
318.379
 20
-5698.203
 30
-348.110
 70
    32
  0
VERTEX
  8
T56SSILL
 62
8
 10
306.299
 20
-5706.691
 30
-348.119
 70
    32
  0
VERTEX
  8
T56SSILL
 62
8
 10
298.129
 20
-5705.150
 30
-348.121
 70
    32
  0
VERTEX
  8
T56SSILL
 62
8
 10
294.948
 20
-5700.256
 30
-348.119
 70
    32
  0
VERTEX
  8
T56SSILL
 62
8
 10
294.077
 20
-5690.315
 30
-348.112
 70
    32
  0
VERTEX
  8
T56SSILL
 62
8
 10
278.290
 20
-5681.363
 30
-348.112
 70
    32
  0
VERTEX
  8
T56SSILL
 62
8
 10
274.445
 20
-5677.682
 30
-348.110
 70
    32
  0
VERTEX
  8
T56SSILL
 62
8
 10
261.585
 20
-5654.648
 30
-348.099
 70
    32
  0
VERTEX
  8
T56SSILL
 62
8
 10
255.923
 20
-5656.102
 30
-348.102
 70
    32
  0
VERTEX
  8
T56SSILL
 62
8
 10
253.509
 20
-5658.207
 30
-348.104
 70
    32
  0
VERTEX
  8
T56SSILL
 62
8
 10
273.412
 20
-5701.317
 30
-348.126
 70
    32
  0
VERTEX
  8
T56SSILL
 62
8
 10
273.375
 20
-5720.495
 30
-348.139
 70
    32
  0
VERTEX
  8
T56SSILL
 62
8
 10
267.541
 20
-5735.194
 30
-348.151
 70
    32
  0
VERTEX
  8
T56SSILL
 62
8
 10
260.145
 20
-5740.971
 30
-348.157
 70
    32
  0
VERTEX
  8
T56SSILL
 62
8
 10
264.103
 20
-5746.833
 30
-348.160
 70
    32
  0
VERTEX
  8
T56SSILL
 62
8
 10
306.616
 20
-5715.832
 30
-348.125
 70
    32
  0
VERTEX
  8
T56SSILL
 62
8
 10
320.334
 20
-5719.011
 30
-348.123
 70
    32
  0
VERTEX
  8
T56SSILL
 62
8
 10
321.695
 20
-5710.427
 30
-348.117
 70
    32
  0
VERTEX
  8
T56SSILL
 62
8
 10
323.762
 20
-5708.133
 30
-348.115
 70
    32
  0
VERTEX
  8
T56SSILL
 62
8
 10
339.446
 20
-5703.599
 30
-348.106
 70
    32
  0
VERTEX
  8
T56SSILL
 62
8
 10
346.775
 20
-5696.793
 30
-348.100
 70
    32
  0
VERTEX
  8
T56SSILL
 62
8
 10
358.673
 20
-5691.766
 30
-348.092
 70
    32
  0
VERTEX
  8
T56SSILL
 62
8
 10
368.924
 20
-5671.958
 30
-348.076
 70
    32
  0
VERTEX
  8
T56SSILL
 62
8
 10
372.854
 20
-5670.953
 30
-348.074
 70
    32
  0
VERTEX
  8
T56SSILL
 62
8
 10
389.469
 20
-5674.274
 30
-348.071
 70
    32
  0
VERTEX
  8
T56SSILL
 62
8
 10
401.947
 20
-5684.662
 30
-348.073
 70
    32
  0
VERTEX
  8
T56SSILL
 62
8
 10
411.403
 20
-5674.873
 30
-348.064
 70
    32
  0
VERTEX
  8
T56SSILL
 62
8
 10
405.645
 20
-5669.830
 30
-348.062
 70
    32
  0
VERTEX
  8
T56SSILL
 62
8
 10
403.483
 20
-5665.628
 30
-348.060
 70
    32
  0
VERTEX
  8
T56SSILL
 62
8
 10
402.088
 20
-5657.880
 30
-348.055
 70
    32
  0
VERTEX
  8
T56SSILL
 62
8
 10
404.715
 20
-5651.431
 30
-348.050
 70
    32
  0
VERTEX
  8
T56SSILL
 62
8
 10
424.463
 20
-5639.882
 30
-348.036
 70
    32
  0
VERTEX
  8
T56SSILL
 62
8
 10
426.335
 20
-5633.741
 30
-348.031
 70
    32
  0
VERTEX
  8
T56SSILL
 62
8
 10
432.492
 20
-5628.502
 30
-348.026
 70
    32
  0
VERTEX
  8
T56SSILL
 62
8
 10
437.705
 20
-5625.315
 30
-348.022
 70
    32
  0
VERTEX
  8
T56SSILL
 62
8
 10
443.910
 20
-5634.268
 30
-348.026
 70
    32
  0
VERTEX
  8
T56SSILL
 62
8
 10
445.120
 20
-5680.742
 30
-348.057
 70
    32
  0
VERTEX
  8
T56SSILL
 62
8
 10
449.452
 20
-5697.812
 30
-348.067
 70
    32
  0
VERTEX
  8
T56SSILL
 62
8
 10
448.471
 20
-5705.696
 30
-348.072
 70
    32
  0
VERTEX
  8
T56SSILL
 62
8
 10
472.876
 20
-5758.393
 30
-348.100
 70
    32
  0
VERTEX
  8
T56SSILL
 62
8
 10
480.056
 20
-5804.262
 30
-348.128
 70
    32
  0
VERTEX
  8
T56SSILL
 62
8
 10
416.332
 20
-5849.771
 30
-348.179
 70
    32
  0
VERTEX
  8
T56SSILL
 62
8
 10
420.094
 20
-5855.854
 30
-348.182
 70
    32
  0
VERTEX
  8
T56SSILL
 62
8
 10
474.071
 20
-5816.883
 30
-348.138
 70
    32
  0
VERTEX
  8
T56SSILL
 62
8
 10
477.845
 20
-5818.708
 30
-348.139
 70
    32
  0
VERTEX
  8
T56SSILL
 62
8
 10
485.932
 20
-5830.604
 30
-348.147
 70
    32
  0
VERTEX
  8
T56SSILL
 62
8
 10
503.780
 20
-5832.976
 30
-348.148
 70
    32
  0
VERTEX
  8
T56SSILL
 62
8
 10
511.287
 20
-5830.703
 30
-348.145
 70
    32
  0
VERTEX
  8
T56SSILL
 62
8
 10
510.593
 20
-5827.450
 30
-348.143
 70
    32
  0
VERTEX
  8
T56SSILL
 62
8
 10
519.811
 20
-5815.847
 30
-348.133
 70
    32
  0
VERTEX
  8
T56SSILL
 62
8
 10
508.606
 20
-5791.698
 30
-348.115
 70
    32
  0
VERTEX
  8
T56SSILL
 62
8
 10
537.304
 20
-5770.960
 30
-348.096
 70
    32
  0
VERTEX
  8
T56SSILL
 62
8
 10
543.345
 20
-5778.064
 30
-348.101
 70
    32
  0
VERTEX
  8
T56SSILL
 62
8
 10
552.041
 20
-5772.019
 30
-348.096
 70
    32
  0
VERTEX
  8
T56SSILL
 62
8
 10
550.984
 20
-5761.889
 30
-348.088
 70
    32
  0
VERTEX
  8
T56SSILL
 62
8
 10
553.425
 20
-5759.826
 30
-348.086
 70
    32
  0
VERTEX
  8
T56SSILL
 62
8
 10
555.312
 20
-5760.580
 30
-348.086
 70
    32
  0
VERTEX
  8
T56SSILL
 62
8
 10
595.140
 20
-5840.546
 30
-348.146
 70
    32
  0
VERTEX
  8
T56SSILL
 62
8
 10
591.336
 20
-5846.775
 30
-348.151
 70
    32
  0
VERTEX
  8
T56SSILL
 62
8
 10
597.087
 20
-5862.298
 30
-348.163
 70
    32
  0
VERTEX
  8
T56SSILL
 62
8
 10
606.123
 20
-5863.888
 30
-348.164
 70
    32
  0
VERTEX
  8
T56SSILL
 62
8
 10
608.289
 20
-5868.067
 30
-348.167
 70
    32
  0
VERTEX
  8
T56SSILL
 62
8
 10
617.551
 20
-5863.341
 30
-348.162
 70
    32
  0
VERTEX
  8
T56SSILL
 62
8
 10
615.556
 20
-5858.941
 30
-348.159
 70
    32
  0
VERTEX
  8
T56SSILL
 62
8
 10
616.707
 20
-5850.837
 30
-348.152
 70
    32
  0
VERTEX
  8
T56SSILL
 62
8
 10
640.195
 20
-5835.276
 30
-348.138
 70
    32
  0
VERTEX
  8
T56SSILL
 62
8
 10
650.184
 20
-5834.401
 30
-348.137
 70
    32
  0
VERTEX
  8
T56SSILL
 62
8
 10
662.528
 20
-5878.117
 30
-348.170
 70
    32
  0
VERTEX
  8
T56SSILL
 62
8
 10
662.925
 20
-5888.371
 30
-348.178
 70
    32
  0
VERTEX
  8
T56SSILL
 62
8
 10
667.378
 20
-5896.434
 30
-348.184
 70
    32
  0
VERTEX
  8
T56SSILL
 62
8
 10
671.510
 20
-5912.258
 30
-348.196
 70
    32
  0
VERTEX
  8
T56SSILL
 62
8
 10
669.541
 20
-5916.767
 30
-348.200
 70
    32
  0
VERTEX
  8
T56SSILL
 62
8
 10
662.293
 20
-5924.179
 30
-348.206
 70
    32
  0
VERTEX
  8
T56SSILL
 62
8
 10
589.433
 20
-5975.710
 30
-348.280
 70
    32
  0
VERTEX
  8
T56SSILL
 62
8
 10
593.807
 20
-5981.596
 30
-348.289
 70
    32
  0
VERTEX
  8
T56SSILL
 62
8
 10
674.503
 20
-5923.214
 30
-348.205
 70
    32
  0
VERTEX
  8
T56SSILL
 62
8
 10
699.679
 20
-6014.284
 30
-348.326
 70
    32
  0
VERTEX
  8
T56SSILL
 62
8
 10
696.529
 20
-6017.034
 30
-348.331
 70
    32
  0
VERTEX
  8
T56SSILL
 62
8
 10
698.312
 20
-6024.127
 30
-348.343
 70
    32
  0
VERTEX
  8
T56SSILL
 62
8
 10
703.562
 20
-6028.468
 30
-348.349
 70
    32
  0
VERTEX
  8
T56SSILL
 62
8
 10
727.352
 20
-6114.305
 30
-348.419
 70
    32
  0
VERTEX
  8
T56SSILL
 62
8
 10
724.912
 20
-6125.399
 30
-348.368
 70
    32
  0
VERTEX
  8
T56SSILL
 62
8
 10
727.175
 20
-6129.407
 30
-348.359
 70
    32
  0
VERTEX
  8
T56SSILL
 62
8
 10
731.784
 20
-6132.159
 30
-348.362
 70
    32
  0
VERTEX
  8
T56SSILL
 62
8
 10
755.698
 20
-6218.656
 30
-348.194
 70
    32
  0
VERTEX
  8
T56SSILL
 62
8
 10
752.323
 20
-6228.040
 30
-348.211
 70
    32
  0
VERTEX
  8
T56SSILL
 62
8
 10
759.583
 20
-6233.477
 30
-348.209
 70
    32
  0
VERTEX
  8
T56SSILL
 62
8
 10
781.277
 20
-6313.813
 30
-348.353
 70
    32
  0
VERTEX
  8
T56SSILL
 62
8
 10
777.769
 20
-6319.354
 30
-348.381
 70
    32
  0
VERTEX
  8
T56SSILL
 62
8
 10
779.694
 20
-6325.076
 30
-348.394
 70
    32
  0
VERTEX
  8
T56SSILL
 62
8
 10
785.949
 20
-6329.806
 30
-348.390
 70
    32
  0
VERTEX
  8
T56SSILL
 62
8
 10
800.078
 20
-6383.658
 30
-348.518
 70
    32
  0
VERTEX
  8
T56SSILL
 62
8
 10
814.173
 20
-6426.660
 30
-348.724
 70
    32
  0
VERTEX
  8
T56SSILL
 62
8
 10
810.754
 20
-6433.290
 30
-348.743
 70
    32
  0
VERTEX
  8
T56SSILL
 62
8
 10
816.268
 20
-6434.364
 30
-348.769
 70
    32
  0
VERTEX
  8
T56SSILL
 62
8
 10
840.462
 20
-6525.327
 30
-349.297
 70
    32
  0
VERTEX
  8
T56SSILL
 62
8
 10
838.239
 20
-6530.897
 30
-349.315
 70
    32
  0
VERTEX
  8
T56SSILL
 62
8
 10
825.174
 20
-6540.238
 30
-349.310
 70
    32
  0
VERTEX
  8
T56SSILL
 62
8
 10
830.704
 20
-6548.216
 30
-349.370
 70
    32
  0
VERTEX
  8
T56SSILL
 62
8
 10
840.255
 20
-6542.007
 30
-349.376
 70
    32
  0
VERTEX
  8
T56SSILL
 62
8
 10
846.661
 20
-6545.260
 30
-349.416
 70
    32
  0
VERTEX
  8
T56SSILL
 62
8
 10
857.710
 20
-6585.971
 30
-349.653
 70
    32
  0
VERTEX
  8
T56SSILL
 62
8
 10
856.449
 20
-6589.996
 30
-349.667
 70
    32
  0
VERTEX
  8
T56SSILL
 62
8
 10
859.012
 20
-6592.399
 30
-349.689
 70
    32
  0
VERTEX
  8
T56SSILL
 62
8
 10
869.784
 20
-6631.037
 30
-349.915
 70
    32
  0
VERTEX
  8
T56SSILL
 62
8
 10
864.966
 20
-6638.440
 30
-349.932
 70
    32
  0
VERTEX
  8
T56SSILL
 62
8
 10
872.440
 20
-6641.370
 30
-349.974
 70
    32
  0
VERTEX
  8
T56SSILL
 62
8
 10
898.444
 20
-6737.646
 30
-350.534
 70
    32
  0
VERTEX
  8
T56SSILL
 62
8
 10
895.299
 20
-6747.109
 30
-350.568
 70
    32
  0
VERTEX
  8
T56SSILL
 62
8
 10
902.017
 20
-6749.277
 30
-350.603
 70
    32
  0
VERTEX
  8
T56SSILL
 62
8
 10
923.772
 20
-6829.753
 30
-351.072
 70
    32
  0
VERTEX
  8
T56SSILL
 62
8
 10
916.475
 20
-6832.424
 30
-351.057
 70
    32
  0
VERTEX
  8
T56SSILL
 62
8
 10
915.739
 20
-6844.075
 30
-351.110
 70
    32
  0
VERTEX
  8
T56SSILL
 62
8
 10
920.412
 20
-6851.146
 30
-351.161
 70
    32
  0
VERTEX
  8
T56SSILL
 62
8
 10
929.488
 20
-6851.756
 30
-351.199
 70
    32
  0
VERTEX
  8
T56SSILL
 62
8
 10
950.861
 20
-6932.610
 30
-351.667
 70
    32
  0
VERTEX
  8
T56SSILL
 62
8
 10
948.471
 20
-6942.836
 30
-351.707
 70
    32
  0
VERTEX
  8
T56SSILL
 62
8
 10
950.061
 20
-6950.897
 30
-351.752
 70
    32
  0
VERTEX
  8
T56SSILL
 62
8
 10
957.196
 20
-6953.959
 30
-351.794
 70
    32
  0
VERTEX
  8
T56SSILL
 62
8
 10
991.102
 20
-7082.364
 30
-352.538
 70
    32
  0
VERTEX
  8
T56SSILL
 62
8
 10
975.674
 20
-7075.977
 30
-352.449
 70
    32
  0
VERTEX
  8
T56SSILL
 62
8
 10
930.065
 20
-7086.058
 30
-352.324
 70
    32
  0
VERTEX
  8
T56SSILL
 62
8
 10
923.839
 20
-7079.543
 30
-352.270
 70
    32
  0
VERTEX
  8
T56SSILL
 62
8
 10
913.638
 20
-7076.270
 30
-352.215
 70
    32
  0
VERTEX
  8
T56SSILL
 62
8
 10
906.131
 20
-7082.008
 30
-352.214
 70
    32
  0
VERTEX
  8
T56SSILL
 62
8
 10
905.972
 20
-7093.251
 30
-352.268
 70
    32
  0
VERTEX
  8
T56SSILL
 62
8
 10
903.755
 20
-7093.537
 30
-352.261
 70
    32
  0
VERTEX
  8
T56SSILL
 62
8
 10
911.809
 20
-7103.678
 30
-352.340
 70
    32
  0
VERTEX
  8
T56SSILL
 62
8
 10
918.995
 20
-7119.604
 30
-352.443
 70
    32
  0
VERTEX
  8
T56SSILL
 62
8
 10
925.404
 20
-7127.177
 30
-352.504
 70
    32
  0
VERTEX
  8
T56SSILL
 62
8
 10
939.940
 20
-7123.053
 30
-352.539
 70
    32
  0
VERTEX
  8
T56SSILL
 62
8
 10
938.397
 20
-7115.902
 30
-352.499
 70
    32
  0
VERTEX
  8
T56SSILL
 62
8
 10
933.350
 20
-7112.350
 30
-352.463
 70
    32
  0
VERTEX
  8
T56SSILL
 62
8
 10
936.164
 20
-7092.185
 30
-352.377
 70
    32
  0
VERTEX
  8
T56SSILL
 62
8
 10
975.661
 20
-7082.110
 30
-352.478
 70
    32
  0
VERTEX
  8
T56SSILL
 62
8
 10
986.394
 20
-7085.712
 30
-352.536
 70
    32
  0
VERTEX
  8
T56SSILL
 62
8
 10
997.440
 20
-7097.022
 30
-352.632
 70
    32
  0
VERTEX
  8
T56SSILL
 62
8
 10
1016.718
 20
-7170.558
 30
-353.057
 70
    32
  0
VERTEX
  8
T56SSILL
 62
8
 10
1003.137
 20
-7164.652
 30
-352.978
 70
    32
  0
VERTEX
  8
T56SSILL
 62
8
 10
997.839
 20
-7163.780
 30
-352.954
 70
    32
  0
VERTEX
  8
T56SSILL
 62
8
 10
987.907
 20
-7165.688
 30
-352.925
 70
    32
  0
VERTEX
  8
T56SSILL
 62
8
 10
975.673
 20
-7171.203
 30
-352.905
 70
    32
  0
VERTEX
  8
T56SSILL
 62
8
 10
956.014
 20
-7185.304
 30
-352.898
 70
    32
  0
VERTEX
  8
T56SSILL
 62
8
 10
960.739
 20
-7192.346
 30
-352.950
 70
    32
  0
VERTEX
  8
T56SSILL
 62
8
 10
969.025
 20
-7193.900
 30
-352.989
 70
    32
  0
VERTEX
  8
T56SSILL
 62
8
 10
978.383
 20
-7187.405
 30
-352.993
 70
    32
  0
VERTEX
  8
T56SSILL
 62
8
 10
983.776
 20
-7178.865
 30
-352.973
 70
    32
  0
VERTEX
  8
T56SSILL
 62
8
 10
983.931
 20
-7174.082
 30
-352.950
 70
    32
  0
VERTEX
  8
T56SSILL
 62
8
 10
993.162
 20
-7171.046
 30
-352.971
 70
    32
  0
VERTEX
  8
T56SSILL
 62
8
 10
1002.628
 20
-7171.972
 30
-353.011
 70
    32
  0
VERTEX
  8
T56SSILL
 62
8
 10
1016.365
 20
-7178.852
 30
-353.096
 70
    32
  0
VERTEX
  8
T56SSILL
 62
8
 10
1020.655
 20
-7183.925
 30
-353.136
 70
    32
  0
VERTEX
  8
T56SSILL
 62
8
 10
1029.135
 20
-7216.199
 30
-353.323
 70
    32
  0
VERTEX
  8
T56SSILL
 62
8
 10
1029.084
 20
-7231.883
 30
-353.398
 70
    32
  0
VERTEX
  8
T56SSILL
 62
8
 10
1021.189
 20
-7236.025
 30
-353.388
 70
    32
  0
VERTEX
  8
T56SSILL
 62
8
 10
1021.177
 20
-7261.459
 30
-353.510
 70
    32
  0
VERTEX
  8
T56SSILL
 62
8
 10
1009.668
 20
-7270.258
 30
-353.509
 70
    32
  0
VERTEX
  8
T56SSILL
 62
8
 10
1004.680
 20
-7270.576
 30
-353.491
 70
    32
  0
VERTEX
  8
T56SSILL
 62
8
 10
1002.684
 20
-7268.096
 30
-353.472
 70
    32
  0
VERTEX
  8
T56SSILL
 62
8
 10
982.451
 20
-7282.608
 30
-353.465
 70
    32
  0
VERTEX
  8
T56SSILL
 62
8
 10
983.532
 20
-7284.115
 30
-353.476
 70
    32
  0
VERTEX
  8
T56SSILL
 62
8
 10
978.278
 20
-7291.650
 30
-353.493
 70
    32
  0
VERTEX
  8
T56SSILL
 62
8
 10
990.709
 20
-7305.355
 30
-353.605
 70
    32
  0
VERTEX
  8
T56SSILL
 62
8
 10
1013.537
 20
-7285.954
 30
-353.599
 70
    32
  0
VERTEX
  8
T56SSILL
 62
8
 10
1016.187
 20
-7286.770
 30
-353.613
 70
    32
  0
VERTEX
  8
T56SSILL
 62
8
 10
1015.831
 20
-7293.545
 30
-353.644
 70
    32
  0
VERTEX
  8
T56SSILL
 62
8
 10
1026.961
 20
-7290.126
 30
-353.670
 70
    32
  0
VERTEX
  8
T56SSILL
 62
8
 10
1029.794
 20
-7269.079
 30
-353.579
 70
    32
  0
VERTEX
  8
T56SSILL
 62
8
 10
1035.593
 20
-7263.833
 30
-353.576
 70
    32
  0
VERTEX
  8
T56SSILL
 62
8
 10
1038.972
 20
-7265.212
 30
-353.565
 70
    32
  0
VERTEX
  8
T56SSILL
 62
8
 10
1050.158
 20
-7305.651
 30
-353.199
 70
    32
  0
VERTEX
  8
T56SSILL
 62
8
 10
1049.348
 20
-7311.339
 30
-353.200
 70
    32
  0
VERTEX
  8
T56SSILL
 62
8
 10
1052.001
 20
-7313.674
 30
-353.135
 70
    32
  0
VERTEX
  8
T56SSILL
 62
8
 10
1067.440
 20
-7371.708
 30
-352.623
 70
    32
  0
VERTEX
  8
T56SSILL
 62
8
 10
1073.960
 20
-7383.222
 30
-352.445
 70
    32
  0
VERTEX
  8
T56SSILL
 62
8
 10
1074.723
 20
-7390.498
 30
-352.407
 70
    32
  0
VERTEX
  8
T56SSILL
 62
8
 10
1078.925
 20
-7392.265
 30
-352.309
 70
    32
  0
VERTEX
  8
T56SSILL
 62
8
 10
1099.344
 20
-7430.428
 30
-351.963
 70
    32
  0
VERTEX
  8
T56SSILL
 62
8
 10
1087.311
 20
-7428.954
 30
-352.062
 70
    32
  0
VERTEX
  8
T56SSILL
 62
8
 10
1077.809
 20
-7430.553
 30
-352.222
 70
    32
  0
VERTEX
  8
T56SSILL
 62
8
 10
998.084
 20
-7485.891
 30
-353.826
 70
    32
  0
VERTEX
  8
T56SSILL
 62
8
 10
1002.285
 20
-7492.657
 30
-353.713
 70
    32
  0
VERTEX
  8
T56SSILL
 62
8
 10
1077.087
 20
-7438.786
 30
-352.214
 70
    32
  0
VERTEX
  8
T56SSILL
 62
8
 10
1088.854
 20
-7436.105
 30
-352.095
 70
    32
  0
VERTEX
  8
T56SSILL
 62
8
 10
1100.117
 20
-7437.263
 30
-352.027
 70
    32
  0
VERTEX
  8
T56SSILL
 62
8
 10
1104.638
 20
-7439.779
 30
-351.851
 70
    32
  0
VERTEX
  8
T56SSILL
 62
8
 10
1126.821
 20
-7480.955
 30
-351.413
 70
    32
  0
VERTEX
  8
T56SSILL
 62
8
 10
1124.951
 20
-7490.784
 30
-351.648
 70
    32
  0
VERTEX
  8
T56SSILL
 62
8
 10
1127.046
 20
-7497.950
 30
-351.655
 70
    32
  0
VERTEX
  8
T56SSILL
 62
8
 10
1117.689
 20
-7550.012
 30
-352.583
 70
    32
  0
VERTEX
  8
T56SSILL
 62
8
 10
1142.131
 20
-7637.453
 30
-353.247
 70
    32
  0
VERTEX
  8
T56SSILL
 62
8
 10
1145.818
 20
-7645.621
 30
-353.143
 70
    32
  0
VERTEX
  8
T56SSILL
 62
8
 10
1141.152
 20
-7660.053
 30
-353.665
 70
    32
  0
VERTEX
  8
T56SSILL
 62
8
 10
1134.087
 20
-7672.025
 30
-354.300
 70
    32
  0
VERTEX
  8
T56SSILL
 62
8
 10
1119.101
 20
-7706.023
 30
-355.278
 70
    32
  0
VERTEX
  8
T56SSILL
 62
8
 10
1120.044
 20
-7716.875
 30
-355.465
 70
    32
  0
VERTEX
  8
T56SSILL
 62
8
 10
1132.790
 20
-7760.018
 30
-355.178
 70
    32
  0
VERTEX
  8
T56SSILL
 62
8
 10
1142.624
 20
-7807.216
 30
-354.871
 70
    32
  0
VERTEX
  8
T56SSILL
 62
8
 10
1149.269
 20
-7818.005
 30
-354.806
 70
    32
  0
VERTEX
  8
T56SSILL
 62
8
 10
1182.689
 20
-7834.194
 30
-356.029
 70
    32
  0
VERTEX
  8
T56SSILL
 62
8
 10
1191.673
 20
-7836.682
 30
-356.488
 70
    32
  0
VERTEX
  8
T56SSILL
 62
8
 10
1198.768
 20
-7842.998
 30
-356.820
 70
    32
  0
VERTEX
  8
T56SSILL
 62
8
 10
1205.710
 20
-7868.006
 30
-357.232
 70
    32
  0
VERTEX
  8
T56SSILL
 62
8
 10
1197.883
 20
-7873.475
 30
-357.166
 70
    32
  0
VERTEX
  8
T56SSILL
 62
8
 10
1202.361
 20
-7880.810
 30
-357.222
 70
    32
  0
VERTEX
  8
T56SSILL
 62
8
 10
1207.655
 20
-7877.035
 30
-357.235
 70
    32
  0
VERTEX
  8
T56SSILL
 62
8
 10
1218.942
 20
-7918.029
 30
-357.070
 70
    32
  0
VERTEX
  8
T56SSILL
 62
8
 10
1207.943
 20
-7920.598
 30
-357.163
 70
    32
  0
VERTEX
  8
T56SSILL
 62
8
 10
1209.929
 20
-7928.380
 30
-357.133
 70
    32
  0
VERTEX
  8
T56SSILL
 62
8
 10
1220.969
 20
-7925.391
 30
-357.040
 70
    32
  0
VERTEX
  8
T56SSILL
 62
8
 10
1230.801
 20
-7961.102
 30
-356.897
 70
    32
  0
VERTEX
  8
T56SSILL
 62
8
 10
1216.209
 20
-7965.307
 30
-357.019
 70
    32
  0
VERTEX
  8
T56SSILL
 62
8
 10
1218.168
 20
-7972.695
 30
-356.990
 70
    32
  0
VERTEX
  8
T56SSILL
 62
8
 10
1232.760
 20
-7968.490
 30
-356.868
 70
    32
  0
VERTEX
  8
T56SSILL
 62
8
 10
1253.881
 20
-8044.628
 30
-356.561
 70
    32
  0
VERTEX
  8
T56SSILL
 62
8
 10
1251.603
 20
-8071.011
 30
-356.539
 70
    32
  0
VERTEX
  8
T56SSILL
 62
8
 10
1249.833
 20
-8073.237
 30
-356.551
 70
    32
  0
VERTEX
  8
T56SSILL
 62
8
 10
1246.586
 20
-8071.243
 30
-356.583
 70
    32
  0
VERTEX
  8
T56SSILL
 62
8
 10
1239.720
 20
-8078.528
 30
-356.631
 70
    32
  0
VERTEX
  8
T56SSILL
 62
8
 10
1244.936
 20
-8084.902
 30
-356.575
 70
    32
  0
VERTEX
  8
T56SSILL
 62
8
 10
1237.443
 20
-8095.275
 30
-356.625
 70
    32
  0
VERTEX
  8
T56SSILL
 62
8
 10
1207.473
 20
-8096.053
 30
-356.887
 70
    32
  0
VERTEX
  8
T56SSILL
 62
8
 10
1160.115
 20
-8075.551
 30
-357.154
 70
    32
  0
VERTEX
  8
T56SSILL
 62
8
 10
1164.659
 20
-8066.925
 30
-357.183
 70
    32
  0
VERTEX
  8
T56SSILL
 62
8
 10
1162.533
 20
-8063.887
 30
-357.157
 70
    32
  0
VERTEX
  8
T56SSILL
 62
8
 10
1162.547
 20
-8060.211
 30
-357.151
 70
    32
  0
VERTEX
  8
T56SSILL
 62
8
 10
1159.545
 20
-8056.384
 30
-357.115
 70
    32
  0
VERTEX
  8
T56SSILL
 62
8
 10
1155.473
 20
-8037.783
 30
-357.043
 70
    32
  0
VERTEX
  8
T56SSILL
 62
8
 10
1156.762
 20
-8022.221
 30
-357.028
 70
    32
  0
VERTEX
  8
T56SSILL
 62
8
 10
1154.049
 20
-8019.269
 30
-356.996
 70
    32
  0
VERTEX
  8
T56SSILL
 62
8
 10
1142.973
 20
-8016.997
 30
-356.885
 70
    32
  0
VERTEX
  8
T56SSILL
 62
8
 10
1135.658
 20
-8021.793
 30
-356.822
 70
    32
  0
VERTEX
  8
T56SSILL
 62
8
 10
1127.605
 20
-8035.083
 30
-356.767
 70
    32
  0
VERTEX
  8
T56SSILL
 62
8
 10
1117.143
 20
-8039.387
 30
-356.673
 70
    32
  0
VERTEX
  8
T56SSILL
 62
8
 10
1120.305
 20
-8042.671
 30
-356.710
 70
    32
  0
VERTEX
  8
T56SSILL
 62
8
 10
1126.417
 20
-8055.101
 30
-356.791
 70
    32
  0
VERTEX
  8
T56SSILL
 62
8
 10
1126.836
 20
-8064.941
 30
-356.812
 70
    32
  0
VERTEX
  8
T56SSILL
 62
8
 10
1113.503
 20
-8059.289
 30
-356.673
 70
    32
  0
VERTEX
  8
T56SSILL
 62
8
 10
1109.277
 20
-8067.421
 30
-356.646
 70
    32
  0
VERTEX
  8
T56SSILL
 62
8
 10
1146.933
 20
-8082.566
 30
-357.039
 70
    32
  0
VERTEX
  8
T56SSILL
 62
8
 10
1151.201
 20
-8087.124
 30
-357.088
 70
    32
  0
VERTEX
  8
T56SSILL
 62
8
 10
1154.088
 20
-8093.404
 30
-357.127
 70
    32
  0
VERTEX
  8
T56SSILL
 62
8
 10
1158.617
 20
-8095.408
 30
-357.175
 70
    32
  0
VERTEX
  8
T56SSILL
 62
8
 10
1163.052
 20
-8090.040
 30
-357.208
 70
    32
  0
VERTEX
  8
T56SSILL
 62
8
 10
1201.026
 20
-8106.256
 30
-356.928
 70
    32
  0
VERTEX
  8
T56SSILL
 62
8
 10
1214.606
 20
-8109.795
 30
-356.803
 70
    32
  0
VERTEX
  8
T56SSILL
 62
8
 10
1225.509
 20
-8109.817
 30
-356.707
 70
    32
  0
VERTEX
  8
T56SSILL
 62
8
 10
1219.377
 20
-8117.466
 30
-356.748
 70
    32
  0
VERTEX
  8
T56SSILL
 62
8
 10
1212.037
 20
-8119.677
 30
-356.809
 70
    32
  0
VERTEX
  8
T56SSILL
 62
8
 10
1192.735
 20
-8112.275
 30
-356.991
 70
    32
  0
VERTEX
  8
T56SSILL
 62
8
 10
1184.009
 20
-8116.441
 30
-357.061
 70
    32
  0
VERTEX
  8
T56SSILL
 62
8
 10
1175.877
 20
-8117.606
 30
-357.131
 70
    32
  0
VERTEX
  8
T56SSILL
 62
8
 10
1165.430
 20
-8123.624
 30
-357.213
 70
    32
  0
VERTEX
  8
T56SSILL
 62
8
 10
1152.139
 20
-8134.975
 30
-357.181
 70
    32
  0
VERTEX
  8
T56SSILL
 62
8
 10
1150.605
 20
-8142.948
 30
-357.180
 70
    32
  0
VERTEX
  8
T56SSILL
 62
8
 10
1143.550
 20
-8154.892
 30
-357.133
 70
    32
  0
VERTEX
  8
T56SSILL
 62
8
 10
1145.401
 20
-8167.394
 30
-357.173
 70
    32
  0
VERTEX
  8
T56SSILL
 62
8
 10
1151.702
 20
-8179.476
 30
-357.245
 70
    32
  0
VERTEX
  8
T56SSILL
 62
8
 10
1166.641
 20
-8195.430
 30
-357.088
 70
    32
  0
VERTEX
  8
T56SSILL
 62
8
 10
1180.307
 20
-8192.009
 30
-356.973
 70
    32
  0
VERTEX
  8
T56SSILL
 62
8
 10
1194.798
 20
-8200.084
 30
-356.833
 70
    32
  0
VERTEX
  8
T56SSILL
 62
8
 10
1202.120
 20
-8198.840
 30
-356.771
 70
    32
  0
VERTEX
  8
T56SSILL
 62
8
 10
1207.980
 20
-8192.582
 30
-356.729
 70
    32
  0
VERTEX
  8
T56SSILL
 62
8
 10
1225.836
 20
-8196.685
 30
-356.565
 70
    32
  0
VERTEX
  8
T56SSILL
 62
8
 10
1236.746
 20
-8192.714
 30
-356.476
 70
    32
  0
VERTEX
  8
T56SSILL
 62
8
 10
1240.726
 20
-8186.695
 30
-356.450
 70
    32
  0
VERTEX
  8
T56SSILL
 62
8
 10
1238.447
 20
-8172.659
 30
-356.493
 70
    32
  0
VERTEX
  8
T56SSILL
 62
8
 10
1235.851
 20
-8162.943
 30
-356.531
 70
    32
  0
VERTEX
  8
T56SSILL
 62
8
 10
1228.385
 20
-8148.118
 30
-356.620
 70
    32
  0
SEQEND
  8
T56SSILL
  0
POLYLINE
  8
T56SSILL
 62
8
 66
     1
 70
     9
  0
VERTEX
  8
T56SSILL
 62
8
 10
475.317
 20
-5687.900
 30
-348.052
 70
    32
  0
VERTEX
  8
T56SSILL
 62
8
 10
471.301
 20
-5669.873
 30
-348.041
 70
    32
  0
VERTEX
  8
T56SSILL
 62
8
 10
467.231
 20
-5630.620
 30
-348.016
 70
    32
  0
VERTEX
  8
T56SSILL
 62
8
 10
461.959
 20
-5618.710
 30
-348.010
 70
    32
  0
VERTEX
  8
T56SSILL
 62
8
 10
463.287
 20
-5616.282
 30
-348.008
 70
    32
  0
VERTEX
  8
T56SSILL
 62
8
 10
460.536
 20
-5610.766
 30
-348.005
 70
    32
  0
VERTEX
  8
T56SSILL
 62
8
 10
471.608
 20
-5600.826
 30
-347.995
 70
    32
  0
VERTEX
  8
T56SSILL
 62
8
 10
477.944
 20
-5590.727
 30
-347.986
 70
    32
  0
VERTEX
  8
T56SSILL
 62
8
 10
485.151
 20
-5585.297
 30
-347.980
 70
    32
  0
VERTEX
  8
T56SSILL
 62
8
 10
497.207
 20
-5580.345
 30
-347.972
 70
    32
  0
VERTEX
  8
T56SSILL
 62
8
 10
508.491
 20
-5580.533
 30
-347.969
 70
    32
  0
VERTEX
  8
T56SSILL
 62
8
 10
519.352
 20
-5587.061
 30
-347.970
 70
    32
  0
VERTEX
  8
T56SSILL
 62
8
 10
546.368
 20
-5628.762
 30
-347.989
 70
    32
  0
VERTEX
  8
T56SSILL
 62
8
 10
546.013
 20
-5632.825
 30
-347.992
 70
    32
  0
VERTEX
  8
T56SSILL
 62
8
 10
549.901
 20
-5640.206
 30
-347.995
 70
    32
  0
VERTEX
  8
T56SSILL
 62
8
 10
553.936
 20
-5639.093
 30
-347.993
 70
    32
  0
VERTEX
  8
T56SSILL
 62
8
 10
602.365
 20
-5713.821
 30
-348.046
 70
    32
  0
VERTEX
  8
T56SSILL
 62
8
 10
603.499
 20
-5725.174
 30
-348.054
 70
    32
  0
VERTEX
  8
T56SSILL
 62
8
 10
609.687
 20
-5724.104
 30
-348.053
 70
    32
  0
VERTEX
  8
T56SSILL
 62
8
 10
618.835
 20
-5739.007
 30
-348.064
 70
    32
  0
VERTEX
  8
T56SSILL
 62
8
 10
602.863
 20
-5733.889
 30
-348.061
 70
    32
  0
VERTEX
  8
T56SSILL
 62
8
 10
586.089
 20
-5730.902
 30
-348.060
 70
    32
  0
VERTEX
  8
T56SSILL
 62
8
 10
567.633
 20
-5738.713
 30
-348.068
 70
    32
  0
VERTEX
  8
T56SSILL
 62
8
 10
555.647
 20
-5740.803
 30
-348.071
 70
    32
  0
VERTEX
  8
T56SSILL
 62
8
 10
551.213
 20
-5739.421
 30
-348.070
 70
    32
  0
VERTEX
  8
T56SSILL
 62
8
 10
539.461
 20
-5729.347
 30
-348.063
 70
    32
  0
VERTEX
  8
T56SSILL
 62
8
 10
529.269
 20
-5717.163
 30
-348.054
 70
    32
  0
VERTEX
  8
T56SSILL
 62
8
 10
522.749
 20
-5705.067
 30
-348.048
 70
    32
  0
VERTEX
  8
T56SSILL
 62
8
 10
515.916
 20
-5686.486
 30
-348.037
 70
    32
  0
VERTEX
  8
T56SSILL
 62
8
 10
507.726
 20
-5672.535
 30
-348.031
 70
    32
  0
VERTEX
  8
T56SSILL
 62
8
 10
500.210
 20
-5671.626
 30
-348.033
 70
    32
  0
VERTEX
  8
T56SSILL
 62
8
 10
497.032
 20
-5672.908
 30
-348.035
 70
    32
  0
VERTEX
  8
T56SSILL
 62
8
 10
489.696
 20
-5683.673
 30
-348.044
 70
    32
  0
VERTEX
  8
T56SSILL
 62
8
 10
492.946
 20
-5690.419
 30
-348.048
 70
    32
  0
VERTEX
  8
T56SSILL
 62
8
 10
492.734
 20
-5693.430
 30
-348.050
 70
    32
  0
VERTEX
  8
T56SSILL
 62
8
 10
480.662
 20
-5699.828
 30
-348.058
 70
    32
  0
SEQEND
  8
T56SSILL
  0
ENDSEC
  0
EOF
