999
********************************
999
*   DXF File - Entities Only   *
999
*        3D Data Format        *
999
*     Output from ENVISAGE     *
999
*     24-Dec-2007 12:24:00     *
999
********************************
  0
SECTION 
  2
HEADER
  9
$ACADVER
  1
AC1009
  9
$EXTMIN
 10
-290000.000
 20
-250000.000
 30
-4000.000
  9
$EXTMAX
 10
5000000.000
 20
600000.000
 30
6000.000
  0
ENDSEC
  0
SECTION
  2
ENTITIES
  0
POLYLINE
  8
T57SSILL
 62
3
 66
     1
 70
     9
  0
VERTEX
  8
T57SSILL
 62
3
 10
672.139
 20
-5661.161
 30
-485.493
 70
    32
  0
VERTEX
  8
T57SSILL
 62
3
 10
667.942
 20
-5661.771
 30
-483.351
 70
    32
  0
VERTEX
  8
T57SSILL
 62
3
 10
651.915
 20
-5654.302
 30
-478.555
 70
    32
  0
VERTEX
  8
T57SSILL
 62
3
 10
647.985
 20
-5664.077
 30
-478.676
 70
    32
  0
VERTEX
  8
T57SSILL
 62
3
 10
676.194
 20
-5676.120
 30
-483.422
 70
    32
  0
VERTEX
  8
T57SSILL
 62
3
 10
686.965
 20
-5682.319
 30
-485.323
 70
    32
  0
SEQEND
  8
T57SSILL
  0
POLYLINE
  8
T57SSILL
 62
3
 66
     1
 70
     9
  0
VERTEX
  8
T57SSILL
 62
3
 10
498.449
 20
-5940.857
 30
-485.682
 70
    32
  0
VERTEX
  8
T57SSILL
 62
3
 10
471.824
 20
-5927.560
 30
-479.883
 70
    32
  0
VERTEX
  8
T57SSILL
 62
3
 10
476.762
 20
-5918.514
 30
-479.562
 70
    32
  0
VERTEX
  8
T57SSILL
 62
3
 10
505.322
 20
-5932.447
 30
-485.598
 70
    32
  0
SEQEND
  8
T57SSILL
  0
POLYLINE
  8
T57SSILL
 62
3
 66
     1
 70
     9
  0
VERTEX
  8
T57SSILL
 62
3
 10
934.255
 20
-7055.849
 30
-483.244
 70
    32
  0
VERTEX
  8
T57SSILL
 62
3
 10
926.849
 20
-7074.995
 30
-483.320
 70
    32
  0
VERTEX
  8
T57SSILL
 62
3
 10
935.553
 20
-7080.570
 30
-483.347
 70
    32
  0
VERTEX
  8
T57SSILL
 62
3
 10
942.352
 20
-7058.999
 30
-483.052
 70
    32
  0
SEQEND
  8
T57SSILL
  0
POLYLINE
  8
T57SSILL
 62
3
 66
     1
 70
     9
  0
VERTEX
  8
T57SSILL
 62
3
 10
1029.487
 20
-6992.999
 30
-487.346
 70
    32
  0
VERTEX
  8
T57SSILL
 62
3
 10
1037.404
 20
-6995.358
 30
-487.843
 70
    32
  0
VERTEX
  8
T57SSILL
 62
3
 10
1042.982
 20
-6999.721
 30
-488.126
 70
    32
  0
VERTEX
  8
T57SSILL
 62
3
 10
1054.451
 20
-6996.194
 30
-486.222
 70
    32
  0
VERTEX
  8
T57SSILL
 62
3
 10
1063.088
 20
-7004.424
 30
-484.768
 70
    32
  0
VERTEX
  8
T57SSILL
 62
3
 10
1062.282
 20
-7010.970
 30
-485.526
 70
    32
  0
VERTEX
  8
T57SSILL
 62
3
 10
1050.918
 20
-7009.277
 30
-487.629
 70
    32
  0
VERTEX
  8
T57SSILL
 62
3
 10
1046.919
 20
-7009.736
 30
-488.155
 70
    32
  0
VERTEX
  8
T57SSILL
 62
3
 10
1044.575
 20
-7014.702
 30
-487.868
 70
    32
  0
SEQEND
  8
T57SSILL
  0
POLYLINE
  8
T57SSILL
 62
3
 66
     1
 70
     9
  0
VERTEX
  8
T57SSILL
 62
3
 10
1136.748
 20
-7136.218
 30
-491.326
 70
    32
  0
VERTEX
  8
T57SSILL
 62
3
 10
1168.427
 20
-7138.988
 30
-497.012
 70
    32
  0
VERTEX
  8
T57SSILL
 62
3
 10
1170.062
 20
-7150.797
 30
-496.833
 70
    32
  0
VERTEX
  8
T57SSILL
 62
3
 10
1143.716
 20
-7149.120
 30
-491.495
 70
    32
  0
SEQEND
  8
T57SSILL
  0
POLYLINE
  8
T57SSILL
 62
3
 66
     1
 70
     9
  0
VERTEX
  8
T57SSILL
 62
3
 10
681.080
 20
-5708.917
 30
-485.034
 70
    32
  0
VERTEX
  8
T57SSILL
 62
3
 10
647.934
 20
-5695.481
 30
-492.819
 70
    32
  0
VERTEX
  8
T57SSILL
 62
3
 10
651.864
 20
-5685.665
 30
-492.832
 70
    32
  0
VERTEX
  8
T57SSILL
 62
3
 10
679.284
 20
-5697.465
 30
-485.186
 70
    32
  0
SEQEND
  8
T57SSILL
  0
POLYLINE
  8
T57SSILL
 62
2
 66
     1
 70
     9
  0
VERTEX
  8
T57SSILL
 62
2
 10
5873.296
 20
-9924.109
 30
-512.999
 70
    32
  0
VERTEX
  8
T57SSILL
 62
2
 10
5873.371
 20
-9924.056
 30
-512.999
 70
    32
  0
SEQEND
  8
T57SSILL
  0
POLYLINE
  8
T57SSILL
 62
2
 66
     1
 70
     9
  0
VERTEX
  8
T57SSILL
 62
2
 10
1396.294
 20
-7238.871
 30
-493.924
 70
    32
  0
VERTEX
  8
T57SSILL
 62
2
 10
1401.753
 20
-7248.330
 30
-493.992
 70
    32
  0
VERTEX
  8
T57SSILL
 62
2
 10
1431.660
 20
-7341.519
 30
-494.518
 70
    32
  0
VERTEX
  8
T57SSILL
 62
2
 10
1424.281
 20
-7353.430
 30
-494.518
 70
    32
  0
VERTEX
  8
T57SSILL
 62
2
 10
1386.989
 20
-7379.505
 30
-494.393
 70
    32
  0
VERTEX
  8
T57SSILL
 62
2
 10
1378.801
 20
-7259.751
 30
-493.898
 70
    32
  0
VERTEX
  8
T57SSILL
 62
2
 10
1384.717
 20
-7255.749
 30
-493.918
 70
    32
  0
VERTEX
  8
T57SSILL
 62
2
 10
1382.984
 20
-7245.318
 30
-493.869
 70
    32
  0
VERTEX
  8
T57SSILL
 62
2
 10
1378.050
 20
-7242.588
 30
-493.830
 70
    32
  0
VERTEX
  8
T57SSILL
 62
2
 10
1373.016
 20
-7184.783
 30
-493.584
 70
    32
  0
VERTEX
  8
T57SSILL
 62
2
 10
1381.106
 20
-7183.996
 30
-493.630
 70
    32
  0
VERTEX
  8
T57SSILL
 62
2
 10
1395.553
 20
-7229.013
 30
-493.883
 70
    32
  0
VERTEX
  8
T57SSILL
 62
2
 10
1389.300
 20
-7231.653
 30
-493.856
 70
    32
  0
VERTEX
  8
T57SSILL
 62
2
 10
1388.990
 20
-7236.572
 30
-493.872
 70
    32
  0
SEQEND
  8
T57SSILL
  0
POLYLINE
  8
T57SSILL
 62
2
 66
     1
 70
     9
  0
VERTEX
  8
T57SSILL
 62
2
 10
6417.265
 20
-8254.093
 30
-512.342
 70
    32
  0
VERTEX
  8
T57SSILL
 62
2
 10
6431.447
 20
-8247.851
 30
-512.443
 70
    32
  0
VERTEX
  8
T57SSILL
 62
2
 10
6434.529
 20
-8247.875
 30
-512.467
 70
    32
  0
VERTEX
  8
T57SSILL
 62
2
 10
6439.351
 20
-8253.074
 30
-512.509
 70
    32
  0
VERTEX
  8
T57SSILL
 62
2
 10
6446.459
 20
-8249.800
 30
-512.560
 70
    32
  0
VERTEX
  8
T57SSILL
 62
2
 10
6454.219
 20
-8250.970
 30
-512.620
 70
    32
  0
VERTEX
  8
T57SSILL
 62
2
 10
6461.481
 20
-8239.152
 30
-512.663
 70
    32
  0
VERTEX
  8
T57SSILL
 62
2
 10
6470.760
 20
-8235.261
 30
-512.729
 70
    32
  0
VERTEX
  8
T57SSILL
 62
2
 10
6483.278
 20
-8236.204
 30
-512.826
 70
    32
  0
VERTEX
  8
T57SSILL
 62
2
 10
6497.141
 20
-8243.270
 30
-512.918
 70
    32
  0
VERTEX
  8
T57SSILL
 62
2
 10
6500.285
 20
-8251.240
 30
-512.917
 70
    32
  0
VERTEX
  8
T57SSILL
 62
2
 10
6458.949
 20
-8279.335
 30
-512.687
 70
    32
  0
VERTEX
  8
T57SSILL
 62
2
 10
6450.157
 20
-8281.663
 30
-512.622
 70
    32
  0
VERTEX
  8
T57SSILL
 62
2
 10
6441.565
 20
-8280.997
 30
-512.556
 70
    32
  0
VERTEX
  8
T57SSILL
 62
2
 10
6434.445
 20
-8276.837
 30
-512.497
 70
    32
  0
VERTEX
  8
T57SSILL
 62
2
 10
6417.162
 20
-8254.138
 30
-512.341
 70
    32
  0
SEQEND
  8
T57SSILL
  0
POLYLINE
  8
T57SSILL
 62
2
 66
     1
 70
     9
  0
VERTEX
  8
T57SSILL
 62
2
 10
6144.944
 20
-9623.464
 30
-512.972
 70
    32
  0
VERTEX
  8
T57SSILL
 62
2
 10
6121.491
 20
-9639.776
 30
-512.974
 70
    32
  0
VERTEX
  8
T57SSILL
 62
2
 10
6135.126
 20
-9650.824
 30
-512.973
 70
    32
  0
VERTEX
  8
T57SSILL
 62
2
 10
6147.106
 20
-9654.979
 30
-512.973
 70
    32
  0
VERTEX
  8
T57SSILL
 62
2
 10
6151.891
 20
-9654.459
 30
-512.972
 70
    32
  0
VERTEX
  8
T57SSILL
 62
2
 10
6156.100
 20
-9650.158
 30
-512.972
 70
    32
  0
VERTEX
  8
T57SSILL
 62
2
 10
6159.912
 20
-9641.094
 30
-512.971
 70
    32
  0
VERTEX
  8
T57SSILL
 62
2
 10
6152.628
 20
-9623.728
 30
-512.971
 70
    32
  0
SEQEND
  8
T57SSILL
  0
POLYLINE
  8
T57SSILL
 62
2
 66
     1
 70
     9
  0
VERTEX
  8
T57SSILL
 62
2
 10
5816.666
 20
-9857.628
 30
-513.000
 70
    32
  0
VERTEX
  8
T57SSILL
 62
2
 10
5792.635
 20
-9875.000
 30
-513.002
 70
    32
  0
VERTEX
  8
T57SSILL
 62
2
 10
5795.114
 20
-9892.354
 30
-513.003
 70
    32
  0
VERTEX
  8
T57SSILL
 62
2
 10
5799.478
 20
-9906.018
 30
-513.003
 70
    32
  0
VERTEX
  8
T57SSILL
 62
2
 10
5803.884
 20
-9902.773
 30
-513.003
 70
    32
  0
VERTEX
  8
T57SSILL
 62
2
 10
5812.760
 20
-9921.224
 30
-513.003
 70
    32
  0
VERTEX
  8
T57SSILL
 62
2
 10
5817.674
 20
-9938.758
 30
-513.003
 70
    32
  0
VERTEX
  8
T57SSILL
 62
2
 10
5822.537
 20
-9947.891
 30
-513.003
 70
    32
  0
VERTEX
  8
T57SSILL
 62
2
 10
5828.482
 20
-9945.201
 30
-513.003
 70
    32
  0
VERTEX
  8
T57SSILL
 62
2
 10
5834.712
 20
-9952.003
 30
-513.003
 70
    32
  0
VERTEX
  8
T57SSILL
 62
2
 10
5873.754
 20
-9923.779
 30
-512.999
 70
    32
  0
VERTEX
  8
T57SSILL
 62
2
 10
5874.115
 20
-9921.065
 30
-512.999
 70
    32
  0
VERTEX
  8
T57SSILL
 62
2
 10
5870.935
 20
-9915.568
 30
-512.999
 70
    32
  0
VERTEX
  8
T57SSILL
 62
2
 10
5877.950
 20
-9910.261
 30
-512.999
 70
    32
  0
VERTEX
  8
T57SSILL
 62
2
 10
5881.276
 20
-9908.269
 30
-512.998
 70
    32
  0
VERTEX
  8
T57SSILL
 62
2
 10
5889.522
 20
-9906.994
 30
-512.998
 70
    32
  0
VERTEX
  8
T57SSILL
 62
2
 10
5892.350
 20
-9900.417
 30
-512.997
 70
    32
  0
VERTEX
  8
T57SSILL
 62
2
 10
5895.129
 20
-9899.576
 30
-512.997
 70
    32
  0
VERTEX
  8
T57SSILL
 62
2
 10
5902.521
 20
-9902.023
 30
-512.997
 70
    32
  0
VERTEX
  8
T57SSILL
 62
2
 10
5906.487
 20
-9900.534
 30
-512.996
 70
    32
  0
VERTEX
  8
T57SSILL
 62
2
 10
5937.222
 20
-9877.561
 30
-512.994
 70
    32
  0
VERTEX
  8
T57SSILL
 62
2
 10
5942.462
 20
-9871.729
 30
-512.993
 70
    32
  0
VERTEX
  8
T57SSILL
 62
2
 10
5945.006
 20
-9865.362
 30
-512.993
 70
    32
  0
VERTEX
  8
T57SSILL
 62
2
 10
5945.669
 20
-9858.078
 30
-512.993
 70
    32
  0
VERTEX
  8
T57SSILL
 62
2
 10
5943.652
 20
-9848.494
 30
-512.992
 70
    32
  0
VERTEX
  8
T57SSILL
 62
2
 10
5896.608
 20
-9782.091
 30
-512.993
 70
    32
  0
VERTEX
  8
T57SSILL
 62
2
 10
5894.933
 20
-9796.038
 30
-512.993
 70
    32
  0
VERTEX
  8
T57SSILL
 62
2
 10
5892.064
 20
-9801.220
 30
-512.994
 70
    32
  0
VERTEX
  8
T57SSILL
 62
2
 10
5880.284
 20
-9812.308
 30
-512.995
 70
    32
  0
VERTEX
  8
T57SSILL
 62
2
 10
5880.638
 20
-9816.211
 30
-512.995
 70
    32
  0
VERTEX
  8
T57SSILL
 62
2
 10
5887.683
 20
-9830.093
 30
-512.995
 70
    32
  0
VERTEX
  8
T57SSILL
 62
2
 10
5904.326
 20
-9850.606
 30
-512.995
 70
    32
  0
VERTEX
  8
T57SSILL
 62
2
 10
5915.198
 20
-9875.040
 30
-512.995
 70
    32
  0
VERTEX
  8
T57SSILL
 62
2
 10
5917.104
 20
-9883.282
 30
-512.995
 70
    32
  0
VERTEX
  8
T57SSILL
 62
2
 10
5914.878
 20
-9887.552
 30
-512.995
 70
    32
  0
VERTEX
  8
T57SSILL
 62
2
 10
5905.533
 20
-9888.406
 30
-512.996
 70
    32
  0
VERTEX
  8
T57SSILL
 62
2
 10
5903.044
 20
-9886.513
 30
-512.996
 70
    32
  0
VERTEX
  8
T57SSILL
 62
2
 10
5889.388
 20
-9867.526
 30
-512.996
 70
    32
  0
VERTEX
  8
T57SSILL
 62
2
 10
5880.045
 20
-9862.133
 30
-512.997
 70
    32
  0
VERTEX
  8
T57SSILL
 62
2
 10
5874.516
 20
-9854.477
 30
-512.997
 70
    32
  0
VERTEX
  8
T57SSILL
 62
2
 10
5871.142
 20
-9844.687
 30
-512.996
 70
    32
  0
VERTEX
  8
T57SSILL
 62
2
 10
5874.308
 20
-9833.807
 30
-512.996
 70
    32
  0
VERTEX
  8
T57SSILL
 62
2
 10
5871.746
 20
-9817.829
 30
-512.995
 70
    32
  0
VERTEX
  8
T57SSILL
 62
2
 10
5822.512
 20
-9853.214
 30
-513.000
 70
    32
  0
SEQEND
  8
T57SSILL
  0
POLYLINE
  8
T57SSILL
 62
2
 66
     1
 70
     9
  0
VERTEX
  8
T57SSILL
 62
2
 10
5804.971
 20
-9736.944
 30
-512.996
 70
    32
  0
VERTEX
  8
T57SSILL
 62
2
 10
5787.659
 20
-9725.721
 30
-512.997
 70
    32
  0
VERTEX
  8
T57SSILL
 62
2
 10
5777.186
 20
-9726.414
 30
-512.998
 70
    32
  0
VERTEX
  8
T57SSILL
 62
2
 10
5761.676
 20
-9720.412
 30
-512.999
 70
    32
  0
VERTEX
  8
T57SSILL
 62
2
 10
5754.192
 20
-9719.824
 30
-512.999
 70
    32
  0
VERTEX
  8
T57SSILL
 62
2
 10
5739.383
 20
-9732.003
 30
-513.001
 70
    32
  0
VERTEX
  8
T57SSILL
 62
2
 10
5785.950
 20
-9863.724
 30
-513.002
 70
    32
  0
VERTEX
  8
T57SSILL
 62
2
 10
5791.768
 20
-9868.336
 30
-513.002
 70
    32
  0
VERTEX
  8
T57SSILL
 62
2
 10
5869.137
 20
-9811.458
 30
-512.995
 70
    32
  0
VERTEX
  8
T57SSILL
 62
2
 10
5867.616
 20
-9804.513
 30
-512.995
 70
    32
  0
VERTEX
  8
T57SSILL
 62
2
 10
5872.096
 20
-9801.832
 30
-512.995
 70
    32
  0
VERTEX
  8
T57SSILL
 62
2
 10
5876.540
 20
-9806.347
 30
-512.995
 70
    32
  0
VERTEX
  8
T57SSILL
 62
2
 10
5885.952
 20
-9798.595
 30
-512.994
 70
    32
  0
VERTEX
  8
T57SSILL
 62
2
 10
5888.558
 20
-9793.460
 30
-512.994
 70
    32
  0
VERTEX
  8
T57SSILL
 62
2
 10
5891.082
 20
-9779.911
 30
-512.993
 70
    32
  0
VERTEX
  8
T57SSILL
 62
2
 10
5888.619
 20
-9770.603
 30
-512.993
 70
    32
  0
VERTEX
  8
T57SSILL
 62
2
 10
5787.044
 20
-9628.716
 30
-512.996
 70
    32
  0
VERTEX
  8
T57SSILL
 62
2
 10
5786.210
 20
-9638.877
 30
-512.996
 70
    32
  0
VERTEX
  8
T57SSILL
 62
2
 10
5780.257
 20
-9648.267
 30
-512.997
 70
    32
  0
VERTEX
  8
T57SSILL
 62
2
 10
5775.631
 20
-9653.009
 30
-512.997
 70
    32
  0
VERTEX
  8
T57SSILL
 62
2
 10
5729.196
 20
-9686.755
 30
-513.001
 70
    32
  0
VERTEX
  8
T57SSILL
 62
2
 10
5729.676
 20
-9689.233
 30
-513.001
 70
    32
  0
VERTEX
  8
T57SSILL
 62
2
 10
5736.496
 20
-9693.124
 30
-513.001
 70
    32
  0
VERTEX
  8
T57SSILL
 62
2
 10
5743.400
 20
-9691.849
 30
-513.000
 70
    32
  0
VERTEX
  8
T57SSILL
 62
2
 10
5750.220
 20
-9695.740
 30
-513.000
 70
    32
  0
VERTEX
  8
T57SSILL
 62
2
 10
5759.809
 20
-9696.987
 30
-512.999
 70
    32
  0
VERTEX
  8
T57SSILL
 62
2
 10
5770.321
 20
-9701.480
 30
-512.998
 70
    32
  0
VERTEX
  8
T57SSILL
 62
2
 10
5775.240
 20
-9706.956
 30
-512.998
 70
    32
  0
VERTEX
  8
T57SSILL
 62
2
 10
5785.772
 20
-9711.326
 30
-512.997
 70
    32
  0
VERTEX
  8
T57SSILL
 62
2
 10
5794.114
 20
-9722.161
 30
-512.996
 70
    32
  0
VERTEX
  8
T57SSILL
 62
2
 10
5807.410
 20
-9731.277
 30
-512.996
 70
    32
  0
SEQEND
  8
T57SSILL
  0
POLYLINE
  8
T57SSILL
 62
2
 66
     1
 70
     9
  0
VERTEX
  8
T57SSILL
 62
2
 10
5327.786
 20
-9377.319
 30
-512.696
 70
    32
  0
VERTEX
  8
T57SSILL
 62
2
 10
5331.216
 20
-9378.910
 30
-512.712
 70
    32
  0
VERTEX
  8
T57SSILL
 62
2
 10
5292.108
 20
-9407.114
 30
-512.258
 70
    32
  0
VERTEX
  8
T57SSILL
 62
2
 10
5266.430
 20
-9352.731
 30
-512.385
 70
    32
  0
VERTEX
  8
T57SSILL
 62
2
 10
5272.481
 20
-9345.978
 30
-512.469
 70
    32
  0
VERTEX
  8
T57SSILL
 62
2
 10
5273.880
 20
-9334.508
 30
-512.546
 70
    32
  0
VERTEX
  8
T57SSILL
 62
2
 10
5280.184
 20
-9331.224
 30
-512.612
 70
    32
  0
VERTEX
  8
T57SSILL
 62
2
 10
5294.181
 20
-9331.627
 30
-512.713
 70
    32
  0
VERTEX
  8
T57SSILL
 62
2
 10
5303.809
 20
-9328.190
 30
-512.804
 70
    32
  0
VERTEX
  8
T57SSILL
 62
2
 10
5305.885
 20
-9332.436
 30
-512.795
 70
    32
  0
VERTEX
  8
T57SSILL
 62
2
 10
5297.259
 20
-9343.218
 30
-512.668
 70
    32
  0
VERTEX
  8
T57SSILL
 62
2
 10
5298.299
 20
-9346.894
 30
-512.655
 70
    32
  0
VERTEX
  8
T57SSILL
 62
2
 10
5302.898
 20
-9354.326
 30
-512.645
 70
    32
  0
VERTEX
  8
T57SSILL
 62
2
 10
5313.464
 20
-9361.708
 30
-512.681
 70
    32
  0
VERTEX
  8
T57SSILL
 62
2
 10
5323.187
 20
-9375.781
 30
-512.670
 70
    32
  0
VERTEX
  8
T57SSILL
 62
2
 10
5325.545
 20
-9376.402
 30
-512.684
 70
    32
  0
SEQEND
  8
T57SSILL
  0
POLYLINE
  8
T57SSILL
 62
2
 66
     1
 70
     9
  0
VERTEX
  8
T57SSILL
 62
2
 10
5217.284
 20
-9227.381
 30
-512.752
 70
    32
  0
VERTEX
  8
T57SSILL
 62
2
 10
5231.491
 20
-9222.802
 30
-512.692
 70
    32
  0
VERTEX
  8
T57SSILL
 62
2
 10
5316.539
 20
-9161.881
 30
-512.345
 70
    32
  0
VERTEX
  8
T57SSILL
 62
2
 10
5312.744
 20
-9155.962
 30
-512.360
 70
    32
  0
VERTEX
  8
T57SSILL
 62
2
 10
5233.139
 20
-9212.841
 30
-512.641
 70
    32
  0
VERTEX
  8
T57SSILL
 62
2
 10
5225.607
 20
-9217.176
 30
-512.690
 70
    32
  0
VERTEX
  8
T57SSILL
 62
2
 10
5213.679
 20
-9219.785
 30
-512.748
 70
    32
  0
VERTEX
  8
T57SSILL
 62
2
 10
5204.827
 20
-9219.418
 30
-512.706
 70
    32
  0
VERTEX
  8
T57SSILL
 62
2
 10
5195.829
 20
-9215.678
 30
-512.661
 70
    32
  0
VERTEX
  8
T57SSILL
 62
2
 10
5184.486
 20
-9207.321
 30
-512.626
 70
    32
  0
VERTEX
  8
T57SSILL
 62
2
 10
5168.344
 20
-9185.353
 30
-512.635
 70
    32
  0
VERTEX
  8
T57SSILL
 62
2
 10
5163.619
 20
-9169.731
 30
-512.691
 70
    32
  0
VERTEX
  8
T57SSILL
 62
2
 10
5165.641
 20
-9161.970
 30
-512.678
 70
    32
  0
VERTEX
  8
T57SSILL
 62
2
 10
5171.400
 20
-9152.606
 30
-512.673
 70
    32
  0
VERTEX
  8
T57SSILL
 62
2
 10
5336.823
 20
-9032.528
 30
-512.451
 70
    32
  0
VERTEX
  8
T57SSILL
 62
2
 10
5341.734
 20
-9026.818
 30
-512.447
 70
    32
  0
VERTEX
  8
T57SSILL
 62
2
 10
5344.833
 20
-9013.607
 30
-512.456
 70
    32
  0
VERTEX
  8
T57SSILL
 62
2
 10
5429.991
 20
-9132.642
 30
-512.131
 70
    32
  0
VERTEX
  8
T57SSILL
 62
2
 10
5422.502
 20
-9137.490
 30
-512.142
 70
    32
  0
VERTEX
  8
T57SSILL
 62
2
 10
5426.943
 20
-9143.883
 30
-512.125
 70
    32
  0
VERTEX
  8
T57SSILL
 62
2
 10
5433.711
 20
-9139.192
 30
-512.116
 70
    32
  0
VERTEX
  8
T57SSILL
 62
2
 10
5596.900
 20
-9364.701
 30
-512.227
 70
    32
  0
VERTEX
  8
T57SSILL
 62
2
 10
5589.024
 20
-9370.613
 30
-512.259
 70
    32
  0
VERTEX
  8
T57SSILL
 62
2
 10
5593.044
 20
-9376.072
 30
-512.289
 70
    32
  0
VERTEX
  8
T57SSILL
 62
2
 10
5600.886
 20
-9370.533
 30
-512.260
 70
    32
  0
VERTEX
  8
T57SSILL
 62
2
 10
5613.275
 20
-9387.722
 30
-512.356
 70
    32
  0
VERTEX
  8
T57SSILL
 62
2
 10
5614.691
 20
-9399.652
 30
-512.421
 70
    32
  0
VERTEX
  8
T57SSILL
 62
2
 10
5613.333
 20
-9406.072
 30
-512.456
 70
    32
  0
VERTEX
  8
T57SSILL
 62
2
 10
5604.673
 20
-9418.517
 30
-512.523
 70
    32
  0
VERTEX
  8
T57SSILL
 62
2
 10
5447.938
 20
-9529.307
 30
-512.858
 70
    32
  0
VERTEX
  8
T57SSILL
 62
2
 10
5441.748
 20
-9528.872
 30
-512.826
 70
    32
  0
VERTEX
  8
T57SSILL
 62
2
 10
5430.802
 20
-9515.649
 30
-512.775
 70
    32
  0
VERTEX
  8
T57SSILL
 62
2
 10
5415.741
 20
-9523.893
 30
-512.694
 70
    32
  0
VERTEX
  8
T57SSILL
 62
2
 10
5405.594
 20
-9531.859
 30
-512.639
 70
    32
  0
VERTEX
  8
T57SSILL
 62
2
 10
5407.138
 20
-9542.608
 30
-512.643
 70
    32
  0
VERTEX
  8
T57SSILL
 62
2
 10
5411.687
 20
-9555.109
 30
-512.661
 70
    32
  0
VERTEX
  8
T57SSILL
 62
2
 10
5396.925
 20
-9566.184
 30
-512.581
 70
    32
  0
VERTEX
  8
T57SSILL
 62
2
 10
5391.025
 20
-9569.022
 30
-512.549
 70
    32
  0
VERTEX
  8
T57SSILL
 62
2
 10
5384.878
 20
-9569.099
 30
-512.518
 70
    32
  0
VERTEX
  8
T57SSILL
 62
2
 10
5370.043
 20
-9565.427
 30
-512.443
 70
    32
  0
VERTEX
  8
T57SSILL
 62
2
 10
5360.331
 20
-9555.123
 30
-512.397
 70
    32
  0
VERTEX
  8
T57SSILL
 62
2
 10
5342.733
 20
-9517.421
 30
-512.321
 70
    32
  0
VERTEX
  8
T57SSILL
 62
2
 10
5343.015
 20
-9501.655
 30
-512.328
 70
    32
  0
VERTEX
  8
T57SSILL
 62
2
 10
5344.779
 20
-9498.969
 30
-512.339
 70
    32
  0
VERTEX
  8
T57SSILL
 62
2
 10
5349.337
 20
-9501.670
 30
-512.361
 70
    32
  0
VERTEX
  8
T57SSILL
 62
2
 10
5359.399
 20
-9519.556
 30
-512.406
 70
    32
  0
VERTEX
  8
T57SSILL
 62
2
 10
5371.678
 20
-9510.924
 30
-512.472
 70
    32
  0
VERTEX
  8
T57SSILL
 62
2
 10
5364.567
 20
-9496.176
 30
-512.442
 70
    32
  0
VERTEX
  8
T57SSILL
 62
2
 10
5356.862
 20
-9484.972
 30
-512.406
 70
    32
  0
VERTEX
  8
T57SSILL
 62
2
 10
5412.315
 20
-9446.544
 30
-512.917
 70
    32
  0
VERTEX
  8
T57SSILL
 62
2
 10
5407.208
 20
-9441.082
 30
-512.911
 70
    32
  0
VERTEX
  8
T57SSILL
 62
2
 10
5369.034
 20
-9467.885
 30
-512.476
 70
    32
  0
VERTEX
  8
T57SSILL
 62
2
 10
5366.957
 20
-9465.034
 30
-512.474
 70
    32
  0
VERTEX
  8
T57SSILL
 62
2
 10
5360.348
 20
-9466.171
 30
-512.432
 70
    32
  0
VERTEX
  8
T57SSILL
 62
2
 10
5353.809
 20
-9450.969
 30
-512.459
 70
    32
  0
VERTEX
  8
T57SSILL
 62
2
 10
5378.671
 20
-9437.006
 30
-512.724
 70
    32
  0
VERTEX
  8
T57SSILL
 62
2
 10
5380.416
 20
-9437.516
 30
-512.734
 70
    32
  0
VERTEX
  8
T57SSILL
 62
2
 10
5377.397
 20
-9422.133
 30
-512.801
 70
    32
  0
VERTEX
  8
T57SSILL
 62
2
 10
5367.687
 20
-9411.802
 30
-512.790
 70
    32
  0
VERTEX
  8
T57SSILL
 62
2
 10
5351.544
 20
-9404.415
 30
-512.713
 70
    32
  0
VERTEX
  8
T57SSILL
 62
2
 10
5344.480
 20
-9414.975
 30
-512.600
 70
    32
  0
VERTEX
  8
T57SSILL
 62
2
 10
5343.712
 20
-9426.116
 30
-512.529
 70
    32
  0
VERTEX
  8
T57SSILL
 62
2
 10
5350.008
 20
-9437.091
 30
-512.512
 70
    32
  0
VERTEX
  8
T57SSILL
 62
2
 10
5346.677
 20
-9439.714
 30
-512.472
 70
    32
  0
VERTEX
  8
T57SSILL
 62
2
 10
5342.506
 20
-9450.741
 30
-512.377
 70
    32
  0
VERTEX
  8
T57SSILL
 62
2
 10
5334.940
 20
-9456.076
 30
-512.305
 70
    32
  0
VERTEX
  8
T57SSILL
 62
2
 10
5341.550
 20
-9465.333
 30
-512.335
 70
    32
  0
VERTEX
  8
T57SSILL
 62
2
 10
5346.976
 20
-9476.910
 30
-512.359
 70
    32
  0
VERTEX
  8
T57SSILL
 62
2
 10
5347.310
 20
-9483.752
 30
-512.358
 70
    32
  0
VERTEX
  8
T57SSILL
 62
2
 10
5342.286
 20
-9489.045
 30
-512.330
 70
    32
  0
VERTEX
  8
T57SSILL
 62
2
 10
5331.722
 20
-9492.058
 30
-512.274
 70
    32
  0
VERTEX
  8
T57SSILL
 62
2
 10
5296.089
 20
-9414.116
 30
-512.247
 70
    32
  0
VERTEX
  8
T57SSILL
 62
2
 10
5362.187
 20
-9366.304
 30
-512.821
 70
    32
  0
VERTEX
  8
T57SSILL
 62
2
 10
5357.573
 20
-9360.657
 30
-512.814
 70
    32
  0
VERTEX
  8
T57SSILL
 62
2
 10
5345.589
 20
-9368.544
 30
-512.878
 70
    32
  0
VERTEX
  8
T57SSILL
 62
2
 10
5339.961
 20
-9355.921
 30
-512.862
 70
    32
  0
VERTEX
  8
T57SSILL
 62
2
 10
5330.522
 20
-9342.288
 30
-512.838
 70
    32
  0
VERTEX
  8
T57SSILL
 62
2
 10
5325.022
 20
-9336.978
 30
-512.836
 70
    32
  0
VERTEX
  8
T57SSILL
 62
2
 10
5313.570
 20
-9331.283
 30
-512.855
 70
    32
  0
VERTEX
  8
T57SSILL
 62
2
 10
5310.346
 20
-9324.612
 30
-512.838
 70
    32
  0
VERTEX
  8
T57SSILL
 62
2
 10
5309.425
 20
-9318.169
 30
-512.813
 70
    32
  0
VERTEX
  8
T57SSILL
 62
2
 10
5296.896
 20
-9299.918
 30
-512.780
 70
    32
  0
VERTEX
  8
T57SSILL
 62
2
 10
5291.022
 20
-9285.855
 30
-512.741
 70
    32
  0
VERTEX
  8
T57SSILL
 62
2
 10
5261.737
 20
-9259.360
 30
-512.737
 70
    32
  0
VERTEX
  8
T57SSILL
 62
2
 10
5247.384
 20
-9266.829
 30
-512.744
 70
    32
  0
VERTEX
  8
T57SSILL
 62
2
 10
5241.483
 20
-9272.095
 30
-512.670
 70
    32
  0
VERTEX
  8
T57SSILL
 62
2
 10
5232.240
 20
-9275.169
 30
-512.584
 70
    32
  0
VERTEX
  8
T57SSILL
 62
2
 10
5196.081
 20
-9225.112
 30
-512.608
 70
    32
  0
VERTEX
  8
T57SSILL
 62
2
 10
5205.826
 20
-9226.947
 30
-512.669
 70
    32
  0
SEQEND
  8
T57SSILL
  0
POLYLINE
  8
T57SSILL
 62
2
 66
     1
 70
     9
  0
VERTEX
  8
T57SSILL
 62
2
 10
5265.884
 20
-9309.596
 30
-512.632
 70
    32
  0
VERTEX
  8
T57SSILL
 62
2
 10
5269.059
 20
-9313.726
 30
-512.632
 70
    32
  0
VERTEX
  8
T57SSILL
 62
2
 10
5267.842
 20
-9321.426
 30
-512.578
 70
    32
  0
VERTEX
  8
T57SSILL
 62
2
 10
5253.753
 20
-9324.301
 30
-512.457
 70
    32
  0
VERTEX
  8
T57SSILL
 62
2
 10
5240.036
 20
-9293.590
 30
-512.534
 70
    32
  0
VERTEX
  8
T57SSILL
 62
2
 10
5245.430
 20
-9285.576
 30
-512.621
 70
    32
  0
VERTEX
  8
T57SSILL
 62
2
 10
5247.448
 20
-9286.325
 30
-512.631
 70
    32
  0
VERTEX
  8
T57SSILL
 62
2
 10
5263.885
 20
-9307.013
 30
-512.633
 70
    32
  0
SEQEND
  8
T57SSILL
  0
POLYLINE
  8
T57SSILL
 62
2
 66
     1
 70
     9
  0
VERTEX
  8
T57SSILL
 62
2
 10
3645.488
 20
-8512.016
 30
-500.130
 70
    32
  0
VERTEX
  8
T57SSILL
 62
2
 10
3715.916
 20
-8607.616
 30
-500.076
 70
    32
  0
VERTEX
  8
T57SSILL
 62
2
 10
3838.394
 20
-8517.533
 30
-500.490
 70
    32
  0
VERTEX
  8
T57SSILL
 62
2
 10
3835.030
 20
-8513.009
 30
-500.502
 70
    32
  0
VERTEX
  8
T57SSILL
 62
2
 10
3806.456
 20
-8495.397
 30
-500.535
 70
    32
  0
VERTEX
  8
T57SSILL
 62
2
 10
3788.140
 20
-8502.650
 30
-500.494
 70
    32
  0
VERTEX
  8
T57SSILL
 62
2
 10
3767.505
 20
-8503.833
 30
-500.472
 70
    32
  0
VERTEX
  8
T57SSILL
 62
2
 10
3750.150
 20
-8499.833
 30
-500.469
 70
    32
  0
VERTEX
  8
T57SSILL
 62
2
 10
3730.891
 20
-8500.652
 30
-500.441
 70
    32
  0
VERTEX
  8
T57SSILL
 62
2
 10
3716.988
 20
-8505.722
 30
-500.386
 70
    32
  0
VERTEX
  8
T57SSILL
 62
2
 10
3712.837
 20
-8499.697
 30
-500.380
 70
    32
  0
VERTEX
  8
T57SSILL
 62
2
 10
3714.220
 20
-8493.290
 30
-500.394
 70
    32
  0
VERTEX
  8
T57SSILL
 62
2
 10
3706.735
 20
-8497.100
 30
-500.363
 70
    32
  0
VERTEX
  8
T57SSILL
 62
2
 10
3689.408
 20
-8499.336
 30
-500.300
 70
    32
  0
VERTEX
  8
T57SSILL
 62
2
 10
3679.056
 20
-8502.325
 30
-500.260
 70
    32
  0
SEQEND
  8
T57SSILL
  0
POLYLINE
  8
T57SSILL
 62
2
 66
     1
 70
     9
  0
VERTEX
  8
T57SSILL
 62
2
 10
3610.345
 20
-8464.163
 30
-500.078
 70
    32
  0
VERTEX
  8
T57SSILL
 62
2
 10
3638.730
 20
-8459.083
 30
-500.183
 70
    32
  0
VERTEX
  8
T57SSILL
 62
2
 10
3659.488
 20
-8460.384
 30
-500.253
 70
    32
  0
VERTEX
  8
T57SSILL
 62
2
 10
3654.766
 20
-8453.635
 30
-500.246
 70
    32
  0
VERTEX
  8
T57SSILL
 62
2
 10
3666.147
 20
-8445.172
 30
-500.298
 70
    32
  0
VERTEX
  8
T57SSILL
 62
2
 10
3675.026
 20
-8457.999
 30
-500.310
 70
    32
  0
VERTEX
  8
T57SSILL
 62
2
 10
3663.506
 20
-8466.126
 30
-500.258
 70
    32
  0
VERTEX
  8
T57SSILL
 62
2
 10
3638.122
 20
-8465.282
 30
-500.172
 70
    32
  0
VERTEX
  8
T57SSILL
 62
2
 10
3624.968
 20
-8466.854
 30
-500.124
 70
    32
  0
VERTEX
  8
T57SSILL
 62
2
 10
3614.671
 20
-8470.276
 30
-500.084
 70
    32
  0
VERTEX
  8
T57SSILL
 62
2
 10
3630.997
 20
-8492.824
 30
-500.107
 70
    32
  0
VERTEX
  8
T57SSILL
 62
2
 10
3636.417
 20
-8494.502
 30
-500.124
 70
    32
  0
VERTEX
  8
T57SSILL
 62
2
 10
3639.375
 20
-8503.850
 30
-500.120
 70
    32
  0
VERTEX
  8
T57SSILL
 62
2
 10
3686.397
 20
-8490.268
 30
-500.303
 70
    32
  0
VERTEX
  8
T57SSILL
 62
2
 10
3690.365
 20
-8485.123
 30
-500.324
 70
    32
  0
VERTEX
  8
T57SSILL
 62
2
 10
3708.255
 20
-8487.187
 30
-500.383
 70
    32
  0
VERTEX
  8
T57SSILL
 62
2
 10
3766.019
 20
-8483.973
 30
-500.537
 70
    32
  0
VERTEX
  8
T57SSILL
 62
2
 10
3799.073
 20
-8461.699
 30
-500.642
 70
    32
  0
VERTEX
  8
T57SSILL
 62
2
 10
3828.134
 20
-8459.300
 30
-500.676
 70
    32
  0
VERTEX
  8
T57SSILL
 62
2
 10
3828.534
 20
-8477.553
 30
-500.615
 70
    32
  0
VERTEX
  8
T57SSILL
 62
2
 10
3848.641
 20
-8510.352
 30
-500.524
 70
    32
  0
VERTEX
  8
T57SSILL
 62
2
 10
3886.921
 20
-8481.229
 30
-500.656
 70
    32
  0
VERTEX
  8
T57SSILL
 62
2
 10
3894.013
 20
-8470.248
 30
-500.700
 70
    32
  0
VERTEX
  8
T57SSILL
 62
2
 10
3898.131
 20
-8458.514
 30
-500.743
 70
    32
  0
VERTEX
  8
T57SSILL
 62
2
 10
3898.595
 20
-8452.790
 30
-500.763
 70
    32
  0
VERTEX
  8
T57SSILL
 62
2
 10
3896.652
 20
-8445.453
 30
-500.785
 70
    32
  0
VERTEX
  8
T57SSILL
 62
2
 10
3891.929
 20
-8437.330
 30
-500.808
 70
    32
  0
VERTEX
  8
T57SSILL
 62
2
 10
3887.532
 20
-8435.550
 30
-500.810
 70
    32
  0
VERTEX
  8
T57SSILL
 62
2
 10
3885.382
 20
-8431.330
 30
-500.823
 70
    32
  0
VERTEX
  8
T57SSILL
 62
2
 10
3886.272
 20
-8429.132
 30
-500.831
 70
    32
  0
VERTEX
  8
T57SSILL
 62
2
 10
3880.594
 20
-8421.938
 30
-500.850
 70
    32
  0
VERTEX
  8
T57SSILL
 62
2
 10
3887.558
 20
-8417.829
 30
-500.870
 70
    32
  0
VERTEX
  8
T57SSILL
 62
2
 10
3901.729
 20
-8436.190
 30
-500.821
 70
    32
  0
VERTEX
  8
T57SSILL
 62
2
 10
3905.500
 20
-8444.362
 30
-500.797
 70
    32
  0
VERTEX
  8
T57SSILL
 62
2
 10
3907.471
 20
-8453.655
 30
-500.768
 70
    32
  0
VERTEX
  8
T57SSILL
 62
2
 10
3906.521
 20
-8466.106
 30
-500.725
 70
    32
  0
VERTEX
  8
T57SSILL
 62
2
 10
4040.512
 20
-8368.117
 30
-501.299
 70
    32
  0
VERTEX
  8
T57SSILL
 62
2
 10
4045.916
 20
-8374.859
 30
-501.310
 70
    32
  0
VERTEX
  8
T57SSILL
 62
2
 10
3731.639
 20
-8605.585
 30
-500.097
 70
    32
  0
VERTEX
  8
T57SSILL
 62
2
 10
3728.603
 20
-8615.526
 30
-500.061
 70
    32
  0
VERTEX
  8
T57SSILL
 62
2
 10
3729.458
 20
-8625.977
 30
-500.027
 70
    32
  0
VERTEX
  8
T57SSILL
 62
2
 10
3741.867
 20
-8643.280
 30
-499.980
 70
    32
  0
VERTEX
  8
T57SSILL
 62
2
 10
3751.010
 20
-8637.394
 30
-500.008
 70
    32
  0
VERTEX
  8
T57SSILL
 62
2
 10
3753.969
 20
-8642.504
 30
-499.994
 70
    32
  0
VERTEX
  8
T57SSILL
 62
2
 10
3745.145
 20
-8648.192
 30
-499.967
 70
    32
  0
VERTEX
  8
T57SSILL
 62
2
 10
3749.047
 20
-8653.696
 30
-499.952
 70
    32
  0
VERTEX
  8
T57SSILL
 62
2
 10
3918.311
 20
-8883.793
 30
-499.341
 70
    32
  0
VERTEX
  8
T57SSILL
 62
2
 10
3979.760
 20
-8964.311
 30
-498.887
 70
    32
  0
VERTEX
  8
T57SSILL
 62
2
 10
4116.933
 20
-9148.656
 30
-494.593
 70
    32
  0
VERTEX
  8
T57SSILL
 62
2
 10
4141.000
 20
-9181.000
 30
-496.011
 70
    32
  0
VERTEX
  8
T57SSILL
 62
2
 10
4152.000
 20
-9190.000
 30
-496.551
 70
    32
  0
VERTEX
  8
T57SSILL
 62
2
 10
4162.000
 20
-9195.000
 30
-496.961
 70
    32
  0
VERTEX
  8
T57SSILL
 62
2
 10
4175.000
 20
-9196.000
 30
-497.351
 70
    32
  0
VERTEX
  8
T57SSILL
 62
2
 10
4189.000
 20
-9195.000
 30
-497.783
 70
    32
  0
VERTEX
  8
T57SSILL
 62
2
 10
4206.000
 20
-9187.000
 30
-498.501
 70
    32
  0
VERTEX
  8
T57SSILL
 62
2
 10
4388.000
 20
-9060.000
 30
-505.634
 70
    32
  0
VERTEX
  8
T57SSILL
 62
2
 10
4387.000
 20
-9052.000
 30
-505.663
 70
    32
  0
VERTEX
  8
T57SSILL
 62
2
 10
4398.000
 20
-9044.000
 30
-505.908
 70
    32
  0
VERTEX
  8
T57SSILL
 62
2
 10
4409.000
 20
-9045.000
 30
-506.099
 70
    32
  0
VERTEX
  8
T57SSILL
 62
2
 10
4557.000
 20
-8941.000
 30
-507.133
 70
    32
  0
VERTEX
  8
T57SSILL
 62
2
 10
4566.000
 20
-8937.000
 30
-507.180
 70
    32
  0
VERTEX
  8
T57SSILL
 62
2
 10
4583.000
 20
-8936.000
 30
-507.303
 70
    32
  0
VERTEX
  8
T57SSILL
 62
2
 10
4600.000
 20
-8942.000
 30
-507.460
 70
    32
  0
VERTEX
  8
T57SSILL
 62
2
 10
4454.204
 20
-8725.786
 30
-505.287
 70
    32
  0
VERTEX
  8
T57SSILL
 62
2
 10
4460.198
 20
-8721.764
 30
-505.312
 70
    32
  0
VERTEX
  8
T57SSILL
 62
2
 10
4702.230
 20
-9077.607
 30
-508.903
 70
    32
  0
VERTEX
  8
T57SSILL
 62
2
 10
4863.000
 20
-9313.000
 30
-509.003
 70
    32
  0
VERTEX
  8
T57SSILL
 62
2
 10
4876.000
 20
-9323.000
 30
-509.250
 70
    32
  0
VERTEX
  8
T57SSILL
 62
2
 10
4889.000
 20
-9326.000
 30
-509.464
 70
    32
  0
VERTEX
  8
T57SSILL
 62
2
 10
4902.000
 20
-9327.000
 30
-509.669
 70
    32
  0
VERTEX
  8
T57SSILL
 62
2
 10
4915.000
 20
-9324.000
 30
-509.855
 70
    32
  0
VERTEX
  8
T57SSILL
 62
2
 10
4924.000
 20
-9320.000
 30
-509.974
 70
    32
  0
VERTEX
  8
T57SSILL
 62
2
 10
4956.923
 20
-9296.904
 30
-510.412
 70
    32
  0
VERTEX
  8
T57SSILL
 62
2
 10
5152.020
 20
-9157.679
 30
-512.667
 70
    32
  0
VERTEX
  8
T57SSILL
 62
2
 10
5326.762
 20
-9032.596
 30
-512.473
 70
    32
  0
VERTEX
  8
T57SSILL
 62
2
 10
5334.987
 20
-9024.392
 30
-512.465
 70
    32
  0
VERTEX
  8
T57SSILL
 62
2
 10
5337.547
 20
-9017.983
 30
-512.467
 70
    32
  0
VERTEX
  8
T57SSILL
 62
2
 10
5338.049
 20
-9009.469
 30
-512.476
 70
    32
  0
VERTEX
  8
T57SSILL
 62
2
 10
5335.830
 20
-9000.196
 30
-512.491
 70
    32
  0
VERTEX
  8
T57SSILL
 62
2
 10
5315.102
 20
-8972.766
 30
-512.251
 70
    32
  0
VERTEX
  8
T57SSILL
 62
2
 10
5309.899
 20
-8962.131
 30
-512.145
 70
    32
  0
VERTEX
  8
T57SSILL
 62
2
 10
5307.146
 20
-8947.828
 30
-512.027
 70
    32
  0
VERTEX
  8
T57SSILL
 62
2
 10
5308.891
 20
-8933.828
 30
-511.937
 70
    32
  0
VERTEX
  8
T57SSILL
 62
2
 10
5311.945
 20
-8923.688
 30
-511.881
 70
    32
  0
VERTEX
  8
T57SSILL
 62
2
 10
5290.628
 20
-8939.388
 30
-511.875
 70
    32
  0
VERTEX
  8
T57SSILL
 62
2
 10
5287.539
 20
-8933.151
 30
-511.813
 70
    32
  0
VERTEX
  8
T57SSILL
 62
2
 10
5511.583
 20
-8771.279
 30
-511.894
 70
    32
  0
VERTEX
  8
T57SSILL
 62
2
 10
5516.063
 20
-8761.031
 30
-511.846
 70
    32
  0
VERTEX
  8
T57SSILL
 62
2
 10
5519.544
 20
-8765.527
 30
-511.897
 70
    32
  0
VERTEX
  8
T57SSILL
 62
2
 10
5532.287
 20
-8756.321
 30
-511.902
 70
    32
  0
VERTEX
  8
T57SSILL
 62
2
 10
5520.186
 20
-8739.692
 30
-511.715
 70
    32
  0
VERTEX
  8
T57SSILL
 62
2
 10
5528.732
 20
-8734.055
 30
-511.722
 70
    32
  0
VERTEX
  8
T57SSILL
 62
2
 10
5540.480
 20
-8750.595
 30
-511.906
 70
    32
  0
VERTEX
  8
T57SSILL
 62
2
 10
5553.795
 20
-8740.705
 30
-511.909
 70
    32
  0
VERTEX
  8
T57SSILL
 62
2
 10
5548.330
 20
-8733.010
 30
-511.824
 70
    32
  0
VERTEX
  8
T57SSILL
 62
2
 10
5557.020
 20
-8727.271
 30
-511.831
 70
    32
  0
VERTEX
  8
T57SSILL
 62
2
 10
5562.598
 20
-8734.421
 30
-511.913
 70
    32
  0
VERTEX
  8
T57SSILL
 62
2
 10
5780.000
 20
-8577.000
 30
-511.935
 70
    32
  0
VERTEX
  8
T57SSILL
 62
2
 10
5752.000
 20
-8571.000
 30
-511.725
 70
    32
  0
VERTEX
  8
T57SSILL
 62
2
 10
5753.000
 20
-8565.000
 30
-511.660
 70
    32
  0
VERTEX
  8
T57SSILL
 62
2
 10
5789.000
 20
-8570.000
 30
-511.898
 70
    32
  0
VERTEX
  8
T57SSILL
 62
2
 10
5884.000
 20
-8501.000
 30
-511.569
 70
    32
  0
VERTEX
  8
T57SSILL
 62
2
 10
5887.000
 20
-8497.000
 30
-511.538
 70
    32
  0
VERTEX
  8
T57SSILL
 62
2
 10
5889.000
 20
-8488.000
 30
-511.443
 70
    32
  0
VERTEX
  8
T57SSILL
 62
2
 10
5889.000
 20
-8475.000
 30
-511.292
 70
    32
  0
VERTEX
  8
T57SSILL
 62
2
 10
5868.000
 20
-8444.000
 30
-510.826
 70
    32
  0
VERTEX
  8
T57SSILL
 62
2
 10
5887.000
 20
-8430.000
 30
-510.758
 70
    32
  0
VERTEX
  8
T57SSILL
 62
2
 10
5897.000
 20
-8445.000
 30
-510.982
 70
    32
  0
VERTEX
  8
T57SSILL
 62
2
 10
5886.000
 20
-8453.000
 30
-511.021
 70
    32
  0
VERTEX
  8
T57SSILL
 62
2
 10
5895.000
 20
-8466.000
 30
-511.217
 70
    32
  0
VERTEX
  8
T57SSILL
 62
2
 10
5909.000
 20
-8473.000
 30
-511.368
 70
    32
  0
VERTEX
  8
T57SSILL
 62
2
 10
5924.318
 20
-8472.157
 30
-511.435
 70
    32
  0
VERTEX
  8
T57SSILL
 62
2
 10
6303.389
 20
-8200.059
 30
-512.205
 70
    32
  0
VERTEX
  8
T57SSILL
 62
2
 10
6326.789
 20
-8059.319
 30
-512.978
 70
    32
  0
VERTEX
  8
T57SSILL
 62
2
 10
6539.000
 20
-7908.000
 30
-513.010
 70
    32
  0
VERTEX
  8
T57SSILL
 62
2
 10
6546.000
 20
-7897.000
 30
-513.010
 70
    32
  0
VERTEX
  8
T57SSILL
 62
2
 10
6548.000
 20
-7892.000
 30
-513.010
 70
    32
  0
VERTEX
  8
T57SSILL
 62
2
 10
6548.000
 20
-7886.000
 30
-513.010
 70
    32
  0
VERTEX
  8
T57SSILL
 62
2
 10
6530.429
 20
-7794.008
 30
-512.906
 70
    32
  0
VERTEX
  8
T57SSILL
 62
2
 10
6539.844
 20
-7793.153
 30
-512.958
 70
    32
  0
VERTEX
  8
T57SSILL
 62
2
 10
6558.000
 20
-7892.000
 30
-513.010
 70
    32
  0
VERTEX
  8
T57SSILL
 62
2
 10
6565.000
 20
-7887.000
 30
-513.010
 70
    32
  0
VERTEX
  8
T57SSILL
 62
2
 10
6679.000
 20
-7724.000
 30
-513.010
 70
    32
  0
VERTEX
  8
T57SSILL
 62
2
 10
6685.000
 20
-7728.000
 30
-513.009
 70
    32
  0
VERTEX
  8
T57SSILL
 62
2
 10
6571.000
 20
-7894.000
 30
-513.008
 70
    32
  0
VERTEX
  8
T57SSILL
 62
2
 10
6333.837
 20
-8063.931
 30
-512.983
 70
    32
  0
VERTEX
  8
T57SSILL
 62
2
 10
6312.207
 20
-8193.159
 30
-512.235
 70
    32
  0
VERTEX
  8
T57SSILL
 62
2
 10
6328.384
 20
-8187.197
 30
-512.247
 70
    32
  0
VERTEX
  8
T57SSILL
 62
2
 10
6343.949
 20
-8186.310
 30
-512.230
 70
    32
  0
VERTEX
  8
T57SSILL
 62
2
 10
6361.555
 20
-8190.130
 30
-512.181
 70
    32
  0
VERTEX
  8
T57SSILL
 62
2
 10
6375.674
 20
-8198.472
 30
-512.110
 70
    32
  0
VERTEX
  8
T57SSILL
 62
2
 10
6390.674
 20
-8200.901
 30
-512.083
 70
    32
  0
VERTEX
  8
T57SSILL
 62
2
 10
6402.847
 20
-8195.077
 30
-512.169
 70
    32
  0
VERTEX
  8
T57SSILL
 62
2
 10
6459.132
 20
-8154.630
 30
-512.554
 70
    32
  0
VERTEX
  8
T57SSILL
 62
2
 10
6464.931
 20
-8160.343
 30
-512.605
 70
    32
  0
VERTEX
  8
T57SSILL
 62
2
 10
6388.916
 20
-8214.562
 30
-512.084
 70
    32
  0
VERTEX
  8
T57SSILL
 62
2
 10
6396.576
 20
-8225.295
 30
-512.154
 70
    32
  0
VERTEX
  8
T57SSILL
 62
2
 10
6404.664
 20
-8221.200
 30
-512.211
 70
    32
  0
VERTEX
  8
T57SSILL
 62
2
 10
6410.961
 20
-8222.464
 30
-512.260
 70
    32
  0
VERTEX
  8
T57SSILL
 62
2
 10
6418.517
 20
-8220.391
 30
-512.316
 70
    32
  0
VERTEX
  8
T57SSILL
 62
2
 10
6436.028
 20
-8229.582
 30
-512.459
 70
    32
  0
VERTEX
  8
T57SSILL
 62
2
 10
6445.207
 20
-8231.785
 30
-512.531
 70
    32
  0
VERTEX
  8
T57SSILL
 62
2
 10
6458.375
 20
-8228.417
 30
-512.628
 70
    32
  0
VERTEX
  8
T57SSILL
 62
2
 10
6462.915
 20
-8224.630
 30
-512.658
 70
    32
  0
VERTEX
  8
T57SSILL
 62
2
 10
6462.520
 20
-8220.980
 30
-512.651
 70
    32
  0
VERTEX
  8
T57SSILL
 62
2
 10
6456.025
 20
-8213.512
 30
-512.594
 70
    32
  0
VERTEX
  8
T57SSILL
 62
2
 10
6462.672
 20
-8208.279
 30
-512.639
 70
    32
  0
VERTEX
  8
T57SSILL
 62
2
 10
6468.506
 20
-8214.702
 30
-512.690
 70
    32
  0
VERTEX
  8
T57SSILL
 62
2
 10
6479.892
 20
-8223.158
 30
-512.786
 70
    32
  0
VERTEX
  8
T57SSILL
 62
2
 10
6497.176
 20
-8229.670
 30
-512.921
 70
    32
  0
VERTEX
  8
T57SSILL
 62
2
 10
6499.362
 20
-8227.291
 30
-512.922
 70
    32
  0
VERTEX
  8
T57SSILL
 62
2
 10
6489.372
 20
-8213.754
 30
-512.848
 70
    32
  0
VERTEX
  8
T57SSILL
 62
2
 10
6493.832
 20
-8208.821
 30
-512.877
 70
    32
  0
VERTEX
  8
T57SSILL
 62
2
 10
6501.005
 20
-8213.052
 30
-512.926
 70
    32
  0
VERTEX
  8
T57SSILL
 62
2
 10
6510.027
 20
-8215.042
 30
-512.928
 70
    32
  0
VERTEX
  8
T57SSILL
 62
2
 10
6510.466
 20
-8233.438
 30
-512.924
 70
    32
  0
VERTEX
  8
T57SSILL
 62
2
 10
6517.474
 20
-8238.337
 30
-512.925
 70
    32
  0
VERTEX
  8
T57SSILL
 62
2
 10
6747.807
 20
-8072.546
 30
-512.973
 70
    32
  0
VERTEX
  8
T57SSILL
 62
2
 10
6753.144
 20
-8078.686
 30
-512.972
 70
    32
  0
VERTEX
  8
T57SSILL
 62
2
 10
6759.487
 20
-8087.187
 30
-512.972
 70
    32
  0
VERTEX
  8
T57SSILL
 62
2
 10
6753.314
 20
-8091.166
 30
-512.971
 70
    32
  0
VERTEX
  8
T57SSILL
 62
2
 10
6746.682
 20
-8082.990
 30
-512.971
 70
    32
  0
VERTEX
  8
T57SSILL
 62
2
 10
6627.466
 20
-8169.322
 30
-512.973
 70
    32
  0
VERTEX
  8
T57SSILL
 62
2
 10
6637.541
 20
-8171.849
 30
-512.971
 70
    32
  0
VERTEX
  8
T57SSILL
 62
2
 10
6644.011
 20
-8175.722
 30
-512.970
 70
    32
  0
VERTEX
  8
T57SSILL
 62
2
 10
6655.205
 20
-8188.370
 30
-512.967
 70
    32
  0
VERTEX
  8
T57SSILL
 62
2
 10
6673.870
 20
-8175.030
 30
-512.966
 70
    32
  0
VERTEX
  8
T57SSILL
 62
2
 10
6676.482
 20
-8182.193
 30
-512.965
 70
    32
  0
VERTEX
  8
T57SSILL
 62
2
 10
6659.654
 20
-8193.954
 30
-512.966
 70
    32
  0
VERTEX
  8
T57SSILL
 62
2
 10
6705.972
 20
-8259.391
 30
-512.953
 70
    32
  0
VERTEX
  8
T57SSILL
 62
2
 10
6700.129
 20
-8263.330
 30
-512.953
 70
    32
  0
VERTEX
  8
T57SSILL
 62
2
 10
6643.948
 20
-8186.168
 30
-512.969
 70
    32
  0
VERTEX
  8
T57SSILL
 62
2
 10
6635.736
 20
-8179.639
 30
-512.971
 70
    32
  0
VERTEX
  8
T57SSILL
 62
2
 10
6625.766
 20
-8177.254
 30
-512.971
 70
    32
  0
VERTEX
  8
T57SSILL
 62
2
 10
6617.951
 20
-8178.532
 30
-512.968
 70
    32
  0
VERTEX
  8
T57SSILL
 62
2
 10
6610.456
 20
-8181.874
 30
-512.965
 70
    32
  0
VERTEX
  8
T57SSILL
 62
2
 10
6519.470
 20
-8246.826
 30
-512.924
 70
    32
  0
VERTEX
  8
T57SSILL
 62
2
 10
6520.611
 20
-8256.383
 30
-512.922
 70
    32
  0
VERTEX
  8
T57SSILL
 62
2
 10
6523.061
 20
-8258.516
 30
-512.922
 70
    32
  0
VERTEX
  8
T57SSILL
 62
2
 10
6518.788
 20
-8264.297
 30
-512.920
 70
    32
  0
VERTEX
  8
T57SSILL
 62
2
 10
6505.119
 20
-8257.197
 30
-512.917
 70
    32
  0
VERTEX
  8
T57SSILL
 62
2
 10
6463.153
 20
-8286.961
 30
-512.727
 70
    32
  0
VERTEX
  8
T57SSILL
 62
2
 10
6448.088
 20
-8289.539
 30
-512.615
 70
    32
  0
VERTEX
  8
T57SSILL
 62
2
 10
6442.082
 20
-8289.055
 30
-512.569
 70
    32
  0
VERTEX
  8
T57SSILL
 62
2
 10
6450.317
 20
-8300.593
 30
-512.644
 70
    32
  0
VERTEX
  8
T57SSILL
 62
2
 10
6452.813
 20
-8300.393
 30
-512.662
 70
    32
  0
VERTEX
  8
T57SSILL
 62
2
 10
6456.720
 20
-8305.391
 30
-512.698
 70
    32
  0
VERTEX
  8
T57SSILL
 62
2
 10
6455.874
 20
-8308.376
 30
-512.694
 70
    32
  0
VERTEX
  8
T57SSILL
 62
2
 10
6563.757
 20
-8457.194
 30
-512.892
 70
    32
  0
VERTEX
  8
T57SSILL
 62
2
 10
6571.261
 20
-8451.800
 30
-512.895
 70
    32
  0
VERTEX
  8
T57SSILL
 62
2
 10
6575.248
 20
-8458.159
 30
-512.895
 70
    32
  0
VERTEX
  8
T57SSILL
 62
2
 10
6567.846
 20
-8463.551
 30
-512.892
 70
    32
  0
VERTEX
  8
T57SSILL
 62
2
 10
6793.230
 20
-8776.127
 30
-512.890
 70
    32
  0
VERTEX
  8
T57SSILL
 62
2
 10
6788.790
 20
-8779.889
 30
-512.890
 70
    32
  0
VERTEX
  8
T57SSILL
 62
2
 10
6786.623
 20
-8796.237
 30
-512.891
 70
    32
  0
VERTEX
  8
T57SSILL
 62
2
 10
6778.795
 20
-8806.928
 30
-512.893
 70
    32
  0
VERTEX
  8
T57SSILL
 62
2
 10
6684.128
 20
-8875.331
 30
-512.877
 70
    32
  0
VERTEX
  8
T57SSILL
 62
2
 10
6679.191
 20
-8868.584
 30
-512.861
 70
    32
  0
VERTEX
  8
T57SSILL
 62
2
 10
6775.267
 20
-8799.127
 30
-512.892
 70
    32
  0
VERTEX
  8
T57SSILL
 62
2
 10
6779.605
 20
-8792.145
 30
-512.891
 70
    32
  0
VERTEX
  8
T57SSILL
 62
2
 10
6779.836
 20
-8776.146
 30
-512.882
 70
    32
  0
VERTEX
  8
T57SSILL
 62
2
 10
6777.292
 20
-8769.367
 30
-512.879
 70
    32
  0
VERTEX
  8
T57SSILL
 62
2
 10
6613.096
 20
-8539.771
 30
-512.879
 70
    32
  0
VERTEX
  8
T57SSILL
 62
2
 10
6609.418
 20
-8553.488
 30
-512.839
 70
    32
  0
VERTEX
  8
T57SSILL
 62
2
 10
6600.833
 20
-8564.637
 30
-512.789
 70
    32
  0
VERTEX
  8
T57SSILL
 62
2
 10
6550.840
 20
-8600.058
 30
-512.564
 70
    32
  0
VERTEX
  8
T57SSILL
 62
2
 10
6544.921
 20
-8596.151
 30
-512.555
 70
    32
  0
VERTEX
  8
T57SSILL
 62
2
 10
6600.318
 20
-8554.252
 30
-512.810
 70
    32
  0
VERTEX
  8
T57SSILL
 62
2
 10
6603.581
 20
-8548.184
 30
-512.833
 70
    32
  0
VERTEX
  8
T57SSILL
 62
2
 10
6606.255
 20
-8534.863
 30
-512.869
 70
    32
  0
VERTEX
  8
T57SSILL
 62
2
 10
6603.590
 20
-8526.746
 30
-512.878
 70
    32
  0
VERTEX
  8
T57SSILL
 62
2
 10
6560.716
 20
-8467.821
 30
-512.876
 70
    32
  0
VERTEX
  8
T57SSILL
 62
2
 10
6512.485
 20
-8501.925
 30
-512.659
 70
    32
  0
VERTEX
  8
T57SSILL
 62
2
 10
6508.123
 20
-8496.534
 30
-512.658
 70
    32
  0
VERTEX
  8
T57SSILL
 62
2
 10
6557.063
 20
-8461.322
 30
-512.879
 70
    32
  0
VERTEX
  8
T57SSILL
 62
2
 10
6494.670
 20
-8374.248
 30
-512.879
 70
    32
  0
VERTEX
  8
T57SSILL
 62
2
 10
6491.184
 20
-8389.714
 30
-512.835
 70
    32
  0
VERTEX
  8
T57SSILL
 62
2
 10
6486.653
 20
-8395.851
 30
-512.809
 70
    32
  0
VERTEX
  8
T57SSILL
 62
2
 10
6435.254
 20
-8433.294
 30
-512.575
 70
    32
  0
VERTEX
  8
T57SSILL
 62
2
 10
6430.466
 20
-8442.946
 30
-512.540
 70
    32
  0
VERTEX
  8
T57SSILL
 62
2
 10
6432.284
 20
-8443.225
 30
-512.545
 70
    32
  0
VERTEX
  8
T57SSILL
 62
2
 10
6438.119
 20
-8455.177
 30
-512.537
 70
    32
  0
VERTEX
  8
T57SSILL
 62
2
 10
6441.891
 20
-8473.516
 30
-512.509
 70
    32
  0
VERTEX
  8
T57SSILL
 62
2
 10
6450.593
 20
-8488.493
 30
-512.503
 70
    32
  0
VERTEX
  8
T57SSILL
 62
2
 10
6483.841
 20
-8535.826
 30
-512.501
 70
    32
  0
VERTEX
  8
T57SSILL
 62
2
 10
6477.274
 20
-8539.476
 30
-512.474
 70
    32
  0
VERTEX
  8
T57SSILL
 62
2
 10
6472.250
 20
-8531.585
 30
-512.476
 70
    32
  0
VERTEX
  8
T57SSILL
 62
2
 10
6442.198
 20
-8552.528
 30
-512.341
 70
    32
  0
VERTEX
  8
T57SSILL
 62
2
 10
6437.477
 20
-8546.265
 30
-512.341
 70
    32
  0
VERTEX
  8
T57SSILL
 62
2
 10
6461.569
 20
-8529.355
 30
-512.449
 70
    32
  0
VERTEX
  8
T57SSILL
 62
2
 10
6463.534
 20
-8520.082
 30
-512.474
 70
    32
  0
VERTEX
  8
T57SSILL
 62
2
 10
6447.523
 20
-8496.933
 30
-512.476
 70
    32
  0
VERTEX
  8
T57SSILL
 62
2
 10
6437.995
 20
-8500.774
 30
-512.439
 70
    32
  0
VERTEX
  8
T57SSILL
 62
2
 10
6425.434
 20
-8487.782
 30
-512.430
 70
    32
  0
VERTEX
  8
T57SSILL
 62
2
 10
6416.854
 20
-8463.886
 30
-512.455
 70
    32
  0
VERTEX
  8
T57SSILL
 62
2
 10
6416.939
 20
-8457.653
 30
-512.469
 70
    32
  0
VERTEX
  8
T57SSILL
 62
2
 10
6413.366
 20
-8452.717
 30
-512.468
 70
    32
  0
VERTEX
  8
T57SSILL
 62
2
 10
6413.287
 20
-8448.983
 30
-512.476
 70
    32
  0
VERTEX
  8
T57SSILL
 62
2
 10
6348.264
 20
-8495.424
 30
-512.183
 70
    32
  0
VERTEX
  8
T57SSILL
 62
2
 10
6341.598
 20
-8488.539
 30
-512.178
 70
    32
  0
VERTEX
  8
T57SSILL
 62
2
 10
6413.186
 20
-8438.185
 30
-512.499
 70
    32
  0
VERTEX
  8
T57SSILL
 62
2
 10
6413.526
 20
-8429.460
 30
-512.519
 70
    32
  0
VERTEX
  8
T57SSILL
 62
2
 10
6414.825
 20
-8425.295
 30
-512.531
 70
    32
  0
VERTEX
  8
T57SSILL
 62
2
 10
6418.348
 20
-8421.453
 30
-512.550
 70
    32
  0
VERTEX
  8
T57SSILL
 62
2
 10
6422.941
 20
-8420.669
 30
-512.566
 70
    32
  0
VERTEX
  8
T57SSILL
 62
2
 10
6430.020
 20
-8426.344
 30
-512.575
 70
    32
  0
VERTEX
  8
T57SSILL
 62
2
 10
6475.021
 20
-8394.690
 30
-512.777
 70
    32
  0
VERTEX
  8
T57SSILL
 62
2
 10
6483.569
 20
-8382.554
 30
-512.828
 70
    32
  0
VERTEX
  8
T57SSILL
 62
2
 10
6486.203
 20
-8374.738
 30
-512.853
 70
    32
  0
VERTEX
  8
T57SSILL
 62
2
 10
6486.507
 20
-8368.227
 30
-512.867
 70
    32
  0
VERTEX
  8
T57SSILL
 62
2
 10
6484.534
 20
-8361.767
 30
-512.875
 70
    32
  0
VERTEX
  8
T57SSILL
 62
2
 10
6448.181
 20
-8311.059
 30
-512.661
 70
    32
  0
VERTEX
  8
T57SSILL
 62
2
 10
6442.806
 20
-8314.127
 30
-512.650
 70
    32
  0
VERTEX
  8
T57SSILL
 62
2
 10
6436.985
 20
-8305.942
 30
-512.598
 70
    32
  0
VERTEX
  8
T57SSILL
 62
2
 10
6341.543
 20
-8374.280
 30
-512.422
 70
    32
  0
VERTEX
  8
T57SSILL
 62
2
 10
6336.038
 20
-8368.704
 30
-512.417
 70
    32
  0
VERTEX
  8
T57SSILL
 62
2
 10
6428.301
 20
-8301.295
 30
-512.547
 70
    32
  0
VERTEX
  8
T57SSILL
 62
2
 10
6432.665
 20
-8292.819
 30
-512.534
 70
    32
  0
VERTEX
  8
T57SSILL
 62
2
 10
6432.606
 20
-8289.545
 30
-512.523
 70
    32
  0
VERTEX
  8
T57SSILL
 62
2
 10
6388.603
 20
-8228.525
 30
-512.131
 70
    32
  0
VERTEX
  8
T57SSILL
 62
2
 10
6375.469
 20
-8207.378
 30
-512.056
 70
    32
  0
VERTEX
  8
T57SSILL
 62
2
 10
6365.206
 20
-8199.803
 30
-512.117
 70
    32
  0
VERTEX
  8
T57SSILL
 62
2
 10
6351.498
 20
-8194.829
 30
-512.167
 70
    32
  0
VERTEX
  8
T57SSILL
 62
2
 10
6341.451
 20
-8194.163
 30
-512.186
 70
    32
  0
VERTEX
  8
T57SSILL
 62
2
 10
6329.003
 20
-8195.887
 30
-512.194
 70
    32
  0
VERTEX
  8
T57SSILL
 62
2
 10
6319.637
 20
-8199.619
 30
-512.185
 70
    32
  0
VERTEX
  8
T57SSILL
 62
2
 10
6270.035
 20
-8233.222
 30
-512.052
 70
    32
  0
VERTEX
  8
T57SSILL
 62
2
 10
5999.732
 20
-8430.046
 30
-511.282
 70
    32
  0
VERTEX
  8
T57SSILL
 62
2
 10
5999.763
 20
-8433.950
 30
-511.286
 70
    32
  0
VERTEX
  8
T57SSILL
 62
2
 10
6005.096
 20
-8442.474
 30
-511.305
 70
    32
  0
VERTEX
  8
T57SSILL
 62
2
 10
5997.954
 20
-8448.984
 30
-511.304
 70
    32
  0
VERTEX
  8
T57SSILL
 62
2
 10
5993.328
 20
-8447.962
 30
-511.311
 70
    32
  0
VERTEX
  8
T57SSILL
 62
2
 10
5987.412
 20
-8442.559
 30
-511.312
 70
    32
  0
VERTEX
  8
T57SSILL
 62
2
 10
5982.332
 20
-8442.569
 30
-511.322
 70
    32
  0
VERTEX
  8
T57SSILL
 62
2
 10
5945.990
 20
-8467.722
 30
-511.442
 70
    32
  0
VERTEX
  8
T57SSILL
 62
2
 10
5952.487
 20
-8476.728
 30
-511.447
 70
    32
  0
VERTEX
  8
T57SSILL
 62
2
 10
5945.146
 20
-8481.419
 30
-511.471
 70
    32
  0
VERTEX
  8
T57SSILL
 62
2
 10
5938.878
 20
-8472.912
 30
-511.466
 70
    32
  0
VERTEX
  8
T57SSILL
 62
2
 10
5911.291
 20
-8492.300
 30
-511.558
 70
    32
  0
VERTEX
  8
T57SSILL
 62
2
 10
5916.706
 20
-8500.333
 30
-511.563
 70
    32
  0
VERTEX
  8
T57SSILL
 62
2
 10
5909.830
 20
-8505.246
 30
-511.586
 70
    32
  0
VERTEX
  8
T57SSILL
 62
2
 10
5903.790
 20
-8497.551
 30
-511.583
 70
    32
  0
VERTEX
  8
T57SSILL
 62
2
 10
5840.410
 20
-8543.923
 30
-511.798
 70
    32
  0
VERTEX
  8
T57SSILL
 62
2
 10
5839.726
 20
-8557.503
 30
-511.826
 70
    32
  0
VERTEX
  8
T57SSILL
 62
2
 10
5911.978
 20
-8657.710
 30
-511.879
 70
    32
  0
VERTEX
  8
T57SSILL
 62
2
 10
5906.129
 20
-8662.145
 30
-511.899
 70
    32
  0
VERTEX
  8
T57SSILL
 62
2
 10
5898.000
 20
-8653.000
 30
-511.897
 70
    32
  0
VERTEX
  8
T57SSILL
 62
2
 10
5896.000
 20
-8654.000
 30
-511.903
 70
    32
  0
VERTEX
  8
T57SSILL
 62
2
 10
5882.000
 20
-8645.000
 30
-511.913
 70
    32
  0
VERTEX
  8
T57SSILL
 62
2
 10
5875.000
 20
-8631.000
 30
-511.900
 70
    32
  0
VERTEX
  8
T57SSILL
 62
2
 10
5879.000
 20
-8624.000
 30
-511.878
 70
    32
  0
VERTEX
  8
T57SSILL
 62
2
 10
5828.000
 20
-8553.000
 30
-511.840
 70
    32
  0
VERTEX
  8
T57SSILL
 62
2
 10
5334.548
 20
-8908.246
 30
-511.895
 70
    32
  0
VERTEX
  8
T57SSILL
 62
2
 10
5323.698
 20
-8919.854
 30
-511.918
 70
    32
  0
VERTEX
  8
T57SSILL
 62
2
 10
5317.866
 20
-8932.918
 30
-511.980
 70
    32
  0
VERTEX
  8
T57SSILL
 62
2
 10
5316.184
 20
-8947.747
 30
-512.077
 70
    32
  0
VERTEX
  8
T57SSILL
 62
2
 10
5320.955
 20
-8967.469
 30
-512.245
 70
    32
  0
VERTEX
  8
T57SSILL
 62
2
 10
5539.276
 20
-9270.428
 30
-511.732
 70
    32
  0
VERTEX
  8
T57SSILL
 62
2
 10
5887.111
 20
-9753.111
 30
-512.992
 70
    32
  0
VERTEX
  8
T57SSILL
 62
2
 10
5930.754
 20
-9760.919
 30
-512.990
 70
    32
  0
VERTEX
  8
T57SSILL
 62
2
 10
5946.156
 20
-9757.112
 30
-512.989
 70
    32
  0
VERTEX
  8
T57SSILL
 62
2
 10
6045.939
 20
-9685.188
 30
-512.980
 70
    32
  0
VERTEX
  8
T57SSILL
 62
2
 10
6043.881
 20
-9668.744
 30
-512.979
 70
    32
  0
VERTEX
  8
T57SSILL
 62
2
 10
6047.677
 20
-9666.772
 30
-512.979
 70
    32
  0
VERTEX
  8
T57SSILL
 62
2
 10
6051.873
 20
-9667.772
 30
-512.979
 70
    32
  0
VERTEX
  8
T57SSILL
 62
2
 10
6061.389
 20
-9674.503
 30
-512.979
 70
    32
  0
VERTEX
  8
T57SSILL
 62
2
 10
6102.731
 20
-9644.096
 30
-512.975
 70
    32
  0
VERTEX
  8
T57SSILL
 62
2
 10
6096.939
 20
-9635.446
 30
-512.975
 70
    32
  0
VERTEX
  8
T57SSILL
 62
2
 10
6101.277
 20
-9630.151
 30
-512.974
 70
    32
  0
VERTEX
  8
T57SSILL
 62
2
 10
6109.601
 20
-9627.528
 30
-512.974
 70
    32
  0
VERTEX
  8
T57SSILL
 62
2
 10
6115.584
 20
-9635.389
 30
-512.974
 70
    32
  0
VERTEX
  8
T57SSILL
 62
2
 10
6149.292
 20
-9611.129
 30
-512.971
 70
    32
  0
VERTEX
  8
T57SSILL
 62
2
 10
6150.025
 20
-9607.016
 30
-512.971
 70
    32
  0
VERTEX
  8
T57SSILL
 62
2
 10
6143.997
 20
-9575.396
 30
-512.970
 70
    32
  0
VERTEX
  8
T57SSILL
 62
2
 10
6151.734
 20
-9574.825
 30
-512.969
 70
    32
  0
VERTEX
  8
T57SSILL
 62
2
 10
6155.106
 20
-9591.735
 30
-512.970
 70
    32
  0
VERTEX
  8
T57SSILL
 62
2
 10
6160.321
 20
-9602.756
 30
-512.970
 70
    32
  0
VERTEX
  8
T57SSILL
 62
2
 10
6174.606
 20
-9593.019
 30
-512.969
 70
    32
  0
VERTEX
  8
T57SSILL
 62
2
 10
6177.816
 20
-9599.290
 30
-512.969
 70
    32
  0
VERTEX
  8
T57SSILL
 62
2
 10
6164.124
 20
-9608.493
 30
-512.970
 70
    32
  0
VERTEX
  8
T57SSILL
 62
2
 10
6168.587
 20
-9623.749
 30
-512.970
 70
    32
  0
VERTEX
  8
T57SSILL
 62
2
 10
6171.452
 20
-9651.127
 30
-512.971
 70
    32
  0
VERTEX
  8
T57SSILL
 62
2
 10
6176.842
 20
-9650.616
 30
-512.971
 70
    32
  0
VERTEX
  8
T57SSILL
 62
2
 10
6177.857
 20
-9659.120
 30
-512.971
 70
    32
  0
VERTEX
  8
T57SSILL
 62
2
 10
6173.492
 20
-9659.546
 30
-512.971
 70
    32
  0
VERTEX
  8
T57SSILL
 62
2
 10
6170.947
 20
-9661.595
 30
-512.971
 70
    32
  0
VERTEX
  8
T57SSILL
 62
2
 10
6170.559
 20
-9670.565
 30
-512.972
 70
    32
  0
VERTEX
  8
T57SSILL
 62
2
 10
6166.457
 20
-9687.205
 30
-512.973
 70
    32
  0
VERTEX
  8
T57SSILL
 62
2
 10
6172.466
 20
-9696.460
 30
-512.973
 70
    32
  0
VERTEX
  8
T57SSILL
 62
2
 10
6174.089
 20
-9711.696
 30
-512.973
 70
    32
  0
VERTEX
  8
T57SSILL
 62
2
 10
6172.044
 20
-9718.817
 30
-512.974
 70
    32
  0
VERTEX
  8
T57SSILL
 62
2
 10
6172.664
 20
-9723.151
 30
-512.974
 70
    32
  0
VERTEX
  8
T57SSILL
 62
2
 10
6176.922
 20
-9729.972
 30
-512.974
 70
    32
  0
VERTEX
  8
T57SSILL
 62
2
 10
6172.060
 20
-9737.708
 30
-512.974
 70
    32
  0
VERTEX
  8
T57SSILL
 62
2
 10
6164.652
 20
-9758.358
 30
-512.976
 70
    32
  0
VERTEX
  8
T57SSILL
 62
2
 10
6154.154
 20
-9766.565
 30
-512.976
 70
    32
  0
VERTEX
  8
T57SSILL
 62
2
 10
6150.586
 20
-9774.890
 30
-512.977
 70
    32
  0
VERTEX
  8
T57SSILL
 62
2
 10
6141.243
 20
-9781.832
 30
-512.978
 70
    32
  0
VERTEX
  8
T57SSILL
 62
2
 10
6134.409
 20
-9774.149
 30
-512.978
 70
    32
  0
VERTEX
  8
T57SSILL
 62
2
 10
6139.381
 20
-9757.208
 30
-512.977
 70
    32
  0
VERTEX
  8
T57SSILL
 62
2
 10
6154.934
 20
-9743.950
 30
-512.976
 70
    32
  0
VERTEX
  8
T57SSILL
 62
2
 10
6156.124
 20
-9718.433
 30
-512.975
 70
    32
  0
VERTEX
  8
T57SSILL
 62
2
 10
6154.277
 20
-9709.225
 30
-512.974
 70
    32
  0
VERTEX
  8
T57SSILL
 62
2
 10
6150.775
 20
-9698.926
 30
-512.974
 70
    32
  0
VERTEX
  8
T57SSILL
 62
2
 10
6143.785
 20
-9687.553
 30
-512.974
 70
    32
  0
VERTEX
  8
T57SSILL
 62
2
 10
6144.179
 20
-9674.667
 30
-512.974
 70
    32
  0
VERTEX
  8
T57SSILL
 62
2
 10
6135.825
 20
-9668.947
 30
-512.974
 70
    32
  0
VERTEX
  8
T57SSILL
 62
2
 10
6129.851
 20
-9657.929
 30
-512.974
 70
    32
  0
VERTEX
  8
T57SSILL
 62
2
 10
6113.129
 20
-9645.412
 30
-512.974
 70
    32
  0
VERTEX
  8
T57SSILL
 62
2
 10
6104.879
 20
-9651.459
 30
-512.975
 70
    32
  0
VERTEX
  8
T57SSILL
 62
2
 10
6108.903
 20
-9655.841
 30
-512.975
 70
    32
  0
VERTEX
  8
T57SSILL
 62
2
 10
6112.009
 20
-9664.686
 30
-512.975
 70
    32
  0
VERTEX
  8
T57SSILL
 62
2
 10
6123.072
 20
-9682.472
 30
-512.975
 70
    32
  0
VERTEX
  8
T57SSILL
 62
2
 10
6127.156
 20
-9695.393
 30
-512.975
 70
    32
  0
VERTEX
  8
T57SSILL
 62
2
 10
6118.929
 20
-9702.074
 30
-512.976
 70
    32
  0
VERTEX
  8
T57SSILL
 62
2
 10
6110.258
 20
-9693.649
 30
-512.976
 70
    32
  0
VERTEX
  8
T57SSILL
 62
2
 10
6100.808
 20
-9671.010
 30
-512.976
 70
    32
  0
VERTEX
  8
T57SSILL
 62
2
 10
6091.779
 20
-9665.558
 30
-512.976
 70
    32
  0
VERTEX
  8
T57SSILL
 62
2
 10
6087.397
 20
-9664.149
 30
-512.977
 70
    32
  0
VERTEX
  8
T57SSILL
 62
2
 10
6063.614
 20
-9680.614
 30
-512.979
 70
    32
  0
VERTEX
  8
T57SSILL
 62
2
 10
6080.305
 20
-9721.616
 30
-512.979
 70
    32
  0
VERTEX
  8
T57SSILL
 62
2
 10
6083.735
 20
-9734.683
 30
-512.979
 70
    32
  0
VERTEX
  8
T57SSILL
 62
2
 10
6084.545
 20
-9746.376
 30
-512.980
 70
    32
  0
VERTEX
  8
T57SSILL
 62
2
 10
6081.711
 20
-9747.872
 30
-512.980
 70
    32
  0
VERTEX
  8
T57SSILL
 62
2
 10
6078.388
 20
-9747.331
 30
-512.980
 70
    32
  0
VERTEX
  8
T57SSILL
 62
2
 10
6077.760
 20
-9740.721
 30
-512.980
 70
    32
  0
VERTEX
  8
T57SSILL
 62
2
 10
6075.585
 20
-9737.398
 30
-512.980
 70
    32
  0
VERTEX
  8
T57SSILL
 62
2
 10
6067.271
 20
-9705.468
 30
-512.979
 70
    32
  0
VERTEX
  8
T57SSILL
 62
2
 10
6054.671
 20
-9687.811
 30
-512.979
 70
    32
  0
VERTEX
  8
T57SSILL
 62
2
 10
5943.684
 20
-9765.300
 30
-512.989
 70
    32
  0
VERTEX
  8
T57SSILL
 62
2
 10
5959.791
 20
-9775.001
 30
-512.989
 70
    32
  0
VERTEX
  8
T57SSILL
 62
2
 10
5960.921
 20
-9778.533
 30
-512.989
 70
    32
  0
VERTEX
  8
T57SSILL
 62
2
 10
5988.239
 20
-9795.752
 30
-512.988
 70
    32
  0
VERTEX
  8
T57SSILL
 62
2
 10
5984.829
 20
-9800.979
 30
-512.988
 70
    32
  0
VERTEX
  8
T57SSILL
 62
2
 10
5954.573
 20
-9784.006
 30
-512.989
 70
    32
  0
VERTEX
  8
T57SSILL
 62
2
 10
5951.316
 20
-9785.090
 30
-512.989
 70
    32
  0
VERTEX
  8
T57SSILL
 62
2
 10
5923.395
 20
-9766.526
 30
-512.990
 70
    32
  0
VERTEX
  8
T57SSILL
 62
2
 10
5891.949
 20
-9761.629
 30
-512.992
 70
    32
  0
VERTEX
  8
T57SSILL
 62
2
 10
5953.626
 20
-9845.423
 30
-512.992
 70
    32
  0
VERTEX
  8
T57SSILL
 62
2
 10
6386.159
 20
-10450.697
 30
-512.988
 70
    32
  0
VERTEX
  8
T57SSILL
 62
2
 10
6380.788
 20
-10455.289
 30
-512.989
 70
    32
  0
VERTEX
  8
T57SSILL
 62
2
 10
5953.543
 20
-9861.005
 30
-512.992
 70
    32
  0
VERTEX
  8
T57SSILL
 62
2
 10
5950.837
 20
-9872.201
 30
-512.993
 70
    32
  0
VERTEX
  8
T57SSILL
 62
2
 10
5942.118
 20
-9883.833
 30
-512.994
 70
    32
  0
VERTEX
  8
T57SSILL
 62
2
 10
5898.071
 20
-9916.716
 30
-512.998
 70
    32
  0
VERTEX
  8
T57SSILL
 62
2
 10
5898.319
 20
-9920.612
 30
-512.998
 70
    32
  0
VERTEX
  8
T57SSILL
 62
2
 10
5891.922
 20
-9923.884
 30
-512.998
 70
    32
  0
VERTEX
  8
T57SSILL
 62
2
 10
5883.943
 20
-9931.039
 30
-512.999
 70
    32
  0
VERTEX
  8
T57SSILL
 62
2
 10
5876.495
 20
-9931.722
 30
-512.999
 70
    32
  0
VERTEX
  8
T57SSILL
 62
2
 10
5825.120
 20
-9968.846
 30
-513.004
 70
    32
  0
VERTEX
  8
T57SSILL
 62
2
 10
5878.318
 20
-10124.459
 30
-513.007
 70
    32
  0
VERTEX
  8
T57SSILL
 62
2
 10
5872.617
 20
-10125.961
 30
-513.007
 70
    32
  0
VERTEX
  8
T57SSILL
 62
2
 10
5819.259
 20
-9973.350
 30
-513.005
 70
    32
  0
VERTEX
  8
T57SSILL
 62
2
 10
5794.966
 20
-9991.185
 30
-513.007
 70
    32
  0
VERTEX
  8
T57SSILL
 62
2
 10
5790.070
 20
-9984.337
 30
-513.007
 70
    32
  0
VERTEX
  8
T57SSILL
 62
2
 10
5805.947
 20
-9972.521
 30
-513.005
 70
    32
  0
VERTEX
  8
T57SSILL
 62
2
 10
5800.198
 20
-9960.803
 30
-513.005
 70
    32
  0
VERTEX
  8
T57SSILL
 62
2
 10
5798.960
 20
-9938.554
 30
-513.004
 70
    32
  0
VERTEX
  8
T57SSILL
 62
2
 10
5791.030
 20
-9911.236
 30
-513.004
 70
    32
  0
VERTEX
  8
T57SSILL
 62
2
 10
5791.557
 20
-9909.553
 30
-513.004
 70
    32
  0
VERTEX
  8
T57SSILL
 62
2
 10
5794.242
 20
-9909.358
 30
-513.004
 70
    32
  0
VERTEX
  8
T57SSILL
 62
2
 10
5791.570
 20
-9901.722
 30
-513.003
 70
    32
  0
VERTEX
  8
T57SSILL
 62
2
 10
5785.821
 20
-9899.016
 30
-513.004
 70
    32
  0
VERTEX
  8
T57SSILL
 62
2
 10
5781.174
 20
-9892.257
 30
-513.004
 70
    32
  0
VERTEX
  8
T57SSILL
 62
2
 10
5773.915
 20
-9889.116
 30
-513.004
 70
    32
  0
VERTEX
  8
T57SSILL
 62
2
 10
5737.291
 20
-9914.606
 30
-513.007
 70
    32
  0
VERTEX
  8
T57SSILL
 62
2
 10
5733.591
 20
-9909.012
 30
-513.007
 70
    32
  0
VERTEX
  8
T57SSILL
 62
2
 10
5767.073
 20
-9884.589
 30
-513.004
 70
    32
  0
VERTEX
  8
T57SSILL
 62
2
 10
5764.902
 20
-9876.592
 30
-513.004
 70
    32
  0
VERTEX
  8
T57SSILL
 62
2
 10
5768.234
 20
-9871.260
 30
-513.004
 70
    32
  0
VERTEX
  8
T57SSILL
 62
2
 10
5774.713
 20
-9865.620
 30
-513.003
 70
    32
  0
VERTEX
  8
T57SSILL
 62
2
 10
5773.991
 20
-9850.278
 30
-513.003
 70
    32
  0
VERTEX
  8
T57SSILL
 62
2
 10
5724.308
 20
-9712.869
 30
-513.002
 70
    32
  0
VERTEX
  8
T57SSILL
 62
2
 10
5712.530
 20
-9712.655
 30
-513.003
 70
    32
  0
VERTEX
  8
T57SSILL
 62
2
 10
5709.454
 20
-9706.721
 30
-513.003
 70
    32
  0
VERTEX
  8
T57SSILL
 62
2
 10
5719.940
 20
-9698.196
 30
-513.002
 70
    32
  0
VERTEX
  8
T57SSILL
 62
2
 10
5718.175
 20
-9694.687
 30
-513.002
 70
    32
  0
VERTEX
  8
T57SSILL
 62
2
 10
5701.560
 20
-9706.319
 30
-513.003
 70
    32
  0
VERTEX
  8
T57SSILL
 62
2
 10
5698.587
 20
-9700.528
 30
-513.004
 70
    32
  0
VERTEX
  8
T57SSILL
 62
2
 10
5775.515
 20
-9643.641
 30
-512.997
 70
    32
  0
VERTEX
  8
T57SSILL
 62
2
 10
5780.853
 20
-9631.434
 30
-512.997
 70
    32
  0
VERTEX
  8
T57SSILL
 62
2
 10
5780.537
 20
-9623.297
 30
-512.997
 70
    32
  0
VERTEX
  8
T57SSILL
 62
2
 10
5778.285
 20
-9615.791
 30
-512.997
 70
    32
  0
VERTEX
  8
T57SSILL
 62
2
 10
5772.405
 20
-9608.074
 30
-512.997
 70
    32
  0
VERTEX
  8
T57SSILL
 62
2
 10
5760.527
 20
-9605.759
 30
-512.998
 70
    32
  0
VERTEX
  8
T57SSILL
 62
2
 10
5723.135
 20
-9631.692
 30
-513.001
 70
    32
  0
VERTEX
  8
T57SSILL
 62
2
 10
5719.484
 20
-9625.412
 30
-513.002
 70
    32
  0
VERTEX
  8
T57SSILL
 62
2
 10
5755.176
 20
-9599.833
 30
-512.999
 70
    32
  0
VERTEX
  8
T57SSILL
 62
2
 10
5756.735
 20
-9586.000
 30
-512.998
 70
    32
  0
VERTEX
  8
T57SSILL
 62
2
 10
5621.101
 20
-9398.732
 30
-512.417
 70
    32
  0
VERTEX
  8
T57SSILL
 62
2
 10
5618.692
 20
-9411.242
 30
-512.486
 70
    32
  0
VERTEX
  8
T57SSILL
 62
2
 10
5608.091
 20
-9423.562
 30
-512.552
 70
    32
  0
VERTEX
  8
T57SSILL
 62
2
 10
5450.693
 20
-9536.709
 30
-512.869
 70
    32
  0
VERTEX
  8
T57SSILL
 62
2
 10
5447.591
 20
-9546.643
 30
-512.849
 70
    32
  0
VERTEX
  8
T57SSILL
 62
2
 10
5433.992
 20
-9556.010
 30
-512.776
 70
    32
  0
VERTEX
  8
T57SSILL
 62
2
 10
5433.029
 20
-9561.166
 30
-512.769
 70
    32
  0
VERTEX
  8
T57SSILL
 62
2
 10
5434.358
 20
-9572.069
 30
-512.771
 70
    32
  0
VERTEX
  8
T57SSILL
 62
2
 10
5507.975
 20
-9709.237
 30
-513.019
 70
    32
  0
VERTEX
  8
T57SSILL
 62
2
 10
5514.352
 20
-9717.482
 30
-513.018
 70
    32
  0
VERTEX
  8
T57SSILL
 62
2
 10
5536.675
 20
-9724.899
 30
-513.017
 70
    32
  0
VERTEX
  8
T57SSILL
 62
2
 10
5537.462
 20
-9729.011
 30
-513.017
 70
    32
  0
VERTEX
  8
T57SSILL
 62
2
 10
5534.040
 20
-9739.966
 30
-513.017
 70
    32
  0
VERTEX
  8
T57SSILL
 62
2
 10
5528.806
 20
-9749.615
 30
-513.017
 70
    32
  0
VERTEX
  8
T57SSILL
 62
2
 10
5532.510
 20
-9755.900
 30
-513.017
 70
    32
  0
VERTEX
  8
T57SSILL
 62
2
 10
5525.848
 20
-9758.438
 30
-513.018
 70
    32
  0
VERTEX
  8
T57SSILL
 62
2
 10
5521.546
 20
-9750.304
 30
-513.018
 70
    32
  0
VERTEX
  8
T57SSILL
 62
2
 10
5506.002
 20
-9747.116
 30
-513.019
 70
    32
  0
VERTEX
  8
T57SSILL
 62
2
 10
5499.480
 20
-9743.655
 30
-513.020
 70
    32
  0
VERTEX
  8
T57SSILL
 62
2
 10
5494.440
 20
-9738.473
 30
-513.016
 70
    32
  0
VERTEX
  8
T57SSILL
 62
2
 10
5487.847
 20
-9730.383
 30
-512.985
 70
    32
  0
VERTEX
  8
T57SSILL
 62
2
 10
5483.108
 20
-9721.392
 30
-512.964
 70
    32
  0
VERTEX
  8
T57SSILL
 62
2
 10
5474.960
 20
-9697.556
 30
-512.931
 70
    32
  0
VERTEX
  8
T57SSILL
 62
2
 10
5471.241
 20
-9699.039
 30
-512.912
 70
    32
  0
VERTEX
  8
T57SSILL
 62
2
 10
5468.694
 20
-9693.693
 30
-512.901
 70
    32
  0
VERTEX
  8
T57SSILL
 62
2
 10
5473.937
 20
-9690.916
 30
-512.929
 70
    32
  0
VERTEX
  8
T57SSILL
 62
2
 10
5471.520
 20
-9685.765
 30
-512.918
 70
    32
  0
VERTEX
  8
T57SSILL
 62
2
 10
5477.514
 20
-9682.500
 30
-512.950
 70
    32
  0
VERTEX
  8
T57SSILL
 62
2
 10
5469.753
 20
-9667.682
 30
-512.916
 70
    32
  0
VERTEX
  8
T57SSILL
 62
2
 10
5471.079
 20
-9654.883
 30
-512.928
 70
    32
  0
VERTEX
  8
T57SSILL
 62
2
 10
5442.569
 20
-9600.976
 30
-512.802
 70
    32
  0
VERTEX
  8
T57SSILL
 62
2
 10
5429.205
 20
-9610.509
 30
-512.730
 70
    32
  0
VERTEX
  8
T57SSILL
 62
2
 10
5424.039
 20
-9604.477
 30
-512.705
 70
    32
  0
VERTEX
  8
T57SSILL
 62
2
 10
5439.323
 20
-9593.178
 30
-512.789
 70
    32
  0
VERTEX
  8
T57SSILL
 62
2
 10
5428.758
 20
-9573.889
 30
-512.742
 70
    32
  0
VERTEX
  8
T57SSILL
 62
2
 10
5426.142
 20
-9560.039
 30
-512.734
 70
    32
  0
VERTEX
  8
T57SSILL
 62
2
 10
5417.777
 20
-9560.008
 30
-512.691
 70
    32
  0
VERTEX
  8
T57SSILL
 62
2
 10
5332.810
 20
-9620.151
 30
-512.230
 70
    32
  0
VERTEX
  8
T57SSILL
 62
2
 10
5328.754
 20
-9613.892
 30
-512.211
 70
    32
  0
VERTEX
  8
T57SSILL
 62
2
 10
5379.641
 20
-9577.989
 30
-512.487
 70
    32
  0
VERTEX
  8
T57SSILL
 62
2
 10
5361.264
 20
-9569.251
 30
-512.396
 70
    32
  0
VERTEX
  8
T57SSILL
 62
2
 10
5352.924
 20
-9558.285
 30
-512.357
 70
    32
  0
VERTEX
  8
T57SSILL
 62
2
 10
5286.200
 20
-9411.056
 30
-512.192
 70
    32
  0
VERTEX
  8
T57SSILL
 62
2
 10
5278.452
 20
-9426.574
 30
-512.044
 70
    32
  0
VERTEX
  8
T57SSILL
 62
2
 10
5288.895
 20
-9436.331
 30
-512.075
 70
    32
  0
VERTEX
  8
T57SSILL
 62
2
 10
5282.859
 20
-9442.333
 30
-512.042
 70
    32
  0
VERTEX
  8
T57SSILL
 62
2
 10
5284.879
 20
-9457.025
 30
-512.047
 70
    32
  0
VERTEX
  8
T57SSILL
 62
2
 10
5305.675
 20
-9494.655
 30
-512.139
 70
    32
  0
VERTEX
  8
T57SSILL
 62
2
 10
5302.094
 20
-9501.103
 30
-512.118
 70
    32
  0
VERTEX
  8
T57SSILL
 62
2
 10
5296.209
 20
-9498.956
 30
-512.089
 70
    32
  0
VERTEX
  8
T57SSILL
 62
2
 10
5288.985
 20
-9499.988
 30
-512.051
 70
    32
  0
VERTEX
  8
T57SSILL
 62
2
 10
5283.502
 20
-9497.026
 30
-512.024
 70
    32
  0
VERTEX
  8
T57SSILL
 62
2
 10
5262.701
 20
-9496.731
 30
-511.917
 70
    32
  0
VERTEX
  8
T57SSILL
 62
2
 10
5254.261
 20
-9489.809
 30
-511.876
 70
    32
  0
VERTEX
  8
T57SSILL
 62
2
 10
5247.094
 20
-9489.837
 30
-511.839
 70
    32
  0
VERTEX
  8
T57SSILL
 62
2
 10
5225.093
 20
-9465.807
 30
-511.735
 70
    32
  0
VERTEX
  8
T57SSILL
 62
2
 10
5173.100
 20
-9503.198
 30
-511.453
 70
    32
  0
VERTEX
  8
T57SSILL
 62
2
 10
5168.182
 20
-9497.067
 30
-511.430
 70
    32
  0
VERTEX
  8
T57SSILL
 62
2
 10
5222.571
 20
-9457.361
 30
-511.726
 70
    32
  0
VERTEX
  8
T57SSILL
 62
2
 10
5220.697
 20
-9441.174
 30
-511.722
 70
    32
  0
VERTEX
  8
T57SSILL
 62
2
 10
5226.548
 20
-9431.652
 30
-511.756
 70
    32
  0
VERTEX
  8
T57SSILL
 62
2
 10
5237.738
 20
-9430.770
 30
-511.814
 70
    32
  0
VERTEX
  8
T57SSILL
 62
2
 10
5244.052
 20
-9428.115
 30
-511.848
 70
    32
  0
VERTEX
  8
T57SSILL
 62
2
 10
5249.128
 20
-9423.206
 30
-511.876
 70
    32
  0
VERTEX
  8
T57SSILL
 62
2
 10
5258.600
 20
-9420.618
 30
-511.932
 70
    32
  0
VERTEX
  8
T57SSILL
 62
2
 10
5268.049
 20
-9415.363
 30
-512.033
 70
    32
  0
VERTEX
  8
T57SSILL
 62
2
 10
5277.855
 20
-9415.117
 30
-512.107
 70
    32
  0
VERTEX
  8
T57SSILL
 62
2
 10
5280.499
 20
-9405.456
 30
-512.182
 70
    32
  0
VERTEX
  8
T57SSILL
 62
2
 10
5280.320
 20
-9398.070
 30
-512.224
 70
    32
  0
VERTEX
  8
T57SSILL
 62
2
 10
5270.620
 20
-9376.467
 30
-512.278
 70
    32
  0
VERTEX
  8
T57SSILL
 62
2
 10
5265.125
 20
-9374.263
 30
-512.250
 70
    32
  0
VERTEX
  8
T57SSILL
 62
2
 10
5263.167
 20
-9375.619
 30
-512.228
 70
    32
  0
VERTEX
  8
T57SSILL
 62
2
 10
5260.590
 20
-9382.123
 30
-512.171
 70
    32
  0
VERTEX
  8
T57SSILL
 62
2
 10
5253.690
 20
-9387.651
 30
-512.088
 70
    32
  0
VERTEX
  8
T57SSILL
 62
2
 10
5236.967
 20
-9395.260
 30
-511.920
 70
    32
  0
VERTEX
  8
T57SSILL
 62
2
 10
5198.646
 20
-9422.649
 30
-511.616
 70
    32
  0
VERTEX
  8
T57SSILL
 62
2
 10
5193.574
 20
-9417.057
 30
-511.592
 70
    32
  0
VERTEX
  8
T57SSILL
 62
2
 10
5251.107
 20
-9375.708
 30
-512.138
 70
    32
  0
VERTEX
  8
T57SSILL
 62
2
 10
5259.111
 20
-9356.436
 30
-512.310
 70
    32
  0
VERTEX
  8
T57SSILL
 62
2
 10
5241.044
 20
-9347.383
 30
-512.229
 70
    32
  0
VERTEX
  8
T57SSILL
 62
2
 10
5235.990
 20
-9339.618
 30
-512.237
 70
    32
  0
VERTEX
  8
T57SSILL
 62
2
 10
5220.694
 20
-9325.428
 30
-512.206
 70
    32
  0
VERTEX
  8
T57SSILL
 62
2
 10
5206.732
 20
-9328.658
 30
-512.084
 70
    32
  0
VERTEX
  8
T57SSILL
 62
2
 10
5191.894
 20
-9293.126
 30
-512.181
 70
    32
  0
VERTEX
  8
T57SSILL
 62
2
 10
5203.652
 20
-9289.812
 30
-512.287
 70
    32
  0
VERTEX
  8
T57SSILL
 62
2
 10
5221.843
 20
-9297.493
 30
-512.377
 70
    32
  0
VERTEX
  8
T57SSILL
 62
2
 10
5229.436
 20
-9290.169
 30
-512.476
 70
    32
  0
VERTEX
  8
T57SSILL
 62
2
 10
5229.026
 20
-9289.050
 30
-512.479
 70
    32
  0
VERTEX
  8
T57SSILL
 62
2
 10
5222.718
 20
-9291.630
 30
-512.418
 70
    32
  0
VERTEX
  8
T57SSILL
 62
2
 10
5220.448
 20
-9284.942
 30
-512.440
 70
    32
  0
VERTEX
  8
T57SSILL
 62
2
 10
5226.435
 20
-9281.976
 30
-512.501
 70
    32
  0
VERTEX
  8
T57SSILL
 62
2
 10
5224.045
 20
-9275.474
 30
-512.522
 70
    32
  0
VERTEX
  8
T57SSILL
 62
2
 10
5206.714
 20
-9252.836
 30
-512.525
 70
    32
  0
VERTEX
  8
T57SSILL
 62
2
 10
5200.843
 20
-9256.174
 30
-512.463
 70
    32
  0
VERTEX
  8
T57SSILL
 62
2
 10
5196.028
 20
-9249.637
 30
-512.465
 70
    32
  0
VERTEX
  8
T57SSILL
 62
2
 10
5201.458
 20
-9246.295
 30
-512.525
 70
    32
  0
VERTEX
  8
T57SSILL
 62
2
 10
5172.346
 20
-9206.471
 30
-512.541
 70
    32
  0
VERTEX
  8
T57SSILL
 62
2
 10
5142.070
 20
-9338.502
 30
-511.549
 70
    32
  0
VERTEX
  8
T57SSILL
 62
2
 10
5136.197
 20
-9336.989
 30
-511.514
 70
    32
  0
VERTEX
  8
T57SSILL
 62
2
 10
5148.579
 20
-9283.070
 30
-511.920
 70
    32
  0
VERTEX
  8
T57SSILL
 62
2
 10
5138.621
 20
-9281.068
 30
-511.858
 70
    32
  0
VERTEX
  8
T57SSILL
 62
2
 10
5135.136
 20
-9281.991
 30
-511.827
 70
    32
  0
VERTEX
  8
T57SSILL
 62
2
 10
5133.029
 20
-9274.666
 30
-511.854
 70
    32
  0
VERTEX
  8
T57SSILL
 62
2
 10
5137.322
 20
-9272.161
 30
-511.900
 70
    32
  0
VERTEX
  8
T57SSILL
 62
2
 10
5150.151
 20
-9270.384
 30
-512.005
 70
    32
  0
VERTEX
  8
T57SSILL
 62
2
 10
5164.455
 20
-9210.638
 30
-512.459
 70
    32
  0
VERTEX
  8
T57SSILL
 62
2
 10
5162.694
 20
-9191.878
 30
-512.555
 70
    32
  0
VERTEX
  8
T57SSILL
 62
2
 10
5156.725
 20
-9180.053
 30
-512.580
 70
    32
  0
VERTEX
  8
T57SSILL
 62
2
 10
5155.825
 20
-9173.921
 30
-512.609
 70
    32
  0
VERTEX
  8
T57SSILL
 62
2
 10
5155.658
 20
-9168.783
 30
-512.637
 70
    32
  0
VERTEX
  8
T57SSILL
 62
2
 10
5158.150
 20
-9160.262
 30
-512.700
 70
    32
  0
VERTEX
  8
T57SSILL
 62
2
 10
4958.812
 20
-9304.973
 30
-510.394
 70
    32
  0
VERTEX
  8
T57SSILL
 62
2
 10
4950.710
 20
-9316.741
 30
-510.265
 70
    32
  0
VERTEX
  8
T57SSILL
 62
2
 10
4946.158
 20
-9333.655
 30
-510.148
 70
    32
  0
VERTEX
  8
T57SSILL
 62
2
 10
4946.795
 20
-9343.527
 30
-510.110
 70
    32
  0
VERTEX
  8
T57SSILL
 62
2
 10
4961.189
 20
-9346.461
 30
-510.233
 70
    32
  0
VERTEX
  8
T57SSILL
 62
2
 10
4957.794
 20
-9360.630
 30
-510.139
 70
    32
  0
VERTEX
  8
T57SSILL
 62
2
 10
4963.800
 20
-9370.690
 30
-510.151
 70
    32
  0
VERTEX
  8
T57SSILL
 62
2
 10
4961.835
 20
-9373.645
 30
-510.120
 70
    32
  0
VERTEX
  8
T57SSILL
 62
2
 10
4996.083
 20
-9426.557
 30
-510.210
 70
    32
  0
VERTEX
  8
T57SSILL
 62
2
 10
5012.711
 20
-9428.566
 30
-510.359
 70
    32
  0
VERTEX
  8
T57SSILL
 62
2
 10
5011.754
 20
-9436.953
 30
-510.313
 70
    32
  0
VERTEX
  8
T57SSILL
 62
2
 10
5002.923
 20
-9436.284
 30
-510.232
 70
    32
  0
VERTEX
  8
T57SSILL
 62
2
 10
5092.830
 20
-9570.398
 30
-510.491
 70
    32
  0
VERTEX
  8
T57SSILL
 62
2
 10
5086.313
 20
-9574.089
 30
-510.413
 70
    32
  0
VERTEX
  8
T57SSILL
 62
2
 10
4992.809
 20
-9434.769
 30
-510.143
 70
    32
  0
VERTEX
  8
T57SSILL
 62
2
 10
4986.182
 20
-9433.615
 30
-510.085
 70
    32
  0
VERTEX
  8
T57SSILL
 62
2
 10
4987.440
 20
-9426.500
 30
-510.129
 70
    32
  0
VERTEX
  8
T57SSILL
 62
2
 10
4957.950
 20
-9381.308
 30
-510.049
 70
    32
  0
VERTEX
  8
T57SSILL
 62
2
 10
4952.702
 20
-9382.633
 30
-509.993
 70
    32
  0
VERTEX
  8
T57SSILL
 62
2
 10
4946.620
 20
-9387.350
 30
-509.915
 70
    32
  0
VERTEX
  8
T57SSILL
 62
2
 10
4938.759
 20
-9372.407
 30
-509.907
 70
    32
  0
VERTEX
  8
T57SSILL
 62
2
 10
4944.442
 20
-9368.050
 30
-509.980
 70
    32
  0
VERTEX
  8
T57SSILL
 62
2
 10
4946.734
 20
-9364.121
 30
-510.019
 70
    32
  0
VERTEX
  8
T57SSILL
 62
2
 10
4940.646
 20
-9351.193
 30
-510.018
 70
    32
  0
VERTEX
  8
T57SSILL
 62
2
 10
4935.019
 20
-9350.123
 30
-509.970
 70
    32
  0
VERTEX
  8
T57SSILL
 62
2
 10
4936.954
 20
-9341.625
 30
-510.025
 70
    32
  0
VERTEX
  8
T57SSILL
 62
2
 10
4939.101
 20
-9341.700
 30
-510.045
 70
    32
  0
VERTEX
  8
T57SSILL
 62
2
 10
4938.949
 20
-9330.149
 30
-510.095
 70
    32
  0
VERTEX
  8
T57SSILL
 62
2
 10
4943.042
 20
-9314.792
 30
-510.201
 70
    32
  0
VERTEX
  8
T57SSILL
 62
2
 10
4874.530
 20
-9364.941
 30
-509.332
 70
    32
  0
VERTEX
  8
T57SSILL
 62
2
 10
4866.093
 20
-9374.092
 30
-509.211
 70
    32
  0
VERTEX
  8
T57SSILL
 62
2
 10
4858.040
 20
-9389.816
 30
-509.066
 70
    32
  0
VERTEX
  8
T57SSILL
 62
2
 10
4859.123
 20
-9413.147
 30
-508.973
 70
    32
  0
VERTEX
  8
T57SSILL
 62
2
 10
4913.318
 20
-9562.575
 30
-508.826
 70
    32
  0
VERTEX
  8
T57SSILL
 62
2
 10
4921.110
 20
-9572.315
 30
-508.857
 70
    32
  0
VERTEX
  8
T57SSILL
 62
2
 10
4946.915
 20
-9568.575
 30
-509.118
 70
    32
  0
VERTEX
  8
T57SSILL
 62
2
 10
4948.782
 20
-9583.736
 30
-509.069
 70
    32
  0
VERTEX
  8
T57SSILL
 62
2
 10
4967.045
 20
-9590.433
 30
-509.212
 70
    32
  0
VERTEX
  8
T57SSILL
 62
2
 10
4964.856
 20
-9597.040
 30
-509.162
 70
    32
  0
VERTEX
  8
T57SSILL
 62
2
 10
4924.101
 20
-9583.387
 30
-508.837
 70
    32
  0
VERTEX
  8
T57SSILL
 62
2
 10
4906.950
 20
-9566.185
 30
-508.750
 70
    32
  0
VERTEX
  8
T57SSILL
 62
2
 10
4900.875
 20
-9553.756
 30
-508.748
 70
    32
  0
VERTEX
  8
T57SSILL
 62
2
 10
4852.415
 20
-9418.657
 30
-508.885
 70
    32
  0
VERTEX
  8
T57SSILL
 62
2
 10
4849.282
 20
-9397.181
 30
-508.950
 70
    32
  0
VERTEX
  8
T57SSILL
 62
2
 10
4851.106
 20
-9381.723
 30
-509.036
 70
    32
  0
VERTEX
  8
T57SSILL
 62
2
 10
4836.613
 20
-9390.923
 30
-508.858
 70
    32
  0
VERTEX
  8
T57SSILL
 62
2
 10
4832.618
 20
-9385.271
 30
-508.845
 70
    32
  0
VERTEX
  8
T57SSILL
 62
2
 10
4902.000
 20
-9336.000
 30
-509.712
 70
    32
  0
VERTEX
  8
T57SSILL
 62
2
 10
4882.000
 20
-9333.000
 30
-509.390
 70
    32
  0
VERTEX
  8
T57SSILL
 62
2
 10
4872.000
 20
-9329.000
 30
-509.217
 70
    32
  0
VERTEX
  8
T57SSILL
 62
2
 10
4863.000
 20
-9323.000
 30
-509.050
 70
    32
  0
VERTEX
  8
T57SSILL
 62
2
 10
4856.000
 20
-9316.000
 30
-508.909
 70
    32
  0
VERTEX
  8
T57SSILL
 62
2
 10
4779.336
 20
-9205.918
 30
-509.138
 70
    32
  0
VERTEX
  8
T57SSILL
 62
2
 10
4615.000
 20
-8962.000
 30
-507.672
 70
    32
  0
VERTEX
  8
T57SSILL
 62
2
 10
4611.000
 20
-8957.000
 30
-507.617
 70
    32
  0
VERTEX
  8
T57SSILL
 62
2
 10
4599.000
 20
-8949.000
 30
-507.487
 70
    32
  0
VERTEX
  8
T57SSILL
 62
2
 10
4589.000
 20
-8945.000
 30
-507.393
 70
    32
  0
VERTEX
  8
T57SSILL
 62
2
 10
4576.000
 20
-8943.000
 30
-507.285
 70
    32
  0
VERTEX
  8
T57SSILL
 62
2
 10
4569.000
 20
-8944.000
 30
-507.238
 70
    32
  0
VERTEX
  8
T57SSILL
 62
2
 10
4560.000
 20
-8948.000
 30
-507.191
 70
    32
  0
VERTEX
  8
T57SSILL
 62
2
 10
4441.880
 20
-9031.259
 30
-506.724
 70
    32
  0
VERTEX
  8
T57SSILL
 62
2
 10
4366.296
 20
-9084.536
 30
-505.070
 70
    32
  0
VERTEX
  8
T57SSILL
 62
2
 10
4211.000
 20
-9194.000
 30
-498.729
 70
    32
  0
VERTEX
  8
T57SSILL
 62
2
 10
4206.000
 20
-9207.000
 30
-498.393
 70
    32
  0
VERTEX
  8
T57SSILL
 62
2
 10
4203.000
 20
-9209.000
 30
-498.356
 70
    32
  0
VERTEX
  8
T57SSILL
 62
2
 10
4102.000
 20
-9473.000
 30
-498.691
 70
    32
  0
VERTEX
  8
T57SSILL
 62
2
 10
4137.000
 20
-9646.000
 30
-499.495
 70
    32
  0
VERTEX
  8
T57SSILL
 62
2
 10
4184.000
 20
-9748.000
 30
-500.634
 70
    32
  0
VERTEX
  8
T57SSILL
 62
2
 10
4176.000
 20
-9752.000
 30
-500.530
 70
    32
  0
VERTEX
  8
T57SSILL
 62
2
 10
4174.000
 20
-9748.000
 30
-500.480
 70
    32
  0
VERTEX
  8
T57SSILL
 62
2
 10
4168.000
 20
-9747.000
 30
-500.383
 70
    32
  0
VERTEX
  8
T57SSILL
 62
2
 10
4169.000
 20
-9740.000
 30
-500.365
 70
    32
  0
VERTEX
  8
T57SSILL
 62
2
 10
4156.000
 20
-9708.000
 30
-500.013
 70
    32
  0
VERTEX
  8
T57SSILL
 62
2
 10
4150.000
 20
-9707.000
 30
-499.916
 70
    32
  0
VERTEX
  8
T57SSILL
 62
2
 10
4151.000
 20
-9699.000
 30
-499.893
 70
    32
  0
VERTEX
  8
T57SSILL
 62
2
 10
4135.000
 20
-9663.000
 30
-499.543
 70
    32
  0
VERTEX
  8
T57SSILL
 62
2
 10
4130.000
 20
-9661.000
 30
-499.508
 70
    32
  0
VERTEX
  8
T57SSILL
 62
2
 10
4131.000
 20
-9655.000
 30
-499.493
 70
    32
  0
VERTEX
  8
T57SSILL
 62
2
 10
4122.000
 20
-9613.000
 30
-499.295
 70
    32
  0
VERTEX
  8
T57SSILL
 62
2
 10
4117.000
 20
-9613.000
 30
-499.267
 70
    32
  0
VERTEX
  8
T57SSILL
 62
2
 10
4116.000
 20
-9607.000
 30
-499.240
 70
    32
  0
VERTEX
  8
T57SSILL
 62
2
 10
4120.000
 20
-9603.000
 30
-499.248
 70
    32
  0
VERTEX
  8
T57SSILL
 62
2
 10
4111.000
 20
-9565.000
 30
-499.065
 70
    32
  0
VERTEX
  8
T57SSILL
 62
2
 10
4107.000
 20
-9564.000
 30
-499.039
 70
    32
  0
VERTEX
  8
T57SSILL
 62
2
 10
4105.000
 20
-9560.000
 30
-499.013
 70
    32
  0
VERTEX
  8
T57SSILL
 62
2
 10
4109.000
 20
-9555.000
 30
-499.018
 70
    32
  0
VERTEX
  8
T57SSILL
 62
2
 10
4108.000
 20
-9548.000
 30
-498.988
 70
    32
  0
VERTEX
  8
T57SSILL
 62
2
 10
4104.000
 20
-9546.000
 30
-498.959
 70
    32
  0
VERTEX
  8
T57SSILL
 62
2
 10
4104.000
 20
-9538.000
 30
-498.930
 70
    32
  0
VERTEX
  8
T57SSILL
 62
2
 10
4097.000
 20
-9533.000
 30
-498.874
 70
    32
  0
VERTEX
  8
T57SSILL
 62
2
 10
4095.000
 20
-9505.000
 30
-498.764
 70
    32
  0
VERTEX
  8
T57SSILL
 62
2
 10
4097.000
 20
-9502.000
 30
-498.765
 70
    32
  0
VERTEX
  8
T57SSILL
 62
2
 10
4092.000
 20
-9474.000
 30
-498.638
 70
    32
  0
VERTEX
  8
T57SSILL
 62
2
 10
4196.000
 20
-9206.000
 30
-498.198
 70
    32
  0
VERTEX
  8
T57SSILL
 62
2
 10
4194.000
 20
-9204.000
 30
-498.091
 70
    32
  0
VERTEX
  8
T57SSILL
 62
2
 10
4187.000
 20
-9207.000
 30
-497.972
 70
    32
  0
VERTEX
  8
T57SSILL
 62
2
 10
4166.000
 20
-9206.000
 30
-497.357
 70
    32
  0
VERTEX
  8
T57SSILL
 62
2
 10
4153.000
 20
-9202.000
 30
-496.889
 70
    32
  0
VERTEX
  8
T57SSILL
 62
2
 10
4144.000
 20
-9197.000
 30
-496.508
 70
    32
  0
VERTEX
  8
T57SSILL
 62
2
 10
4136.000
 20
-9190.000
 30
-496.103
 70
    32
  0
VERTEX
  8
T57SSILL
 62
2
 10
4109.186
 20
-9153.550
 30
-494.410
 70
    32
  0
VERTEX
  8
T57SSILL
 62
2
 10
3972.583
 20
-8968.019
 30
-498.713
 70
    32
  0
VERTEX
  8
T57SSILL
 62
2
 10
3866.077
 20
-8823.732
 30
-499.488
 70
    32
  0
VERTEX
  8
T57SSILL
 62
2
 10
3857.132
 20
-8813.917
 30
-499.512
 70
    32
  0
VERTEX
  8
T57SSILL
 62
2
 10
3854.087
 20
-8817.499
 30
-499.498
 70
    32
  0
VERTEX
  8
T57SSILL
 62
2
 10
3854.227
 20
-8822.115
 30
-499.482
 70
    32
  0
VERTEX
  8
T57SSILL
 62
2
 10
3789.531
 20
-9041.132
 30
-497.233
 70
    32
  0
VERTEX
  8
T57SSILL
 62
2
 10
3783.264
 20
-9040.085
 30
-497.226
 70
    32
  0
VERTEX
  8
T57SSILL
 62
2
 10
3785.805
 20
-9030.511
 30
-497.340
 70
    32
  0
VERTEX
  8
T57SSILL
 62
2
 10
3776.433
 20
-9017.612
 30
-497.455
 70
    32
  0
VERTEX
  8
T57SSILL
 62
2
 10
3782.635
 20
-9013.110
 30
-497.523
 70
    32
  0
VERTEX
  8
T57SSILL
 62
2
 10
3788.308
 20
-9021.625
 30
-497.446
 70
    32
  0
VERTEX
  8
T57SSILL
 62
2
 10
3847.573
 20
-8820.701
 30
-499.481
 70
    32
  0
VERTEX
  8
T57SSILL
 62
2
 10
3843.543
 20
-8813.679
 30
-499.501
 70
    32
  0
VERTEX
  8
T57SSILL
 62
2
 10
3849.522
 20
-8809.587
 30
-499.520
 70
    32
  0
VERTEX
  8
T57SSILL
 62
2
 10
3852.225
 20
-8805.259
 30
-499.537
 70
    32
  0
VERTEX
  8
T57SSILL
 62
2
 10
3714.535
 20
-8617.864
 30
-500.040
 70
    32
  0
VERTEX
  8
T57SSILL
 62
2
 10
3706.442
 20
-8623.662
 30
-500.014
 70
    32
  0
VERTEX
  8
T57SSILL
 62
2
 10
3701.619
 20
-8618.357
 30
-500.027
 70
    32
  0
VERTEX
  8
T57SSILL
 62
2
 10
3709.978
 20
-8612.032
 30
-500.056
 70
    32
  0
VERTEX
  8
T57SSILL
 62
2
 10
3654.510
 20
-8537.140
 30
-500.124
 70
    32
  0
VERTEX
  8
T57SSILL
 62
2
 10
3628.027
 20
-8538.282
 30
-500.031
 70
    32
  0
VERTEX
  8
T57SSILL
 62
2
 10
3625.647
 20
-8530.062
 30
-500.035
 70
    32
  0
VERTEX
  8
T57SSILL
 62
2
 10
3638.867
 20
-8524.074
 30
-500.089
 70
    32
  0
VERTEX
  8
T57SSILL
 62
2
 10
3641.546
 20
-8519.557
 30
-500.105
 70
    32
  0
VERTEX
  8
T57SSILL
 62
2
 10
3605.331
 20
-8470.855
 30
-500.051
 70
    32
  0
VERTEX
  8
T57SSILL
 62
2
 10
3588.374
 20
-8473.145
 30
-499.989
 70
    32
  0
VERTEX
  8
T57SSILL
 62
2
 10
3587.278
 20
-8466.477
 30
-499.995
 70
    32
  0
VERTEX
  8
T57SSILL
 62
2
 10
3600.908
 20
-8465.097
 30
-500.044
 70
    32
  0
VERTEX
  8
T57SSILL
 62
2
 10
3477.562
 20
-8298.957
 30
-499.858
 70
    32
  0
VERTEX
  8
T57SSILL
 62
2
 10
3484.799
 20
-8294.289
 30
-499.890
 70
    32
  0
VERTEX
  8
T57SSILL
 62
2
 10
3610.274
 20
-8464.216
 30
-500.077
 70
    32
  0
SEQEND
  8
T57SSILL
  0
POLYLINE
  8
T57SSILL
 62
2
 66
     1
 70
     9
  0
VERTEX
  8
T57SSILL
 62
2
 10
1336.850
 20
-7923.352
 30
-498.694
 70
    32
  0
VERTEX
  8
T57SSILL
 62
2
 10
1329.226
 20
-7913.260
 30
-498.723
 70
    32
  0
VERTEX
  8
T57SSILL
 62
2
 10
1337.154
 20
-7908.446
 30
-498.623
 70
    32
  0
VERTEX
  8
T57SSILL
 62
2
 10
1340.424
 20
-7913.322
 30
-498.613
 70
    32
  0
VERTEX
  8
T57SSILL
 62
2
 10
1371.825
 20
-7825.203
 30
-497.902
 70
    32
  0
VERTEX
  8
T57SSILL
 62
2
 10
1363.772
 20
-7811.984
 30
-497.922
 70
    32
  0
VERTEX
  8
T57SSILL
 62
2
 10
1353.145
 20
-7798.640
 30
-497.967
 70
    32
  0
VERTEX
  8
T57SSILL
 62
2
 10
1354.020
 20
-7795.751
 30
-497.945
 70
    32
  0
VERTEX
  8
T57SSILL
 62
2
 10
1357.248
 20
-7792.063
 30
-497.896
 70
    32
  0
VERTEX
  8
T57SSILL
 62
2
 10
1376.311
 20
-7780.201
 30
-497.694
 70
    32
  0
VERTEX
  8
T57SSILL
 62
2
 10
1381.992
 20
-7787.315
 30
-497.706
 70
    32
  0
VERTEX
  8
T57SSILL
 62
2
 10
1382.289
 20
-7782.998
 30
-497.690
 70
    32
  0
VERTEX
  8
T57SSILL
 62
2
 10
1388.250
 20
-7771.865
 30
-497.638
 70
    32
  0
VERTEX
  8
T57SSILL
 62
2
 10
1388.692
 20
-7769.282
 30
-497.628
 70
    32
  0
VERTEX
  8
T57SSILL
 62
2
 10
1383.495
 20
-7761.934
 30
-497.614
 70
    32
  0
VERTEX
  8
T57SSILL
 62
2
 10
1381.300
 20
-7755.163
 30
-497.595
 70
    32
  0
VERTEX
  8
T57SSILL
 62
2
 10
1372.246
 20
-7745.571
 30
-497.582
 70
    32
  0
VERTEX
  8
T57SSILL
 62
2
 10
1367.753
 20
-7747.776
 30
-497.600
 70
    32
  0
VERTEX
  8
T57SSILL
 62
2
 10
1365.126
 20
-7754.606
 30
-497.648
 70
    32
  0
VERTEX
  8
T57SSILL
 62
2
 10
1368.461
 20
-7778.728
 30
-497.725
 70
    32
  0
VERTEX
  8
T57SSILL
 62
2
 10
1362.697
 20
-7787.236
 30
-497.820
 70
    32
  0
VERTEX
  8
T57SSILL
 62
2
 10
1358.870
 20
-7789.619
 30
-497.869
 70
    32
  0
VERTEX
  8
T57SSILL
 62
2
 10
1352.437
 20
-7789.846
 30
-497.934
 70
    32
  0
VERTEX
  8
T57SSILL
 62
2
 10
1346.582
 20
-7787.069
 30
-497.979
 70
    32
  0
VERTEX
  8
T57SSILL
 62
2
 10
1345.324
 20
-7784.068
 30
-497.978
 70
    32
  0
VERTEX
  8
T57SSILL
 62
2
 10
1346.864
 20
-7775.089
 30
-497.922
 70
    32
  0
VERTEX
  8
T57SSILL
 62
2
 10
1341.780
 20
-7771.875
 30
-497.958
 70
    32
  0
VERTEX
  8
T57SSILL
 62
2
 10
1340.208
 20
-7759.261
 30
-497.916
 70
    32
  0
VERTEX
  8
T57SSILL
 62
2
 10
1329.676
 20
-7752.011
 30
-497.988
 70
    32
  0
VERTEX
  8
T57SSILL
 62
2
 10
1306.950
 20
-7766.031
 30
-498.276
 70
    32
  0
VERTEX
  8
T57SSILL
 62
2
 10
1308.131
 20
-7772.437
 30
-498.294
 70
    32
  0
VERTEX
  8
T57SSILL
 62
2
 10
1318.864
 20
-7789.598
 30
-498.265
 70
    32
  0
VERTEX
  8
T57SSILL
 62
2
 10
1339.961
 20
-7777.236
 30
-498.000
 70
    32
  0
VERTEX
  8
T57SSILL
 62
2
 10
1345.208
 20
-7783.920
 30
-497.979
 70
    32
  0
VERTEX
  8
T57SSILL
 62
2
 10
1323.397
 20
-7798.605
 30
-498.261
 70
    32
  0
VERTEX
  8
T57SSILL
 62
2
 10
1339.698
 20
-7825.013
 30
-498.219
 70
    32
  0
VERTEX
  8
T57SSILL
 62
2
 10
1331.077
 20
-7828.123
 30
-498.319
 70
    32
  0
VERTEX
  8
T57SSILL
 62
2
 10
1299.228
 20
-7774.519
 30
-498.391
 70
    32
  0
VERTEX
  8
T57SSILL
 62
2
 10
1289.335
 20
-7762.061
 30
-498.402
 70
    32
  0
VERTEX
  8
T57SSILL
 62
2
 10
1281.490
 20
-7757.234
 30
-498.386
 70
    32
  0
VERTEX
  8
T57SSILL
 62
2
 10
1262.379
 20
-7750.540
 30
-498.403
 70
    32
  0
VERTEX
  8
T57SSILL
 62
2
 10
1259.673
 20
-7767.802
 30
-498.611
 70
    32
  0
VERTEX
  8
T57SSILL
 62
2
 10
1242.857
 20
-7766.185
 30
-498.674
 70
    32
  0
VERTEX
  8
T57SSILL
 62
2
 10
1243.537
 20
-7750.032
 30
-498.489
 70
    32
  0
VERTEX
  8
T57SSILL
 62
2
 10
1226.874
 20
-7748.631
 30
-498.541
 70
    32
  0
VERTEX
  8
T57SSILL
 62
2
 10
1223.620
 20
-7751.365
 30
-498.596
 70
    32
  0
VERTEX
  8
T57SSILL
 62
2
 10
1208.157
 20
-7754.412
 30
-498.699
 70
    32
  0
VERTEX
  8
T57SSILL
 62
2
 10
1180.416
 20
-7768.521
 30
-499.003
 70
    32
  0
VERTEX
  8
T57SSILL
 62
2
 10
1137.415
 20
-7799.261
 30
-499.559
 70
    32
  0
VERTEX
  8
T57SSILL
 62
2
 10
1127.689
 20
-7810.571
 30
-499.734
 70
    32
  0
VERTEX
  8
T57SSILL
 62
2
 10
1123.148
 20
-7825.240
 30
-499.922
 70
    32
  0
VERTEX
  8
T57SSILL
 62
2
 10
1122.751
 20
-7840.112
 30
-500.092
 70
    32
  0
VERTEX
  8
T57SSILL
 62
2
 10
1124.380
 20
-7849.444
 30
-500.189
 70
    32
  0
VERTEX
  8
T57SSILL
 62
2
 10
1158.487
 20
-7964.749
 30
-500.320
 70
    32
  0
VERTEX
  8
T57SSILL
 62
2
 10
1208.807
 20
-8089.988
 30
-499.926
 70
    32
  0
VERTEX
  8
T57SSILL
 62
2
 10
1215.900
 20
-8084.430
 30
-499.903
 70
    32
  0
VERTEX
  8
T57SSILL
 62
2
 10
1226.909
 20
-8079.670
 30
-499.862
 70
    32
  0
VERTEX
  8
T57SSILL
 62
2
 10
1239.374
 20
-8068.259
 30
-499.824
 70
    32
  0
VERTEX
  8
T57SSILL
 62
2
 10
1246.079
 20
-8064.598
 30
-499.800
 70
    32
  0
VERTEX
  8
T57SSILL
 62
2
 10
1252.651
 20
-8063.192
 30
-499.773
 70
    32
  0
VERTEX
  8
T57SSILL
 62
2
 10
1263.526
 20
-8065.120
 30
-499.723
 70
    32
  0
VERTEX
  8
T57SSILL
 62
2
 10
1290.029
 20
-8054.913
 30
-499.622
 70
    32
  0
VERTEX
  8
T57SSILL
 62
2
 10
1290.656
 20
-8045.714
 30
-499.632
 70
    32
  0
VERTEX
  8
T57SSILL
 62
2
 10
1293.501
 20
-8044.999
 30
-499.621
 70
    32
  0
VERTEX
  8
T57SSILL
 62
2
 10
1295.925
 20
-8038.198
 30
-499.620
 70
    32
  0
SEQEND
  8
T57SSILL
  0
POLYLINE
  8
T57SSILL
 62
2
 66
     1
 70
     9
  0
VERTEX
  8
T57SSILL
 62
2
 10
1413.141
 20
-7843.984
 30
-497.834
 70
    32
  0
VERTEX
  8
T57SSILL
 62
2
 10
1416.238
 20
-7850.913
 30
-497.851
 70
    32
  0
VERTEX
  8
T57SSILL
 62
2
 10
1413.125
 20
-7853.074
 30
-497.865
 70
    32
  0
VERTEX
  8
T57SSILL
 62
2
 10
1406.145
 20
-7840.263
 30
-497.836
 70
    32
  0
VERTEX
  8
T57SSILL
 62
2
 10
1402.510
 20
-7827.882
 30
-497.801
 70
    32
  0
VERTEX
  8
T57SSILL
 62
2
 10
1408.006
 20
-7833.967
 30
-497.810
 70
    32
  0
VERTEX
  8
T57SSILL
 62
2
 10
1411.491
 20
-7841.484
 30
-497.829
 70
    32
  0
SEQEND
  8
T57SSILL
  0
POLYLINE
  8
T57SSILL
 62
2
 66
     1
 70
     9
  0
VERTEX
  8
T57SSILL
 62
2
 10
1171.324
 20
-7376.554
 30
-493.777
 70
    32
  0
VERTEX
  8
T57SSILL
 62
2
 10
1179.685
 20
-7379.286
 30
-493.838
 70
    32
  0
VERTEX
  8
T57SSILL
 62
2
 10
1169.318
 20
-7360.213
 30
-493.455
 70
    32
  0
VERTEX
  8
T57SSILL
 62
2
 10
1162.589
 20
-7376.750
 30
-493.741
 70
    32
  0
VERTEX
  8
T57SSILL
 62
2
 10
1164.125
 20
-7376.545
 30
-493.746
 70
    32
  0
SEQEND
  8
T57SSILL
  0
POLYLINE
  8
T57SSILL
 62
2
 66
     1
 70
     9
  0
VERTEX
  8
T57SSILL
 62
2
 10
1325.370
 20
-7421.482
 30
-494.182
 70
    32
  0
VERTEX
  8
T57SSILL
 62
2
 10
1191.913
 20
-7387.716
 30
-493.968
 70
    32
  0
VERTEX
  8
T57SSILL
 62
2
 10
1241.098
 20
-7479.221
 30
-495.010
 70
    32
  0
VERTEX
  8
T57SSILL
 62
2
 10
1297.545
 20
-7440.546
 30
-494.088
 70
    32
  0
SEQEND
  8
T57SSILL
  0
POLYLINE
  8
T57SSILL
 62
2
 66
     1
 70
     9
  0
VERTEX
  8
T57SSILL
 62
2
 10
986.057
 20
-6957.645
 30
-485.176
 70
    32
  0
VERTEX
  8
T57SSILL
 62
2
 10
961.466
 20
-7016.395
 30
-482.000
 70
    32
  0
VERTEX
  8
T57SSILL
 62
2
 10
949.645
 20
-7044.637
 30
-482.613
 70
    32
  0
VERTEX
  8
T57SSILL
 62
2
 10
1014.676
 20
-7058.159
 30
-484.698
 70
    32
  0
VERTEX
  8
T57SSILL
 62
2
 10
1016.605
 20
-7055.356
 30
-484.902
 70
    32
  0
VERTEX
  8
T57SSILL
 62
2
 10
1022.328
 20
-7055.938
 30
-485.289
 70
    32
  0
VERTEX
  8
T57SSILL
 62
2
 10
1001.614
 20
-6964.539
 30
-486.096
 70
    32
  0
VERTEX
  8
T57SSILL
 62
2
 10
999.111
 20
-6960.701
 30
-486.015
 70
    32
  0
VERTEX
  8
T57SSILL
 62
2
 10
987.229
 20
-6957.487
 30
-485.262
 70
    32
  0
SEQEND
  8
T57SSILL
  0
POLYLINE
  8
T57SSILL
 62
2
 66
     1
 70
     9
  0
VERTEX
  8
T57SSILL
 62
2
 10
1039.909
 20
-7068.691
 30
-486.206
 70
    32
  0
VERTEX
  8
T57SSILL
 62
2
 10
1039.048
 20
-7066.383
 30
-486.203
 70
    32
  0
VERTEX
  8
T57SSILL
 62
2
 10
1032.934
 20
-7068.013
 30
-485.734
 70
    32
  0
VERTEX
  8
T57SSILL
 62
2
 10
1031.611
 20
-7066.571
 30
-485.677
 70
    32
  0
VERTEX
  8
T57SSILL
 62
2
 10
1015.569
 20
-6999.709
 30
-486.205
 70
    32
  0
VERTEX
  8
T57SSILL
 62
2
 10
1017.679
 20
-6997.493
 30
-486.408
 70
    32
  0
VERTEX
  8
T57SSILL
 62
2
 10
1019.686
 20
-6997.603
 30
-486.546
 70
    32
  0
VERTEX
  8
T57SSILL
 62
2
 10
1122.426
 20
-7141.619
 30
-490.188
 70
    32
  0
VERTEX
  8
T57SSILL
 62
2
 10
1127.397
 20
-7155.119
 30
-490.203
 70
    32
  0
VERTEX
  8
T57SSILL
 62
2
 10
1126.559
 20
-7172.233
 30
-489.721
 70
    32
  0
VERTEX
  8
T57SSILL
 62
2
 10
1116.552
 20
-7185.377
 30
-488.695
 70
    32
  0
VERTEX
  8
T57SSILL
 62
2
 10
1099.609
 20
-7200.775
 30
-487.737
 70
    32
  0
VERTEX
  8
T57SSILL
 62
2
 10
1090.870
 20
-7201.138
 30
-487.928
 70
    32
  0
VERTEX
  8
T57SSILL
 62
2
 10
1073.040
 20
-7167.847
 30
-486.750
 70
    32
  0
VERTEX
  8
T57SSILL
 62
2
 10
1065.442
 20
-7148.552
 30
-486.022
 70
    32
  0
VERTEX
  8
T57SSILL
 62
2
 10
1055.554
 20
-7129.667
 30
-485.796
 70
    32
  0
VERTEX
  8
T57SSILL
 62
2
 10
1044.237
 20
-7090.637
 30
-485.967
 70
    32
  0
VERTEX
  8
T57SSILL
 62
2
 10
1038.290
 20
-7086.397
 30
-485.655
 70
    32
  0
VERTEX
  8
T57SSILL
 62
2
 10
1034.887
 20
-7081.298
 30
-485.543
 70
    32
  0
VERTEX
  8
T57SSILL
 62
2
 10
1033.293
 20
-7070.231
 30
-485.705
 70
    32
  0
SEQEND
  8
T57SSILL
  0
POLYLINE
  8
T57SSILL
 62
2
 66
     1
 70
     9
  0
VERTEX
  8
T57SSILL
 62
2
 10
1118.391
 20
-7238.293
 30
-489.090
 70
    32
  0
VERTEX
  8
T57SSILL
 62
2
 10
1119.889
 20
-7237.361
 30
-489.017
 70
    32
  0
VERTEX
  8
T57SSILL
 62
2
 10
1123.346
 20
-7203.602
 30
-488.721
 70
    32
  0
VERTEX
  8
T57SSILL
 62
2
 10
1118.469
 20
-7201.432
 30
-488.433
 70
    32
  0
VERTEX
  8
T57SSILL
 62
2
 10
1110.929
 20
-7206.558
 30
-487.777
 70
    32
  0
VERTEX
  8
T57SSILL
 62
2
 10
1099.644
 20
-7217.832
 30
-488.521
 70
    32
  0
VERTEX
  8
T57SSILL
 62
2
 10
1109.229
 20
-7236.069
 30
-489.170
 70
    32
  0
SEQEND
  8
T57SSILL
  0
POLYLINE
  8
T57SSILL
 62
2
 66
     1
 70
     9
  0
VERTEX
  8
T57SSILL
 62
2
 10
862.346
 20
-6391.964
 30
-488.325
 70
    32
  0
VERTEX
  8
T57SSILL
 62
2
 10
847.093
 20
-6403.654
 30
-488.351
 70
    32
  0
VERTEX
  8
T57SSILL
 62
2
 10
841.499
 20
-6404.866
 30
-488.349
 70
    32
  0
VERTEX
  8
T57SSILL
 62
2
 10
835.312
 20
-6398.444
 30
-488.315
 70
    32
  0
VERTEX
  8
T57SSILL
 62
2
 10
835.374
 20
-6396.684
 30
-488.308
 70
    32
  0
VERTEX
  8
T57SSILL
 62
2
 10
856.751
 20
-6373.755
 30
-488.233
 70
    32
  0
VERTEX
  8
T57SSILL
 62
2
 10
860.385
 20
-6374.659
 30
-488.249
 70
    32
  0
VERTEX
  8
T57SSILL
 62
2
 10
864.016
 20
-6387.582
 30
-488.310
 70
    32
  0
SEQEND
  8
T57SSILL
  0
POLYLINE
  8
T57SSILL
 62
2
 66
     1
 70
     9
  0
VERTEX
  8
T57SSILL
 62
2
 10
407.481
 20
-5659.332
 30
-485.008
 70
    32
  0
VERTEX
  8
T57SSILL
 62
2
 10
412.857
 20
-5671.049
 30
-484.994
 70
    32
  0
VERTEX
  8
T57SSILL
 62
2
 10
428.604
 20
-5691.887
 30
-484.981
 70
    32
  0
VERTEX
  8
T57SSILL
 62
2
 10
433.155
 20
-5712.571
 30
-484.948
 70
    32
  0
VERTEX
  8
T57SSILL
 62
2
 10
430.813
 20
-5719.195
 30
-484.930
 70
    32
  0
VERTEX
  8
T57SSILL
 62
2
 10
424.117
 20
-5714.305
 30
-484.927
 70
    32
  0
VERTEX
  8
T57SSILL
 62
2
 10
419.156
 20
-5706.561
 30
-484.933
 70
    32
  0
VERTEX
  8
T57SSILL
 62
2
 10
418.266
 20
-5702.390
 30
-484.940
 70
    32
  0
VERTEX
  8
T57SSILL
 62
2
 10
410.379
 20
-5699.445
 30
-484.931
 70
    32
  0
VERTEX
  8
T57SSILL
 62
2
 10
402.748
 20
-5689.725
 30
-484.936
 70
    32
  0
VERTEX
  8
T57SSILL
 62
2
 10
397.737
 20
-5681.468
 30
-484.944
 70
    32
  0
VERTEX
  8
T57SSILL
 62
2
 10
390.156
 20
-5658.760
 30
-484.976
 70
    32
  0
VERTEX
  8
T57SSILL
 62
2
 10
389.766
 20
-5656.305
 30
-484.980
 70
    32
  0
VERTEX
  8
T57SSILL
 62
2
 10
392.663
 20
-5650.430
 30
-484.998
 70
    32
  0
VERTEX
  8
T57SSILL
 62
2
 10
396.379
 20
-5648.777
 30
-485.008
 70
    32
  0
VERTEX
  8
T57SSILL
 62
2
 10
404.913
 20
-5655.415
 30
-485.011
 70
    32
  0
VERTEX
  8
T57SSILL
 62
2
 10
407.515
 20
-5659.526
 30
-485.007
 70
    32
  0
SEQEND
  8
T57SSILL
  0
POLYLINE
  8
T57SSILL
 62
2
 66
     1
 70
     9
  0
VERTEX
  8
T57SSILL
 62
2
 10
693.111
 20
-5691.525
 30
-485.172
 70
    32
  0
VERTEX
  8
T57SSILL
 62
2
 10
694.778
 20
-5699.031
 30
-485.070
 70
    32
  0
VERTEX
  8
T57SSILL
 62
2
 10
685.965
 20
-5699.541
 30
-485.120
 70
    32
  0
VERTEX
  8
T57SSILL
 62
2
 10
679.284
 20
-5697.465
 30
-485.186
 70
    32
  0
VERTEX
  8
T57SSILL
 62
2
 10
681.080
 20
-5708.917
 30
-485.034
 70
    32
  0
VERTEX
  8
T57SSILL
 62
2
 10
692.102
 20
-5712.297
 30
-485.033
 70
    32
  0
VERTEX
  8
T57SSILL
 62
2
 10
697.563
 20
-5716.185
 30
-485.075
 70
    32
  0
VERTEX
  8
T57SSILL
 62
2
 10
706.423
 20
-5727.375
 30
-485.168
 70
    32
  0
VERTEX
  8
T57SSILL
 62
2
 10
715.613
 20
-5771.661
 30
-485.439
 70
    32
  0
VERTEX
  8
T57SSILL
 62
2
 10
707.229
 20
-5777.410
 30
-485.437
 70
    32
  0
VERTEX
  8
T57SSILL
 62
2
 10
572.814
 20
-5740.826
 30
-485.157
 70
    32
  0
VERTEX
  8
T57SSILL
 62
2
 10
492.865
 20
-5622.829
 30
-485.246
 70
    32
  0
VERTEX
  8
T57SSILL
 62
2
 10
485.562
 20
-5614.294
 30
-485.250
 70
    32
  0
VERTEX
  8
T57SSILL
 62
2
 10
479.612
 20
-5603.878
 30
-485.260
 70
    32
  0
VERTEX
  8
T57SSILL
 62
2
 10
478.571
 20
-5595.648
 30
-485.267
 70
    32
  0
VERTEX
  8
T57SSILL
 62
2
 10
485.724
 20
-5586.624
 30
-485.276
 70
    32
  0
VERTEX
  8
T57SSILL
 62
2
 10
492.555
 20
-5581.022
 30
-485.285
 70
    32
  0
VERTEX
  8
T57SSILL
 62
2
 10
495.766
 20
-5573.576
 30
-485.289
 70
    32
  0
VERTEX
  8
T57SSILL
 62
2
 10
512.356
 20
-5561.470
 30
-485.310
 70
    32
  0
VERTEX
  8
T57SSILL
 62
2
 10
527.032
 20
-5554.635
 30
-485.327
 70
    32
  0
VERTEX
  8
T57SSILL
 62
2
 10
533.687
 20
-5548.943
 30
-485.336
 70
    32
  0
VERTEX
  8
T57SSILL
 62
2
 10
538.689
 20
-5550.510
 30
-485.342
 70
    32
  0
VERTEX
  8
T57SSILL
 62
2
 10
551.673
 20
-5542.989
 30
-485.358
 70
    32
  0
VERTEX
  8
T57SSILL
 62
2
 10
564.820
 20
-5540.287
 30
-485.373
 70
    32
  0
VERTEX
  8
T57SSILL
 62
2
 10
570.581
 20
-5544.365
 30
-485.380
 70
    32
  0
VERTEX
  8
T57SSILL
 62
2
 10
569.799
 20
-5547.907
 30
-485.379
 70
    32
  0
VERTEX
  8
T57SSILL
 62
2
 10
595.768
 20
-5551.853
 30
-485.410
 70
    32
  0
VERTEX
  8
T57SSILL
 62
2
 10
615.145
 20
-5578.785
 30
-485.431
 70
    32
  0
VERTEX
  8
T57SSILL
 62
2
 10
614.166
 20
-5582.802
 30
-485.429
 70
    32
  0
VERTEX
  8
T57SSILL
 62
2
 10
615.217
 20
-5586.744
 30
-485.430
 70
    32
  0
VERTEX
  8
T57SSILL
 62
2
 10
617.949
 20
-5589.991
 30
-485.433
 70
    32
  0
VERTEX
  8
T57SSILL
 62
2
 10
623.119
 20
-5590.007
 30
-485.440
 70
    32
  0
VERTEX
  8
T57SSILL
 62
2
 10
656.842
 20
-5637.097
 30
-485.477
 70
    32
  0
VERTEX
  8
T57SSILL
 62
2
 10
692.656
 20
-5690.843
 30
-485.183
 70
    32
  0
SEQEND
  8
T57SSILL
  0
POLYLINE
  8
T57SSILL
 62
2
 66
     1
 70
     9
  0
VERTEX
  8
T57SSILL
 62
2
 10
1119.165
 20
-6857.099
 30
-491.010
 70
    32
  0
VERTEX
  8
T57SSILL
 62
2
 10
1116.611
 20
-6853.188
 30
-490.985
 70
    32
  0
VERTEX
  8
T57SSILL
 62
2
 10
1106.096
 20
-6847.127
 30
-490.922
 70
    32
  0
VERTEX
  8
T57SSILL
 62
2
 10
1061.190
 20
-6879.800
 30
-490.888
 70
    32
  0
VERTEX
  8
T57SSILL
 62
2
 10
1064.116
 20
-6884.416
 30
-490.917
 70
    32
  0
VERTEX
  8
T57SSILL
 62
2
 10
1073.410
 20
-6887.898
 30
-490.966
 70
    32
  0
VERTEX
  8
T57SSILL
 62
2
 10
1123.164
 20
-6866.739
 30
-491.064
 70
    32
  0
VERTEX
  8
T57SSILL
 62
2
 10
1121.400
 20
-6861.012
 30
-491.034
 70
    32
  0
SEQEND
  8
T57SSILL
  0
POLYLINE
  8
T57SSILL
 62
2
 66
     1
 70
     9
  0
VERTEX
  8
T57SSILL
 62
2
 10
1322.868
 20
-7647.103
 30
-496.829
 70
    32
  0
VERTEX
  8
T57SSILL
 62
2
 10
1282.796
 20
-7572.465
 30
-496.052
 70
    32
  0
VERTEX
  8
T57SSILL
 62
2
 10
1274.365
 20
-7599.964
 30
-496.450
 70
    32
  0
VERTEX
  8
T57SSILL
 62
2
 10
1275.253
 20
-7627.631
 30
-496.806
 70
    32
  0
VERTEX
  8
T57SSILL
 62
2
 10
1272.678
 20
-7630.610
 30
-496.857
 70
    32
  0
VERTEX
  8
T57SSILL
 62
2
 10
1264.552
 20
-7632.400
 30
-496.919
 70
    32
  0
VERTEX
  8
T57SSILL
 62
2
 10
1260.275
 20
-7630.898
 30
-496.920
 70
    32
  0
VERTEX
  8
T57SSILL
 62
2
 10
1255.908
 20
-7626.069
 30
-496.878
 70
    32
  0
VERTEX
  8
T57SSILL
 62
2
 10
1256.852
 20
-7619.834
 30
-496.793
 70
    32
  0
VERTEX
  8
T57SSILL
 62
2
 10
1266.868
 20
-7594.564
 30
-496.416
 70
    32
  0
VERTEX
  8
T57SSILL
 62
2
 10
1268.634
 20
-7582.069
 30
-496.245
 70
    32
  0
VERTEX
  8
T57SSILL
 62
2
 10
1271.143
 20
-7576.278
 30
-496.158
 70
    32
  0
VERTEX
  8
T57SSILL
 62
2
 10
1274.355
 20
-7573.301
 30
-496.104
 70
    32
  0
VERTEX
  8
T57SSILL
 62
2
 10
1276.479
 20
-7564.696
 30
-495.982
 70
    32
  0
VERTEX
  8
T57SSILL
 62
2
 10
1266.820
 20
-7542.633
 30
-495.741
 70
    32
  0
VERTEX
  8
T57SSILL
 62
2
 10
1257.567
 20
-7535.224
 30
-495.690
 70
    32
  0
VERTEX
  8
T57SSILL
 62
2
 10
1249.258
 20
-7531.633
 30
-495.683
 70
    32
  0
VERTEX
  8
T57SSILL
 62
2
 10
1242.700
 20
-7532.596
 30
-495.727
 70
    32
  0
VERTEX
  8
T57SSILL
 62
2
 10
1236.992
 20
-7536.594
 30
-495.807
 70
    32
  0
VERTEX
  8
T57SSILL
 62
2
 10
1234.583
 20
-7541.260
 30
-495.879
 70
    32
  0
VERTEX
  8
T57SSILL
 62
2
 10
1235.894
 20
-7555.842
 30
-496.062
 70
    32
  0
VERTEX
  8
T57SSILL
 62
2
 10
1247.484
 20
-7578.423
 30
-496.300
 70
    32
  0
VERTEX
  8
T57SSILL
 62
2
 10
1243.204
 20
-7588.246
 30
-496.448
 70
    32
  0
VERTEX
  8
T57SSILL
 62
2
 10
1238.326
 20
-7592.858
 30
-496.531
 70
    32
  0
VERTEX
  8
T57SSILL
 62
2
 10
1232.577
 20
-7603.338
 30
-496.695
 70
    32
  0
VERTEX
  8
T57SSILL
 62
2
 10
1225.541
 20
-7599.750
 30
-496.683
 70
    32
  0
VERTEX
  8
T57SSILL
 62
2
 10
1228.729
 20
-7585.888
 30
-496.487
 70
    32
  0
VERTEX
  8
T57SSILL
 62
2
 10
1222.394
 20
-7565.008
 30
-496.246
 70
    32
  0
VERTEX
  8
T57SSILL
 62
2
 10
1226.472
 20
-7557.752
 30
-496.132
 70
    32
  0
VERTEX
  8
T57SSILL
 62
2
 10
1222.440
 20
-7524.867
 30
-495.724
 70
    32
  0
VERTEX
  8
T57SSILL
 62
2
 10
1215.482
 20
-7508.920
 30
-495.523
 70
    32
  0
VERTEX
  8
T57SSILL
 62
2
 10
1146.093
 20
-7557.513
 30
-496.293
 70
    32
  0
VERTEX
  8
T57SSILL
 62
2
 10
1128.218
 20
-7541.854
 30
-495.916
 70
    32
  0
VERTEX
  8
T57SSILL
 62
2
 10
1133.919
 20
-7534.742
 30
-495.789
 70
    32
  0
VERTEX
  8
T57SSILL
 62
2
 10
1148.481
 20
-7546.397
 30
-496.074
 70
    32
  0
VERTEX
  8
T57SSILL
 62
2
 10
1214.019
 20
-7501.239
 30
-495.362
 70
    32
  0
VERTEX
  8
T57SSILL
 62
2
 10
1212.828
 20
-7492.678
 30
-495.183
 70
    32
  0
VERTEX
  8
T57SSILL
 62
2
 10
1202.542
 20
-7476.607
 30
-494.823
 70
    32
  0
VERTEX
  8
T57SSILL
 62
2
 10
1202.394
 20
-7473.036
 30
-494.786
 70
    32
  0
VERTEX
  8
T57SSILL
 62
2
 10
1207.123
 20
-7464.288
 30
-494.728
 70
    32
  0
VERTEX
  8
T57SSILL
 62
2
 10
1220.716
 20
-7457.375
 30
-494.724
 70
    32
  0
VERTEX
  8
T57SSILL
 62
2
 10
1190.998
 20
-7399.925
 30
-494.074
 70
    32
  0
VERTEX
  8
T57SSILL
 62
2
 10
1185.528
 20
-7391.581
 30
-493.975
 70
    32
  0
VERTEX
  8
T57SSILL
 62
2
 10
1177.728
 20
-7385.749
 30
-493.888
 70
    32
  0
VERTEX
  8
T57SSILL
 62
2
 10
1166.157
 20
-7383.449
 30
-493.817
 70
    32
  0
VERTEX
  8
T57SSILL
 62
2
 10
1158.656
 20
-7383.999
 30
-493.790
 70
    32
  0
VERTEX
  8
T57SSILL
 62
2
 10
1151.243
 20
-7387.729
 30
-493.791
 70
    32
  0
VERTEX
  8
T57SSILL
 62
2
 10
1036.016
 20
-7469.013
 30
-493.530
 70
    32
  0
VERTEX
  8
T57SSILL
 62
2
 10
1029.785
 20
-7476.555
 30
-493.128
 70
    32
  0
VERTEX
  8
T57SSILL
 62
2
 10
1025.860
 20
-7486.897
 30
-492.943
 70
    32
  0
VERTEX
  8
T57SSILL
 62
2
 10
1026.204
 20
-7496.706
 30
-493.088
 70
    32
  0
VERTEX
  8
T57SSILL
 62
2
 10
1068.485
 20
-7646.845
 30
-497.867
 70
    32
  0
VERTEX
  8
T57SSILL
 62
2
 10
1087.553
 20
-7714.554
 30
-498.502
 70
    32
  0
VERTEX
  8
T57SSILL
 62
2
 10
1109.489
 20
-7718.061
 30
-498.479
 70
    32
  0
VERTEX
  8
T57SSILL
 62
2
 10
1117.674
 20
-7709.462
 30
-498.314
 70
    32
  0
VERTEX
  8
T57SSILL
 62
2
 10
1120.687
 20
-7707.903
 30
-498.279
 70
    32
  0
VERTEX
  8
T57SSILL
 62
2
 10
1123.192
 20
-7709.740
 30
-498.299
 70
    32
  0
VERTEX
  8
T57SSILL
 62
2
 10
1120.526
 20
-7712.909
 30
-498.358
 70
    32
  0
VERTEX
  8
T57SSILL
 62
2
 10
1121.374
 20
-7716.680
 30
-498.414
 70
    32
  0
VERTEX
  8
T57SSILL
 62
2
 10
1119.016
 20
-7720.834
 30
-498.488
 70
    32
  0
VERTEX
  8
T57SSILL
 62
2
 10
1118.183
 20
-7727.908
 30
-498.602
 70
    32
  0
VERTEX
  8
T57SSILL
 62
2
 10
1093.712
 20
-7724.789
 30
-498.641
 70
    32
  0
VERTEX
  8
T57SSILL
 62
2
 10
1090.876
 20
-7725.822
 30
-498.667
 70
    32
  0
VERTEX
  8
T57SSILL
 62
2
 10
1117.123
 20
-7821.611
 30
-499.910
 70
    32
  0
VERTEX
  8
T57SSILL
 62
2
 10
1124.419
 20
-7805.642
 30
-499.694
 70
    32
  0
VERTEX
  8
T57SSILL
 62
2
 10
1133.119
 20
-7794.409
 30
-499.525
 70
    32
  0
VERTEX
  8
T57SSILL
 62
2
 10
1260.672
 20
-7702.596
 30
-497.742
 70
    32
  0
VERTEX
  8
T57SSILL
 62
2
 10
1266.067
 20
-7712.779
 30
-497.838
 70
    32
  0
VERTEX
  8
T57SSILL
 62
2
 10
1258.455
 20
-7717.511
 30
-497.939
 70
    32
  0
VERTEX
  8
T57SSILL
 62
2
 10
1256.160
 20
-7715.647
 30
-497.918
 70
    32
  0
VERTEX
  8
T57SSILL
 62
2
 10
1254.837
 20
-7716.524
 30
-497.936
 70
    32
  0
VERTEX
  8
T57SSILL
 62
2
 10
1225.904
 20
-7736.563
 30
-498.355
 70
    32
  0
VERTEX
  8
T57SSILL
 62
2
 10
1226.781
 20
-7739.942
 30
-498.405
 70
    32
  0
VERTEX
  8
T57SSILL
 62
2
 10
1272.592
 20
-7742.668
 30
-498.265
 70
    32
  0
VERTEX
  8
T57SSILL
 62
2
 10
1280.655
 20
-7744.746
 30
-498.249
 70
    32
  0
VERTEX
  8
T57SSILL
 62
2
 10
1293.419
 20
-7752.799
 30
-498.278
 70
    32
  0
VERTEX
  8
T57SSILL
 62
2
 10
1358.174
 20
-7711.168
 30
-497.492
 70
    32
  0
VERTEX
  8
T57SSILL
 62
2
 10
1322.851
 20
-7647.045
 30
-496.828
 70
    32
  0
SEQEND
  8
T57SSILL
  0
POLYLINE
  8
T57SSILL
 62
2
 66
     1
 70
     9
  0
VERTEX
  8
T57SSILL
 62
2
 10
1360.969
 20
-7717.555
 30
-497.521
 70
    32
  0
VERTEX
  8
T57SSILL
 62
2
 10
1370.629
 20
-7735.798
 30
-497.552
 70
    32
  0
VERTEX
  8
T57SSILL
 62
2
 10
1345.685
 20
-7748.361
 30
-497.813
 70
    32
  0
VERTEX
  8
T57SSILL
 62
2
 10
1328.413
 20
-7739.913
 30
-497.945
 70
    32
  0
VERTEX
  8
T57SSILL
 62
2
 10
1333.664
 20
-7736.868
 30
-497.879
 70
    32
  0
SEQEND
  8
T57SSILL
  0
POLYLINE
  8
T57SSILL
 62
2
 66
     1
 70
     9
  0
VERTEX
  8
T57SSILL
 62
2
 10
1241.300
 20
-8168.334
 30
-499.675
 70
    32
  0
VERTEX
  8
T57SSILL
 62
2
 10
1212.002
 20
-8094.873
 30
-499.905
 70
    32
  0
VERTEX
  8
T57SSILL
 62
2
 10
1228.142
 20
-8087.985
 30
-499.845
 70
    32
  0
VERTEX
  8
T57SSILL
 62
2
 10
1237.048
 20
-8092.170
 30
-499.800
 70
    32
  0
VERTEX
  8
T57SSILL
 62
2
 10
1250.509
 20
-8086.021
 30
-499.750
 70
    32
  0
VERTEX
  8
T57SSILL
 62
2
 10
1258.133
 20
-8077.068
 30
-499.730
 70
    32
  0
VERTEX
  8
T57SSILL
 62
2
 10
1287.155
 20
-8064.613
 30
-499.621
 70
    32
  0
VERTEX
  8
T57SSILL
 62
2
 10
1286.856
 20
-8070.512
 30
-499.614
 70
    32
  0
VERTEX
  8
T57SSILL
 62
2
 10
1298.712
 20
-8077.834
 30
-499.552
 70
    32
  0
VERTEX
  8
T57SSILL
 62
2
 10
1320.994
 20
-8150.161
 30
-499.354
 70
    32
  0
VERTEX
  8
T57SSILL
 62
2
 10
1315.799
 20
-8160.753
 30
-499.362
 70
    32
  0
VERTEX
  8
T57SSILL
 62
2
 10
1288.620
 20
-8179.871
 30
-499.453
 70
    32
  0
VERTEX
  8
T57SSILL
 62
2
 10
1279.503
 20
-8181.273
 30
-499.491
 70
    32
  0
VERTEX
  8
T57SSILL
 62
2
 10
1277.408
 20
-8179.187
 30
-499.503
 70
    32
  0
VERTEX
  8
T57SSILL
 62
2
 10
1274.375
 20
-8179.149
 30
-499.516
 70
    32
  0
VERTEX
  8
T57SSILL
 62
2
 10
1273.624
 20
-8172.049
 30
-499.529
 70
    32
  0
VERTEX
  8
T57SSILL
 62
2
 10
1271.299
 20
-8169.479
 30
-499.543
 70
    32
  0
VERTEX
  8
T57SSILL
 62
2
 10
1264.523
 20
-8165.602
 30
-499.578
 70
    32
  0
VERTEX
  8
T57SSILL
 62
2
 10
1253.252
 20
-8163.135
 30
-499.630
 70
    32
  0
VERTEX
  8
T57SSILL
 62
2
 10
1248.329
 20
-8157.755
 30
-499.659
 70
    32
  0
SEQEND
  8
T57SSILL
  0
POLYLINE
  8
T57SSILL
 62
2
 66
     1
 70
     9
  0
VERTEX
  8
T57SSILL
 62
2
 10
1283.592
 20
-8274.109
 30
-499.612
 70
    32
  0
VERTEX
  8
T57SSILL
 62
2
 10
1284.622
 20
-8277.241
 30
-499.616
 70
    32
  0
VERTEX
  8
T57SSILL
 62
2
 10
1291.272
 20
-8274.762
 30
-499.590
 70
    32
  0
VERTEX
  8
T57SSILL
 62
2
 10
1293.524
 20
-8279.853
 30
-499.594
 70
    32
  0
VERTEX
  8
T57SSILL
 62
2
 10
1286.307
 20
-8282.380
 30
-499.623
 70
    32
  0
VERTEX
  8
T57SSILL
 62
2
 10
1288.254
 20
-8288.313
 30
-499.631
 70
    32
  0
VERTEX
  8
T57SSILL
 62
2
 10
1287.018
 20
-8288.757
 30
-499.635
 70
    32
  0
VERTEX
  8
T57SSILL
 62
2
 10
1411.868
 20
-8536.970
 30
-499.825
 70
    32
  0
VERTEX
  8
T57SSILL
 62
2
 10
1416.920
 20
-8543.663
 30
-499.825
 70
    32
  0
VERTEX
  8
T57SSILL
 62
2
 10
1426.814
 20
-8549.694
 30
-499.808
 70
    32
  0
VERTEX
  8
T57SSILL
 62
2
 10
1439.394
 20
-8550.679
 30
-499.771
 70
    32
  0
VERTEX
  8
T57SSILL
 62
2
 10
1449.940
 20
-8547.622
 30
-499.731
 70
    32
  0
VERTEX
  8
T57SSILL
 62
2
 10
1457.390
 20
-8542.597
 30
-499.696
 70
    32
  0
VERTEX
  8
T57SSILL
 62
2
 10
1463.141
 20
-8535.316
 30
-499.661
 70
    32
  0
VERTEX
  8
T57SSILL
 62
2
 10
1465.867
 20
-8526.654
 30
-499.632
 70
    32
  0
VERTEX
  8
T57SSILL
 62
2
 10
1465.371
 20
-8517.269
 30
-499.612
 70
    32
  0
VERTEX
  8
T57SSILL
 62
2
 10
1462.861
 20
-8510.269
 30
-499.604
 70
    32
  0
VERTEX
  8
T57SSILL
 62
2
 10
1439.280
 20
-8463.119
 30
-499.567
 70
    32
  0
VERTEX
  8
T57SSILL
 62
2
 10
1428.668
 20
-8462.638
 30
-499.599
 70
    32
  0
VERTEX
  8
T57SSILL
 62
2
 10
1422.990
 20
-8453.719
 30
-499.596
 70
    32
  0
VERTEX
  8
T57SSILL
 62
2
 10
1430.321
 20
-8448.033
 30
-499.560
 70
    32
  0
VERTEX
  8
T57SSILL
 62
2
 10
1425.611
 20
-8438.202
 30
-499.552
 70
    32
  0
VERTEX
  8
T57SSILL
 62
2
 10
1428.434
 20
-8432.704
 30
-499.530
 70
    32
  0
VERTEX
  8
T57SSILL
 62
2
 10
1425.647
 20
-8422.086
 30
-499.514
 70
    32
  0
VERTEX
  8
T57SSILL
 62
2
 10
1404.455
 20
-8379.597
 30
-499.481
 70
    32
  0
VERTEX
  8
T57SSILL
 62
2
 10
1387.678
 20
-8354.760
 30
-499.475
 70
    32
  0
VERTEX
  8
T57SSILL
 62
2
 10
1384.546
 20
-8356.319
 30
-499.489
 70
    32
  0
VERTEX
  8
T57SSILL
 62
2
 10
1381.604
 20
-8350.591
 30
-499.485
 70
    32
  0
VERTEX
  8
T57SSILL
 62
2
 10
1379.607
 20
-8351.556
 30
-499.493
 70
    32
  0
VERTEX
  8
T57SSILL
 62
2
 10
1375.306
 20
-8340.566
 30
-499.481
 70
    32
  0
VERTEX
  8
T57SSILL
 62
2
 10
1381.360
 20
-8337.891
 30
-499.456
 70
    32
  0
VERTEX
  8
T57SSILL
 62
2
 10
1366.439
 20
-8297.316
 30
-499.408
 70
    32
  0
VERTEX
  8
T57SSILL
 62
2
 10
1361.585
 20
-8302.840
 30
-499.436
 70
    32
  0
VERTEX
  8
T57SSILL
 62
2
 10
1356.986
 20
-8297.772
 30
-499.438
 70
    32
  0
VERTEX
  8
T57SSILL
 62
2
 10
1364.147
 20
-8291.396
 30
-499.401
 70
    32
  0
VERTEX
  8
T57SSILL
 62
2
 10
1324.529
 20
-8163.270
 30
-499.320
 70
    32
  0
VERTEX
  8
T57SSILL
 62
2
 10
1286.580
 20
-8190.523
 30
-499.447
 70
    32
  0
VERTEX
  8
T57SSILL
 62
2
 10
1284.925
 20
-8195.862
 30
-499.447
 70
    32
  0
VERTEX
  8
T57SSILL
 62
2
 10
1287.143
 20
-8200.439
 30
-499.431
 70
    32
  0
VERTEX
  8
T57SSILL
 62
2
 10
1301.412
 20
-8209.841
 30
-499.406
 70
    32
  0
VERTEX
  8
T57SSILL
 62
2
 10
1308.108
 20
-8223.328
 30
-499.417
 70
    32
  0
VERTEX
  8
T57SSILL
 62
2
 10
1321.384
 20
-8224.509
 30
-499.378
 70
    32
  0
VERTEX
  8
T57SSILL
 62
2
 10
1325.130
 20
-8227.271
 30
-499.373
 70
    32
  0
VERTEX
  8
T57SSILL
 62
2
 10
1327.997
 20
-8248.683
 30
-499.414
 70
    32
  0
VERTEX
  8
T57SSILL
 62
2
 10
1322.951
 20
-8253.159
 30
-499.440
 70
    32
  0
VERTEX
  8
T57SSILL
 62
2
 10
1322.038
 20
-8256.478
 30
-499.451
 70
    32
  0
VERTEX
  8
T57SSILL
 62
2
 10
1327.401
 20
-8271.752
 30
-499.470
 70
    32
  0
VERTEX
  8
T57SSILL
 62
2
 10
1315.603
 20
-8278.562
 30
-499.523
 70
    32
  0
VERTEX
  8
T57SSILL
 62
2
 10
1310.667
 20
-8275.016
 30
-499.530
 70
    32
  0
VERTEX
  8
T57SSILL
 62
2
 10
1308.337
 20
-8267.189
 30
-499.519
 70
    32
  0
VERTEX
  8
T57SSILL
 62
2
 10
1298.880
 20
-8266.250
 30
-499.546
 70
    32
  0
VERTEX
  8
T57SSILL
 62
2
 10
1291.883
 20
-8268.540
 30
-499.573
 70
    32
  0
SEQEND
  8
T57SSILL
  0
POLYLINE
  8
T57SSILL
 62
2
 66
     1
 70
     9
  0
VERTEX
  8
T57SSILL
 62
2
 10
973.134
 20
-6806.403
 30
-488.008
 70
    32
  0
VERTEX
  8
T57SSILL
 62
2
 10
951.954
 20
-6716.987
 30
-488.733
 70
    32
  0
VERTEX
  8
T57SSILL
 62
2
 10
949.589
 20
-6704.682
 30
-488.871
 70
    32
  0
VERTEX
  8
T57SSILL
 62
2
 10
950.252
 20
-6700.744
 30
-489.015
 70
    32
  0
VERTEX
  8
T57SSILL
 62
2
 10
959.181
 20
-6699.037
 30
-489.683
 70
    32
  0
VERTEX
  8
T57SSILL
 62
2
 10
985.593
 20
-6707.834
 30
-489.913
 70
    32
  0
VERTEX
  8
T57SSILL
 62
2
 10
1003.279
 20
-6706.230
 30
-489.972
 70
    32
  0
VERTEX
  8
T57SSILL
 62
2
 10
1023.728
 20
-6708.029
 30
-490.055
 70
    32
  0
VERTEX
  8
T57SSILL
 62
2
 10
1039.158
 20
-6731.177
 30
-490.206
 70
    32
  0
VERTEX
  8
T57SSILL
 62
2
 10
1045.806
 20
-6753.710
 30
-490.321
 70
    32
  0
SEQEND
  8
T57SSILL
  0
POLYLINE
  8
T57SSILL
 62
2
 66
     1
 70
     9
  0
VERTEX
  8
T57SSILL
 62
2
 10
1005.951
 20
-6663.030
 30
-489.807
 70
    32
  0
VERTEX
  8
T57SSILL
 62
2
 10
1017.858
 20
-6696.151
 30
-489.985
 70
    32
  0
VERTEX
  8
T57SSILL
 62
2
 10
994.701
 20
-6693.505
 30
-489.889
 70
    32
  0
VERTEX
  8
T57SSILL
 62
2
 10
982.959
 20
-6694.648
 30
-489.850
 70
    32
  0
VERTEX
  8
T57SSILL
 62
2
 10
971.439
 20
-6692.782
 30
-489.800
 70
    32
  0
VERTEX
  8
T57SSILL
 62
2
 10
951.754
 20
-6682.791
 30
-489.564
 70
    32
  0
VERTEX
  8
T57SSILL
 62
2
 10
938.727
 20
-6664.658
 30
-489.099
 70
    32
  0
VERTEX
  8
T57SSILL
 62
2
 10
936.070
 20
-6649.368
 30
-489.290
 70
    32
  0
VERTEX
  8
T57SSILL
 62
2
 10
948.664
 20
-6655.393
 30
-489.565
 70
    32
  0
VERTEX
  8
T57SSILL
 62
2
 10
954.338
 20
-6655.641
 30
-489.587
 70
    32
  0
SEQEND
  8
T57SSILL
  0
POLYLINE
  8
T57SSILL
 62
2
 66
     1
 70
     9
  0
VERTEX
  8
T57SSILL
 62
2
 10
572.625
 20
-5777.954
 30
-484.912
 70
    32
  0
VERTEX
  8
T57SSILL
 62
2
 10
579.964
 20
-5751.231
 30
-485.130
 70
    32
  0
VERTEX
  8
T57SSILL
 62
2
 10
617.047
 20
-5761.002
 30
-484.996
 70
    32
  0
VERTEX
  8
T57SSILL
 62
2
 10
599.724
 20
-5773.489
 30
-484.994
 70
    32
  0
VERTEX
  8
T57SSILL
 62
2
 10
593.553
 20
-5770.043
 30
-484.952
 70
    32
  0
VERTEX
  8
T57SSILL
 62
2
 10
591.045
 20
-5770.362
 30
-484.944
 70
    32
  0
VERTEX
  8
T57SSILL
 62
2
 10
583.792
 20
-5775.838
 30
-484.944
 70
    32
  0
VERTEX
  8
T57SSILL
 62
2
 10
574.760
 20
-5778.020
 30
-484.920
 70
    32
  0
SEQEND
  8
T57SSILL
  0
POLYLINE
  8
T57SSILL
 62
2
 66
     1
 70
     9
  0
VERTEX
  8
T57SSILL
 62
2
 10
483.851
 20
-5820.258
 30
-484.824
 70
    32
  0
VERTEX
  8
T57SSILL
 62
2
 10
516.441
 20
-5866.829
 30
-485.113
 70
    32
  0
VERTEX
  8
T57SSILL
 62
2
 10
524.203
 20
-5872.720
 30
-485.175
 70
    32
  0
VERTEX
  8
T57SSILL
 62
2
 10
538.473
 20
-5876.431
 30
-485.270
 70
    32
  0
VERTEX
  8
T57SSILL
 62
2
 10
549.500
 20
-5873.979
 30
-485.329
 70
    32
  0
VERTEX
  8
T57SSILL
 62
2
 10
556.724
 20
-5870.391
 30
-485.339
 70
    32
  0
VERTEX
  8
T57SSILL
 62
2
 10
654.059
 20
-5801.085
 30
-485.354
 70
    32
  0
VERTEX
  8
T57SSILL
 62
2
 10
658.417
 20
-5791.428
 30
-485.320
 70
    32
  0
VERTEX
  8
T57SSILL
 62
2
 10
662.349
 20
-5788.361
 30
-485.319
 70
    32
  0
VERTEX
  8
T57SSILL
 62
2
 10
668.513
 20
-5790.793
 30
-485.356
 70
    32
  0
VERTEX
  8
T57SSILL
 62
2
 10
678.931
 20
-5783.375
 30
-485.357
 70
    32
  0
VERTEX
  8
T57SSILL
 62
2
 10
679.548
 20
-5777.979
 30
-485.331
 70
    32
  0
VERTEX
  8
T57SSILL
 62
2
 10
638.753
 20
-5766.455
 30
-485.110
 70
    32
  0
VERTEX
  8
T57SSILL
 62
2
 10
622.786
 20
-5768.610
 30
-485.059
 70
    32
  0
VERTEX
  8
T57SSILL
 62
2
 10
616.839
 20
-5771.253
 30
-485.050
 70
    32
  0
VERTEX
  8
T57SSILL
 62
2
 10
607.619
 20
-5778.076
 30
-485.050
 70
    32
  0
VERTEX
  8
T57SSILL
 62
2
 10
605.600
 20
-5781.874
 30
-485.062
 70
    32
  0
VERTEX
  8
T57SSILL
 62
2
 10
585.150
 20
-5795.029
 30
-485.051
 70
    32
  0
VERTEX
  8
T57SSILL
 62
2
 10
583.786
 20
-5801.197
 30
-485.079
 70
    32
  0
VERTEX
  8
T57SSILL
 62
2
 10
577.632
 20
-5808.604
 30
-485.094
 70
    32
  0
VERTEX
  8
T57SSILL
 62
2
 10
579.892
 20
-5813.736
 30
-485.130
 70
    32
  0
VERTEX
  8
T57SSILL
 62
2
 10
577.743
 20
-5821.363
 30
-485.162
 70
    32
  0
VERTEX
  8
T57SSILL
 62
2
 10
564.254
 20
-5838.587
 30
-485.200
 70
    32
  0
VERTEX
  8
T57SSILL
 62
2
 10
560.195
 20
-5846.749
 30
-485.227
 70
    32
  0
VERTEX
  8
T57SSILL
 62
2
 10
554.155
 20
-5847.486
 30
-485.207
 70
    32
  0
VERTEX
  8
T57SSILL
 62
2
 10
552.198
 20
-5839.056
 30
-485.155
 70
    32
  0
VERTEX
  8
T57SSILL
 62
2
 10
562.996
 20
-5820.420
 30
-485.099
 70
    32
  0
VERTEX
  8
T57SSILL
 62
2
 10
557.769
 20
-5812.763
 30
-485.038
 70
    32
  0
VERTEX
  8
T57SSILL
 62
2
 10
536.509
 20
-5828.383
 30
-485.037
 70
    32
  0
VERTEX
  8
T57SSILL
 62
2
 10
532.436
 20
-5822.286
 30
-484.989
 70
    32
  0
VERTEX
  8
T57SSILL
 62
2
 10
547.683
 20
-5811.444
 30
-484.991
 70
    32
  0
VERTEX
  8
T57SSILL
 62
2
 10
546.138
 20
-5804.905
 30
-484.951
 70
    32
  0
VERTEX
  8
T57SSILL
 62
2
 10
540.711
 20
-5798.163
 30
-484.894
 70
    32
  0
VERTEX
  8
T57SSILL
 62
2
 10
538.203
 20
-5784.982
 30
-484.969
 70
    32
  0
VERTEX
  8
T57SSILL
 62
2
 10
524.744
 20
-5767.830
 30
-485.010
 70
    32
  0
VERTEX
  8
T57SSILL
 62
2
 10
525.883
 20
-5763.585
 30
-485.021
 70
    32
  0
VERTEX
  8
T57SSILL
 62
2
 10
529.105
 20
-5759.335
 30
-485.036
 70
    32
  0
VERTEX
  8
T57SSILL
 62
2
 10
543.333
 20
-5758.687
 30
-485.064
 70
    32
  0
VERTEX
  8
T57SSILL
 62
2
 10
554.545
 20
-5768.501
 30
-485.066
 70
    32
  0
VERTEX
  8
T57SSILL
 62
2
 10
556.739
 20
-5775.768
 30
-484.970
 70
    32
  0
VERTEX
  8
T57SSILL
 62
2
 10
561.562
 20
-5777.687
 30
-484.917
 70
    32
  0
VERTEX
  8
T57SSILL
 62
2
 10
568.440
 20
-5748.562
 30
-485.133
 70
    32
  0
VERTEX
  8
T57SSILL
 62
2
 10
556.762
 20
-5745.239
 30
-485.118
 70
    32
  0
VERTEX
  8
T57SSILL
 62
2
 10
558.281
 20
-5736.760
 30
-485.138
 70
    32
  0
VERTEX
  8
T57SSILL
 62
2
 10
529.252
 20
-5755.824
 30
-485.043
 70
    32
  0
VERTEX
  8
T57SSILL
 62
2
 10
522.828
 20
-5747.735
 30
-485.048
 70
    32
  0
VERTEX
  8
T57SSILL
 62
2
 10
551.790
 20
-5728.283
 30
-485.143
 70
    32
  0
VERTEX
  8
T57SSILL
 62
2
 10
535.085
 20
-5702.886
 30
-485.163
 70
    32
  0
VERTEX
  8
T57SSILL
 62
2
 10
499.106
 20
-5726.652
 30
-485.045
 70
    32
  0
VERTEX
  8
T57SSILL
 62
2
 10
493.796
 20
-5718.288
 30
-485.052
 70
    32
  0
VERTEX
  8
T57SSILL
 62
2
 10
529.969
 20
-5694.488
 30
-485.170
 70
    32
  0
VERTEX
  8
T57SSILL
 62
2
 10
513.403
 20
-5669.427
 30
-485.190
 70
    32
  0
VERTEX
  8
T57SSILL
 62
2
 10
483.312
 20
-5688.837
 30
-485.093
 70
    32
  0
VERTEX
  8
T57SSILL
 62
2
 10
477.452
 20
-5680.770
 30
-485.098
 70
    32
  0
VERTEX
  8
T57SSILL
 62
2
 10
507.562
 20
-5661.237
 30
-485.196
 70
    32
  0
VERTEX
  8
T57SSILL
 62
2
 10
490.959
 20
-5636.423
 30
-485.215
 70
    32
  0
VERTEX
  8
T57SSILL
 62
2
 10
462.391
 20
-5654.925
 30
-485.122
 70
    32
  0
VERTEX
  8
T57SSILL
 62
2
 10
455.955
 20
-5646.077
 30
-485.128
 70
    32
  0
VERTEX
  8
T57SSILL
 62
2
 10
484.464
 20
-5628.386
 30
-485.219
 70
    32
  0
VERTEX
  8
T57SSILL
 62
2
 10
465.540
 20
-5607.704
 30
-485.225
 70
    32
  0
VERTEX
  8
T57SSILL
 62
2
 10
442.269
 20
-5612.300
 30
-485.171
 70
    32
  0
VERTEX
  8
T57SSILL
 62
2
 10
414.726
 20
-5630.703
 30
-485.080
 70
    32
  0
VERTEX
  8
T57SSILL
 62
2
 10
415.827
 20
-5637.680
 30
-485.068
 70
    32
  0
VERTEX
  8
T57SSILL
 62
2
 10
421.921
 20
-5645.026
 30
-485.065
 70
    32
  0
VERTEX
  8
T57SSILL
 62
2
 10
426.911
 20
-5648.358
 30
-485.067
 70
    32
  0
VERTEX
  8
T57SSILL
 62
2
 10
431.308
 20
-5664.093
 30
-485.044
 70
    32
  0
VERTEX
  8
T57SSILL
 62
2
 10
437.403
 20
-5673.962
 30
-485.035
 70
    32
  0
VERTEX
  8
T57SSILL
 62
2
 10
438.763
 20
-5679.212
 30
-485.027
 70
    32
  0
VERTEX
  8
T57SSILL
 62
2
 10
447.360
 20
-5689.644
 30
-485.022
 70
    32
  0
VERTEX
  8
T57SSILL
 62
2
 10
456.785
 20
-5716.476
 30
-484.985
 70
    32
  0
VERTEX
  8
T57SSILL
 62
2
 10
457.004
 20
-5717.960
 30
-484.982
 70
    32
  0
VERTEX
  8
T57SSILL
 62
2
 10
453.122
 20
-5720.723
 30
-484.969
 70
    32
  0
VERTEX
  8
T57SSILL
 62
2
 10
438.019
 20
-5725.381
 30
-484.931
 70
    32
  0
VERTEX
  8
T57SSILL
 62
2
 10
433.738
 20
-5730.525
 30
-484.912
 70
    32
  0
VERTEX
  8
T57SSILL
 62
2
 10
435.928
 20
-5743.323
 30
-484.890
 70
    32
  0
VERTEX
  8
T57SSILL
 62
2
 10
445.051
 20
-5751.500
 30
-484.891
 70
    32
  0
VERTEX
  8
T57SSILL
 62
2
 10
460.945
 20
-5749.838
 30
-484.925
 70
    32
  0
VERTEX
  8
T57SSILL
 62
2
 10
467.206
 20
-5753.109
 30
-484.930
 70
    32
  0
VERTEX
  8
T57SSILL
 62
2
 10
468.276
 20
-5764.939
 30
-484.908
 70
    32
  0
VERTEX
  8
T57SSILL
 62
2
 10
466.037
 20
-5780.754
 30
-484.871
 70
    32
  0
VERTEX
  8
T57SSILL
 62
2
 10
481.351
 20
-5800.265
 30
-484.860
 70
    32
  0
SEQEND
  8
T57SSILL
  0
TEXT
  8
T57SSILL
 62
2
 10
5739.048
 20
-9098.824
 30
-511.113
 40
0.200
  1
5750
 41
 1.0 
  0
TEXT
  8
T57SSILL
 62
3
 10
468.411
 20
-5953.401
 30
-483.526
 40
0.200
  1
U
 50
153.462
 41
 1.0 
  0
TEXT
  8
T57SSILL
 62
3
 10
1042.311
 20
-6989.000
 30
-487.766
 40
0.200
  1
U
 41
 1.0 
  0
TEXT
  8
T57SSILL
 62
3
 10
1153.054
 20
-7128.554
 30
-493.402
 40
0.200
  1
D
 41
 1.0 
  0
TEXT
  8
T57SSILL
 62
3
 10
642.457
 20
-5641.412
 30
-481.892
 40
0.200
  1
U
 41
 1.0 
  0
TEXT
  8
T57SSILL
 62
3
 10
657.123
 20
-5722.269
 30
-489.195
 40
0.200
  1
D
 41
 1.0 
  0
TEXT
  8
T57SSILL
 62
2
 10
1224.361
 20
-6740.693
 30
-499.839
 40
0.200
  1
5750
 41
 1.0 
  0
TEXT
  8
T57SSILL
 62
3
 10
942.601
 20
-7072.668
 30
-483.491
 40
0.200
  1
U
 41
 1.0 
  0
POLYLINE
  8
T57SSILL
 62
2
 66
     1
 70
     9
  0
VERTEX
  8
T57SSILL
 62
2
 10
922.674
 20
-7046.761
 30
-483.447
 70
    32
  0
VERTEX
  8
T57SSILL
 62
2
 10
911.500
 20
-7044.795
 30
-483.748
 70
    32
  0
VERTEX
  8
T57SSILL
 62
2
 10
913.137
 20
-7036.862
 30
-483.576
 70
    32
  0
VERTEX
  8
T57SSILL
 62
2
 10
930.818
 20
-7040.926
 30
-483.114
 70
    32
  0
VERTEX
  8
T57SSILL
 62
2
 10
937.063
 20
-7037.104
 30
-482.870
 70
    32
  0
VERTEX
  8
T57SSILL
 62
2
 10
942.991
 20
-7035.950
 30
-482.676
 70
    32
  0
VERTEX
  8
T57SSILL
 62
2
 10
954.856
 20
-7006.809
 30
-481.871
 70
    32
  0
VERTEX
  8
T57SSILL
 62
2
 10
990.419
 20
-6916.745
 30
-486.492
 70
    32
  0
VERTEX
  8
T57SSILL
 62
2
 10
985.751
 20
-6897.371
 30
-486.644
 70
    32
  0
VERTEX
  8
T57SSILL
 62
2
 10
975.908
 20
-6871.519
 30
-486.593
 70
    32
  0
VERTEX
  8
T57SSILL
 62
2
 10
941.244
 20
-6724.420
 30
-487.798
 70
    32
  0
VERTEX
  8
T57SSILL
 62
2
 10
923.838
 20
-6737.134
 30
-486.553
 70
    32
  0
VERTEX
  8
T57SSILL
 62
2
 10
920.105
 20
-6732.214
 30
-486.540
 70
    32
  0
VERTEX
  8
T57SSILL
 62
2
 10
939.671
 20
-6717.941
 30
-487.848
 70
    32
  0
VERTEX
  8
T57SSILL
 62
2
 10
915.666
 20
-6614.108
 30
-488.874
 70
    32
  0
VERTEX
  8
T57SSILL
 62
2
 10
918.011
 20
-6612.900
 30
-488.972
 70
    32
  0
VERTEX
  8
T57SSILL
 62
2
 10
900.970
 20
-6541.141
 30
-488.971
 70
    32
  0
VERTEX
  8
T57SSILL
 62
2
 10
897.382
 20
-6533.672
 30
-488.936
 70
    32
  0
VERTEX
  8
T57SSILL
 62
2
 10
890.329
 20
-6526.748
 30
-488.899
 70
    32
  0
VERTEX
  8
T57SSILL
 62
2
 10
883.655
 20
-6523.829
 30
-488.879
 70
    32
  0
VERTEX
  8
T57SSILL
 62
2
 10
874.597
 20
-6522.104
 30
-488.859
 70
    32
  0
VERTEX
  8
T57SSILL
 62
2
 10
866.452
 20
-6523.915
 30
-488.856
 70
    32
  0
VERTEX
  8
T57SSILL
 62
2
 10
859.280
 20
-6527.940
 30
-488.862
 70
    32
  0
VERTEX
  8
T57SSILL
 62
2
 10
853.393
 20
-6522.445
 30
-488.832
 70
    32
  0
VERTEX
  8
T57SSILL
 62
2
 10
867.160
 20
-6515.865
 30
-488.825
 70
    32
  0
VERTEX
  8
T57SSILL
 62
2
 10
873.899
 20
-6515.681
 30
-488.833
 70
    32
  0
VERTEX
  8
T57SSILL
 62
2
 10
884.170
 20
-6516.256
 30
-488.849
 70
    32
  0
VERTEX
  8
T57SSILL
 62
2
 10
895.487
 20
-6522.648
 30
-488.890
 70
    32
  0
VERTEX
  8
T57SSILL
 62
2
 10
893.479
 20
-6512.673
 30
-488.847
 70
    32
  0
VERTEX
  8
T57SSILL
 62
2
 10
891.121
 20
-6512.061
 30
-488.842
 70
    32
  0
VERTEX
  8
T57SSILL
 62
2
 10
888.265
 20
-6503.642
 30
-488.804
 70
    32
  0
VERTEX
  8
T57SSILL
 62
2
 10
890.125
 20
-6501.381
 30
-488.798
 70
    32
  0
VERTEX
  8
T57SSILL
 62
2
 10
866.497
 20
-6401.627
 30
-488.369
 70
    32
  0
VERTEX
  8
T57SSILL
 62
2
 10
864.093
 20
-6399.868
 30
-488.359
 70
    32
  0
VERTEX
  8
T57SSILL
 62
2
 10
845.965
 20
-6413.131
 30
-488.387
 70
    32
  0
VERTEX
  8
T57SSILL
 62
2
 10
843.591
 20
-6410.492
 30
-488.374
 70
    32
  0
VERTEX
  8
T57SSILL
 62
2
 10
835.039
 20
-6411.616
 30
-488.367
 70
    32
  0
VERTEX
  8
T57SSILL
 62
2
 10
824.474
 20
-6407.383
 30
-488.336
 70
    32
  0
VERTEX
  8
T57SSILL
 62
2
 10
784.694
 20
-6446.878
 30
-488.312
 70
    32
  0
VERTEX
  8
T57SSILL
 62
2
 10
778.403
 20
-6441.386
 30
-488.232
 70
    32
  0
VERTEX
  8
T57SSILL
 62
2
 10
809.769
 20
-6408.607
 30
-488.321
 70
    32
  0
VERTEX
  8
T57SSILL
 62
2
 10
810.487
 20
-6404.245
 30
-488.304
 70
    32
  0
VERTEX
  8
T57SSILL
 62
2
 10
828.719
 20
-6384.042
 30
-488.249
 70
    32
  0
VERTEX
  8
T57SSILL
 62
2
 10
834.829
 20
-6384.188
 30
-488.257
 70
    32
  0
VERTEX
  8
T57SSILL
 62
2
 10
845.523
 20
-6369.340
 30
-488.213
 70
    32
  0
VERTEX
  8
T57SSILL
 62
2
 10
846.233
 20
-6359.725
 30
-488.148
 70
    32
  0
VERTEX
  8
T57SSILL
 62
2
 10
850.565
 20
-6352.847
 30
-488.153
 70
    32
  0
VERTEX
  8
T57SSILL
 62
2
 10
848.917
 20
-6337.685
 30
-488.126
 70
    32
  0
VERTEX
  8
T57SSILL
 62
2
 10
851.424
 20
-6336.047
 30
-488.143
 70
    32
  0
VERTEX
  8
T57SSILL
 62
2
 10
752.655
 20
-5919.504
 30
-486.367
 70
    32
  0
VERTEX
  8
T57SSILL
 62
2
 10
750.678
 20
-5919.593
 30
-486.360
 70
    32
  0
VERTEX
  8
T57SSILL
 62
2
 10
749.438
 20
-5913.804
 30
-486.324
 70
    32
  0
VERTEX
  8
T57SSILL
 62
2
 10
751.597
 20
-5913.052
 30
-486.329
 70
    32
  0
VERTEX
  8
T57SSILL
 62
2
 10
724.078
 20
-5805.117
 30
-485.649
 70
    32
  0
VERTEX
  8
T57SSILL
 62
2
 10
704.807
 20
-5786.466
 30
-485.475
 70
    32
  0
VERTEX
  8
T57SSILL
 62
2
 10
684.595
 20
-5791.477
 30
-485.422
 70
    32
  0
VERTEX
  8
T57SSILL
 62
2
 10
571.556
 20
-5871.599
 30
-485.403
 70
    32
  0
VERTEX
  8
T57SSILL
 62
2
 10
517.279
 20
-5935.904
 30
-485.598
 70
    32
  0
VERTEX
  8
T57SSILL
 62
2
 10
518.584
 20
-5945.415
 30
-485.670
 70
    32
  0
VERTEX
  8
T57SSILL
 62
2
 10
580.885
 20
-6005.792
 30
-485.995
 70
    32
  0
VERTEX
  8
T57SSILL
 62
2
 10
575.409
 20
-6013.600
 30
-486.070
 70
    32
  0
VERTEX
  8
T57SSILL
 62
2
 10
551.535
 20
-5993.464
 30
-485.970
 70
    32
  0
VERTEX
  8
T57SSILL
 62
2
 10
509.527
 20
-5949.718
 30
-485.726
 70
    32
  0
VERTEX
  8
T57SSILL
 62
2
 10
506.137
 20
-5950.038
 30
-485.737
 70
    32
  0
VERTEX
  8
T57SSILL
 62
2
 10
497.245
 20
-5961.044
 30
-485.846
 70
    32
  0
VERTEX
  8
T57SSILL
 62
2
 10
494.342
 20
-5967.802
 30
-485.907
 70
    32
  0
VERTEX
  8
T57SSILL
 62
2
 10
491.654
 20
-5984.937
 30
-486.049
 70
    32
  0
VERTEX
  8
T57SSILL
 62
2
 10
493.066
 20
-5995.746
 30
-486.131
 70
    32
  0
VERTEX
  8
T57SSILL
 62
2
 10
541.186
 20
-6150.682
 30
-486.932
 70
    32
  0
VERTEX
  8
T57SSILL
 62
2
 10
531.327
 20
-6152.488
 30
-486.616
 70
    32
  0
VERTEX
  8
T57SSILL
 62
2
 10
528.853
 20
-6144.990
 30
-486.697
 70
    32
  0
VERTEX
  8
T57SSILL
 62
2
 10
522.136
 20
-6143.923
 30
-486.511
 70
    32
  0
VERTEX
  8
T57SSILL
 62
2
 10
516.659
 20
-6147.646
 30
-486.263
 70
    32
  0
VERTEX
  8
T57SSILL
 62
2
 10
507.759
 20
-6140.511
 30
-486.136
 70
    32
  0
VERTEX
  8
T57SSILL
 62
2
 10
513.951
 20
-6135.381
 30
-486.436
 70
    32
  0
VERTEX
  8
T57SSILL
 62
2
 10
515.296
 20
-6129.337
 30
-486.604
 70
    32
  0
VERTEX
  8
T57SSILL
 62
2
 10
514.058
 20
-6127.070
 30
-486.613
 70
    32
  0
VERTEX
  8
T57SSILL
 62
2
 10
517.699
 20
-6115.376
 30
-486.760
 70
    32
  0
VERTEX
  8
T57SSILL
 62
2
 10
480.853
 20
-5990.514
 30
-486.120
 70
    32
  0
VERTEX
  8
T57SSILL
 62
2
 10
480.868
 20
-5977.331
 30
-486.015
 70
    32
  0
VERTEX
  8
T57SSILL
 62
2
 10
483.420
 20
-5964.907
 30
-485.911
 70
    32
  0
VERTEX
  8
T57SSILL
 62
2
 10
486.846
 20
-5956.335
 30
-485.834
 70
    32
  0
VERTEX
  8
T57SSILL
 62
2
 10
535.026
 20
-5896.102
 30
-485.284
 70
    32
  0
VERTEX
  8
T57SSILL
 62
2
 10
539.532
 20
-5887.061
 30
-485.302
 70
    32
  0
VERTEX
  8
T57SSILL
 62
2
 10
537.939
 20
-5885.057
 30
-485.287
 70
    32
  0
VERTEX
  8
T57SSILL
 62
2
 10
526.021
 20
-5883.338
 30
-485.202
 70
    32
  0
VERTEX
  8
T57SSILL
 62
2
 10
517.684
 20
-5879.189
 30
-485.147
 70
    32
  0
VERTEX
  8
T57SSILL
 62
2
 10
509.292
 20
-5872.447
 30
-485.114
 70
    32
  0
VERTEX
  8
T57SSILL
 62
2
 10
474.685
 20
-5824.950
 30
-484.823
 70
    32
  0
VERTEX
  8
T57SSILL
 62
2
 10
455.566
 20
-5823.974
 30
-484.862
 70
    32
  0
VERTEX
  8
T57SSILL
 62
2
 10
447.269
 20
-5821.317
 30
-484.861
 70
    32
  0
VERTEX
  8
T57SSILL
 62
2
 10
427.773
 20
-5824.337
 30
-484.933
 70
    32
  0
VERTEX
  8
T57SSILL
 62
2
 10
422.529
 20
-5814.294
 30
-484.867
 70
    32
  0
VERTEX
  8
T57SSILL
 62
2
 10
402.658
 20
-5805.109
 30
-484.843
 70
    32
  0
VERTEX
  8
T57SSILL
 62
2
 10
383.882
 20
-5799.713
 30
-484.846
 70
    32
  0
VERTEX
  8
T57SSILL
 62
2
 10
385.700
 20
-5792.023
 30
-484.814
 70
    32
  0
VERTEX
  8
T57SSILL
 62
2
 10
390.493
 20
-5786.061
 30
-484.821
 70
    32
  0
VERTEX
  8
T57SSILL
 62
2
 10
420.678
 20
-5795.595
 30
-484.821
 70
    32
  0
VERTEX
  8
T57SSILL
 62
2
 10
440.899
 20
-5811.145
 30
-484.812
 70
    32
  0
VERTEX
  8
T57SSILL
 62
2
 10
446.077
 20
-5808.345
 30
-484.816
 70
    32
  0
VERTEX
  8
T57SSILL
 62
2
 10
448.033
 20
-5801.395
 30
-484.824
 70
    32
  0
VERTEX
  8
T57SSILL
 62
2
 10
424.086
 20
-5765.145
 30
-484.853
 70
    32
  0
VERTEX
  8
T57SSILL
 62
2
 10
416.350
 20
-5750.100
 30
-484.866
 70
    32
  0
VERTEX
  8
T57SSILL
 62
2
 10
411.928
 20
-5751.335
 30
-484.863
 70
    32
  0
VERTEX
  8
T57SSILL
 62
2
 10
394.248
 20
-5770.461
 30
-484.838
 70
    32
  0
VERTEX
  8
T57SSILL
 62
2
 10
387.692
 20
-5763.194
 30
-484.843
 70
    32
  0
VERTEX
  8
T57SSILL
 62
2
 10
406.641
 20
-5743.253
 30
-484.870
 70
    32
  0
VERTEX
  8
T57SSILL
 62
2
 10
405.900
 20
-5738.606
 30
-484.874
 70
    32
  0
VERTEX
  8
T57SSILL
 62
2
 10
404.098
 20
-5736.050
 30
-484.876
 70
    32
  0
VERTEX
  8
T57SSILL
 62
2
 10
402.457
 20
-5736.367
 30
-484.875
 70
    32
  0
VERTEX
  8
T57SSILL
 62
2
 10
398.502
 20
-5740.061
 30
-484.870
 70
    32
  0
VERTEX
  8
T57SSILL
 62
2
 10
392.261
 20
-5735.150
 30
-484.873
 70
    32
  0
VERTEX
  8
T57SSILL
 62
2
 10
400.664
 20
-5727.177
 30
-484.884
 70
    32
  0
VERTEX
  8
T57SSILL
 62
2
 10
394.060
 20
-5715.459
 30
-484.894
 70
    32
  0
VERTEX
  8
T57SSILL
 62
2
 10
388.435
 20
-5711.030
 30
-484.896
 70
    32
  0
VERTEX
  8
T57SSILL
 62
2
 10
357.148
 20
-5713.858
 30
-484.884
 70
    32
  0
VERTEX
  8
T57SSILL
 62
2
 10
357.856
 20
-5700.937
 30
-484.897
 70
    32
  0
VERTEX
  8
T57SSILL
 62
2
 10
377.441
 20
-5699.570
 30
-484.904
 70
    32
  0
VERTEX
  8
T57SSILL
 62
2
 10
380.575
 20
-5692.985
 30
-484.912
 70
    32
  0
VERTEX
  8
T57SSILL
 62
2
 10
369.608
 20
-5677.711
 30
-484.924
 70
    32
  0
VERTEX
  8
T57SSILL
 62
2
 10
354.110
 20
-5692.673
 30
-484.904
 70
    32
  0
VERTEX
  8
T57SSILL
 62
2
 10
344.064
 20
-5684.299
 30
-484.909
 70
    32
  0
VERTEX
  8
T57SSILL
 62
2
 10
346.393
 20
-5674.950
 30
-484.920
 70
    32
  0
VERTEX
  8
T57SSILL
 62
2
 10
345.230
 20
-5664.793
 30
-484.929
 70
    32
  0
VERTEX
  8
T57SSILL
 62
2
 10
347.510
 20
-5654.143
 30
-484.941
 70
    32
  0
VERTEX
  8
T57SSILL
 62
2
 10
336.715
 20
-5638.142
 30
-484.954
 70
    32
  0
VERTEX
  8
T57SSILL
 62
2
 10
335.135
 20
-5621.797
 30
-484.970
 70
    32
  0
VERTEX
  8
T57SSILL
 62
2
 10
343.963
 20
-5614.772
 30
-484.980
 70
    32
  0
VERTEX
  8
T57SSILL
 62
2
 10
353.859
 20
-5638.946
 30
-484.958
 70
    32
  0
VERTEX
  8
T57SSILL
 62
2
 10
362.176
 20
-5630.132
 30
-484.981
 70
    32
  0
VERTEX
  8
T57SSILL
 62
2
 10
367.458
 20
-5627.191
 30
-484.997
 70
    32
  0
VERTEX
  8
T57SSILL
 62
2
 10
379.209
 20
-5648.583
 30
-484.976
 70
    32
  0
VERTEX
  8
T57SSILL
 62
2
 10
382.548
 20
-5646.215
 30
-484.987
 70
    32
  0
VERTEX
  8
T57SSILL
 62
2
 10
381.099
 20
-5642.921
 30
-484.991
 70
    32
  0
VERTEX
  8
T57SSILL
 62
2
 10
380.925
 20
-5620.918
 30
-485.036
 70
    32
  0
VERTEX
  8
T57SSILL
 62
2
 10
371.009
 20
-5599.059
 30
-485.061
 70
    32
  0
VERTEX
  8
T57SSILL
 62
2
 10
356.146
 20
-5580.751
 30
-485.071
 70
    32
  0
VERTEX
  8
T57SSILL
 62
2
 10
351.819
 20
-5570.452
 30
-485.083
 70
    32
  0
VERTEX
  8
T57SSILL
 62
2
 10
353.673
 20
-5564.800
 30
-485.098
 70
    32
  0
VERTEX
  8
T57SSILL
 62
2
 10
353.650
 20
-5554.829
 30
-485.119
 70
    32
  0
VERTEX
  8
T57SSILL
 62
2
 10
368.410
 20
-5551.043
 30
-485.139
 70
    32
  0
VERTEX
  8
T57SSILL
 62
2
 10
371.229
 20
-5557.079
 30
-485.142
 70
    32
  0
VERTEX
  8
T57SSILL
 62
2
 10
381.030
 20
-5564.096
 30
-485.152
 70
    32
  0
VERTEX
  8
T57SSILL
 62
2
 10
383.712
 20
-5577.807
 30
-485.129
 70
    32
  0
VERTEX
  8
T57SSILL
 62
2
 10
389.168
 20
-5582.660
 30
-485.130
 70
    32
  0
VERTEX
  8
T57SSILL
 62
2
 10
395.185
 20
-5585.452
 30
-485.136
 70
    32
  0
VERTEX
  8
T57SSILL
 62
2
 10
399.366
 20
-5593.774
 30
-485.127
 70
    32
  0
VERTEX
  8
T57SSILL
 62
2
 10
405.021
 20
-5600.675
 30
-485.123
 70
    32
  0
VERTEX
  8
T57SSILL
 62
2
 10
401.978
 20
-5610.061
 30
-485.098
 70
    32
  0
VERTEX
  8
T57SSILL
 62
2
 10
401.501
 20
-5618.317
 30
-485.080
 70
    32
  0
VERTEX
  8
T57SSILL
 62
2
 10
403.633
 20
-5626.836
 30
-485.067
 70
    32
  0
VERTEX
  8
T57SSILL
 62
2
 10
407.672
 20
-5628.244
 30
-485.072
 70
    32
  0
VERTEX
  8
T57SSILL
 62
2
 10
441.142
 20
-5603.804
 30
-485.186
 70
    32
  0
VERTEX
  8
T57SSILL
 62
2
 10
450.214
 20
-5595.446
 30
-485.221
 70
    32
  0
VERTEX
  8
T57SSILL
 62
2
 10
451.746
 20
-5593.215
 30
-485.228
 70
    32
  0
VERTEX
  8
T57SSILL
 62
2
 10
449.622
 20
-5583.371
 30
-485.233
 70
    32
  0
VERTEX
  8
T57SSILL
 62
2
 10
453.071
 20
-5576.759
 30
-485.238
 70
    32
  0
VERTEX
  8
T57SSILL
 62
2
 10
449.938
 20
-5567.332
 30
-485.235
 70
    32
  0
VERTEX
  8
T57SSILL
 62
2
 10
453.668
 20
-5564.757
 30
-485.239
 70
    32
  0
VERTEX
  8
T57SSILL
 62
2
 10
461.298
 20
-5568.148
 30
-485.248
 70
    32
  0
VERTEX
  8
T57SSILL
 62
2
 10
466.360
 20
-5568.463
 30
-485.254
 70
    32
  0
VERTEX
  8
T57SSILL
 62
2
 10
480.130
 20
-5564.970
 30
-485.271
 70
    32
  0
VERTEX
  8
T57SSILL
 62
2
 10
489.580
 20
-5566.320
 30
-485.282
 70
    32
  0
VERTEX
  8
T57SSILL
 62
2
 10
497.486
 20
-5563.654
 30
-485.292
 70
    32
  0
VERTEX
  8
T57SSILL
 62
2
 10
505.149
 20
-5557.545
 30
-485.301
 70
    32
  0
VERTEX
  8
T57SSILL
 62
2
 10
503.277
 20
-5552.345
 30
-485.299
 70
    32
  0
VERTEX
  8
T57SSILL
 62
2
 10
500.453
 20
-5549.714
 30
-485.296
 70
    32
  0
VERTEX
  8
T57SSILL
 62
2
 10
456.399
 20
-5556.186
 30
-485.243
 70
    32
  0
VERTEX
  8
T57SSILL
 62
2
 10
454.947
 20
-5546.065
 30
-485.242
 70
    32
  0
VERTEX
  8
T57SSILL
 62
2
 10
496.892
 20
-5541.044
 30
-485.292
 70
    32
  0
VERTEX
  8
T57SSILL
 62
2
 10
505.491
 20
-5532.047
 30
-485.303
 70
    32
  0
VERTEX
  8
T57SSILL
 62
2
 10
511.715
 20
-5535.564
 30
-485.310
 70
    32
  0
VERTEX
  8
T57SSILL
 62
2
 10
528.135
 20
-5526.160
 30
-485.331
 70
    32
  0
VERTEX
  8
T57SSILL
 62
2
 10
540.566
 20
-5522.340
 30
-485.346
 70
    32
  0
VERTEX
  8
T57SSILL
 62
2
 10
553.518
 20
-5525.160
 30
-485.361
 70
    32
  0
VERTEX
  8
T57SSILL
 62
2
 10
566.208
 20
-5522.137
 30
-485.376
 70
    32
  0
VERTEX
  8
T57SSILL
 62
2
 10
575.847
 20
-5524.335
 30
-485.388
 70
    32
  0
VERTEX
  8
T57SSILL
 62
2
 10
562.341
 20
-5506.229
 30
-485.373
 70
    32
  0
VERTEX
  8
T57SSILL
 62
2
 10
559.717
 20
-5508.171
 30
-485.369
 70
    32
  0
VERTEX
  8
T57SSILL
 62
2
 10
555.500
 20
-5502.620
 30
-485.365
 70
    32
  0
VERTEX
  8
T57SSILL
 62
2
 10
558.248
 20
-5500.697
 30
-485.368
 70
    32
  0
VERTEX
  8
T57SSILL
 62
2
 10
504.159
 20
-5424.922
 30
-485.328
 70
    32
  0
VERTEX
  8
T57SSILL
 62
2
 10
500.224
 20
-5427.614
 30
-485.322
 70
    32
  0
VERTEX
  8
T57SSILL
 62
2
 10
496.183
 20
-5422.152
 30
-485.322
 70
    32
  0
VERTEX
  8
T57SSILL
 62
2
 10
499.819
 20
-5419.352
 30
-485.327
 70
    32
  0
VERTEX
  8
T57SSILL
 62
2
 10
467.195
 20
-5372.587
 30
-485.328
 70
    32
  0
VERTEX
  8
T57SSILL
 62
2
 10
473.399
 20
-5368.216
 30
-485.337
 70
    32
  0
VERTEX
  8
T57SSILL
 62
2
 10
506.382
 20
-5414.277
 30
-485.337
 70
    32
  0
VERTEX
  8
T57SSILL
 62
2
 10
510.193
 20
-5411.567
 30
-485.343
 70
    32
  0
VERTEX
  8
T57SSILL
 62
2
 10
514.318
 20
-5417.735
 30
-485.343
 70
    32
  0
VERTEX
  8
T57SSILL
 62
2
 10
511.000
 20
-5420.519
 30
-485.337
 70
    32
  0
VERTEX
  8
T57SSILL
 62
2
 10
562.656
 20
-5493.155
 30
-485.374
 70
    32
  0
VERTEX
  8
T57SSILL
 62
2
 10
571.445
 20
-5493.018
 30
-485.384
 70
    32
  0
VERTEX
  8
T57SSILL
 62
2
 10
573.088
 20
-5490.047
 30
-485.387
 70
    32
  0
VERTEX
  8
T57SSILL
 62
2
 10
573.409
 20
-5478.613
 30
-485.388
 70
    32
  0
VERTEX
  8
T57SSILL
 62
2
 10
585.154
 20
-5471.790
 30
-485.402
 70
    32
  0
VERTEX
  8
T57SSILL
 62
2
 10
590.102
 20
-5470.763
 30
-485.408
 70
    32
  0
VERTEX
  8
T57SSILL
 62
2
 10
603.992
 20
-5486.718
 30
-485.424
 70
    32
  0
VERTEX
  8
T57SSILL
 62
2
 10
608.055
 20
-5494.139
 30
-485.428
 70
    32
  0
VERTEX
  8
T57SSILL
 62
2
 10
602.065
 20
-5508.888
 30
-485.420
 70
    32
  0
VERTEX
  8
T57SSILL
 62
2
 10
599.541
 20
-5527.877
 30
-485.416
 70
    32
  0
VERTEX
  8
T57SSILL
 62
2
 10
607.331
 20
-5540.334
 30
-485.424
 70
    32
  0
VERTEX
  8
T57SSILL
 62
2
 10
604.436
 20
-5551.256
 30
-485.420
 70
    32
  0
VERTEX
  8
T57SSILL
 62
2
 10
620.347
 20
-5573.948
 30
-485.437
 70
    32
  0
VERTEX
  8
T57SSILL
 62
2
 10
628.564
 20
-5577.637
 30
-485.447
 70
    32
  0
VERTEX
  8
T57SSILL
 62
2
 10
630.719
 20
-5580.104
 30
-485.449
 70
    32
  0
VERTEX
  8
T57SSILL
 62
2
 10
628.636
 20
-5585.596
 30
-485.446
 70
    32
  0
VERTEX
  8
T57SSILL
 62
2
 10
681.474
 20
-5654.289
 30
-485.498
 70
    32
  0
VERTEX
  8
T57SSILL
 62
2
 10
692.005
 20
-5662.895
 30
-485.493
 70
    32
  0
VERTEX
  8
T57SSILL
 62
2
 10
692.602
 20
-5669.946
 30
-485.438
 70
    32
  0
VERTEX
  8
T57SSILL
 62
2
 10
701.913
 20
-5685.975
 30
-485.183
 70
    32
  0
VERTEX
  8
T57SSILL
 62
2
 10
711.955
 20
-5709.000
 30
-485.092
 70
    32
  0
VERTEX
  8
T57SSILL
 62
2
 10
720.153
 20
-5739.898
 30
-485.288
 70
    32
  0
VERTEX
  8
T57SSILL
 62
2
 10
727.781
 20
-5725.829
 30
-485.243
 70
    32
  0
VERTEX
  8
T57SSILL
 62
2
 10
734.019
 20
-5719.128
 30
-485.231
 70
    32
  0
VERTEX
  8
T57SSILL
 62
2
 10
842.737
 20
-5641.325
 30
-485.239
 70
    32
  0
VERTEX
  8
T57SSILL
 62
2
 10
843.943
 20
-5634.945
 30
-485.210
 70
    32
  0
VERTEX
  8
T57SSILL
 62
2
 10
852.236
 20
-5629.687
 30
-485.214
 70
    32
  0
VERTEX
  8
T57SSILL
 62
2
 10
856.633
 20
-5631.922
 30
-485.243
 70
    32
  0
VERTEX
  8
T57SSILL
 62
2
 10
978.683
 20
-5544.693
 30
-485.252
 70
    32
  0
VERTEX
  8
T57SSILL
 62
2
 10
979.967
 20
-5539.902
 30
-485.232
 70
    32
  0
VERTEX
  8
T57SSILL
 62
2
 10
983.472
 20
-5540.930
 30
-485.251
 70
    32
  0
VERTEX
  8
T57SSILL
 62
2
 10
1013.942
 20
-5520.533
 30
-485.260
 70
    32
  0
VERTEX
  8
T57SSILL
 62
2
 10
1099.670
 20
-5458.409
 30
-485.360
 70
    32
  0
VERTEX
  8
T57SSILL
 62
2
 10
1101.324
 20
-5454.178
 30
-485.355
 70
    32
  0
VERTEX
  8
T57SSILL
 62
2
 10
1107.023
 20
-5453.398
 30
-485.391
 70
    32
  0
VERTEX
  8
T57SSILL
 62
2
 10
1110.113
 20
-5443.336
 30
-485.375
 70
    32
  0
VERTEX
  8
T57SSILL
 62
2
 10
1138.963
 20
-5423.716
 30
-485.500
 70
    32
  0
VERTEX
  8
T57SSILL
 62
2
 10
1145.412
 20
-5425.677
 30
-485.552
 70
    32
  0
VERTEX
  8
T57SSILL
 62
2
 10
1261.225
 20
-5342.559
 30
-486.038
 70
    32
  0
VERTEX
  8
T57SSILL
 62
2
 10
1265.708
 20
-5348.565
 30
-486.091
 70
    32
  0
VERTEX
  8
T57SSILL
 62
2
 10
1132.534
 20
-5443.365
 30
-485.529
 70
    32
  0
VERTEX
  8
T57SSILL
 62
2
 10
1134.302
 20
-5453.723
 30
-485.580
 70
    32
  0
VERTEX
  8
T57SSILL
 62
2
 10
1128.102
 20
-5456.309
 30
-485.547
 70
    32
  0
VERTEX
  8
T57SSILL
 62
2
 10
1119.093
 20
-5452.872
 30
-485.473
 70
    32
  0
VERTEX
  8
T57SSILL
 62
2
 10
949.868
 20
-5574.135
 30
-485.297
 70
    32
  0
VERTEX
  8
T57SSILL
 62
2
 10
958.328
 20
-5589.278
 30
-485.410
 70
    32
  0
VERTEX
  8
T57SSILL
 62
2
 10
952.546
 20
-5593.776
 30
-485.411
 70
    32
  0
VERTEX
  8
T57SSILL
 62
2
 10
938.414
 20
-5582.390
 30
-485.296
 70
    32
  0
VERTEX
  8
T57SSILL
 62
2
 10
742.205
 20
-5722.182
 30
-485.279
 70
    32
  0
VERTEX
  8
T57SSILL
 62
2
 10
731.989
 20
-5732.703
 30
-485.295
 70
    32
  0
VERTEX
  8
T57SSILL
 62
2
 10
723.687
 20
-5750.261
 30
-485.357
 70
    32
  0
VERTEX
  8
T57SSILL
 62
2
 10
723.011
 20
-5757.285
 30
-485.391
 70
    32
  0
VERTEX
  8
T57SSILL
 62
2
 10
746.812
 20
-5852.541
 30
-485.989
 70
    32
  0
VERTEX
  8
T57SSILL
 62
2
 10
742.339
 20
-5802.651
 30
-485.707
 70
    32
  0
VERTEX
  8
T57SSILL
 62
2
 10
746.907
 20
-5788.097
 30
-485.647
 70
    32
  0
VERTEX
  8
T57SSILL
 62
2
 10
755.329
 20
-5784.166
 30
-485.659
 70
    32
  0
VERTEX
  8
T57SSILL
 62
2
 10
763.296
 20
-5791.603
 30
-485.729
 70
    32
  0
VERTEX
  8
T57SSILL
 62
2
 10
765.556
 20
-5801.939
 30
-485.793
 70
    32
  0
VERTEX
  8
T57SSILL
 62
2
 10
769.401
 20
-5804.842
 30
-485.823
 70
    32
  0
VERTEX
  8
T57SSILL
 62
2
 10
788.520
 20
-5834.773
 30
-486.056
 70
    32
  0
VERTEX
  8
T57SSILL
 62
2
 10
794.361
 20
-5857.960
 30
-486.202
 70
    32
  0
VERTEX
  8
T57SSILL
 62
2
 10
807.265
 20
-5864.320
 30
-486.285
 70
    32
  0
VERTEX
  8
T57SSILL
 62
2
 10
812.892
 20
-5875.639
 30
-486.367
 70
    32
  0
VERTEX
  8
T57SSILL
 62
2
 10
813.928
 20
-5882.214
 30
-486.406
 70
    32
  0
VERTEX
  8
T57SSILL
 62
2
 10
812.822
 20
-5885.559
 30
-486.420
 70
    32
  0
VERTEX
  8
T57SSILL
 62
2
 10
814.200
 20
-5888.462
 30
-486.440
 70
    32
  0
VERTEX
  8
T57SSILL
 62
2
 10
810.580
 20
-5899.137
 30
-486.483
 70
    32
  0
VERTEX
  8
T57SSILL
 62
2
 10
801.586
 20
-5903.789
 30
-486.473
 70
    32
  0
VERTEX
  8
T57SSILL
 62
2
 10
783.911
 20
-5906.758
 30
-486.420
 70
    32
  0
VERTEX
  8
T57SSILL
 62
2
 10
774.971
 20
-5904.398
 30
-486.373
 70
    32
  0
VERTEX
  8
T57SSILL
 62
2
 10
758.116
 20
-5877.719
 30
-486.166
 70
    32
  0
VERTEX
  8
T57SSILL
 62
2
 10
752.475
 20
-5877.864
 30
-486.145
 70
    32
  0
VERTEX
  8
T57SSILL
 62
2
 10
757.787
 20
-5906.532
 30
-486.318
 70
    32
  0
VERTEX
  8
T57SSILL
 62
2
 10
924.406
 20
-6613.354
 30
-489.305
 70
    32
  0
VERTEX
  8
T57SSILL
 62
2
 10
934.730
 20
-6631.293
 30
-489.416
 70
    32
  0
VERTEX
  8
T57SSILL
 62
2
 10
941.818
 20
-6638.709
 30
-489.472
 70
    32
  0
VERTEX
  8
T57SSILL
 62
2
 10
948.324
 20
-6642.664
 30
-489.512
 70
    32
  0
VERTEX
  8
T57SSILL
 62
2
 10
962.001
 20
-6644.075
 30
-489.568
 70
    32
  0
VERTEX
  8
T57SSILL
 62
2
 10
989.174
 20
-6650.035
 30
-489.693
 70
    32
  0
VERTEX
  8
T57SSILL
 62
2
 10
1006.894
 20
-6652.876
 30
-489.770
 70
    32
  0
VERTEX
  8
T57SSILL
 62
2
 10
1007.194
 20
-6651.541
 30
-489.766
 70
    32
  0
VERTEX
  8
T57SSILL
 62
2
 10
1008.895
 20
-6651.828
 30
-489.773
 70
    32
  0
VERTEX
  8
T57SSILL
 62
2
 10
1010.026
 20
-6648.821
 30
-489.765
 70
    32
  0
VERTEX
  8
T57SSILL
 62
2
 10
1005.953
 20
-6636.398
 30
-489.700
 70
    32
  0
VERTEX
  8
T57SSILL
 62
2
 10
1016.664
 20
-6629.089
 30
-489.710
 70
    32
  0
VERTEX
  8
T57SSILL
 62
2
 10
1019.358
 20
-6628.699
 30
-489.718
 70
    32
  0
VERTEX
  8
T57SSILL
 62
2
 10
1023.092
 20
-6632.159
 30
-489.746
 70
    32
  0
VERTEX
  8
T57SSILL
 62
2
 10
1026.137
 20
-6646.180
 30
-489.814
 70
    32
  0
VERTEX
  8
T57SSILL
 62
2
 10
1031.751
 20
-6652.520
 30
-489.860
 70
    32
  0
VERTEX
  8
T57SSILL
 62
2
 10
1032.528
 20
-6661.764
 30
-489.901
 70
    32
  0
VERTEX
  8
T57SSILL
 62
2
 10
1070.812
 20
-6668.575
 30
-490.070
 70
    32
  0
VERTEX
  8
T57SSILL
 62
2
 10
1069.667
 20
-6675.944
 30
-490.095
 70
    32
  0
VERTEX
  8
T57SSILL
 62
2
 10
1033.808
 20
-6668.673
 30
-489.933
 70
    32
  0
VERTEX
  8
T57SSILL
 62
2
 10
1033.902
 20
-6670.969
 30
-489.943
 70
    32
  0
VERTEX
  8
T57SSILL
 62
2
 10
1045.728
 20
-6693.230
 30
-490.077
 70
    32
  0
VERTEX
  8
T57SSILL
 62
2
 10
1055.262
 20
-6703.238
 30
-490.152
 70
    32
  0
VERTEX
  8
T57SSILL
 62
2
 10
1060.229
 20
-6721.036
 30
-490.242
 70
    32
  0
VERTEX
  8
T57SSILL
 62
2
 10
1067.754
 20
-6738.345
 30
-490.340
 70
    32
  0
VERTEX
  8
T57SSILL
 62
2
 10
1073.152
 20
-6734.377
 30
-490.344
 70
    32
  0
VERTEX
  8
T57SSILL
 62
2
 10
1078.523
 20
-6740.787
 30
-490.390
 70
    32
  0
VERTEX
  8
T57SSILL
 62
2
 10
1072.019
 20
-6745.637
 30
-490.385
 70
    32
  0
VERTEX
  8
T57SSILL
 62
2
 10
1073.371
 20
-6746.528
 30
-490.394
 70
    32
  0
VERTEX
  8
T57SSILL
 62
2
 10
1068.951
 20
-6752.092
 30
-490.400
 70
    32
  0
VERTEX
  8
T57SSILL
 62
2
 10
1075.387
 20
-6771.583
 30
-490.503
 70
    32
  0
VERTEX
  8
T57SSILL
 62
2
 10
1075.508
 20
-6781.943
 30
-490.545
 70
    32
  0
VERTEX
  8
T57SSILL
 62
2
 10
1079.024
 20
-6794.789
 30
-490.610
 70
    32
  0
VERTEX
  8
T57SSILL
 62
2
 10
1078.001
 20
-6797.828
 30
-490.619
 70
    32
  0
VERTEX
  8
T57SSILL
 62
2
 10
1071.875
 20
-6801.355
 30
-490.610
 70
    32
  0
VERTEX
  8
T57SSILL
 62
2
 10
1067.378
 20
-6793.333
 30
-490.561
 70
    32
  0
VERTEX
  8
T57SSILL
 62
2
 10
1068.013
 20
-6790.663
 30
-490.553
 70
    32
  0
VERTEX
  8
T57SSILL
 62
2
 10
1066.098
 20
-6784.400
 30
-490.520
 70
    32
  0
VERTEX
  8
T57SSILL
 62
2
 10
1063.982
 20
-6782.856
 30
-490.506
 70
    32
  0
VERTEX
  8
T57SSILL
 62
2
 10
1056.655
 20
-6783.364
 30
-490.481
 70
    32
  0
VERTEX
  8
T57SSILL
 62
2
 10
1048.628
 20
-6771.562
 30
-490.404
 70
    32
  0
VERTEX
  8
T57SSILL
 62
2
 10
1037.691
 20
-6770.050
 30
-490.357
 70
    32
  0
VERTEX
  8
T57SSILL
 62
2
 10
1002.191
 20
-6794.975
 30
-490.327
 70
    32
  0
VERTEX
  8
T57SSILL
 62
2
 10
982.422
 20
-6810.517
 30
-488.557
 70
    32
  0
VERTEX
  8
T57SSILL
 62
2
 10
977.977
 20
-6820.227
 30
-488.005
 70
    32
  0
VERTEX
  8
T57SSILL
 62
2
 10
993.019
 20
-6891.488
 30
-487.299
 70
    32
  0
VERTEX
  8
T57SSILL
 62
2
 10
995.126
 20
-6895.775
 30
-487.340
 70
    32
  0
VERTEX
  8
T57SSILL
 62
2
 10
1000.737
 20
-6898.859
 30
-487.658
 70
    32
  0
VERTEX
  8
T57SSILL
 62
2
 10
1006.910
 20
-6905.742
 30
-487.920
 70
    32
  0
VERTEX
  8
T57SSILL
 62
2
 10
1039.874
 20
-6881.993
 30
-490.818
 70
    32
  0
VERTEX
  8
T57SSILL
 62
2
 10
1126.514
 20
-6820.114
 30
-490.888
 70
    32
  0
VERTEX
  8
T57SSILL
 62
2
 10
1129.825
 20
-6824.315
 30
-490.917
 70
    32
  0
VERTEX
  8
T57SSILL
 62
2
 10
1128.669
 20
-6825.462
 30
-490.917
 70
    32
  0
VERTEX
  8
T57SSILL
 62
2
 10
1139.362
 20
-6854.322
 30
-491.074
 70
    32
  0
VERTEX
  8
T57SSILL
 62
2
 10
1139.580
 20
-6859.301
 30
-491.095
 70
    32
  0
VERTEX
  8
T57SSILL
 62
2
 10
1153.406
 20
-6892.134
 30
-491.278
 70
    32
  0
VERTEX
  8
T57SSILL
 62
2
 10
1170.655
 20
-6924.270
 30
-491.472
 70
    32
  0
VERTEX
  8
T57SSILL
 62
2
 10
1175.485
 20
-6941.688
 30
-491.560
 70
    32
  0
VERTEX
  8
T57SSILL
 62
2
 10
1176.818
 20
-6968.622
 30
-491.674
 70
    32
  0
VERTEX
  8
T57SSILL
 62
2
 10
1188.996
 20
-7003.644
 30
-491.861
 70
    32
  0
VERTEX
  8
T57SSILL
 62
2
 10
1192.437
 20
-7017.866
 30
-491.931
 70
    32
  0
VERTEX
  8
T57SSILL
 62
2
 10
1184.327
 20
-7018.368
 30
-491.903
 70
    32
  0
VERTEX
  8
T57SSILL
 62
2
 10
1179.652
 20
-6997.420
 30
-491.801
 70
    32
  0
VERTEX
  8
T57SSILL
 62
2
 10
1171.758
 20
-6973.593
 30
-491.675
 70
    32
  0
VERTEX
  8
T57SSILL
 62
2
 10
1168.424
 20
-6948.796
 30
-491.563
 70
    32
  0
VERTEX
  8
T57SSILL
 62
2
 10
1156.694
 20
-6946.118
 30
-491.509
 70
    32
  0
VERTEX
  8
T57SSILL
 62
2
 10
1154.077
 20
-6943.210
 30
-491.487
 70
    32
  0
VERTEX
  8
T57SSILL
 62
2
 10
1143.128
 20
-6916.773
 30
-491.340
 70
    32
  0
VERTEX
  8
T57SSILL
 62
2
 10
1127.648
 20
-6886.492
 30
-491.160
 70
    32
  0
VERTEX
  8
T57SSILL
 62
2
 10
1125.094
 20
-6877.253
 30
-491.114
 70
    32
  0
VERTEX
  8
T57SSILL
 62
2
 10
1085.805
 20
-6893.746
 30
-491.035
 70
    32
  0
VERTEX
  8
T57SSILL
 62
2
 10
1098.116
 20
-6906.364
 30
-491.132
 70
    32
  0
VERTEX
  8
T57SSILL
 62
2
 10
1105.686
 20
-6921.567
 30
-491.221
 70
    32
  0
VERTEX
  8
T57SSILL
 62
2
 10
1096.256
 20
-6924.465
 30
-491.198
 70
    32
  0
VERTEX
  8
T57SSILL
 62
2
 10
1091.370
 20
-6914.148
 30
-491.138
 70
    32
  0
VERTEX
  8
T57SSILL
 62
2
 10
1083.518
 20
-6905.424
 30
-491.074
 70
    32
  0
VERTEX
  8
T57SSILL
 62
2
 10
1074.317
 20
-6898.789
 30
-491.013
 70
    32
  0
VERTEX
  8
T57SSILL
 62
2
 10
1062.823
 20
-6895.205
 30
-490.956
 70
    32
  0
VERTEX
  8
T57SSILL
 62
2
 10
1051.011
 20
-6894.288
 30
-490.909
 70
    32
  0
VERTEX
  8
T57SSILL
 62
2
 10
1038.661
 20
-6895.869
 30
-490.390
 70
    32
  0
VERTEX
  8
T57SSILL
 62
2
 10
1008.943
 20
-6916.720
 30
-487.791
 70
    32
  0
VERTEX
  8
T57SSILL
 62
2
 10
1003.817
 20
-6922.657
 30
-487.285
 70
    32
  0
VERTEX
  8
T57SSILL
 62
2
 10
1010.251
 20
-6952.484
 30
-486.999
 70
    32
  0
VERTEX
  8
T57SSILL
 62
2
 10
1014.052
 20
-6959.169
 30
-487.100
 70
    32
  0
VERTEX
  8
T57SSILL
 62
2
 10
1015.152
 20
-6972.380
 30
-486.851
 70
    32
  0
VERTEX
  8
T57SSILL
 62
2
 10
1097.826
 20
-7088.767
 30
-489.770
 70
    32
  0
VERTEX
  8
T57SSILL
 62
2
 10
1106.119
 20
-7079.184
 30
-490.588
 70
    32
  0
VERTEX
  8
T57SSILL
 62
2
 10
1123.336
 20
-7035.721
 30
-491.748
 70
    32
  0
VERTEX
  8
T57SSILL
 62
2
 10
1124.536
 20
-7022.759
 30
-491.700
 70
    32
  0
VERTEX
  8
T57SSILL
 62
2
 10
1122.894
 20
-7014.392
 30
-491.660
 70
    32
  0
VERTEX
  8
T57SSILL
 62
2
 10
1133.008
 20
-7012.519
 30
-491.690
 70
    32
  0
VERTEX
  8
T57SSILL
 62
2
 10
1136.266
 20
-7028.099
 30
-491.765
 70
    32
  0
VERTEX
  8
T57SSILL
 62
2
 10
1109.056
 20
-7103.398
 30
-490.196
 70
    32
  0
VERTEX
  8
T57SSILL
 62
2
 10
1128.640
 20
-7130.975
 30
-490.887
 70
    32
  0
VERTEX
  8
T57SSILL
 62
2
 10
1136.748
 20
-7136.218
 30
-491.326
 70
    32
  0
VERTEX
  8
T57SSILL
 62
2
 10
1143.716
 20
-7149.120
 30
-491.495
 70
    32
  0
VERTEX
  8
T57SSILL
 62
2
 10
1138.084
 20
-7153.282
 30
-490.998
 70
    32
  0
VERTEX
  8
T57SSILL
 62
2
 10
1129.680
 20
-7230.416
 30
-488.502
 70
    32
  0
VERTEX
  8
T57SSILL
 62
2
 10
1125.882
 20
-7264.597
 30
-490.152
 70
    32
  0
VERTEX
  8
T57SSILL
 62
2
 10
1153.475
 20
-7316.193
 30
-491.977
 70
    32
  0
VERTEX
  8
T57SSILL
 62
2
 10
1160.427
 20
-7320.461
 30
-492.035
 70
    32
  0
VERTEX
  8
T57SSILL
 62
2
 10
1188.073
 20
-7372.619
 30
-493.765
 70
    32
  0
VERTEX
  8
T57SSILL
 62
2
 10
1203.880
 20
-7383.731
 30
-493.836
 70
    32
  0
VERTEX
  8
T57SSILL
 62
2
 10
1332.615
 20
-7416.594
 30
-494.207
 70
    32
  0
VERTEX
  8
T57SSILL
 62
2
 10
1381.101
 20
-7383.322
 30
-494.372
 70
    32
  0
VERTEX
  8
T57SSILL
 62
2
 10
1372.729
 20
-7260.542
 30
-493.865
 70
    32
  0
VERTEX
  8
T57SSILL
 62
2
 10
1363.914
 20
-7255.360
 30
-493.793
 70
    32
  0
VERTEX
  8
T57SSILL
 62
2
 10
1363.139
 20
-7248.256
 30
-493.762
 70
    32
  0
VERTEX
  8
T57SSILL
 62
2
 10
1370.999
 20
-7242.857
 30
-493.789
 70
    32
  0
VERTEX
  8
T57SSILL
 62
2
 10
1367.242
 20
-7168.910
 30
-493.491
 70
    32
  0
VERTEX
  8
T57SSILL
 62
2
 10
1373.960
 20
-7168.710
 30
-493.530
 70
    32
  0
VERTEX
  8
T57SSILL
 62
2
 10
1375.254
 20
-7174.784
 30
-493.560
 70
    32
  0
VERTEX
  8
T57SSILL
 62
2
 10
1380.055
 20
-7174.366
 30
-493.587
 70
    32
  0
VERTEX
  8
T57SSILL
 62
2
 10
1378.791
 20
-7170.710
 30
-493.566
 70
    32
  0
VERTEX
  8
T57SSILL
 62
2
 10
1385.930
 20
-7169.325
 30
-493.604
 70
    32
  0
VERTEX
  8
T57SSILL
 62
2
 10
1409.756
 20
-7242.860
 30
-494.020
 70
    32
  0
VERTEX
  8
T57SSILL
 62
2
 10
1417.240
 20
-7239.837
 30
-494.053
 70
    32
  0
VERTEX
  8
T57SSILL
 62
2
 10
1425.999
 20
-7230.672
 30
-494.071
 70
    32
  0
VERTEX
  8
T57SSILL
 62
2
 10
1428.356
 20
-7223.827
 30
-494.059
 70
    32
  0
VERTEX
  8
T57SSILL
 62
2
 10
1428.409
 20
-7212.368
 30
-494.017
 70
    32
  0
VERTEX
  8
T57SSILL
 62
2
 10
1421.201
 20
-7187.826
 30
-493.883
 70
    32
  0
VERTEX
  8
T57SSILL
 62
2
 10
1434.550
 20
-7181.448
 30
-493.938
 70
    32
  0
VERTEX
  8
T57SSILL
 62
2
 10
1488.112
 20
-7258.111
 30
-494.543
 70
    32
  0
VERTEX
  8
T57SSILL
 62
2
 10
1482.529
 20
-7258.306
 30
-494.510
 70
    32
  0
VERTEX
  8
T57SSILL
 62
2
 10
1463.083
 20
-7243.427
 30
-494.339
 70
    32
  0
VERTEX
  8
T57SSILL
 62
2
 10
1452.871
 20
-7249.110
 30
-494.300
 70
    32
  0
VERTEX
  8
T57SSILL
 62
2
 10
1446.345
 20
-7257.331
 30
-494.291
 70
    32
  0
VERTEX
  8
T57SSILL
 62
2
 10
1444.437
 20
-7262.293
 30
-494.298
 70
    32
  0
VERTEX
  8
T57SSILL
 62
2
 10
1443.870
 20
-7279.062
 30
-494.358
 70
    32
  0
VERTEX
  8
T57SSILL
 62
2
 10
1440.372
 20
-7283.698
 30
-494.354
 70
    32
  0
VERTEX
  8
T57SSILL
 62
2
 10
1434.429
 20
-7287.515
 30
-494.333
 70
    32
  0
VERTEX
  8
T57SSILL
 62
2
 10
1431.592
 20
-7286.743
 30
-494.313
 70
    32
  0
VERTEX
  8
T57SSILL
 62
2
 10
1426.993
 20
-7280.576
 30
-494.263
 70
    32
  0
VERTEX
  8
T57SSILL
 62
2
 10
1422.239
 20
-7281.386
 30
-494.237
 70
    32
  0
VERTEX
  8
T57SSILL
 62
2
 10
1438.777
 20
-7337.532
 30
-494.545
 70
    32
  0
VERTEX
  8
T57SSILL
 62
2
 10
1443.095
 20
-7341.029
 30
-494.584
 70
    32
  0
VERTEX
  8
T57SSILL
 62
2
 10
1490.430
 20
-7307.776
 30
-494.742
 70
    32
  0
VERTEX
  8
T57SSILL
 62
2
 10
1487.147
 20
-7302.962
 30
-494.704
 70
    32
  0
VERTEX
  8
T57SSILL
 62
2
 10
1492.893
 20
-7299.169
 30
-494.724
 70
    32
  0
VERTEX
  8
T57SSILL
 62
2
 10
1496.497
 20
-7303.666
 30
-494.763
 70
    32
  0
VERTEX
  8
T57SSILL
 62
2
 10
1500.855
 20
-7300.028
 30
-494.775
 70
    32
  0
VERTEX
  8
T57SSILL
 62
2
 10
1504.469
 20
-7305.809
 30
-494.818
 70
    32
  0
VERTEX
  8
T57SSILL
 62
2
 10
1254.292
 20
-7479.820
 30
-494.956
 70
    32
  0
VERTEX
  8
T57SSILL
 62
2
 10
1248.741
 20
-7494.167
 30
-495.198
 70
    32
  0
VERTEX
  8
T57SSILL
 62
2
 10
1252.368
 20
-7498.860
 30
-495.242
 70
    32
  0
VERTEX
  8
T57SSILL
 62
2
 10
1260.745
 20
-7503.379
 30
-495.248
 70
    32
  0
VERTEX
  8
T57SSILL
 62
2
 10
1276.553
 20
-7516.111
 30
-495.309
 70
    32
  0
VERTEX
  8
T57SSILL
 62
2
 10
1294.683
 20
-7540.214
 30
-495.517
 70
    32
  0
VERTEX
  8
T57SSILL
 62
2
 10
1292.339
 20
-7549.482
 30
-495.670
 70
    32
  0
VERTEX
  8
T57SSILL
 62
2
 10
1293.798
 20
-7556.981
 30
-495.767
 70
    32
  0
VERTEX
  8
T57SSILL
 62
2
 10
1295.493
 20
-7556.881
 30
-495.752
 70
    32
  0
VERTEX
  8
T57SSILL
 62
2
 10
1298.347
 20
-7560.797
 30
-495.787
 70
    32
  0
VERTEX
  8
T57SSILL
 62
2
 10
1287.954
 20
-7568.518
 30
-495.976
 70
    32
  0
VERTEX
  8
T57SSILL
 62
2
 10
1335.628
 20
-7655.394
 30
-496.868
 70
    32
  0
VERTEX
  8
T57SSILL
 62
2
 10
1342.924
 20
-7650.267
 30
-496.737
 70
    32
  0
VERTEX
  8
T57SSILL
 62
2
 10
1345.216
 20
-7653.846
 30
-496.774
 70
    32
  0
VERTEX
  8
T57SSILL
 62
2
 10
1337.921
 20
-7659.090
 30
-496.904
 70
    32
  0
VERTEX
  8
T57SSILL
 62
2
 10
1386.209
 20
-7750.352
 30
-497.572
 70
    32
  0
VERTEX
  8
T57SSILL
 62
2
 10
1392.802
 20
-7747.440
 30
-497.555
 70
    32
  0
VERTEX
  8
T57SSILL
 62
2
 10
1404.479
 20
-7751.584
 30
-497.552
 70
    32
  0
VERTEX
  8
T57SSILL
 62
2
 10
1533.103
 20
-7746.159
 30
-496.949
 70
    32
  0
VERTEX
  8
T57SSILL
 62
2
 10
1535.637
 20
-7753.632
 30
-497.038
 70
    32
  0
VERTEX
  8
T57SSILL
 62
2
 10
1430.701
 20
-7757.590
 30
-497.537
 70
    32
  0
VERTEX
  8
T57SSILL
 62
2
 10
1429.802
 20
-7763.698
 30
-497.556
 70
    32
  0
VERTEX
  8
T57SSILL
 62
2
 10
1402.408
 20
-7758.940
 30
-497.577
 70
    32
  0
VERTEX
  8
T57SSILL
 62
2
 10
1400.286
 20
-7766.224
 30
-497.601
 70
    32
  0
VERTEX
  8
T57SSILL
 62
2
 10
1399.742
 20
-7775.309
 30
-497.629
 70
    32
  0
VERTEX
  8
T57SSILL
 62
2
 10
1407.543
 20
-7786.958
 30
-497.653
 70
    32
  0
VERTEX
  8
T57SSILL
 62
2
 10
1430.184
 20
-7840.387
 30
-497.783
 70
    32
  0
VERTEX
  8
T57SSILL
 62
2
 10
1436.975
 20
-7835.329
 30
-497.759
 70
    32
  0
VERTEX
  8
T57SSILL
 62
2
 10
1440.438
 20
-7841.836
 30
-497.774
 70
    32
  0
VERTEX
  8
T57SSILL
 62
2
 10
1432.945
 20
-7847.275
 30
-497.800
 70
    32
  0
VERTEX
  8
T57SSILL
 62
2
 10
1518.514
 20
-8026.858
 30
-498.234
 70
    32
  0
VERTEX
  8
T57SSILL
 62
2
 10
1511.941
 20
-8028.643
 30
-498.255
 70
    32
  0
VERTEX
  8
T57SSILL
 62
2
 10
1457.202
 20
-7914.554
 30
-497.981
 70
    32
  0
VERTEX
  8
T57SSILL
 62
2
 10
1445.825
 20
-7912.353
 30
-497.999
 70
    32
  0
VERTEX
  8
T57SSILL
 62
2
 10
1418.698
 20
-7858.157
 30
-497.871
 70
    32
  0
VERTEX
  8
T57SSILL
 62
2
 10
1415.952
 20
-7860.393
 30
-497.885
 70
    32
  0
VERTEX
  8
T57SSILL
 62
2
 10
1416.058
 20
-7863.912
 30
-497.897
 70
    32
  0
VERTEX
  8
T57SSILL
 62
2
 10
1421.862
 20
-7883.095
 30
-497.951
 70
    32
  0
VERTEX
  8
T57SSILL
 62
2
 10
1420.182
 20
-7887.266
 30
-497.969
 70
    32
  0
VERTEX
  8
T57SSILL
 62
2
 10
1405.062
 20
-7896.826
 30
-498.037
 70
    32
  0
VERTEX
  8
T57SSILL
 62
2
 10
1392.978
 20
-7872.288
 30
-497.978
 70
    32
  0
VERTEX
  8
T57SSILL
 62
2
 10
1385.378
 20
-7861.576
 30
-497.958
 70
    32
  0
VERTEX
  8
T57SSILL
 62
2
 10
1376.101
 20
-7837.090
 30
-497.914
 70
    32
  0
VERTEX
  8
T57SSILL
 62
2
 10
1346.969
 20
-7915.652
 30
-498.559
 70
    32
  0
VERTEX
  8
T57SSILL
 62
2
 10
1300.855
 20
-8048.401
 30
-499.584
 70
    32
  0
VERTEX
  8
T57SSILL
 62
2
 10
1302.757
 20
-8049.362
 30
-499.575
 70
    32
  0
VERTEX
  8
T57SSILL
 62
2
 10
1299.159
 20
-8056.066
 30
-499.581
 70
    32
  0
VERTEX
  8
T57SSILL
 62
2
 10
1332.088
 20
-8162.703
 30
-499.288
 70
    32
  0
VERTEX
  8
T57SSILL
 62
2
 10
1338.620
 20
-8164.851
 30
-499.257
 70
    32
  0
VERTEX
  8
T57SSILL
 62
2
 10
1336.341
 20
-8173.307
 30
-499.255
 70
    32
  0
VERTEX
  8
T57SSILL
 62
2
 10
1340.102
 20
-8187.977
 30
-499.235
 70
    32
  0
VERTEX
  8
T57SSILL
 62
2
 10
1358.928
 20
-8182.936
 30
-499.164
 70
    32
  0
VERTEX
  8
T57SSILL
 62
2
 10
1361.841
 20
-8191.754
 30
-499.176
 70
    32
  0
VERTEX
  8
T57SSILL
 62
2
 10
1343.235
 20
-8198.038
 30
-499.248
 70
    32
  0
VERTEX
  8
T57SSILL
 62
2
 10
1348.805
 20
-8216.389
 30
-499.274
 70
    32
  0
VERTEX
  8
T57SSILL
 62
2
 10
1358.076
 20
-8214.128
 30
-499.240
 70
    32
  0
VERTEX
  8
T57SSILL
 62
2
 10
1360.365
 20
-8221.124
 30
-499.249
 70
    32
  0
VERTEX
  8
T57SSILL
 62
2
 10
1351.179
 20
-8223.971
 30
-499.284
 70
    32
  0
VERTEX
  8
T57SSILL
 62
2
 10
1370.206
 20
-8286.215
 30
-499.370
 70
    32
  0
VERTEX
  8
T57SSILL
 62
2
 10
1379.396
 20
-8279.823
 30
-499.326
 70
    32
  0
VERTEX
  8
T57SSILL
 62
2
 10
1382.406
 20
-8284.923
 30
-499.329
 70
    32
  0
VERTEX
  8
T57SSILL
 62
2
 10
1372.125
 20
-8291.752
 30
-499.377
 70
    32
  0
VERTEX
  8
T57SSILL
 62
2
 10
1379.152
 20
-8305.960
 30
-499.388
 70
    32
  0
VERTEX
  8
T57SSILL
 62
2
 10
1388.699
 20
-8301.225
 30
-499.347
 70
    32
  0
VERTEX
  8
T57SSILL
 62
2
 10
1390.398
 20
-8305.068
 30
-499.351
 70
    32
  0
VERTEX
  8
T57SSILL
 62
2
 10
1380.891
 20
-8309.641
 30
-499.391
 70
    32
  0
VERTEX
  8
T57SSILL
 62
2
 10
1381.145
 20
-8312.749
 30
-499.398
 70
    32
  0
VERTEX
  8
T57SSILL
 62
2
 10
1394.974
 20
-8350.693
 30
-499.443
 70
    32
  0
VERTEX
  8
T57SSILL
 62
2
 10
1399.251
 20
-8356.773
 30
-499.444
 70
    32
  0
VERTEX
  8
T57SSILL
 62
2
 10
1402.725
 20
-8355.084
 30
-499.429
 70
    32
  0
VERTEX
  8
T57SSILL
 62
2
 10
1406.873
 20
-8362.002
 30
-499.432
 70
    32
  0
VERTEX
  8
T57SSILL
 62
2
 10
1404.192
 20
-8363.798
 30
-499.445
 70
    32
  0
VERTEX
  8
T57SSILL
 62
2
 10
1414.042
 20
-8377.800
 30
-499.447
 70
    32
  0
VERTEX
  8
T57SSILL
 62
2
 10
1433.414
 20
-8419.083
 30
-499.483
 70
    32
  0
VERTEX
  8
T57SSILL
 62
2
 10
1436.158
 20
-8419.323
 30
-499.475
 70
    32
  0
VERTEX
  8
T57SSILL
 62
2
 10
1442.284
 20
-8439.863
 30
-499.504
 70
    32
  0
VERTEX
  8
T57SSILL
 62
2
 10
1443.697
 20
-8438.344
 30
-499.496
 70
    32
  0
VERTEX
  8
T57SSILL
 62
2
 10
1447.525
 20
-8445.237
 30
-499.500
 70
    32
  0
VERTEX
  8
T57SSILL
 62
2
 10
1441.163
 20
-8449.983
 30
-499.531
 70
    32
  0
VERTEX
  8
T57SSILL
 62
2
 10
1473.066
 20
-8516.693
 30
-499.587
 70
    32
  0
VERTEX
  8
T57SSILL
 62
2
 10
1471.564
 20
-8533.520
 30
-499.631
 70
    32
  0
VERTEX
  8
T57SSILL
 62
2
 10
1467.546
 20
-8541.791
 30
-499.662
 70
    32
  0
VERTEX
  8
T57SSILL
 62
2
 10
1475.968
 20
-8600.674
 30
-499.774
 70
    32
  0
VERTEX
  8
T57SSILL
 62
2
 10
1537.776
 20
-8723.824
 30
-499.868
 70
    32
  0
VERTEX
  8
T57SSILL
 62
2
 10
1532.005
 20
-8726.836
 30
-499.893
 70
    32
  0
VERTEX
  8
T57SSILL
 62
2
 10
1469.874
 20
-8607.812
 30
-499.809
 70
    32
  0
VERTEX
  8
T57SSILL
 62
2
 10
1460.482
 20
-8549.388
 30
-499.702
 70
    32
  0
VERTEX
  8
T57SSILL
 62
2
 10
1453.536
 20
-8554.219
 30
-499.735
 70
    32
  0
VERTEX
  8
T57SSILL
 62
2
 10
1442.355
 20
-8557.594
 30
-499.778
 70
    32
  0
VERTEX
  8
T57SSILL
 62
2
 10
1430.262
 20
-8556.878
 30
-499.814
 70
    32
  0
VERTEX
  8
T57SSILL
 62
2
 10
1419.868
 20
-8553.049
 30
-499.838
 70
    32
  0
VERTEX
  8
T57SSILL
 62
2
 10
1410.862
 20
-8546.429
 30
-499.850
 70
    32
  0
VERTEX
  8
T57SSILL
 62
2
 10
1404.319
 20
-8537.022
 30
-499.849
 70
    32
  0
VERTEX
  8
T57SSILL
 62
2
 10
1272.601
 20
-8276.475
 30
-499.652
 70
    32
  0
VERTEX
  8
T57SSILL
 62
2
 10
1265.766
 20
-8268.345
 30
-499.654
 70
    32
  0
VERTEX
  8
T57SSILL
 62
2
 10
1265.272
 20
-8264.394
 30
-499.647
 70
    32
  0
VERTEX
  8
T57SSILL
 62
2
 10
1254.141
 20
-8244.221
 30
-499.634
 70
    32
  0
VERTEX
  8
T57SSILL
 62
2
 10
1250.644
 20
-8223.140
 30
-499.596
 70
    32
  0
VERTEX
  8
T57SSILL
 62
2
 10
1246.983
 20
-8218.493
 30
-499.596
 70
    32
  0
VERTEX
  8
T57SSILL
 62
2
 10
1213.049
 20
-8242.203
 30
-499.758
 70
    32
  0
VERTEX
  8
T57SSILL
 62
2
 10
1209.323
 20
-8237.175
 30
-499.758
 70
    32
  0
VERTEX
  8
T57SSILL
 62
2
 10
1249.496
 20
-8208.347
 30
-499.583
 70
    32
  0
VERTEX
  8
T57SSILL
 62
2
 10
1248.406
 20
-8199.894
 30
-499.600
 70
    32
  0
VERTEX
  8
T57SSILL
 62
2
 10
1241.381
 20
-8183.248
 30
-499.654
 70
    32
  0
VERTEX
  8
T57SSILL
 62
2
 10
1237.302
 20
-8178.424
 30
-499.678
 70
    32
  0
VERTEX
  8
T57SSILL
 62
2
 10
1152.468
 20
-7967.287
 30
-500.343
 70
    32
  0
VERTEX
  8
T57SSILL
 62
2
 10
1141.924
 20
-7936.042
 30
-500.433
 70
    32
  0
VERTEX
  8
T57SSILL
 62
2
 10
1070.457
 20
-7677.178
 30
-498.351
 70
    32
  0
VERTEX
  8
T57SSILL
 62
2
 10
1020.222
 20
-7495.221
 30
-492.597
 70
    32
  0
VERTEX
  8
T57SSILL
 62
2
 10
1021.153
 20
-7479.163
 30
-492.478
 70
    32
  0
VERTEX
  8
T57SSILL
 62
2
 10
1025.508
 20
-7469.095
 30
-492.701
 70
    32
  0
VERTEX
  8
T57SSILL
 62
2
 10
1099.853
 20
-7414.976
 30
-493.737
 70
    32
  0
VERTEX
  8
T57SSILL
 62
2
 10
1150.468
 20
-7375.628
 30
-493.545
 70
    32
  0
VERTEX
  8
T57SSILL
 62
2
 10
1153.822
 20
-7370.230
 30
-493.465
 70
    32
  0
VERTEX
  8
T57SSILL
 62
2
 10
1158.219
 20
-7356.538
 30
-493.200
 70
    32
  0
VERTEX
  8
T57SSILL
 62
2
 10
1159.662
 20
-7340.777
 30
-492.840
 70
    32
  0
VERTEX
  8
T57SSILL
 62
2
 10
1152.658
 20
-7327.988
 30
-492.426
 70
    32
  0
VERTEX
  8
T57SSILL
 62
2
 10
1145.432
 20
-7321.927
 30
-492.171
 70
    32
  0
VERTEX
  8
T57SSILL
 62
2
 10
1120.227
 20
-7275.156
 30
-490.663
 70
    32
  0
VERTEX
  8
T57SSILL
 62
2
 10
1115.293
 20
-7259.769
 30
-490.140
 70
    32
  0
VERTEX
  8
T57SSILL
 62
2
 10
1091.348
 20
-7216.604
 30
-488.630
 70
    32
  0
VERTEX
  8
T57SSILL
 62
2
 10
1076.579
 20
-7224.674
 30
-488.788
 70
    32
  0
VERTEX
  8
T57SSILL
 62
2
 10
1074.550
 20
-7219.251
 30
-488.626
 70
    32
  0
VERTEX
  8
T57SSILL
 62
2
 10
1087.673
 20
-7210.913
 30
-488.441
 70
    32
  0
VERTEX
  8
T57SSILL
 62
2
 10
1073.750
 20
-7186.213
 30
-487.581
 70
    32
  0
VERTEX
  8
T57SSILL
 62
2
 10
1066.390
 20
-7187.482
 30
-487.736
 70
    32
  0
VERTEX
  8
T57SSILL
 62
2
 10
1057.580
 20
-7180.508
 30
-487.435
 70
    32
  0
VERTEX
  8
T57SSILL
 62
2
 10
1034.476
 20
-7138.716
 30
-486.078
 70
    32
  0
VERTEX
  8
T57SSILL
 62
2
 10
1027.237
 20
-7111.126
 30
-485.051
 70
    32
  0
VERTEX
  8
T57SSILL
 62
2
 10
1028.971
 20
-7082.711
 30
-485.093
 70
    32
  0
VERTEX
  8
T57SSILL
 62
2
 10
1014.426
 20
-7066.697
 30
-484.469
 70
    32
  0
VERTEX
  8
T57SSILL
 62
2
 10
989.055
 20
-7060.594
 30
-483.485
 70
    32
  0
VERTEX
  8
T57SSILL
 62
2
 10
986.452
 20
-7070.447
 30
-483.707
 70
    32
  0
VERTEX
  8
T57SSILL
 62
2
 10
974.828
 20
-7068.538
 30
-483.487
 70
    32
  0
VERTEX
  8
T57SSILL
 62
2
 10
976.037
 20
-7058.686
 30
-483.267
 70
    32
  0
VERTEX
  8
T57SSILL
 62
2
 10
945.181
 20
-7052.100
 30
-482.861
 70
    32
  0
VERTEX
  8
T57SSILL
 62
2
 10
942.352
 20
-7058.999
 30
-483.052
 70
    32
  0
VERTEX
  8
T57SSILL
 62
2
 10
934.255
 20
-7055.849
 30
-483.244
 70
    32
  0
VERTEX
  8
T57SSILL
 62
2
 10
930.131
 20
-7066.512
 30
-483.210
 70
    32
  0
VERTEX
  8
T57SSILL
 62
2
 10
923.649
 20
-7062.967
 30
-483.210
 70
    32
  0
VERTEX
  8
T57SSILL
 62
2
 10
903.928
 20
-7077.834
 30
-483.210
 70
    32
  0
VERTEX
  8
T57SSILL
 62
2
 10
900.983
 20
-7081.165
 30
-483.210
 70
    32
  0
VERTEX
  8
T57SSILL
 62
2
 10
900.606
 20
-7083.251
 30
-483.210
 70
    32
  0
VERTEX
  8
T57SSILL
 62
2
 10
900.340
 20
-7093.842
 30
-483.210
 70
    32
  0
VERTEX
  8
T57SSILL
 62
2
 10
897.303
 20
-7094.877
 30
-483.210
 70
    32
  0
VERTEX
  8
T57SSILL
 62
2
 10
897.763
 20
-7097.240
 30
-483.210
 70
    32
  0
VERTEX
  8
T57SSILL
 62
2
 10
899.082
 20
-7102.128
 30
-483.210
 70
    32
  0
VERTEX
  8
T57SSILL
 62
2
 10
897.883
 20
-7105.052
 30
-483.210
 70
    32
  0
VERTEX
  8
T57SSILL
 62
2
 10
895.114
 20
-7106.077
 30
-483.210
 70
    32
  0
VERTEX
  8
T57SSILL
 62
2
 10
892.255
 20
-7104.966
 30
-483.210
 70
    32
  0
VERTEX
  8
T57SSILL
 62
2
 10
890.213
 20
-7100.119
 30
-483.210
 70
    32
  0
VERTEX
  8
T57SSILL
 62
2
 10
889.897
 20
-7078.023
 30
-483.210
 70
    32
  0
SEQEND
  8
T57SSILL
  0
ENDSEC
  0
EOF
