999
********************************
999
*   DXF File - Entities Only   *
999
*        3D Data Format        *
999
*     Output from ENVISAGE     *
999
*     24-Dec-2007 12:24:21     *
999
********************************
  0
SECTION 
  2
HEADER
  9
$ACADVER
  1
AC1009
  9
$EXTMIN
 10
-290000.000
 20
-250000.000
 30
-4000.000
  9
$EXTMAX
 10
5000000.000
 20
600000.000
 30
6000.000
  0
ENDSEC
  0
SECTION
  2
ENTITIES
  0
POLYLINE
  8
T57STIM
 62
6
 66
     1
 70
     9
  0
VERTEX
  8
T57STIM
 62
6
 10
496.821
 20
-5563.171
 30
0.000
 70
    32
  0
VERTEX
  8
T57STIM
 62
6
 10
467.885
 20
-5584.518
 30
0.000
 70
    32
  0
VERTEX
  8
T57STIM
 62
6
 10
463.751
 20
-5578.665
 30
0.000
 70
    32
  0
VERTEX
  8
T57STIM
 62
6
 10
454.450
 20
-5585.896
 30
0.000
 70
    32
  0
VERTEX
  8
T57STIM
 62
6
 10
457.895
 20
-5590.372
 30
0.000
 70
    32
  0
VERTEX
  8
T57STIM
 62
6
 10
439.981
 20
-5604.144
 30
0.000
 70
    32
  0
VERTEX
  8
T57STIM
 62
6
 10
444.804
 20
-5610.342
 30
0.000
 70
    32
  0
VERTEX
  8
T57STIM
 62
6
 10
463.751
 20
-5596.914
 30
0.000
 70
    32
  0
VERTEX
  8
T57STIM
 62
6
 10
470.296
 20
-5606.899
 30
0.000
 70
    32
  0
VERTEX
  8
T57STIM
 62
6
 10
475.119
 20
-5603.800
 30
0.000
 70
    32
  0
VERTEX
  8
T57STIM
 62
6
 10
466.851
 20
-5593.815
 30
0.000
 70
    32
  0
VERTEX
  8
T57STIM
 62
6
 10
501.988
 20
-5570.057
 30
0.000
 70
    32
  0
SEQEND
  8
T57STIM
  0
POLYLINE
  8
T57STIM
 62
6
 66
     1
 70
     9
  0
VERTEX
  8
T57STIM
 62
6
 10
1000.708
 20
-6652.142
 30
0.000
 70
    32
  0
VERTEX
  8
T57STIM
 62
6
 10
1018.827
 20
-6653.323
 30
0.000
 70
    32
  0
VERTEX
  8
T57STIM
 62
6
 10
1017.448
 20
-6659.026
 30
0.000
 70
    32
  0
VERTEX
  8
T57STIM
 62
6
 10
1032.416
 20
-6661.779
 30
0.000
 70
    32
  0
VERTEX
  8
T57STIM
 62
6
 10
1031.234
 20
-6668.859
 30
0.000
 70
    32
  0
VERTEX
  8
T57STIM
 62
6
 10
998.148
 20
-6662.369
 30
0.000
 70
    32
  0
SEQEND
  8
T57STIM
  0
POLYLINE
  8
T57STIM
 62
6
 66
     1
 70
     9
  0
VERTEX
  8
T57STIM
 62
6
 10
1084.492
 20
-7188.041
 30
0.000
 70
    32
  0
VERTEX
  8
T57STIM
 62
6
 10
1051.671
 20
-7132.803
 30
0.000
 70
    32
  0
VERTEX
  8
T57STIM
 62
6
 10
1042.116
 20
-7111.621
 30
0.000
 70
    32
  0
VERTEX
  8
T57STIM
 62
6
 10
1034.638
 20
-7081.303
 30
0.000
 70
    32
  0
VERTEX
  8
T57STIM
 62
6
 10
1027.575
 20
-7083.379
 30
0.000
 70
    32
  0
VERTEX
  8
T57STIM
 62
6
 10
1035.053
 20
-7113.283
 30
0.000
 70
    32
  0
VERTEX
  8
T57STIM
 62
6
 10
1037.546
 20
-7119.097
 30
0.000
 70
    32
  0
VERTEX
  8
T57STIM
 62
6
 10
1028.821
 20
-7123.250
 30
0.000
 70
    32
  0
VERTEX
  8
T57STIM
 62
6
 10
1037.131
 20
-7139.033
 30
0.000
 70
    32
  0
VERTEX
  8
T57STIM
 62
6
 10
1043.778
 20
-7136.125
 30
0.000
 70
    32
  0
VERTEX
  8
T57STIM
 62
6
 10
1077.429
 20
-7192.609
 30
0.000
 70
    32
  0
SEQEND
  8
T57STIM
  0
POLYLINE
  8
T57STIM
 62
6
 66
     1
 70
     9
  0
VERTEX
  8
T57STIM
 62
6
 10
1422.253
 20
-7282.319
 30
0.000
 70
    32
  0
VERTEX
  8
T57STIM
 62
6
 10
1401.896
 20
-7218.359
 30
0.000
 70
    32
  0
VERTEX
  8
T57STIM
 62
6
 10
1392.341
 20
-7222.512
 30
0.000
 70
    32
  0
VERTEX
  8
T57STIM
 62
6
 10
1413.113
 20
-7286.472
 30
0.000
 70
    32
  0
SEQEND
  8
T57STIM
  0
POLYLINE
  8
T57STIM
 62
6
 66
     1
 70
     9
  0
VERTEX
  8
T57STIM
 62
6
 10
1251.157
 20
-7483.109
 30
0.000
 70
    32
  0
VERTEX
  8
T57STIM
 62
6
 10
1245.630
 20
-7477.024
 30
0.000
 70
    32
  0
VERTEX
  8
T57STIM
 62
6
 10
1230.155
 20
-7491.407
 30
0.000
 70
    32
  0
VERTEX
  8
T57STIM
 62
6
 10
1225.734
 20
-7486.981
 30
0.000
 70
    32
  0
VERTEX
  8
T57STIM
 62
6
 10
1215.233
 20
-7495.279
 30
0.000
 70
    32
  0
VERTEX
  8
T57STIM
 62
6
 10
1219.101
 20
-7499.704
 30
0.000
 70
    32
  0
VERTEX
  8
T57STIM
 62
6
 10
1208.601
 20
-7505.236
 30
0.000
 70
    32
  0
VERTEX
  8
T57STIM
 62
6
 10
1211.917
 20
-7510.215
 30
0.000
 70
    32
  0
VERTEX
  8
T57STIM
 62
6
 10
1222.970
 20
-7505.789
 30
0.000
 70
    32
  0
VERTEX
  8
T57STIM
 62
6
 10
1237.893
 20
-7494.726
 30
0.000
 70
    32
  0
VERTEX
  8
T57STIM
 62
6
 10
1241.761
 20
-7499.151
 30
0.000
 70
    32
  0
VERTEX
  8
T57STIM
 62
6
 10
1245.077
 20
-7495.279
 30
0.000
 70
    32
  0
VERTEX
  8
T57STIM
 62
6
 10
1241.209
 20
-7490.300
 30
0.000
 70
    32
  0
SEQEND
  8
T57STIM
  0
POLYLINE
  8
T57STIM
 62
6
 66
     1
 70
     9
  0
VERTEX
  8
T57STIM
 62
6
 10
1332.952
 20
-7719.865
 30
0.000
 70
    32
  0
VERTEX
  8
T57STIM
 62
6
 10
1323.557
 20
-7703.269
 30
0.000
 70
    32
  0
VERTEX
  8
T57STIM
 62
6
 10
1329.637
 20
-7699.950
 30
0.000
 70
    32
  0
VERTEX
  8
T57STIM
 62
6
 10
1326.873
 20
-7694.972
 30
0.000
 70
    32
  0
VERTEX
  8
T57STIM
 62
6
 10
1333.505
 20
-7691.100
 30
0.000
 70
    32
  0
VERTEX
  8
T57STIM
 62
6
 10
1328.531
 20
-7685.568
 30
0.000
 70
    32
  0
VERTEX
  8
T57STIM
 62
6
 10
1334.611
 20
-7682.249
 30
0.000
 70
    32
  0
VERTEX
  8
T57STIM
 62
6
 10
1315.820
 20
-7649.613
 30
0.000
 70
    32
  0
VERTEX
  8
T57STIM
 62
6
 10
1261.105
 20
-7679.483
 30
0.000
 70
    32
  0
VERTEX
  8
T57STIM
 62
6
 10
1268.290
 20
-7691.100
 30
0.000
 70
    32
  0
VERTEX
  8
T57STIM
 62
6
 10
1256.131
 20
-7696.631
 30
0.000
 70
    32
  0
VERTEX
  8
T57STIM
 62
6
 10
1259.447
 20
-7702.163
 30
0.000
 70
    32
  0
VERTEX
  8
T57STIM
 62
6
 10
1266.079
 20
-7698.844
 30
0.000
 70
    32
  0
VERTEX
  8
T57STIM
 62
6
 10
1269.395
 20
-7704.376
 30
0.000
 70
    32
  0
VERTEX
  8
T57STIM
 62
6
 10
1262.210
 20
-7708.801
 30
0.000
 70
    32
  0
VERTEX
  8
T57STIM
 62
6
 10
1268.842
 20
-7720.418
 30
0.000
 70
    32
  0
VERTEX
  8
T57STIM
 62
6
 10
1274.369
 20
-7716.546
 30
0.000
 70
    32
  0
VERTEX
  8
T57STIM
 62
6
 10
1277.132
 20
-7723.183
 30
0.000
 70
    32
  0
VERTEX
  8
T57STIM
 62
6
 10
1282.106
 20
-7719.311
 30
0.000
 70
    32
  0
VERTEX
  8
T57STIM
 62
6
 10
1288.739
 20
-7729.821
 30
0.000
 70
    32
  0
VERTEX
  8
T57STIM
 62
6
 10
1304.766
 20
-7720.418
 30
0.000
 70
    32
  0
VERTEX
  8
T57STIM
 62
6
 10
1310.293
 20
-7730.928
 30
0.000
 70
    32
  0
SEQEND
  8
T57STIM
  0
POLYLINE
  8
T57STIM
 62
6
 66
     1
 70
     9
  0
VERTEX
  8
T57STIM
 62
6
 10
1390.984
 20
-7795.095
 30
0.000
 70
    32
  0
VERTEX
  8
T57STIM
 62
6
 10
1381.036
 20
-7823.860
 30
0.000
 70
    32
  0
VERTEX
  8
T57STIM
 62
6
 10
1409.774
 20
-7865.347
 30
0.000
 70
    32
  0
VERTEX
  8
T57STIM
 62
6
 10
1402.037
 20
-7870.879
 30
0.000
 70
    32
  0
VERTEX
  8
T57STIM
 62
6
 10
1398.168
 20
-7863.688
 30
0.000
 70
    32
  0
VERTEX
  8
T57STIM
 62
6
 10
1392.641
 20
-7868.113
 30
0.000
 70
    32
  0
VERTEX
  8
T57STIM
 62
6
 10
1383.799
 20
-7856.496
 30
0.000
 70
    32
  0
VERTEX
  8
T57STIM
 62
6
 10
1390.984
 20
-7852.071
 30
0.000
 70
    32
  0
VERTEX
  8
T57STIM
 62
6
 10
1377.720
 20
-7833.264
 30
0.000
 70
    32
  0
VERTEX
  8
T57STIM
 62
6
 10
1374.956
 20
-7841.008
 30
0.000
 70
    32
  0
VERTEX
  8
T57STIM
 62
6
 10
1367.219
 20
-7837.689
 30
0.000
 70
    32
  0
VERTEX
  8
T57STIM
 62
6
 10
1372.745
 20
-7819.988
 30
0.000
 70
    32
  0
VERTEX
  8
T57STIM
 62
6
 10
1366.666
 20
-7818.328
 30
0.000
 70
    32
  0
VERTEX
  8
T57STIM
 62
6
 10
1368.877
 20
-7812.243
 30
0.000
 70
    32
  0
VERTEX
  8
T57STIM
 62
6
 10
1374.403
 20
-7814.456
 30
0.000
 70
    32
  0
VERTEX
  8
T57STIM
 62
6
 10
1382.694
 20
-7791.776
 30
0.000
 70
    32
  0
SEQEND
  8
T57STIM
  0
POLYLINE
  8
T57STIM
 62
6
 66
     1
 70
     9
  0
VERTEX
  8
T57STIM
 62
6
 10
1280.675
 20
-8291.582
 30
0.000
 70
    32
  0
VERTEX
  8
T57STIM
 62
6
 10
1266.551
 20
-8245.099
 30
0.000
 70
    32
  0
VERTEX
  8
T57STIM
 62
6
 10
1259.661
 20
-8247.509
 30
0.000
 70
    32
  0
VERTEX
  8
T57STIM
 62
6
 10
1256.216
 20
-8236.147
 30
0.000
 70
    32
  0
VERTEX
  8
T57STIM
 62
6
 10
1262.417
 20
-8234.425
 30
0.000
 70
    32
  0
VERTEX
  8
T57STIM
 62
6
 10
1240.715
 20
-8182.777
 30
0.000
 70
    32
  0
VERTEX
  8
T57STIM
 62
6
 10
1247.604
 20
-8180.023
 30
0.000
 70
    32
  0
VERTEX
  8
T57STIM
 62
6
 10
1269.306
 20
-8231.671
 30
0.000
 70
    32
  0
VERTEX
  8
T57STIM
 62
6
 10
1288.598
 20
-8288.827
 30
0.000
 70
    32
  0
SEQEND
  8
T57STIM
  0
POLYLINE
  8
T57STIM
 62
6
 66
     1
 70
     9
  0
VERTEX
  8
T57STIM
 62
6
 10
1410.200
 20
-8372.152
 30
0.000
 70
    32
  0
VERTEX
  8
T57STIM
 62
6
 10
1392.976
 20
-8344.951
 30
0.000
 70
    32
  0
VERTEX
  8
T57STIM
 62
6
 10
1380.919
 20
-8311.897
 30
0.000
 70
    32
  0
VERTEX
  8
T57STIM
 62
6
 10
1371.618
 20
-8315.684
 30
0.000
 70
    32
  0
VERTEX
  8
T57STIM
 62
6
 10
1383.675
 20
-8349.083
 30
0.000
 70
    32
  0
VERTEX
  8
T57STIM
 62
6
 10
1401.932
 20
-8377.317
 30
0.000
 70
    32
  0
SEQEND
  8
T57STIM
  0
POLYLINE
  8
T57STIM
 62
6
 66
     1
 70
     9
  0
VERTEX
  8
T57STIM
 62
6
 10
3655.366
 20
-8459.509
 30
0.000
 70
    32
  0
VERTEX
  8
T57STIM
 62
6
 10
3643.467
 20
-8459.134
 30
0.000
 70
    32
  0
VERTEX
  8
T57STIM
 62
6
 10
3629.301
 20
-8460.448
 30
0.000
 70
    32
  0
VERTEX
  8
T57STIM
 62
6
 10
3616.080
 20
-8462.512
 30
0.000
 70
    32
  0
VERTEX
  8
T57STIM
 62
6
 10
3593.981
 20
-8466.078
 30
0.000
 70
    32
  0
VERTEX
  8
T57STIM
 62
6
 10
3594.548
 20
-8472.459
 30
0.000
 70
    32
  0
VERTEX
  8
T57STIM
 62
6
 10
3617.779
 20
-8468.893
 30
0.000
 70
    32
  0
VERTEX
  8
T57STIM
 62
6
 10
3630.056
 20
-8466.453
 30
0.000
 70
    32
  0
VERTEX
  8
T57STIM
 62
6
 10
3656.499
 20
-8466.078
 30
0.000
 70
    32
  0
SEQEND
  8
T57STIM
  0
POLYLINE
  8
T57STIM
 62
6
 66
     1
 70
     9
  0
VERTEX
  8
T57STIM
 62
6
 10
6445.583
 20
-8426.426
 30
0.000
 70
    32
  0
VERTEX
  8
T57STIM
 62
6
 10
6427.293
 20
-8438.630
 30
0.000
 70
    32
  0
VERTEX
  8
T57STIM
 62
6
 10
6431.004
 20
-8443.140
 30
0.000
 70
    32
  0
VERTEX
  8
T57STIM
 62
6
 10
6421.726
 20
-8449.772
 30
0.000
 70
    32
  0
VERTEX
  8
T57STIM
 62
6
 10
6418.015
 20
-8444.996
 30
0.000
 70
    32
  0
VERTEX
  8
T57STIM
 62
6
 10
6410.593
 20
-8451.364
 30
0.000
 70
    32
  0
VERTEX
  8
T57STIM
 62
6
 10
6405.292
 20
-8443.140
 30
0.000
 70
    32
  0
VERTEX
  8
T57STIM
 62
6
 10
6440.546
 20
-8418.998
 30
0.000
 70
    32
  0
SEQEND
  8
T57STIM
  0
POLYLINE
  8
T57STIM
 62
6
 66
     1
 70
     9
  0
VERTEX
  8
T57STIM
 62
6
 10
5270.977
 20
-9194.275
 30
0.000
 70
    32
  0
VERTEX
  8
T57STIM
 62
6
 10
5275.252
 20
-9199.656
 30
0.000
 70
    32
  0
VERTEX
  8
T57STIM
 62
6
 10
5264.961
 20
-9206.619
 30
0.000
 70
    32
  0
VERTEX
  8
T57STIM
 62
6
 10
5261.162
 20
-9201.080
 30
0.000
 70
    32
  0
SEQEND
  8
T57STIM
  0
POLYLINE
  8
T57STIM
 62
6
 66
     1
 70
     9
  0
VERTEX
  8
T57STIM
 62
6
 10
5232.666
 20
-9276.727
 30
0.000
 70
    32
  0
VERTEX
  8
T57STIM
 62
6
 10
5237.415
 20
-9287.646
 30
0.000
 70
    32
  0
VERTEX
  8
T57STIM
 62
6
 10
5229.183
 20
-9290.337
 30
0.000
 70
    32
  0
VERTEX
  8
T57STIM
 62
6
 10
5225.384
 20
-9279.891
 30
0.000
 70
    32
  0
SEQEND
  8
T57STIM
  0
POLYLINE
  8
T57STIM
 62
6
 66
     1
 70
     9
  0
VERTEX
  8
T57STIM
 62
6
 10
5156.992
 20
-9273.087
 30
0.000
 70
    32
  0
VERTEX
  8
T57STIM
 62
6
 10
5154.617
 20
-9283.848
 30
0.000
 70
    32
  0
VERTEX
  8
T57STIM
 62
6
 10
5139.736
 20
-9281.474
 30
0.000
 70
    32
  0
VERTEX
  8
T57STIM
 62
6
 10
5141.320
 20
-9270.554
 30
0.000
 70
    32
  0
SEQEND
  8
T57STIM
  0
POLYLINE
  8
T57STIM
 62
6
 66
     1
 70
     9
  0
VERTEX
  8
T57STIM
 62
6
 10
5224.995
 20
-9466.027
 30
0.000
 70
    32
  0
VERTEX
  8
T57STIM
 62
6
 10
5246.930
 20
-9449.740
 30
0.000
 70
    32
  0
VERTEX
  8
T57STIM
 62
6
 10
5264.995
 20
-9436.357
 30
0.000
 70
    32
  0
VERTEX
  8
T57STIM
 62
6
 10
5272.253
 20
-9446.193
 30
0.000
 70
    32
  0
VERTEX
  8
T57STIM
 62
6
 10
5278.543
 20
-9442.000
 30
0.000
 70
    32
  0
VERTEX
  8
T57STIM
 62
6
 10
5271.124
 20
-9431.841
 30
0.000
 70
    32
  0
VERTEX
  8
T57STIM
 62
6
 10
5277.092
 20
-9427.649
 30
0.000
 70
    32
  0
VERTEX
  8
T57STIM
 62
6
 10
5272.253
 20
-9421.521
 30
0.000
 70
    32
  0
VERTEX
  8
T57STIM
 62
6
 10
5235.156
 20
-9448.450
 30
0.000
 70
    32
  0
VERTEX
  8
T57STIM
 62
6
 10
5230.801
 20
-9442.484
 30
0.000
 70
    32
  0
VERTEX
  8
T57STIM
 62
6
 10
5220.479
 20
-9448.773
 30
0.000
 70
    32
  0
VERTEX
  8
T57STIM
 62
6
 10
5225.801
 20
-9455.062
 30
0.000
 70
    32
  0
VERTEX
  8
T57STIM
 62
6
 10
5219.834
 20
-9459.254
 30
0.000
 70
    32
  0
SEQEND
  8
T57STIM
  0
POLYLINE
  8
T57STIM
 62
6
 66
     1
 70
     9
  0
VERTEX
  8
T57STIM
 62
6
 10
5338.543
 20
-9383.466
 30
0.000
 70
    32
  0
VERTEX
  8
T57STIM
 62
6
 10
5333.866
 20
-9376.694
 30
0.000
 70
    32
  0
VERTEX
  8
T57STIM
 62
6
 10
5313.866
 20
-9391.367
 30
0.000
 70
    32
  0
VERTEX
  8
T57STIM
 62
6
 10
5321.769
 20
-9402.171
 30
0.000
 70
    32
  0
VERTEX
  8
T57STIM
 62
6
 10
5332.253
 20
-9395.076
 30
0.000
 70
    32
  0
VERTEX
  8
T57STIM
 62
6
 10
5328.382
 20
-9389.755
 30
0.000
 70
    32
  0
SEQEND
  8
T57STIM
  0
POLYLINE
  8
T57STIM
 62
6
 66
     1
 70
     9
  0
VERTEX
  8
T57STIM
 62
6
 10
5416.703
 20
-9560.722
 30
0.000
 70
    32
  0
VERTEX
  8
T57STIM
 62
6
 10
5450.677
 20
-9537.073
 30
0.000
 70
    32
  0
VERTEX
  8
T57STIM
 62
6
 10
5445.513
 20
-9530.549
 30
0.000
 70
    32
  0
VERTEX
  8
T57STIM
 62
6
 10
5440.893
 20
-9533.811
 30
0.000
 70
    32
  0
VERTEX
  8
T57STIM
 62
6
 10
5437.631
 20
-9530.005
 30
0.000
 70
    32
  0
VERTEX
  8
T57STIM
 62
6
 10
5428.390
 20
-9536.257
 30
0.000
 70
    32
  0
VERTEX
  8
T57STIM
 62
6
 10
5431.380
 20
-9540.335
 30
0.000
 70
    32
  0
VERTEX
  8
T57STIM
 62
6
 10
5411.539
 20
-9555.013
 30
0.000
 70
    32
  0
SEQEND
  8
T57STIM
  0
POLYLINE
  8
T57STIM
 62
6
 66
     1
 70
     9
  0
VERTEX
  8
T57STIM
 62
6
 10
5520.256
 20
-9748.824
 30
0.000
 70
    32
  0
VERTEX
  8
T57STIM
 62
6
 10
5475.954
 20
-9664.830
 30
0.000
 70
    32
  0
VERTEX
  8
T57STIM
 62
6
 10
5469.703
 20
-9668.092
 30
0.000
 70
    32
  0
VERTEX
  8
T57STIM
 62
6
 10
5477.313
 20
-9682.499
 30
0.000
 70
    32
  0
VERTEX
  8
T57STIM
 62
6
 10
5470.790
 20
-9686.033
 30
0.000
 70
    32
  0
VERTEX
  8
T57STIM
 62
6
 10
5476.226
 20
-9696.633
 30
0.000
 70
    32
  0
VERTEX
  8
T57STIM
 62
6
 10
5482.749
 20
-9692.828
 30
0.000
 70
    32
  0
VERTEX
  8
T57STIM
 62
6
 10
5512.918
 20
-9750.455
 30
0.000
 70
    32
  0
SEQEND
  8
T57STIM
  0
POLYLINE
  8
T57STIM
 62
6
 66
     1
 70
     9
  0
VERTEX
  8
T57STIM
 62
6
 10
5719.339
 20
-9698.102
 30
0.000
 70
    32
  0
VERTEX
  8
T57STIM
 62
6
 10
5726.053
 20
-9696.311
 30
0.000
 70
    32
  0
VERTEX
  8
T57STIM
 62
6
 10
5730.977
 20
-9708.626
 30
0.000
 70
    32
  0
VERTEX
  8
T57STIM
 62
6
 10
5736.796
 20
-9706.386
 30
0.000
 70
    32
  0
VERTEX
  8
T57STIM
 62
6
 10
5739.258
 20
-9712.208
 30
0.000
 70
    32
  0
VERTEX
  8
T57STIM
 62
6
 10
5732.544
 20
-9714.223
 30
0.000
 70
    32
  0
VERTEX
  8
T57STIM
 62
6
 10
5741.048
 20
-9736.166
 30
0.000
 70
    32
  0
VERTEX
  8
T57STIM
 62
6
 10
5733.215
 20
-9738.853
 30
0.000
 70
    32
  0
SEQEND
  8
T57STIM
  0
POLYLINE
  8
T57STIM
 62
6
 66
     1
 70
     9
  0
VERTEX
  8
T57STIM
 62
6
 10
5778.649
 20
-9866.482
 30
0.000
 70
    32
  0
VERTEX
  8
T57STIM
 62
6
 10
5783.125
 20
-9877.901
 30
0.000
 70
    32
  0
VERTEX
  8
T57STIM
 62
6
 10
5777.529
 20
-9880.140
 30
0.000
 70
    32
  0
VERTEX
  8
T57STIM
 62
6
 10
5773.277
 20
-9868.273
 30
0.000
 70
    32
  0
SEQEND
  8
T57STIM
  0
ENDSEC
  0
EOF
