999
********************************
999
*   DXF File - Entities Only   *
999
*        3D Data Format        *
999
*     Output from ENVISAGE     *
999
*     24-Dec-2007 12:25:07     *
999
********************************
  0
SECTION 
  2
HEADER
  9
$ACADVER
  1
AC1009
  9
$EXTMIN
 10
-290000.000
 20
-250000.000
 30
-4000.000
  9
$EXTMAX
 10
5000000.000
 20
600000.000
 30
6000.000
  0
ENDSEC
  0
SECTION
  2
ENTITIES
  0
POLYLINE
  8
T60SSILL
 62
6
 66
     1
 70
     9
  0
VERTEX
  8
T60SSILL
 62
6
 10
5596.134
 20
-8383.540
 30
10.000
 70
    32
  0
VERTEX
  8
T60SSILL
 62
6
 10
5596.175
 20
-8383.562
 30
10.000
 70
    32
  0
SEQEND
  8
T60SSILL
  0
POLYLINE
  8
T60SSILL
 62
6
 66
     1
 70
     9
  0
VERTEX
  8
T60SSILL
 62
6
 10
5961.178
 20
-8445.636
 30
10.000
 70
    32
  0
VERTEX
  8
T60SSILL
 62
6
 10
5961.205
 20
-8445.674
 30
10.000
 70
    32
  0
SEQEND
  8
T60SSILL
  0
POLYLINE
  8
T60SSILL
 62
6
 66
     1
 70
     9
  0
VERTEX
  8
T60SSILL
 62
6
 10
2154.651
 20
-4802.470
 30
-792.931
 70
    32
  0
VERTEX
  8
T60SSILL
 62
6
 10
2157.968
 20
-4787.831
 30
-792.957
 70
    32
  0
SEQEND
  8
T60SSILL
  0
POLYLINE
  8
T60SSILL
 62
6
 66
     1
 70
     9
  0
VERTEX
  8
T60SSILL
 62
6
 10
1011.012
 20
-6482.008
 30
-784.447
 70
    32
  0
VERTEX
  8
T60SSILL
 62
6
 10
1007.690
 20
-6482.194
 30
-784.434
 70
    32
  0
SEQEND
  8
T60SSILL
  0
POLYLINE
  8
T60SSILL
 62
6
 66
     1
 70
     9
  0
VERTEX
  8
T60SSILL
 62
6
 10
1328.578
 20
-6932.440
 30
-787.384
 70
    32
  0
VERTEX
  8
T60SSILL
 62
6
 10
1351.060
 20
-6941.382
 30
-787.523
 70
    32
  0
VERTEX
  8
T60SSILL
 62
6
 10
1370.131
 20
-6937.453
 30
-787.643
 70
    32
  0
VERTEX
  8
T60SSILL
 62
6
 10
1380.567
 20
-6937.596
 30
-787.708
 70
    32
  0
VERTEX
  8
T60SSILL
 62
6
 10
1355.745
 20
-6902.861
 30
-787.559
 70
    32
  0
VERTEX
  8
T60SSILL
 62
6
 10
1348.350
 20
-6903.363
 30
-787.513
 70
    32
  0
VERTEX
  8
T60SSILL
 62
6
 10
1342.104
 20
-6894.546
 30
-787.476
 70
    32
  0
VERTEX
  8
T60SSILL
 62
6
 10
1315.262
 20
-6898.597
 30
-787.307
 70
    32
  0
VERTEX
  8
T60SSILL
 62
6
 10
1308.954
 20
-6903.066
 30
-787.171
 70
    32
  0
VERTEX
  8
T60SSILL
 62
6
 10
1310.913
 20
-6905.998
 30
-787.279
 70
    32
  0
SEQEND
  8
T60SSILL
  0
POLYLINE
  8
T60SSILL
 62
6
 66
     1
 70
     9
  0
VERTEX
  8
T60SSILL
 62
6
 10
739.652
 20
-6059.745
 30
-780.916
 70
    32
  0
VERTEX
  8
T60SSILL
 62
6
 10
742.804
 20
-6063.858
 30
-780.965
 70
    32
  0
VERTEX
  8
T60SSILL
 62
6
 10
759.451
 20
-6061.037
 30
-781.269
 70
    32
  0
VERTEX
  8
T60SSILL
 62
6
 10
752.963
 20
-6050.890
 30
-781.171
 70
    32
  0
VERTEX
  8
T60SSILL
 62
6
 10
808.883
 20
-6009.248
 30
-782.252
 70
    32
  0
VERTEX
  8
T60SSILL
 62
6
 10
774.210
 20
-6089.117
 30
-781.482
 70
    32
  0
VERTEX
  8
T60SSILL
 62
6
 10
754.558
 20
-6105.410
 30
-781.198
 70
    32
  0
VERTEX
  8
T60SSILL
 62
6
 10
734.934
 20
-6101.944
 30
-781.109
 70
    32
  0
VERTEX
  8
T60SSILL
 62
6
 10
730.812
 20
-6098.738
 30
-781.066
 70
    32
  0
VERTEX
  8
T60SSILL
 62
6
 10
727.293
 20
-6091.542
 30
-780.988
 70
    32
  0
VERTEX
  8
T60SSILL
 62
6
 10
729.561
 20
-6085.501
 30
-780.937
 70
    32
  0
VERTEX
  8
T60SSILL
 62
6
 10
730.452
 20
-6075.265
 30
-780.843
 70
    32
  0
VERTEX
  8
T60SSILL
 62
6
 10
733.999
 20
-6069.281
 30
-780.796
 70
    32
  0
SEQEND
  8
T60SSILL
  0
POLYLINE
  8
T60SSILL
 62
6
 66
     1
 70
     9
  0
VERTEX
  8
T60SSILL
 62
6
 10
595.289
 20
-5773.937
 30
-779.045
 70
    32
  0
VERTEX
  8
T60SSILL
 62
6
 10
590.253
 20
-5757.361
 30
-779.030
 70
    32
  0
VERTEX
  8
T60SSILL
 62
6
 10
607.345
 20
-5733.403
 30
-779.235
 70
    32
  0
VERTEX
  8
T60SSILL
 62
6
 10
610.722
 20
-5736.925
 30
-779.272
 70
    32
  0
VERTEX
  8
T60SSILL
 62
6
 10
606.188
 20
-5742.966
 30
-779.217
 70
    32
  0
VERTEX
  8
T60SSILL
 62
6
 10
611.293
 20
-5768.553
 30
-779.214
 70
    32
  0
VERTEX
  8
T60SSILL
 62
6
 10
604.074
 20
-5779.747
 30
-779.120
 70
    32
  0
SEQEND
  8
T60SSILL
  0
POLYLINE
  8
T60SSILL
 62
6
 66
     1
 70
     9
  0
VERTEX
  8
T60SSILL
 62
6
 10
1212.030
 20
-6846.634
 30
-786.497
 70
    32
  0
VERTEX
  8
T60SSILL
 62
6
 10
1220.623
 20
-6842.808
 30
-786.488
 70
    32
  0
VERTEX
  8
T60SSILL
 62
6
 10
1226.510
 20
-6833.794
 30
-786.462
 70
    32
  0
VERTEX
  8
T60SSILL
 62
6
 10
1234.598
 20
-6828.495
 30
-786.448
 70
    32
  0
VERTEX
  8
T60SSILL
 62
6
 10
1236.234
 20
-6820.015
 30
-786.421
 70
    32
  0
VERTEX
  8
T60SSILL
 62
6
 10
1219.053
 20
-6792.570
 30
-786.328
 70
    32
  0
VERTEX
  8
T60SSILL
 62
6
 10
1204.633
 20
-6792.881
 30
-786.324
 70
    32
  0
VERTEX
  8
T60SSILL
 62
6
 10
1204.215
 20
-6795.331
 30
-786.332
 70
    32
  0
VERTEX
  8
T60SSILL
 62
6
 10
1174.646
 20
-6794.316
 30
-786.318
 70
    32
  0
VERTEX
  8
T60SSILL
 62
6
 10
1174.684
 20
-6781.909
 30
-786.278
 70
    32
  0
VERTEX
  8
T60SSILL
 62
6
 10
1181.933
 20
-6779.681
 30
-786.274
 70
    32
  0
VERTEX
  8
T60SSILL
 62
6
 10
1203.524
 20
-6778.703
 30
-786.278
 70
    32
  0
VERTEX
  8
T60SSILL
 62
6
 10
1203.659
 20
-6780.869
 30
-786.285
 70
    32
  0
VERTEX
  8
T60SSILL
 62
6
 10
1214.719
 20
-6780.677
 30
-786.289
 70
    32
  0
VERTEX
  8
T60SSILL
 62
6
 10
1198.990
 20
-6692.672
 30
-786.003
 70
    32
  0
VERTEX
  8
T60SSILL
 62
6
 10
1190.328
 20
-6688.043
 30
-785.985
 70
    32
  0
VERTEX
  8
T60SSILL
 62
6
 10
1170.718
 20
-6684.695
 30
-785.968
 70
    32
  0
VERTEX
  8
T60SSILL
 62
6
 10
1122.143
 20
-6708.776
 30
-785.905
 70
    32
  0
VERTEX
  8
T60SSILL
 62
6
 10
1113.693
 20
-6728.230
 30
-785.952
 70
    32
  0
VERTEX
  8
T60SSILL
 62
6
 10
1146.432
 20
-6796.889
 30
-786.316
 70
    32
  0
VERTEX
  8
T60SSILL
 62
6
 10
1150.984
 20
-6797.083
 30
-786.318
 70
    32
  0
VERTEX
  8
T60SSILL
 62
6
 10
1152.236
 20
-6800.825
 30
-786.331
 70
    32
  0
VERTEX
  8
T60SSILL
 62
6
 10
1150.168
 20
-6804.090
 30
-786.340
 70
    32
  0
VERTEX
  8
T60SSILL
 62
6
 10
1167.505
 20
-6839.562
 30
-786.459
 70
    32
  0
VERTEX
  8
T60SSILL
 62
6
 10
1174.958
 20
-6844.906
 30
-786.479
 70
    32
  0
VERTEX
  8
T60SSILL
 62
6
 10
1182.718
 20
-6847.806
 30
-786.491
 70
    32
  0
VERTEX
  8
T60SSILL
 62
6
 10
1189.737
 20
-6849.508
 30
-786.499
 70
    32
  0
VERTEX
  8
T60SSILL
 62
6
 10
1205.035
 20
-6849.221
 30
-786.503
 70
    32
  0
SEQEND
  8
T60SSILL
  0
POLYLINE
  8
T60SSILL
 62
6
 66
     1
 70
     9
  0
VERTEX
  8
T60SSILL
 62
6
 10
790.896
 20
-5732.145
 30
-780.997
 70
    32
  0
VERTEX
  8
T60SSILL
 62
6
 10
789.588
 20
-5736.961
 30
-781.019
 70
    32
  0
VERTEX
  8
T60SSILL
 62
6
 10
781.263
 20
-5696.738
 30
-780.682
 70
    32
  0
VERTEX
  8
T60SSILL
 62
6
 10
828.083
 20
-5678.311
 30
-780.925
 70
    32
  0
VERTEX
  8
T60SSILL
 62
6
 10
816.628
 20
-5688.860
 30
-780.907
 70
    32
  0
VERTEX
  8
T60SSILL
 62
6
 10
807.358
 20
-5700.655
 30
-780.913
 70
    32
  0
VERTEX
  8
T60SSILL
 62
6
 10
798.372
 20
-5714.511
 30
-780.936
 70
    32
  0
VERTEX
  8
T60SSILL
 62
6
 10
793.450
 20
-5725.899
 30
-780.975
 70
    32
  0
SEQEND
  8
T60SSILL
  0
POLYLINE
  8
T60SSILL
 62
6
 66
     1
 70
     9
  0
VERTEX
  8
T60SSILL
 62
6
 10
2157.968
 20
-4787.831
 30
-792.957
 70
    32
  0
VERTEX
  8
T60SSILL
 62
6
 10
2145.954
 20
-4784.659
 30
-792.427
 70
    32
  0
SEQEND
  8
T60SSILL
  0
POLYLINE
  8
T60SSILL
 62
6
 66
     1
 70
     9
  0
VERTEX
  8
T60SSILL
 62
6
 10
2142.136
 20
-4799.328
 30
-792.560
 70
    32
  0
VERTEX
  8
T60SSILL
 62
6
 10
2154.651
 20
-4802.470
 30
-792.931
 70
    32
  0
SEQEND
  8
T60SSILL
  0
POLYLINE
  8
T60SSILL
 62
6
 66
     1
 70
     9
  0
VERTEX
  8
T60SSILL
 62
6
 10
2145.954
 20
-4784.659
 30
-792.427
 70
    32
  0
VERTEX
  8
T60SSILL
 62
6
 10
2142.136
 20
-4799.328
 30
-792.560
 70
    32
  0
SEQEND
  8
T60SSILL
  0
POLYLINE
  8
T60SSILL
 62
6
 66
     1
 70
     9
  0
VERTEX
  8
T60SSILL
 62
6
 10
2156.779
 20
-4788.552
 30
-792.958
 70
    32
  0
VERTEX
  8
T60SSILL
 62
6
 10
2146.669
 20
-4785.882
 30
-792.433
 70
    32
  0
SEQEND
  8
T60SSILL
  0
POLYLINE
  8
T60SSILL
 62
6
 66
     1
 70
     9
  0
VERTEX
  8
T60SSILL
 62
6
 10
2153.902
 20
-4801.251
 30
-792.935
 70
    32
  0
VERTEX
  8
T60SSILL
 62
6
 10
2156.779
 20
-4788.552
 30
-792.958
 70
    32
  0
SEQEND
  8
T60SSILL
  0
POLYLINE
  8
T60SSILL
 62
6
 66
     1
 70
     9
  0
VERTEX
  8
T60SSILL
 62
6
 10
2143.358
 20
-4798.604
 30
-792.596
 70
    32
  0
VERTEX
  8
T60SSILL
 62
6
 10
2153.902
 20
-4801.251
 30
-792.935
 70
    32
  0
SEQEND
  8
T60SSILL
  0
POLYLINE
  8
T60SSILL
 62
6
 66
     1
 70
     9
  0
VERTEX
  8
T60SSILL
 62
6
 10
2146.669
 20
-4785.882
 30
-792.433
 70
    32
  0
VERTEX
  8
T60SSILL
 62
6
 10
2143.358
 20
-4798.604
 30
-792.596
 70
    32
  0
SEQEND
  8
T60SSILL
  0
POLYLINE
  8
T60SSILL
 62
6
 66
     1
 70
     9
  0
VERTEX
  8
T60SSILL
 62
6
 10
2144.401
 20
-4794.596
 30
-792.503
 70
    32
  0
VERTEX
  8
T60SSILL
 62
6
 10
2154.756
 20
-4797.483
 30
-792.942
 70
    32
  0
SEQEND
  8
T60SSILL
  0
POLYLINE
  8
T60SSILL
 62
6
 66
     1
 70
     9
  0
VERTEX
  8
T60SSILL
 62
6
 10
2145.527
 20
-4790.269
 30
-792.233
 70
    32
  0
VERTEX
  8
T60SSILL
 62
6
 10
2155.745
 20
-4793.118
 30
-792.951
 70
    32
  0
SEQEND
  8
T60SSILL
  0
POLYLINE
  8
T60SSILL
 62
6
 66
     1
 70
     9
  0
VERTEX
  8
T60SSILL
 62
6
 10
5734.784
 20
-9654.152
 30
-810.949
 70
    32
  0
VERTEX
  8
T60SSILL
 62
6
 10
5553.052
 20
-9400.986
 30
-811.041
 70
    32
  0
VERTEX
  8
T60SSILL
 62
6
 10
5547.498
 20
-9388.102
 30
-811.052
 70
    32
  0
VERTEX
  8
T60SSILL
 62
6
 10
5547.236
 20
-9368.946
 30
-811.093
 70
    32
  0
VERTEX
  8
T60SSILL
 62
6
 10
5661.123
 20
-8683.423
 30
-810.950
 70
    32
  0
VERTEX
  8
T60SSILL
 62
6
 10
5669.403
 20
-8668.237
 30
-810.959
 70
    32
  0
VERTEX
  8
T60SSILL
 62
6
 10
5680.332
 20
-8657.537
 30
-810.992
 70
    32
  0
VERTEX
  8
T60SSILL
 62
6
 10
5935.048
 20
-8476.132
 30
-811.338
 70
    32
  0
VERTEX
  8
T60SSILL
 62
6
 10
5952.767
 20
-8480.005
 30
-811.276
 70
    32
  0
VERTEX
  8
T60SSILL
 62
6
 10
5957.364
 20
-8459.760
 30
-811.287
 70
    32
  0
VERTEX
  8
T60SSILL
 62
6
 10
6382.730
 20
-8155.430
 30
-810.415
 70
    32
  0
VERTEX
  8
T60SSILL
 62
6
 10
6391.373
 20
-8151.180
 30
-810.397
 70
    32
  0
VERTEX
  8
T60SSILL
 62
6
 10
6401.419
 20
-8148.312
 30
-810.372
 70
    32
  0
VERTEX
  8
T60SSILL
 62
6
 10
6421.628
 20
-8149.173
 30
-810.308
 70
    32
  0
VERTEX
  8
T60SSILL
 62
6
 10
6430.297
 20
-8152.768
 30
-810.275
 70
    32
  0
VERTEX
  8
T60SSILL
 62
6
 10
6446.402
 20
-8166.319
 30
-810.200
 70
    32
  0
VERTEX
  8
T60SSILL
 62
6
 10
6474.042
 20
-8205.144
 30
-810.042
 70
    32
  0
VERTEX
  8
T60SSILL
 62
6
 10
6464.956
 20
-8211.214
 30
-810.059
 70
    32
  0
VERTEX
  8
T60SSILL
 62
6
 10
6468.781
 20
-8217.570
 30
-810.035
 70
    32
  0
VERTEX
  8
T60SSILL
 62
6
 10
6478.356
 20
-8210.511
 30
-810.019
 70
    32
  0
VERTEX
  8
T60SSILL
 62
6
 10
6532.891
 20
-8287.716
 30
-809.756
 70
    32
  0
VERTEX
  8
T60SSILL
 62
6
 10
6526.759
 20
-8291.707
 30
-809.786
 70
    32
  0
VERTEX
  8
T60SSILL
 62
6
 10
6531.009
 20
-8297.442
 30
-809.770
 70
    32
  0
VERTEX
  8
T60SSILL
 62
6
 10
6537.205
 20
-8293.082
 30
-809.740
 70
    32
  0
VERTEX
  8
T60SSILL
 62
6
 10
6592.298
 20
-8371.080
 30
-809.503
 70
    32
  0
VERTEX
  8
T60SSILL
 62
6
 10
6584.034
 20
-8376.787
 30
-809.529
 70
    32
  0
VERTEX
  8
T60SSILL
 62
6
 10
6588.471
 20
-8382.175
 30
-809.501
 70
    32
  0
VERTEX
  8
T60SSILL
 62
6
 10
6596.404
 20
-8376.916
 30
-809.475
 70
    32
  0
VERTEX
  8
T60SSILL
 62
6
 10
6609.298
 20
-8394.018
 30
-809.390
 70
    32
  0
VERTEX
  8
T60SSILL
 62
6
 10
6612.125
 20
-8408.293
 30
-809.354
 70
    32
  0
VERTEX
  8
T60SSILL
 62
6
 10
6607.602
 20
-8420.847
 30
-809.352
 70
    32
  0
VERTEX
  8
T60SSILL
 62
6
 10
6515.602
 20
-8487.730
 30
-809.450
 70
    32
  0
VERTEX
  8
T60SSILL
 62
6
 10
6520.034
 20
-8493.875
 30
-809.428
 70
    32
  0
VERTEX
  8
T60SSILL
 62
6
 10
6607.980
 20
-8431.029
 30
-809.333
 70
    32
  0
VERTEX
  8
T60SSILL
 62
6
 10
6613.450
 20
-8425.026
 30
-809.320
 70
    32
  0
VERTEX
  8
T60SSILL
 62
6
 10
6619.372
 20
-8408.796
 30
-809.322
 70
    32
  0
VERTEX
  8
T60SSILL
 62
6
 10
6668.497
 20
-8477.852
 30
-808.992
 70
    32
  0
VERTEX
  8
T60SSILL
 62
6
 10
6670.917
 20
-8484.659
 30
-808.970
 70
    32
  0
VERTEX
  8
T60SSILL
 62
6
 10
6671.228
 20
-8494.134
 30
-808.939
 70
    32
  0
VERTEX
  8
T60SSILL
 62
6
 10
6664.684
 20
-8507.032
 30
-808.953
 70
    32
  0
VERTEX
  8
T60SSILL
 62
6
 10
6635.806
 20
-8527.961
 30
-809.030
 70
    32
  0
VERTEX
  8
T60SSILL
 62
6
 10
6623.526
 20
-8512.832
 30
-809.070
 70
    32
  0
VERTEX
  8
T60SSILL
 62
6
 10
6616.300
 20
-8515.115
 30
-809.090
 70
    32
  0
VERTEX
  8
T60SSILL
 62
6
 10
6613.870
 20
-8509.824
 30
-809.105
 70
    32
  0
VERTEX
  8
T60SSILL
 62
6
 10
6604.714
 20
-8517.019
 30
-809.125
 70
    32
  0
VERTEX
  8
T60SSILL
 62
6
 10
6604.628
 20
-8529.144
 30
-809.110
 70
    32
  0
VERTEX
  8
T60SSILL
 62
6
 10
6608.608
 20
-8539.700
 30
-809.089
 70
    32
  0
VERTEX
  8
T60SSILL
 62
6
 10
6615.161
 20
-8542.737
 30
-809.084
 70
    32
  0
VERTEX
  8
T60SSILL
 62
6
 10
6537.683
 20
-8598.110
 30
-809.288
 70
    32
  0
VERTEX
  8
T60SSILL
 62
6
 10
6541.729
 20
-8605.002
 30
-809.294
 70
    32
  0
VERTEX
  8
T60SSILL
 62
6
 10
6593.723
 20
-8567.805
 30
-809.157
 70
    32
  0
VERTEX
  8
T60SSILL
 62
6
 10
6609.003
 20
-8565.508
 30
-809.130
 70
    32
  0
VERTEX
  8
T60SSILL
 62
6
 10
6613.861
 20
-8587.627
 30
-809.159
 70
    32
  0
VERTEX
  8
T60SSILL
 62
6
 10
6622.874
 20
-8608.168
 30
-809.179
 70
    32
  0
VERTEX
  8
T60SSILL
 62
6
 10
6619.255
 20
-8640.192
 30
-809.236
 70
    32
  0
VERTEX
  8
T60SSILL
 62
6
 10
6619.850
 20
-8650.375
 30
-809.252
 70
    32
  0
VERTEX
  8
T60SSILL
 62
6
 10
6623.817
 20
-8663.757
 30
-809.267
 70
    32
  0
VERTEX
  8
T60SSILL
 62
6
 10
6589.901
 20
-8688.446
 30
-809.357
 70
    32
  0
VERTEX
  8
T60SSILL
 62
6
 10
6593.995
 20
-8694.079
 30
-809.360
 70
    32
  0
VERTEX
  8
T60SSILL
 62
6
 10
6704.903
 20
-8614.791
 30
-809.068
 70
    32
  0
VERTEX
  8
T60SSILL
 62
6
 10
6731.115
 20
-8604.225
 30
-809.012
 70
    32
  0
VERTEX
  8
T60SSILL
 62
6
 10
6739.053
 20
-8605.497
 30
-809.003
 70
    32
  0
VERTEX
  8
T60SSILL
 62
6
 10
6748.452
 20
-8611.220
 30
-808.998
 70
    32
  0
VERTEX
  8
T60SSILL
 62
6
 10
6756.473
 20
-8608.263
 30
-808.981
 70
    32
  0
VERTEX
  8
T60SSILL
 62
6
 10
6766.172
 20
-8619.236
 30
-808.985
 70
    32
  0
VERTEX
  8
T60SSILL
 62
6
 10
6770.600
 20
-8622.713
 30
-808.984
 70
    32
  0
VERTEX
  8
T60SSILL
 62
6
 10
6773.169
 20
-8622.870
 30
-808.980
 70
    32
  0
VERTEX
  8
T60SSILL
 62
6
 10
6787.582
 20
-8643.328
 30
-808.992
 70
    32
  0
VERTEX
  8
T60SSILL
 62
6
 10
6790.048
 20
-8649.548
 30
-808.999
 70
    32
  0
VERTEX
  8
T60SSILL
 62
6
 10
6789.220
 20
-8662.636
 30
-809.021
 70
    32
  0
VERTEX
  8
T60SSILL
 62
6
 10
6782.365
 20
-8674.741
 30
-809.051
 70
    32
  0
VERTEX
  8
T60SSILL
 62
6
 10
6725.876
 20
-8716.222
 30
-809.201
 70
    32
  0
VERTEX
  8
T60SSILL
 62
6
 10
6729.502
 20
-8721.642
 30
-809.205
 70
    32
  0
VERTEX
  8
T60SSILL
 62
6
 10
6788.949
 20
-8678.552
 30
-809.047
 70
    32
  0
VERTEX
  8
T60SSILL
 62
6
 10
6794.569
 20
-8670.401
 30
-809.026
 70
    32
  0
VERTEX
  8
T60SSILL
 62
6
 10
6798.015
 20
-8657.541
 30
-809.000
 70
    32
  0
VERTEX
  8
T60SSILL
 62
6
 10
7079.146
 20
-9050.124
 30
-809.220
 70
    32
  0
VERTEX
  8
T60SSILL
 62
6
 10
7086.322
 20
-9046.251
 30
-809.203
 70
    32
  0
VERTEX
  8
T60SSILL
 62
6
 10
6811.371
 20
-8663.106
 30
-808.989
 70
    32
  0
VERTEX
  8
T60SSILL
 62
6
 10
6858.164
 20
-8629.395
 30
-808.983
 70
    32
  0
VERTEX
  8
T60SSILL
 62
6
 10
6863.159
 20
-8622.771
 30
-808.982
 70
    32
  0
VERTEX
  8
T60SSILL
 62
6
 10
6860.134
 20
-8618.175
 30
-808.979
 70
    32
  0
VERTEX
  8
T60SSILL
 62
6
 10
6810.043
 20
-8654.499
 30
-808.980
 70
    32
  0
VERTEX
  8
T60SSILL
 62
6
 10
6805.055
 20
-8654.403
 30
-808.984
 70
    32
  0
VERTEX
  8
T60SSILL
 62
6
 10
6762.079
 20
-8594.344
 30
-808.951
 70
    32
  0
VERTEX
  8
T60SSILL
 62
6
 10
6762.125
 20
-8590.995
 30
-808.949
 70
    32
  0
VERTEX
  8
T60SSILL
 62
6
 10
6750.245
 20
-8566.758
 30
-808.939
 70
    32
  0
VERTEX
  8
T60SSILL
 62
6
 10
6734.402
 20
-8556.807
 30
-808.932
 70
    32
  0
VERTEX
  8
T60SSILL
 62
6
 10
6714.435
 20
-8527.976
 30
-808.918
 70
    32
  0
VERTEX
  8
T60SSILL
 62
6
 10
6723.649
 20
-8529.547
 30
-808.921
 70
    32
  0
VERTEX
  8
T60SSILL
 62
6
 10
6735.882
 20
-8527.113
 30
-808.923
 70
    32
  0
VERTEX
  8
T60SSILL
 62
6
 10
6741.343
 20
-8524.634
 30
-808.923
 70
    32
  0
VERTEX
  8
T60SSILL
 62
6
 10
6771.103
 20
-8503.064
 30
-808.923
 70
    32
  0
VERTEX
  8
T60SSILL
 62
6
 10
6777.613
 20
-8500.399
 30
-808.923
 70
    32
  0
VERTEX
  8
T60SSILL
 62
6
 10
6785.105
 20
-8499.625
 30
-808.925
 70
    32
  0
VERTEX
  8
T60SSILL
 62
6
 10
6796.603
 20
-8503.581
 30
-808.928
 70
    32
  0
VERTEX
  8
T60SSILL
 62
6
 10
6823.395
 20
-8523.873
 30
-808.941
 70
    32
  0
VERTEX
  8
T60SSILL
 62
6
 10
6820.342
 20
-8542.546
 30
-808.946
 70
    32
  0
VERTEX
  8
T60SSILL
 62
6
 10
6825.797
 20
-8557.300
 30
-808.952
 70
    32
  0
VERTEX
  8
T60SSILL
 62
6
 10
6823.523
 20
-8566.891
 30
-808.955
 70
    32
  0
VERTEX
  8
T60SSILL
 62
6
 10
6829.924
 20
-8569.971
 30
-808.957
 70
    32
  0
VERTEX
  8
T60SSILL
 62
6
 10
6833.299
 20
-8563.687
 30
-808.956
 70
    32
  0
VERTEX
  8
T60SSILL
 62
6
 10
6844.384
 20
-8556.479
 30
-808.956
 70
    32
  0
VERTEX
  8
T60SSILL
 62
6
 10
6861.431
 20
-8568.490
 30
-808.964
 70
    32
  0
VERTEX
  8
T60SSILL
 62
6
 10
6866.261
 20
-8574.258
 30
-808.967
 70
    32
  0
VERTEX
  8
T60SSILL
 62
6
 10
6880.969
 20
-8569.048
 30
-808.968
 70
    32
  0
VERTEX
  8
T60SSILL
 62
6
 10
6883.507
 20
-8555.958
 30
-808.964
 70
    32
  0
VERTEX
  8
T60SSILL
 62
6
 10
6879.161
 20
-8553.066
 30
-808.963
 70
    32
  0
VERTEX
  8
T60SSILL
 62
6
 10
6878.771
 20
-8543.491
 30
-808.959
 70
    32
  0
VERTEX
  8
T60SSILL
 62
6
 10
6861.365
 20
-8530.338
 30
-808.951
 70
    32
  0
VERTEX
  8
T60SSILL
 62
6
 10
6859.415
 20
-8522.693
 30
-808.948
 70
    32
  0
VERTEX
  8
T60SSILL
 62
6
 10
6851.846
 20
-8518.384
 30
-808.945
 70
    32
  0
VERTEX
  8
T60SSILL
 62
6
 10
6844.266
 20
-8516.544
 30
-808.943
 70
    32
  0
VERTEX
  8
T60SSILL
 62
6
 10
6836.511
 20
-8517.713
 30
-808.942
 70
    32
  0
VERTEX
  8
T60SSILL
 62
6
 10
6833.303
 20
-8521.667
 30
-808.942
 70
    32
  0
VERTEX
  8
T60SSILL
 62
6
 10
6805.363
 20
-8499.957
 30
-808.929
 70
    32
  0
VERTEX
  8
T60SSILL
 62
6
 10
6802.485
 20
-8491.555
 30
-808.926
 70
    32
  0
VERTEX
  8
T60SSILL
 62
6
 10
6794.688
 20
-8486.742
 30
-808.923
 70
    32
  0
VERTEX
  8
T60SSILL
 62
6
 10
6926.508
 20
-8391.671
 30
-808.924
 70
    32
  0
VERTEX
  8
T60SSILL
 62
6
 10
6921.840
 20
-8385.237
 30
-808.921
 70
    32
  0
VERTEX
  8
T60SSILL
 62
6
 10
6910.897
 20
-8393.259
 30
-808.920
 70
    32
  0
VERTEX
  8
T60SSILL
 62
6
 10
6895.178
 20
-8371.682
 30
-808.910
 70
    32
  0
VERTEX
  8
T60SSILL
 62
6
 10
6904.005
 20
-8368.919
 30
-808.911
 70
    32
  0
VERTEX
  8
T60SSILL
 62
6
 10
6902.903
 20
-8361.077
 30
-808.908
 70
    32
  0
VERTEX
  8
T60SSILL
 62
6
 10
6888.777
 20
-8363.045
 30
-808.905
 70
    32
  0
VERTEX
  8
T60SSILL
 62
6
 10
6863.512
 20
-8327.288
 30
-808.888
 70
    32
  0
VERTEX
  8
T60SSILL
 62
6
 10
6843.002
 20
-8312.528
 30
-808.878
 70
    32
  0
VERTEX
  8
T60SSILL
 62
6
 10
6844.441
 20
-8301.714
 30
-808.875
 70
    32
  0
VERTEX
  8
T60SSILL
 62
6
 10
6979.237
 20
-8204.721
 30
-808.881
 70
    32
  0
VERTEX
  8
T60SSILL
 62
6
 10
6974.725
 20
-8198.308
 30
-808.877
 70
    32
  0
VERTEX
  8
T60SSILL
 62
6
 10
6935.670
 20
-8226.540
 30
-808.876
 70
    32
  0
VERTEX
  8
T60SSILL
 62
6
 10
6935.292
 20
-8216.358
 30
-808.873
 70
    32
  0
VERTEX
  8
T60SSILL
 62
6
 10
6919.429
 20
-8158.907
 30
-808.951
 70
    32
  0
VERTEX
  8
T60SSILL
 62
6
 10
6912.577
 20
-8160.496
 30
-808.965
 70
    32
  0
VERTEX
  8
T60SSILL
 62
6
 10
6917.245
 20
-8178.001
 30
-808.899
 70
    32
  0
VERTEX
  8
T60SSILL
 62
6
 10
6896.126
 20
-8176.918
 30
-808.958
 70
    32
  0
VERTEX
  8
T60SSILL
 62
6
 10
6894.540
 20
-8186.759
 30
-808.932
 70
    32
  0
VERTEX
  8
T60SSILL
 62
6
 10
6905.085
 20
-8187.202
 30
-808.903
 70
    32
  0
VERTEX
  8
T60SSILL
 62
6
 10
6922.086
 20
-8195.598
 30
-808.863
 70
    32
  0
VERTEX
  8
T60SSILL
 62
6
 10
6928.886
 20
-8217.204
 30
-808.871
 70
    32
  0
VERTEX
  8
T60SSILL
 62
6
 10
6927.532
 20
-8227.527
 30
-808.874
 70
    32
  0
VERTEX
  8
T60SSILL
 62
6
 10
6925.314
 20
-8232.642
 30
-808.875
 70
    32
  0
VERTEX
  8
T60SSILL
 62
6
 10
6833.251
 20
-8299.893
 30
-808.871
 70
    32
  0
VERTEX
  8
T60SSILL
 62
6
 10
6817.764
 20
-8303.142
 30
-808.869
 70
    32
  0
VERTEX
  8
T60SSILL
 62
6
 10
6793.539
 20
-8298.104
 30
-808.891
 70
    32
  0
VERTEX
  8
T60SSILL
 62
6
 10
6919.011
 20
-8207.456
 30
-808.866
 70
    32
  0
VERTEX
  8
T60SSILL
 62
6
 10
6914.553
 20
-8202.191
 30
-808.863
 70
    32
  0
VERTEX
  8
T60SSILL
 62
6
 10
6831.637
 20
-8261.929
 30
-808.867
 70
    32
  0
VERTEX
  8
T60SSILL
 62
6
 10
6830.319
 20
-8257.147
 30
-808.885
 70
    32
  0
VERTEX
  8
T60SSILL
 62
6
 10
6830.449
 20
-8251.965
 30
-808.901
 70
    32
  0
VERTEX
  8
T60SSILL
 62
6
 10
6835.359
 20
-8239.815
 30
-808.925
 70
    32
  0
VERTEX
  8
T60SSILL
 62
6
 10
6851.578
 20
-8217.093
 30
-808.952
 70
    32
  0
VERTEX
  8
T60SSILL
 62
6
 10
6863.873
 20
-8188.947
 30
-809.006
 70
    32
  0
VERTEX
  8
T60SSILL
 62
6
 10
6864.958
 20
-8177.628
 30
-809.038
 70
    32
  0
VERTEX
  8
T60SSILL
 62
6
 10
6871.220
 20
-8171.067
 30
-809.041
 70
    32
  0
VERTEX
  8
T60SSILL
 62
6
 10
6880.250
 20
-8171.500
 30
-809.016
 70
    32
  0
VERTEX
  8
T60SSILL
 62
6
 10
6885.643
 20
-8160.489
 30
-809.036
 70
    32
  0
VERTEX
  8
T60SSILL
 62
6
 10
6895.007
 20
-8152.824
 30
-809.034
 70
    32
  0
VERTEX
  8
T60SSILL
 62
6
 10
6888.167
 20
-8138.356
 30
-809.097
 70
    32
  0
VERTEX
  8
T60SSILL
 62
6
 10
6878.415
 20
-8131.538
 30
-809.143
 70
    32
  0
VERTEX
  8
T60SSILL
 62
6
 10
6879.306
 20
-8127.140
 30
-809.154
 70
    32
  0
VERTEX
  8
T60SSILL
 62
6
 10
6876.345
 20
-8117.267
 30
-809.192
 70
    32
  0
VERTEX
  8
T60SSILL
 62
6
 10
6871.982
 20
-8116.206
 30
-809.207
 70
    32
  0
VERTEX
  8
T60SSILL
 62
6
 10
6920.885
 20
-8001.876
 30
-809.428
 70
    32
  0
VERTEX
  8
T60SSILL
 62
6
 10
6912.939
 20
-7998.314
 30
-809.460
 70
    32
  0
VERTEX
  8
T60SSILL
 62
6
 10
6865.124
 20
-8116.420
 30
-809.225
 70
    32
  0
VERTEX
  8
T60SSILL
 62
6
 10
6859.682
 20
-8117.466
 30
-809.236
 70
    32
  0
VERTEX
  8
T60SSILL
 62
6
 10
6851.028
 20
-8126.140
 30
-809.232
 70
    32
  0
VERTEX
  8
T60SSILL
 62
6
 10
6837.521
 20
-8130.365
 30
-809.255
 70
    32
  0
VERTEX
  8
T60SSILL
 62
6
 10
6838.230
 20
-8137.191
 30
-809.232
 70
    32
  0
VERTEX
  8
T60SSILL
 62
6
 10
6828.962
 20
-8151.575
 30
-809.212
 70
    32
  0
VERTEX
  8
T60SSILL
 62
6
 10
6822.103
 20
-8198.623
 30
-809.086
 70
    32
  0
VERTEX
  8
T60SSILL
 62
6
 10
6817.694
 20
-8210.881
 30
-809.060
 70
    32
  0
VERTEX
  8
T60SSILL
 62
6
 10
6823.100
 20
-8216.880
 30
-809.028
 70
    32
  0
VERTEX
  8
T60SSILL
 62
6
 10
6821.554
 20
-8231.216
 30
-808.988
 70
    32
  0
VERTEX
  8
T60SSILL
 62
6
 10
6814.564
 20
-8247.767
 30
-808.956
 70
    32
  0
VERTEX
  8
T60SSILL
 62
6
 10
6814.342
 20
-8254.494
 30
-808.936
 70
    32
  0
VERTEX
  8
T60SSILL
 62
6
 10
6817.815
 20
-8266.389
 30
-808.890
 70
    32
  0
VERTEX
  8
T60SSILL
 62
6
 10
6813.438
 20
-8274.948
 30
-808.875
 70
    32
  0
VERTEX
  8
T60SSILL
 62
6
 10
6658.881
 20
-8385.953
 30
-809.189
 70
    32
  0
VERTEX
  8
T60SSILL
 62
6
 10
6607.160
 20
-8377.966
 30
-809.427
 70
    32
  0
VERTEX
  8
T60SSILL
 62
6
 10
6602.888
 20
-8372.354
 30
-809.455
 70
    32
  0
VERTEX
  8
T60SSILL
 62
6
 10
6611.793
 20
-8365.873
 30
-809.427
 70
    32
  0
VERTEX
  8
T60SSILL
 62
6
 10
6607.636
 20
-8359.966
 30
-809.455
 70
    32
  0
VERTEX
  8
T60SSILL
 62
6
 10
6598.825
 20
-8366.273
 30
-809.483
 70
    32
  0
VERTEX
  8
T60SSILL
 62
6
 10
6543.495
 20
-8288.549
 30
-809.708
 70
    32
  0
VERTEX
  8
T60SSILL
 62
6
 10
6551.988
 20
-8282.250
 30
-809.666
 70
    32
  0
VERTEX
  8
T60SSILL
 62
6
 10
6547.941
 20
-8276.804
 30
-809.681
 70
    32
  0
VERTEX
  8
T60SSILL
 62
6
 10
6539.274
 20
-8283.010
 30
-809.724
 70
    32
  0
VERTEX
  8
T60SSILL
 62
6
 10
6484.645
 20
-8205.978
 30
-810.008
 70
    32
  0
VERTEX
  8
T60SSILL
 62
6
 10
6494.062
 20
-8199.460
 30
-809.992
 70
    32
  0
VERTEX
  8
T60SSILL
 62
6
 10
6490.130
 20
-8193.718
 30
-810.015
 70
    32
  0
VERTEX
  8
T60SSILL
 62
6
 10
6480.611
 20
-8200.091
 30
-810.032
 70
    32
  0
VERTEX
  8
T60SSILL
 62
6
 10
6453.398
 20
-8161.719
 30
-810.188
 70
    32
  0
VERTEX
  8
T60SSILL
 62
6
 10
6442.958
 20
-8150.861
 30
-810.240
 70
    32
  0
VERTEX
  8
T60SSILL
 62
6
 10
6430.210
 20
-8143.458
 30
-810.293
 70
    32
  0
VERTEX
  8
T60SSILL
 62
6
 10
6415.802
 20
-8139.055
 30
-810.345
 70
    32
  0
VERTEX
  8
T60SSILL
 62
6
 10
6401.967
 20
-8138.987
 30
-810.388
 70
    32
  0
VERTEX
  8
T60SSILL
 62
6
 10
6391.192
 20
-8142.044
 30
-810.415
 70
    32
  0
VERTEX
  8
T60SSILL
 62
6
 10
6379.846
 20
-8147.657
 30
-810.439
 70
    32
  0
VERTEX
  8
T60SSILL
 62
6
 10
6044.984
 20
-8386.427
 30
-811.437
 70
    32
  0
VERTEX
  8
T60SSILL
 62
6
 10
6042.520
 20
-8382.989
 30
-811.464
 70
    32
  0
VERTEX
  8
T60SSILL
 62
6
 10
6036.749
 20
-8386.413
 30
-811.462
 70
    32
  0
VERTEX
  8
T60SSILL
 62
6
 10
6039.249
 20
-8390.681
 30
-811.430
 70
    32
  0
VERTEX
  8
T60SSILL
 62
6
 10
5915.373
 20
-8477.660
 30
-811.400
 70
    32
  0
VERTEX
  8
T60SSILL
 62
6
 10
5908.053
 20
-8478.514
 30
-811.422
 70
    32
  0
VERTEX
  8
T60SSILL
 62
6
 10
5901.097
 20
-8475.379
 30
-811.449
 70
    32
  0
VERTEX
  8
T60SSILL
 62
6
 10
5885.981
 20
-8453.805
 30
-811.525
 70
    32
  0
VERTEX
  8
T60SSILL
 62
6
 10
5896.566
 20
-8446.653
 30
-811.533
 70
    32
  0
VERTEX
  8
T60SSILL
 62
6
 10
5885.903
 20
-8431.104
 30
-811.557
 70
    32
  0
VERTEX
  8
T60SSILL
 62
6
 10
5867.200
 20
-8443.397
 30
-811.551
 70
    32
  0
VERTEX
  8
T60SSILL
 62
6
 10
5892.473
 20
-8481.186
 30
-811.469
 70
    32
  0
VERTEX
  8
T60SSILL
 62
6
 10
5885.727
 20
-8499.699
 30
-811.468
 70
    32
  0
VERTEX
  8
T60SSILL
 62
6
 10
5788.001
 20
-8570.135
 30
-811.366
 70
    32
  0
VERTEX
  8
T60SSILL
 62
6
 10
5751.755
 20
-8564.012
 30
-811.157
 70
    32
  0
VERTEX
  8
T60SSILL
 62
6
 10
5751.660
 20
-8571.662
 30
-811.174
 70
    32
  0
VERTEX
  8
T60SSILL
 62
6
 10
5779.405
 20
-8576.137
 30
-811.334
 70
    32
  0
VERTEX
  8
T60SSILL
 62
6
 10
5669.672
 20
-8655.233
 30
-810.930
 70
    32
  0
VERTEX
  8
T60SSILL
 62
6
 10
5662.125
 20
-8664.789
 30
-810.911
 70
    32
  0
VERTEX
  8
T60SSILL
 62
6
 10
5653.871
 20
-8680.170
 30
-810.903
 70
    32
  0
VERTEX
  8
T60SSILL
 62
6
 10
5576.642
 20
-8209.587
 30
-811.271
 70
    32
  0
VERTEX
  8
T60SSILL
 62
6
 10
5568.737
 20
-8210.522
 30
-811.269
 70
    32
  0
VERTEX
  8
T60SSILL
 62
6
 10
5591.640
 20
-8354.517
 30
-811.334
 70
    32
  0
VERTEX
  8
T60SSILL
 62
6
 10
5589.367
 20
-8358.213
 30
-811.334
 70
    32
  0
VERTEX
  8
T60SSILL
 62
6
 10
5584.478
 20
-8359.963
 30
-811.331
 70
    32
  0
VERTEX
  8
T60SSILL
 62
6
 10
5588.303
 20
-8383.298
 30
-811.344
 70
    32
  0
VERTEX
  8
T60SSILL
 62
6
 10
5593.567
 20
-8382.252
 30
-811.347
 70
    32
  0
VERTEX
  8
T60SSILL
 62
6
 10
5596.175
 20
-8383.562
 30
-811.349
 70
    32
  0
VERTEX
  8
T60SSILL
 62
6
 10
5649.079
 20
-8704.180
 30
-810.934
 70
    32
  0
VERTEX
  8
T60SSILL
 62
6
 10
5539.589
 20
-9366.763
 30
-811.074
 70
    32
  0
VERTEX
  8
T60SSILL
 62
6
 10
5538.494
 20
-9380.742
 30
-811.040
 70
    32
  0
VERTEX
  8
T60SSILL
 62
6
 10
5540.434
 20
-9391.528
 30
-811.022
 70
    32
  0
VERTEX
  8
T60SSILL
 62
6
 10
5548.716
 20
-9409.706
 30
-811.008
 70
    32
  0
VERTEX
  8
T60SSILL
 62
6
 10
5559.681
 20
-9424.185
 30
-811.010
 70
    32
  0
VERTEX
  8
T60SSILL
 62
6
 10
5561.395
 20
-9436.955
 30
-810.987
 70
    32
  0
VERTEX
  8
T60SSILL
 62
6
 10
5559.384
 20
-9444.697
 30
-810.964
 70
    32
  0
VERTEX
  8
T60SSILL
 62
6
 10
5555.464
 20
-9451.086
 30
-810.938
 70
    32
  0
VERTEX
  8
T60SSILL
 62
6
 10
5549.393
 20
-9456.397
 30
-810.907
 70
    32
  0
VERTEX
  8
T60SSILL
 62
6
 10
5437.486
 20
-9536.981
 30
-810.445
 70
    32
  0
VERTEX
  8
T60SSILL
 62
6
 10
5431.221
 20
-9538.324
 30
-810.402
 70
    32
  0
VERTEX
  8
T60SSILL
 62
6
 10
5424.332
 20
-9536.449
 30
-810.319
 70
    32
  0
VERTEX
  8
T60SSILL
 62
6
 10
5418.371
 20
-9539.623
 30
-810.299
 70
    32
  0
VERTEX
  8
T60SSILL
 62
6
 10
5408.676
 20
-9548.400
 30
-810.271
 70
    32
  0
VERTEX
  8
T60SSILL
 62
6
 10
5405.346
 20
-9559.845
 30
-810.240
 70
    32
  0
VERTEX
  8
T60SSILL
 62
6
 10
5370.156
 20
-9584.505
 30
-809.870
 70
    32
  0
VERTEX
  8
T60SSILL
 62
6
 10
5357.668
 20
-9585.552
 30
-809.735
 70
    32
  0
VERTEX
  8
T60SSILL
 62
6
 10
5348.269
 20
-9584.239
 30
-809.634
 70
    32
  0
VERTEX
  8
T60SSILL
 62
6
 10
5192.716
 20
-9504.609
 30
-807.914
 70
    32
  0
VERTEX
  8
T60SSILL
 62
6
 10
5141.337
 20
-9470.553
 30
-807.288
 70
    32
  0
VERTEX
  8
T60SSILL
 62
6
 10
5136.877
 20
-9463.685
 30
-807.227
 70
    32
  0
VERTEX
  8
T60SSILL
 62
6
 10
5124.369
 20
-9459.738
 30
-807.082
 70
    32
  0
VERTEX
  8
T60SSILL
 62
6
 10
5058.441
 20
-9417.268
 30
-806.703
 70
    32
  0
VERTEX
  8
T60SSILL
 62
6
 10
5047.095
 20
-9412.833
 30
-806.667
 70
    32
  0
VERTEX
  8
T60SSILL
 62
6
 10
5046.560
 20
-9410.525
 30
-806.680
 70
    32
  0
VERTEX
  8
T60SSILL
 62
6
 10
5026.354
 20
-9411.080
 30
-806.555
 70
    32
  0
VERTEX
  8
T60SSILL
 62
6
 10
4858.239
 20
-9431.179
 30
-805.427
 70
    32
  0
VERTEX
  8
T60SSILL
 62
6
 10
4854.028
 20
-9428.212
 30
-805.396
 70
    32
  0
VERTEX
  8
T60SSILL
 62
6
 10
4848.365
 20
-9431.940
 30
-805.385
 70
    32
  0
VERTEX
  8
T60SSILL
 62
6
 10
4840.672
 20
-9431.827
 30
-805.350
 70
    32
  0
VERTEX
  8
T60SSILL
 62
6
 10
4824.667
 20
-9427.634
 30
-805.259
 70
    32
  0
VERTEX
  8
T60SSILL
 62
6
 10
4762.728
 20
-9390.430
 30
-804.821
 70
    32
  0
VERTEX
  8
T60SSILL
 62
6
 10
4759.941
 20
-9383.040
 30
-804.778
 70
    32
  0
VERTEX
  8
T60SSILL
 62
6
 10
4752.817
 20
-9383.281
 30
-804.746
 70
    32
  0
VERTEX
  8
T60SSILL
 62
6
 10
4678.495
 20
-9335.072
 30
-804.842
 70
    32
  0
VERTEX
  8
T60SSILL
 62
6
 10
4681.145
 20
-9330.868
 30
-805.134
 70
    32
  0
VERTEX
  8
T60SSILL
 62
6
 10
4666.863
 20
-9321.292
 30
-805.384
 70
    32
  0
VERTEX
  8
T60SSILL
 62
6
 10
4662.456
 20
-9321.894
 30
-805.260
 70
    32
  0
VERTEX
  8
T60SSILL
 62
6
 10
4664.480
 20
-9316.945
 30
-805.581
 70
    32
  0
VERTEX
  8
T60SSILL
 62
6
 10
4675.676
 20
-9317.622
 30
-805.771
 70
    32
  0
VERTEX
  8
T60SSILL
 62
6
 10
4680.497
 20
-9315.767
 30
-805.833
 70
    32
  0
VERTEX
  8
T60SSILL
 62
6
 10
4684.633
 20
-9311.386
 30
-805.897
 70
    32
  0
VERTEX
  8
T60SSILL
 62
6
 10
4716.838
 20
-9330.683
 30
-805.857
 70
    32
  0
VERTEX
  8
T60SSILL
 62
6
 10
4730.003
 20
-9314.009
 30
-806.088
 70
    32
  0
VERTEX
  8
T60SSILL
 62
6
 10
4725.675
 20
-9308.871
 30
-806.119
 70
    32
  0
VERTEX
  8
T60SSILL
 62
6
 10
4701.267
 20
-9297.230
 30
-806.119
 70
    32
  0
VERTEX
  8
T60SSILL
 62
6
 10
4691.812
 20
-9283.650
 30
-806.211
 70
    32
  0
VERTEX
  8
T60SSILL
 62
6
 10
4694.898
 20
-9278.070
 30
-806.307
 70
    32
  0
VERTEX
  8
T60SSILL
 62
6
 10
4693.043
 20
-9273.248
 30
-806.372
 70
    32
  0
VERTEX
  8
T60SSILL
 62
6
 10
4693.100
 20
-9267.631
 30
-806.457
 70
    32
  0
VERTEX
  8
T60SSILL
 62
6
 10
4696.585
 20
-9255.231
 30
-806.658
 70
    32
  0
VERTEX
  8
T60SSILL
 62
6
 10
4690.338
 20
-9250.571
 30
-806.702
 70
    32
  0
VERTEX
  8
T60SSILL
 62
6
 10
4681.491
 20
-9256.195
 30
-806.581
 70
    32
  0
VERTEX
  8
T60SSILL
 62
6
 10
4659.691
 20
-9282.957
 30
-806.088
 70
    32
  0
VERTEX
  8
T60SSILL
 62
6
 10
4640.205
 20
-9292.556
 30
-805.873
 70
    32
  0
VERTEX
  8
T60SSILL
 62
6
 10
4618.420
 20
-9287.454
 30
-805.849
 70
    32
  0
VERTEX
  8
T60SSILL
 62
6
 10
4607.379
 20
-9290.851
 30
-805.752
 70
    32
  0
VERTEX
  8
T60SSILL
 62
6
 10
4587.784
 20
-9278.111
 30
-805.862
 70
    32
  0
VERTEX
  8
T60SSILL
 62
6
 10
4586.007
 20
-9273.557
 30
-805.924
 70
    32
  0
VERTEX
  8
T60SSILL
 62
6
 10
4580.758
 20
-9273.565
 30
-805.902
 70
    32
  0
VERTEX
  8
T60SSILL
 62
6
 10
4502.408
 20
-9224.192
 30
-806.416
 70
    32
  0
VERTEX
  8
T60SSILL
 62
6
 10
4499.754
 20
-9218.532
 30
-806.490
 70
    32
  0
VERTEX
  8
T60SSILL
 62
6
 10
4492.630
 20
-9218.774
 30
-806.508
 70
    32
  0
VERTEX
  8
T60SSILL
 62
6
 10
4414.594
 20
-9168.003
 30
-807.183
 70
    32
  0
VERTEX
  8
T60SSILL
 62
6
 10
4414.344
 20
-9164.101
 30
-807.195
 70
    32
  0
VERTEX
  8
T60SSILL
 62
6
 10
4411.286
 20
-9161.404
 30
-807.223
 70
    32
  0
VERTEX
  8
T60SSILL
 62
6
 10
4405.371
 20
-9162.305
 30
-807.261
 70
    32
  0
VERTEX
  8
T60SSILL
 62
6
 10
4332.451
 20
-9115.694
 30
-807.736
 70
    32
  0
VERTEX
  8
T60SSILL
 62
6
 10
4331.282
 20
-9110.980
 30
-807.778
 70
    32
  0
VERTEX
  8
T60SSILL
 62
6
 10
4326.074
 20
-9106.719
 30
-807.813
 70
    32
  0
VERTEX
  8
T60SSILL
 62
6
 10
4320.650
 20
-9108.410
 30
-807.795
 70
    32
  0
VERTEX
  8
T60SSILL
 62
6
 10
4316.448
 20
-9105.815
 30
-807.816
 70
    32
  0
VERTEX
  8
T60SSILL
 62
6
 10
4307.719
 20
-9097.803
 30
-807.883
 70
    32
  0
VERTEX
  8
T60SSILL
 62
6
 10
4267.053
 20
-9039.490
 30
-808.383
 70
    32
  0
VERTEX
  8
T60SSILL
 62
6
 10
4268.211
 20
-9038.093
 30
-808.397
 70
    32
  0
VERTEX
  8
T60SSILL
 62
6
 10
4266.599
 20
-9035.452
 30
-808.420
 70
    32
  0
VERTEX
  8
T60SSILL
 62
6
 10
4263.715
 20
-9034.949
 30
-808.422
 70
    32
  0
VERTEX
  8
T60SSILL
 62
6
 10
4211.443
 20
-8960.247
 30
-809.064
 70
    32
  0
VERTEX
  8
T60SSILL
 62
6
 10
4213.666
 20
-8958.067
 30
-809.085
 70
    32
  0
VERTEX
  8
T60SSILL
 62
6
 10
4212.091
 20
-8955.180
 30
-809.110
 70
    32
  0
VERTEX
  8
T60SSILL
 62
6
 10
4206.672
 20
-8952.714
 30
-809.129
 70
    32
  0
VERTEX
  8
T60SSILL
 62
6
 10
4157.442
 20
-8885.722
 30
-809.692
 70
    32
  0
VERTEX
  8
T60SSILL
 62
6
 10
4159.557
 20
-8883.841
 30
-809.697
 70
    32
  0
VERTEX
  8
T60SSILL
 62
6
 10
4154.413
 20
-8876.692
 30
-809.761
 70
    32
  0
VERTEX
  8
T60SSILL
 62
6
 10
4151.877
 20
-8878.446
 30
-809.750
 70
    32
  0
VERTEX
  8
T60SSILL
 62
6
 10
4094.820
 20
-8801.249
 30
-810.416
 70
    32
  0
VERTEX
  8
T60SSILL
 62
6
 10
4092.650
 20
-8790.712
 30
-810.500
 70
    32
  0
VERTEX
  8
T60SSILL
 62
6
 10
4093.407
 20
-8785.347
 30
-810.541
 70
    32
  0
VERTEX
  8
T60SSILL
 62
6
 10
4098.128
 20
-8776.305
 30
-810.556
 70
    32
  0
VERTEX
  8
T60SSILL
 62
6
 10
4161.759
 20
-8688.889
 30
-810.616
 70
    32
  0
VERTEX
  8
T60SSILL
 62
6
 10
4166.412
 20
-8688.529
 30
-810.618
 70
    32
  0
VERTEX
  8
T60SSILL
 62
6
 10
4172.172
 20
-8681.346
 30
-810.623
 70
    32
  0
VERTEX
  8
T60SSILL
 62
6
 10
4163.568
 20
-8674.991
 30
-810.623
 70
    32
  0
VERTEX
  8
T60SSILL
 62
6
 10
4091.015
 20
-8774.210
 30
-810.555
 70
    32
  0
VERTEX
  8
T60SSILL
 62
6
 10
4087.131
 20
-8782.309
 30
-810.550
 70
    32
  0
VERTEX
  8
T60SSILL
 62
6
 10
4085.643
 20
-8790.397
 30
-810.491
 70
    32
  0
VERTEX
  8
T60SSILL
 62
6
 10
4073.135
 20
-8772.485
 30
-810.550
 70
    32
  0
VERTEX
  8
T60SSILL
 62
6
 10
4075.551
 20
-8768.633
 30
-810.553
 70
    32
  0
VERTEX
  8
T60SSILL
 62
6
 10
4065.425
 20
-8755.747
 30
-810.556
 70
    32
  0
VERTEX
  8
T60SSILL
 62
6
 10
4061.656
 20
-8755.675
 30
-810.555
 70
    32
  0
VERTEX
  8
T60SSILL
 62
6
 10
4058.617
 20
-8751.241
 30
-810.556
 70
    32
  0
VERTEX
  8
T60SSILL
 62
6
 10
4047.765
 20
-8695.682
 30
-810.578
 70
    32
  0
VERTEX
  8
T60SSILL
 62
6
 10
4051.913
 20
-8689.174
 30
-810.583
 70
    32
  0
VERTEX
  8
T60SSILL
 62
6
 10
4064.358
 20
-8677.405
 30
-810.592
 70
    32
  0
VERTEX
  8
T60SSILL
 62
6
 10
4063.854
 20
-8665.863
 30
-810.597
 70
    32
  0
VERTEX
  8
T60SSILL
 62
6
 10
4059.753
 20
-8651.062
 30
-810.603
 70
    32
  0
VERTEX
  8
T60SSILL
 62
6
 10
4055.934
 20
-8643.486
 30
-810.605
 70
    32
  0
VERTEX
  8
T60SSILL
 62
6
 10
4047.059
 20
-8636.019
 30
-810.606
 70
    32
  0
VERTEX
  8
T60SSILL
 62
6
 10
4043.596
 20
-8619.111
 30
-810.613
 70
    32
  0
VERTEX
  8
T60SSILL
 62
6
 10
4030.794
 20
-8608.794
 30
-810.614
 70
    32
  0
VERTEX
  8
T60SSILL
 62
6
 10
4013.909
 20
-8522.347
 30
-810.649
 70
    32
  0
VERTEX
  8
T60SSILL
 62
6
 10
4006.160
 20
-8523.998
 30
-810.646
 70
    32
  0
VERTEX
  8
T60SSILL
 62
6
 10
4023.066
 20
-8608.562
 30
-810.611
 70
    32
  0
VERTEX
  8
T60SSILL
 62
6
 10
4016.826
 20
-8613.319
 30
-810.607
 70
    32
  0
VERTEX
  8
T60SSILL
 62
6
 10
4011.312
 20
-8620.539
 30
-810.602
 70
    32
  0
VERTEX
  8
T60SSILL
 62
6
 10
4011.837
 20
-8633.597
 30
-810.596
 70
    32
  0
VERTEX
  8
T60SSILL
 62
6
 10
4004.687
 20
-8647.812
 30
-810.587
 70
    32
  0
VERTEX
  8
T60SSILL
 62
6
 10
4001.106
 20
-8664.652
 30
-810.579
 70
    32
  0
VERTEX
  8
T60SSILL
 62
6
 10
4001.233
 20
-8678.656
 30
-810.572
 70
    32
  0
VERTEX
  8
T60SSILL
 62
6
 10
4023.705
 20
-8689.902
 30
-810.574
 70
    32
  0
VERTEX
  8
T60SSILL
 62
6
 10
4030.865
 20
-8696.225
 30
-810.573
 70
    32
  0
VERTEX
  8
T60SSILL
 62
6
 10
4041.787
 20
-8702.204
 30
-810.573
 70
    32
  0
VERTEX
  8
T60SSILL
 62
6
 10
4051.824
 20
-8752.408
 30
-810.553
 70
    32
  0
VERTEX
  8
T60SSILL
 62
6
 10
4050.505
 20
-8754.033
 30
-810.552
 70
    32
  0
VERTEX
  8
T60SSILL
 62
6
 10
4054.535
 20
-8759.815
 30
-810.551
 70
    32
  0
VERTEX
  8
T60SSILL
 62
6
 10
4052.128
 20
-8762.786
 30
-810.528
 70
    32
  0
VERTEX
  8
T60SSILL
 62
6
 10
4036.574
 20
-8766.456
 30
-810.437
 70
    32
  0
VERTEX
  8
T60SSILL
 62
6
 10
4037.907
 20
-8774.220
 30
-810.392
 70
    32
  0
VERTEX
  8
T60SSILL
 62
6
 10
4040.994
 20
-8773.809
 30
-810.408
 70
    32
  0
VERTEX
  8
T60SSILL
 62
6
 10
4047.351
 20
-8777.681
 30
-810.410
 70
    32
  0
VERTEX
  8
T60SSILL
 62
6
 10
4049.380
 20
-8775.228
 30
-810.435
 70
    32
  0
VERTEX
  8
T60SSILL
 62
6
 10
4048.019
 20
-8772.363
 30
-810.447
 70
    32
  0
VERTEX
  8
T60SSILL
 62
6
 10
4054.830
 20
-8771.073
 30
-810.485
 70
    32
  0
VERTEX
  8
T60SSILL
 62
6
 10
4064.757
 20
-8773.724
 30
-810.511
 70
    32
  0
VERTEX
  8
T60SSILL
 62
6
 10
3992.127
 20
-8900.649
 30
-809.365
 70
    32
  0
VERTEX
  8
T60SSILL
 62
6
 10
3984.444
 20
-8906.404
 30
-809.295
 70
    32
  0
VERTEX
  8
T60SSILL
 62
6
 10
3971.606
 20
-8913.325
 30
-809.194
 70
    32
  0
VERTEX
  8
T60SSILL
 62
6
 10
3928.508
 20
-8912.969
 30
-809.011
 70
    32
  0
VERTEX
  8
T60SSILL
 62
6
 10
3921.255
 20
-8908.905
 30
-809.006
 70
    32
  0
VERTEX
  8
T60SSILL
 62
6
 10
3909.268
 20
-8909.845
 30
-808.948
 70
    32
  0
VERTEX
  8
T60SSILL
 62
6
 10
3903.691
 20
-8912.764
 30
-808.905
 70
    32
  0
VERTEX
  8
T60SSILL
 62
6
 10
3842.186
 20
-8912.256
 30
-808.644
 70
    32
  0
VERTEX
  8
T60SSILL
 62
6
 10
3842.697
 20
-8921.279
 30
-808.587
 70
    32
  0
VERTEX
  8
T60SSILL
 62
6
 10
3884.334
 20
-8921.586
 30
-808.764
 70
    32
  0
VERTEX
  8
T60SSILL
 62
6
 10
3892.732
 20
-8931.068
 30
-808.738
 70
    32
  0
VERTEX
  8
T60SSILL
 62
6
 10
3890.694
 20
-8937.812
 30
-808.685
 70
    32
  0
VERTEX
  8
T60SSILL
 62
6
 10
3894.498
 20
-8950.425
 30
-808.619
 70
    32
  0
VERTEX
  8
T60SSILL
 62
6
 10
3900.957
 20
-8951.034
 30
-808.642
 70
    32
  0
VERTEX
  8
T60SSILL
 62
6
 10
3906.244
 20
-8954.362
 30
-808.643
 70
    32
  0
VERTEX
  8
T60SSILL
 62
6
 10
3930.454
 20
-8957.117
 30
-808.730
 70
    32
  0
VERTEX
  8
T60SSILL
 62
6
 10
3931.500
 20
-8942.032
 30
-808.833
 70
    32
  0
VERTEX
  8
T60SSILL
 62
6
 10
3937.823
 20
-8934.872
 30
-808.907
 70
    32
  0
VERTEX
  8
T60SSILL
 62
6
 10
3950.022
 20
-8928.421
 30
-809.002
 70
    32
  0
VERTEX
  8
T60SSILL
 62
6
 10
3954.029
 20
-8922.099
 30
-809.061
 70
    32
  0
VERTEX
  8
T60SSILL
 62
6
 10
3975.218
 20
-8922.255
 30
-809.151
 70
    32
  0
VERTEX
  8
T60SSILL
 62
6
 10
3978.971
 20
-8920.372
 30
-809.179
 70
    32
  0
VERTEX
  8
T60SSILL
 62
6
 10
3981.230
 20
-8921.662
 30
-809.181
 70
    32
  0
VERTEX
  8
T60SSILL
 62
6
 10
3956.148
 20
-8965.052
 30
-808.788
 70
    32
  0
VERTEX
  8
T60SSILL
 62
6
 10
3947.640
 20
-8955.964
 30
-808.811
 70
    32
  0
VERTEX
  8
T60SSILL
 62
6
 10
3931.951
 20
-8957.220
 30
-808.735
 70
    32
  0
VERTEX
  8
T60SSILL
 62
6
 10
3915.286
 20
-8968.155
 30
-808.592
 70
    32
  0
VERTEX
  8
T60SSILL
 62
6
 10
3902.480
 20
-8988.057
 30
-808.406
 70
    32
  0
VERTEX
  8
T60SSILL
 62
6
 10
3901.529
 20
-9002.527
 30
-808.307
 70
    32
  0
VERTEX
  8
T60SSILL
 62
6
 10
3906.437
 20
-9039.248
 30
-808.087
 70
    32
  0
VERTEX
  8
T60SSILL
 62
6
 10
3911.568
 20
-9042.170
 30
-808.090
 70
    32
  0
VERTEX
  8
T60SSILL
 62
6
 10
3881.720
 20
-9093.805
 30
-807.623
 70
    32
  0
VERTEX
  8
T60SSILL
 62
6
 10
3887.661
 20
-9096.980
 30
-807.628
 70
    32
  0
VERTEX
  8
T60SSILL
 62
6
 10
3917.840
 20
-9044.687
 30
-808.101
 70
    32
  0
VERTEX
  8
T60SSILL
 62
6
 10
3938.410
 20
-9053.457
 30
-808.132
 70
    32
  0
VERTEX
  8
T60SSILL
 62
6
 10
3950.443
 20
-9051.391
 30
-808.197
 70
    32
  0
VERTEX
  8
T60SSILL
 62
6
 10
3960.365
 20
-9045.410
 30
-808.279
 70
    32
  0
VERTEX
  8
T60SSILL
 62
6
 10
3963.845
 20
-9040.777
 30
-808.325
 70
    32
  0
VERTEX
  8
T60SSILL
 62
6
 10
3965.986
 20
-9032.536
 30
-808.388
 70
    32
  0
VERTEX
  8
T60SSILL
 62
6
 10
3978.217
 20
-9024.641
 30
-808.492
 70
    32
  0
VERTEX
  8
T60SSILL
 62
6
 10
3979.208
 20
-9019.651
 30
-808.529
 70
    32
  0
VERTEX
  8
T60SSILL
 62
6
 10
4038.991
 20
-9101.839
 30
-808.132
 70
    32
  0
VERTEX
  8
T60SSILL
 62
6
 10
4044.881
 20
-9097.510
 30
-808.160
 70
    32
  0
VERTEX
  8
T60SSILL
 62
6
 10
4010.304
 20
-9048.822
 30
-808.472
 70
    32
  0
VERTEX
  8
T60SSILL
 62
6
 10
4037.500
 20
-9021.732
 30
-808.756
 70
    32
  0
VERTEX
  8
T60SSILL
 62
6
 10
4044.537
 20
-9028.036
 30
-808.700
 70
    32
  0
VERTEX
  8
T60SSILL
 62
6
 10
4048.775
 20
-9023.392
 30
-808.732
 70
    32
  0
VERTEX
  8
T60SSILL
 62
6
 10
4042.873
 20
-9016.254
 30
-808.794
 70
    32
  0
VERTEX
  8
T60SSILL
 62
6
 10
4048.058
 20
-9021.078
 30
-808.751
 70
    32
  0
VERTEX
  8
T60SSILL
 62
6
 10
4089.285
 20
-8991.219
 30
-808.943
 70
    32
  0
VERTEX
  8
T60SSILL
 62
6
 10
4097.881
 20
-8994.737
 30
-808.907
 70
    32
  0
VERTEX
  8
T60SSILL
 62
6
 10
4103.464
 20
-8991.181
 30
-808.928
 70
    32
  0
VERTEX
  8
T60SSILL
 62
6
 10
4107.556
 20
-8978.010
 30
-809.027
 70
    32
  0
VERTEX
  8
T60SSILL
 62
6
 10
4124.005
 20
-8969.311
 30
-809.077
 70
    32
  0
VERTEX
  8
T60SSILL
 62
6
 10
4130.443
 20
-8968.405
 30
-809.077
 70
    32
  0
VERTEX
  8
T60SSILL
 62
6
 10
4210.201
 20
-8982.799
 30
-808.878
 70
    32
  0
VERTEX
  8
T60SSILL
 62
6
 10
4221.531
 20
-8987.806
 30
-808.827
 70
    32
  0
VERTEX
  8
T60SSILL
 62
6
 10
4256.020
 20
-9038.308
 30
-808.395
 70
    32
  0
VERTEX
  8
T60SSILL
 62
6
 10
4254.514
 20
-9042.803
 30
-808.362
 70
    32
  0
VERTEX
  8
T60SSILL
 62
6
 10
4256.093
 20
-9045.249
 30
-808.341
 70
    32
  0
VERTEX
  8
T60SSILL
 62
6
 10
4262.823
 20
-9046.970
 30
-808.320
 70
    32
  0
VERTEX
  8
T60SSILL
 62
6
 10
4298.977
 20
-9100.184
 30
-807.860
 70
    32
  0
VERTEX
  8
T60SSILL
 62
6
 10
4311.985
 20
-9111.936
 30
-807.753
 70
    32
  0
VERTEX
  8
T60SSILL
 62
6
 10
4316.158
 20
-9113.897
 30
-807.738
 70
    32
  0
VERTEX
  8
T60SSILL
 62
6
 10
4314.371
 20
-9116.522
 30
-807.711
 70
    32
  0
VERTEX
  8
T60SSILL
 62
6
 10
4318.952
 20
-9119.931
 30
-807.683
 70
    32
  0
VERTEX
  8
T60SSILL
 62
6
 10
4322.780
 20
-9117.555
 30
-807.710
 70
    32
  0
VERTEX
  8
T60SSILL
 62
6
 10
4399.411
 20
-9166.991
 30
-807.252
 70
    32
  0
VERTEX
  8
T60SSILL
 62
6
 10
4400.038
 20
-9172.667
 30
-807.184
 70
    32
  0
VERTEX
  8
T60SSILL
 62
6
 10
4403.482
 20
-9173.916
 30
-807.166
 70
    32
  0
VERTEX
  8
T60SSILL
 62
6
 10
4409.340
 20
-9172.626
 30
-807.177
 70
    32
  0
VERTEX
  8
T60SSILL
 62
6
 10
4488.853
 20
-9223.978
 30
-806.436
 70
    32
  0
VERTEX
  8
T60SSILL
 62
6
 10
4489.341
 20
-9227.606
 30
-806.374
 70
    32
  0
VERTEX
  8
T60SSILL
 62
6
 10
4495.398
 20
-9227.679
 30
-806.375
 70
    32
  0
VERTEX
  8
T60SSILL
 62
6
 10
4499.090
 20
-9230.363
 30
-806.331
 70
    32
  0
VERTEX
  8
T60SSILL
 62
6
 10
4483.757
 20
-9231.601
 30
-806.305
 70
    32
  0
VERTEX
  8
T60SSILL
 62
6
 10
4469.696
 20
-9237.745
 30
-806.219
 70
    32
  0
VERTEX
  8
T60SSILL
 62
6
 10
4206.635
 20
-9426.133
 30
-805.157
 70
    32
  0
VERTEX
  8
T60SSILL
 62
6
 10
4192.780
 20
-9424.549
 30
-805.204
 70
    32
  0
VERTEX
  8
T60SSILL
 62
6
 10
4189.364
 20
-9427.504
 30
-805.185
 70
    32
  0
VERTEX
  8
T60SSILL
 62
6
 10
4188.878
 20
-9438.418
 30
-805.088
 70
    32
  0
VERTEX
  8
T60SSILL
 62
6
 10
4123.656
 20
-9486.174
 30
-804.878
 70
    32
  0
VERTEX
  8
T60SSILL
 62
6
 10
4113.618
 20
-9472.438
 30
-804.986
 70
    32
  0
VERTEX
  8
T60SSILL
 62
6
 10
4107.527
 20
-9477.717
 30
-804.962
 70
    32
  0
VERTEX
  8
T60SSILL
 62
6
 10
4117.035
 20
-9490.856
 30
-804.859
 70
    32
  0
VERTEX
  8
T60SSILL
 62
6
 10
4108.739
 20
-9496.832
 30
-804.834
 70
    32
  0
VERTEX
  8
T60SSILL
 62
6
 10
4103.348
 20
-9488.929
 30
-804.895
 70
    32
  0
VERTEX
  8
T60SSILL
 62
6
 10
4100.358
 20
-9490.020
 30
-804.893
 70
    32
  0
VERTEX
  8
T60SSILL
 62
6
 10
4103.455
 20
-9500.352
 30
-804.820
 70
    32
  0
VERTEX
  8
T60SSILL
 62
6
 10
4096.793
 20
-9505.280
 30
-804.799
 70
    32
  0
VERTEX
  8
T60SSILL
 62
6
 10
4100.382
 20
-9511.271
 30
-804.753
 70
    32
  0
VERTEX
  8
T60SSILL
 62
6
 10
4120.840
 20
-9496.694
 30
-804.814
 70
    32
  0
VERTEX
  8
T60SSILL
 62
6
 10
4134.354
 20
-9515.640
 30
-804.666
 70
    32
  0
VERTEX
  8
T60SSILL
 62
6
 10
4136.476
 20
-9526.918
 30
-804.618
 70
    32
  0
VERTEX
  8
T60SSILL
 62
6
 10
4145.523
 20
-9544.587
 30
-804.537
 70
    32
  0
VERTEX
  8
T60SSILL
 62
6
 10
4158.912
 20
-9580.446
 30
-804.425
 70
    32
  0
VERTEX
  8
T60SSILL
 62
6
 10
4169.419
 20
-9596.974
 30
-804.389
 70
    32
  0
VERTEX
  8
T60SSILL
 62
6
 10
4193.143
 20
-9623.794
 30
-804.327
 70
    32
  0
VERTEX
  8
T60SSILL
 62
6
 10
4229.366
 20
-9677.281
 30
-804.279
 70
    32
  0
VERTEX
  8
T60SSILL
 62
6
 10
4230.204
 20
-9688.390
 30
-804.284
 70
    32
  0
VERTEX
  8
T60SSILL
 62
6
 10
4207.860
 20
-9704.611
 30
-804.309
 70
    32
  0
VERTEX
  8
T60SSILL
 62
6
 10
4211.135
 20
-9709.852
 30
-804.309
 70
    32
  0
VERTEX
  8
T60SSILL
 62
6
 10
4231.530
 20
-9695.644
 30
-804.287
 70
    32
  0
VERTEX
  8
T60SSILL
 62
6
 10
4234.787
 20
-9700.249
 30
-804.287
 70
    32
  0
VERTEX
  8
T60SSILL
 62
6
 10
4235.689
 20
-9704.577
 30
-804.288
 70
    32
  0
VERTEX
  8
T60SSILL
 62
6
 10
4238.627
 20
-9707.358
 30
-804.287
 70
    32
  0
VERTEX
  8
T60SSILL
 62
6
 10
4243.574
 20
-9720.916
 30
-804.291
 70
    32
  0
VERTEX
  8
T60SSILL
 62
6
 10
4244.036
 20
-9735.919
 30
-804.298
 70
    32
  0
VERTEX
  8
T60SSILL
 62
6
 10
4247.971
 20
-9744.688
 30
-804.300
 70
    32
  0
VERTEX
  8
T60SSILL
 62
6
 10
4248.913
 20
-9751.363
 30
-804.303
 70
    32
  0
VERTEX
  8
T60SSILL
 62
6
 10
4251.713
 20
-9785.547
 30
-804.318
 70
    32
  0
VERTEX
  8
T60SSILL
 62
6
 10
4241.946
 20
-9794.938
 30
-804.331
 70
    32
  0
VERTEX
  8
T60SSILL
 62
6
 10
4243.424
 20
-9805.120
 30
-804.335
 70
    32
  0
VERTEX
  8
T60SSILL
 62
6
 10
4247.796
 20
-9810.233
 30
-804.334
 70
    32
  0
VERTEX
  8
T60SSILL
 62
6
 10
4248.356
 20
-9815.451
 30
-804.336
 70
    32
  0
VERTEX
  8
T60SSILL
 62
6
 10
4262.593
 20
-9825.354
 30
-804.386
 70
    32
  0
VERTEX
  8
T60SSILL
 62
6
 10
4265.881
 20
-9831.989
 30
-804.406
 70
    32
  0
VERTEX
  8
T60SSILL
 62
6
 10
4268.804
 20
-9831.541
 30
-804.411
 70
    32
  0
VERTEX
  8
T60SSILL
 62
6
 10
4309.222
 20
-9865.032
 30
-804.701
 70
    32
  0
VERTEX
  8
T60SSILL
 62
6
 10
4316.005
 20
-9867.143
 30
-804.748
 70
    32
  0
VERTEX
  8
T60SSILL
 62
6
 10
4320.916
 20
-9873.171
 30
-804.803
 70
    32
  0
VERTEX
  8
T60SSILL
 62
6
 10
4234.481
 20
-9935.811
 30
-804.607
 70
    32
  0
VERTEX
  8
T60SSILL
 62
6
 10
4239.044
 20
-9941.652
 30
-804.659
 70
    32
  0
VERTEX
  8
T60SSILL
 62
6
 10
4376.788
 20
-9842.725
 30
-804.974
 70
    32
  0
VERTEX
  8
T60SSILL
 62
6
 10
4384.005
 20
-9841.939
 30
-805.011
 70
    32
  0
VERTEX
  8
T60SSILL
 62
6
 10
4390.728
 20
-9837.401
 30
-805.027
 70
    32
  0
VERTEX
  8
T60SSILL
 62
6
 10
4407.851
 20
-9806.506
 30
-804.983
 70
    32
  0
VERTEX
  8
T60SSILL
 62
6
 10
4411.738
 20
-9786.052
 30
-804.912
 70
    32
  0
VERTEX
  8
T60SSILL
 62
6
 10
4437.099
 20
-9825.118
 30
-805.228
 70
    32
  0
VERTEX
  8
T60SSILL
 62
6
 10
4443.512
 20
-9820.906
 30
-805.245
 70
    32
  0
VERTEX
  8
T60SSILL
 62
6
 10
4295.251
 20
-9593.254
 30
-804.316
 70
    32
  0
VERTEX
  8
T60SSILL
 62
6
 10
4306.617
 20
-9585.971
 30
-804.391
 70
    32
  0
VERTEX
  8
T60SSILL
 62
6
 10
4302.286
 20
-9578.778
 30
-804.408
 70
    32
  0
VERTEX
  8
T60SSILL
 62
6
 10
4295.924
 20
-9583.062
 30
-804.365
 70
    32
  0
VERTEX
  8
T60SSILL
 62
6
 10
4287.345
 20
-9581.464
 30
-804.341
 70
    32
  0
VERTEX
  8
T60SSILL
 62
6
 10
4218.205
 20
-9473.933
 30
-804.796
 70
    32
  0
VERTEX
  8
T60SSILL
 62
6
 10
4214.865
 20
-9467.226
 30
-804.846
 70
    32
  0
VERTEX
  8
T60SSILL
 62
6
 10
4213.627
 20
-9451.585
 30
-804.951
 70
    32
  0
VERTEX
  8
T60SSILL
 62
6
 10
4217.161
 20
-9434.295
 30
-805.064
 70
    32
  0
VERTEX
  8
T60SSILL
 62
6
 10
4228.132
 20
-9419.735
 30
-805.168
 70
    32
  0
VERTEX
  8
T60SSILL
 62
6
 10
4471.451
 20
-9244.888
 30
-806.133
 70
    32
  0
VERTEX
  8
T60SSILL
 62
6
 10
4477.438
 20
-9241.471
 30
-806.158
 70
    32
  0
VERTEX
  8
T60SSILL
 62
6
 10
4490.181
 20
-9237.746
 30
-806.202
 70
    32
  0
VERTEX
  8
T60SSILL
 62
6
 10
4504.142
 20
-9237.464
 30
-806.211
 70
    32
  0
VERTEX
  8
T60SSILL
 62
6
 10
4520.278
 20
-9243.388
 30
-806.135
 70
    32
  0
VERTEX
  8
T60SSILL
 62
6
 10
4573.122
 20
-9276.308
 30
-805.857
 70
    32
  0
VERTEX
  8
T60SSILL
 62
6
 10
4575.047
 20
-9282.153
 30
-805.809
 70
    32
  0
VERTEX
  8
T60SSILL
 62
6
 10
4578.289
 20
-9283.113
 30
-805.801
 70
    32
  0
VERTEX
  8
T60SSILL
 62
6
 10
4581.854
 20
-9281.918
 30
-805.809
 70
    32
  0
VERTEX
  8
T60SSILL
 62
6
 10
4660.236
 20
-9332.877
 30
-804.805
 70
    32
  0
VERTEX
  8
T60SSILL
 62
6
 10
4658.689
 20
-9337.279
 30
-804.768
 70
    32
  0
VERTEX
  8
T60SSILL
 62
6
 10
4663.943
 20
-9341.128
 30
-804.677
 70
    32
  0
VERTEX
  8
T60SSILL
 62
6
 10
4671.130
 20
-9339.127
 30
-804.637
 70
    32
  0
VERTEX
  8
T60SSILL
 62
6
 10
4745.316
 20
-9386.680
 30
-804.726
 70
    32
  0
VERTEX
  8
T60SSILL
 62
6
 10
4746.804
 20
-9391.436
 30
-804.752
 70
    32
  0
VERTEX
  8
T60SSILL
 62
6
 10
4753.303
 20
-9396.456
 30
-804.803
 70
    32
  0
VERTEX
  8
T60SSILL
 62
6
 10
4759.397
 20
-9395.967
 30
-804.829
 70
    32
  0
VERTEX
  8
T60SSILL
 62
6
 10
4822.874
 20
-9435.532
 30
-805.284
 70
    32
  0
VERTEX
  8
T60SSILL
 62
6
 10
4840.213
 20
-9439.333
 30
-805.379
 70
    32
  0
VERTEX
  8
T60SSILL
 62
6
 10
4845.379
 20
-9443.672
 30
-805.421
 70
    32
  0
VERTEX
  8
T60SSILL
 62
6
 10
4851.475
 20
-9439.642
 30
-805.432
 70
    32
  0
VERTEX
  8
T60SSILL
 62
6
 10
5032.229
 20
-9417.822
 30
-806.541
 70
    32
  0
VERTEX
  8
T60SSILL
 62
6
 10
5036.426
 20
-9417.688
 30
-806.568
 70
    32
  0
VERTEX
  8
T60SSILL
 62
6
 10
5036.279
 20
-9421.329
 30
-806.540
 70
    32
  0
VERTEX
  8
T60SSILL
 62
6
 10
5043.166
 20
-9421.361
 30
-806.581
 70
    32
  0
VERTEX
  8
T60SSILL
 62
6
 10
5045.514
 20
-9419.189
 30
-806.611
 70
    32
  0
VERTEX
  8
T60SSILL
 62
6
 10
5053.523
 20
-9422.836
 30
-806.633
 70
    32
  0
VERTEX
  8
T60SSILL
 62
6
 10
5120.797
 20
-9466.622
 30
-807.129
 70
    32
  0
VERTEX
  8
T60SSILL
 62
6
 10
5120.176
 20
-9469.736
 30
-807.183
 70
    32
  0
VERTEX
  8
T60SSILL
 62
6
 10
5122.490
 20
-9473.058
 30
-807.243
 70
    32
  0
VERTEX
  8
T60SSILL
 62
6
 10
5129.801
 20
-9476.011
 30
-807.300
 70
    32
  0
VERTEX
  8
T60SSILL
 62
6
 10
5136.276
 20
-9476.222
 30
-807.309
 70
    32
  0
VERTEX
  8
T60SSILL
 62
6
 10
5197.970
 20
-9516.967
 30
-808.006
 70
    32
  0
VERTEX
  8
T60SSILL
 62
6
 10
5273.666
 20
-9623.923
 30
-808.930
 70
    32
  0
VERTEX
  8
T60SSILL
 62
6
 10
5284.361
 20
-9632.823
 30
-809.044
 70
    32
  0
VERTEX
  8
T60SSILL
 62
6
 10
5297.113
 20
-9636.642
 30
-809.116
 70
    32
  0
VERTEX
  8
T60SSILL
 62
6
 10
5261.116
 20
-9662.145
 30
-808.955
 70
    32
  0
VERTEX
  8
T60SSILL
 62
6
 10
5251.187
 20
-9664.982
 30
-808.913
 70
    32
  0
VERTEX
  8
T60SSILL
 62
6
 10
5240.132
 20
-9665.279
 30
-808.870
 70
    32
  0
VERTEX
  8
T60SSILL
 62
6
 10
5229.956
 20
-9663.141
 30
-808.832
 70
    32
  0
VERTEX
  8
T60SSILL
 62
6
 10
5215.179
 20
-9655.626
 30
-808.766
 70
    32
  0
VERTEX
  8
T60SSILL
 62
6
 10
5103.998
 20
-9569.267
 30
-807.636
 70
    32
  0
VERTEX
  8
T60SSILL
 62
6
 10
5099.157
 20
-9576.177
 30
-807.650
 70
    32
  0
VERTEX
  8
T60SSILL
 62
6
 10
5210.806
 20
-9662.747
 30
-808.757
 70
    32
  0
VERTEX
  8
T60SSILL
 62
6
 10
5229.379
 20
-9672.016
 30
-808.822
 70
    32
  0
VERTEX
  8
T60SSILL
 62
6
 10
5245.373
 20
-9674.500
 30
-808.883
 70
    32
  0
VERTEX
  8
T60SSILL
 62
6
 10
5180.289
 20
-9720.889
 30
-808.591
 70
    32
  0
VERTEX
  8
T60SSILL
 62
6
 10
5185.025
 20
-9726.922
 30
-808.605
 70
    32
  0
VERTEX
  8
T60SSILL
 62
6
 10
5328.516
 20
-9623.852
 30
-809.337
 70
    32
  0
VERTEX
  8
T60SSILL
 62
6
 10
5324.883
 20
-9630.995
 30
-809.256
 70
    32
  0
VERTEX
  8
T60SSILL
 62
6
 10
5322.402
 20
-9645.826
 30
-809.187
 70
    32
  0
VERTEX
  8
T60SSILL
 62
6
 10
5322.715
 20
-9653.237
 30
-809.203
 70
    32
  0
VERTEX
  8
T60SSILL
 62
6
 10
5327.595
 20
-9669.077
 30
-809.209
 70
    32
  0
VERTEX
  8
T60SSILL
 62
6
 10
5371.447
 20
-9732.512
 30
-809.331
 70
    32
  0
VERTEX
  8
T60SSILL
 62
6
 10
5377.338
 20
-9728.312
 30
-809.357
 70
    32
  0
VERTEX
  8
T60SSILL
 62
6
 10
5368.400
 20
-9715.291
 30
-809.333
 70
    32
  0
VERTEX
  8
T60SSILL
 62
6
 10
5374.333
 20
-9701.715
 30
-809.367
 70
    32
  0
VERTEX
  8
T60SSILL
 62
6
 10
5351.163
 20
-9684.291
 30
-809.290
 70
    32
  0
VERTEX
  8
T60SSILL
 62
6
 10
5345.599
 20
-9683.859
 30
-809.268
 70
    32
  0
VERTEX
  8
T60SSILL
 62
6
 10
5331.920
 20
-9662.312
 30
-809.232
 70
    32
  0
VERTEX
  8
T60SSILL
 62
6
 10
5330.063
 20
-9656.082
 30
-809.222
 70
    32
  0
VERTEX
  8
T60SSILL
 62
6
 10
5330.165
 20
-9639.681
 30
-809.242
 70
    32
  0
VERTEX
  8
T60SSILL
 62
6
 10
5335.397
 20
-9624.014
 30
-809.367
 70
    32
  0
VERTEX
  8
T60SSILL
 62
6
 10
5341.220
 20
-9614.920
 30
-809.476
 70
    32
  0
VERTEX
  8
T60SSILL
 62
6
 10
5468.480
 20
-9523.293
 30
-810.538
 70
    32
  0
VERTEX
  8
T60SSILL
 62
6
 10
5467.368
 20
-9532.982
 30
-810.502
 70
    32
  0
VERTEX
  8
T60SSILL
 62
6
 10
5468.394
 20
-9539.253
 30
-810.478
 70
    32
  0
VERTEX
  8
T60SSILL
 62
6
 10
5476.002
 20
-9557.833
 30
-810.402
 70
    32
  0
VERTEX
  8
T60SSILL
 62
6
 10
5472.656
 20
-9561.921
 30
-810.389
 70
    32
  0
VERTEX
  8
T60SSILL
 62
6
 10
5475.675
 20
-9567.069
 30
-810.367
 70
    32
  0
VERTEX
  8
T60SSILL
 62
6
 10
5479.754
 20
-9566.485
 30
-810.366
 70
    32
  0
VERTEX
  8
T60SSILL
 62
6
 10
5512.286
 20
-9641.515
 30
-810.056
 70
    32
  0
VERTEX
  8
T60SSILL
 62
6
 10
5502.534
 20
-9654.127
 30
-809.970
 70
    32
  0
VERTEX
  8
T60SSILL
 62
6
 10
5500.643
 20
-9659.925
 30
-809.942
 70
    32
  0
VERTEX
  8
T60SSILL
 62
6
 10
5501.545
 20
-9663.839
 30
-809.933
 70
    32
  0
VERTEX
  8
T60SSILL
 62
6
 10
5506.225
 20
-9662.843
 30
-809.958
 70
    32
  0
VERTEX
  8
T60SSILL
 62
6
 10
5510.147
 20
-9665.706
 30
-809.966
 70
    32
  0
VERTEX
  8
T60SSILL
 62
6
 10
5512.283
 20
-9678.833
 30
-809.932
 70
    32
  0
VERTEX
  8
T60SSILL
 62
6
 10
5520.849
 20
-9688.998
 30
-809.937
 70
    32
  0
VERTEX
  8
T60SSILL
 62
6
 10
5523.749
 20
-9698.586
 30
-809.918
 70
    32
  0
VERTEX
  8
T60SSILL
 62
6
 10
5519.397
 20
-9712.890
 30
-809.851
 70
    32
  0
VERTEX
  8
T60SSILL
 62
6
 10
5521.853
 20
-9723.539
 30
-809.826
 70
    32
  0
VERTEX
  8
T60SSILL
 62
6
 10
5515.184
 20
-9730.642
 30
-809.772
 70
    32
  0
VERTEX
  8
T60SSILL
 62
6
 10
5509.369
 20
-9733.715
 30
-809.736
 70
    32
  0
VERTEX
  8
T60SSILL
 62
6
 10
5517.286
 20
-9747.124
 30
-809.727
 70
    32
  0
VERTEX
  8
T60SSILL
 62
6
 10
5514.500
 20
-9756.258
 30
-809.684
 70
    32
  0
VERTEX
  8
T60SSILL
 62
6
 10
5515.958
 20
-9764.698
 30
-809.663
 70
    32
  0
VERTEX
  8
T60SSILL
 62
6
 10
5523.987
 20
-9767.286
 30
-809.690
 70
    32
  0
VERTEX
  8
T60SSILL
 62
6
 10
5530.422
 20
-9756.907
 30
-809.754
 70
    32
  0
VERTEX
  8
T60SSILL
 62
6
 10
5537.269
 20
-9750.217
 30
-809.807
 70
    32
  0
VERTEX
  8
T60SSILL
 62
6
 10
5547.825
 20
-9745.462
 30
-809.870
 70
    32
  0
VERTEX
  8
T60SSILL
 62
6
 10
5559.267
 20
-9749.869
 30
-809.907
 70
    32
  0
VERTEX
  8
T60SSILL
 62
6
 10
5567.120
 20
-9765.041
 30
-809.892
 70
    32
  0
VERTEX
  8
T60SSILL
 62
6
 10
5575.675
 20
-9772.098
 30
-809.907
 70
    32
  0
VERTEX
  8
T60SSILL
 62
6
 10
5591.080
 20
-9777.726
 30
-809.957
 70
    32
  0
VERTEX
  8
T60SSILL
 62
6
 10
5548.256
 20
-9808.872
 30
-809.819
 70
    32
  0
VERTEX
  8
T60SSILL
 62
6
 10
5552.881
 20
-9815.220
 30
-809.843
 70
    32
  0
VERTEX
  8
T60SSILL
 62
6
 10
5617.183
 20
-9769.370
 30
-810.103
 70
    32
  0
VERTEX
  8
T60SSILL
 62
6
 10
5634.065
 20
-9790.732
 30
-810.108
 70
    32
  0
VERTEX
  8
T60SSILL
 62
6
 10
5642.627
 20
-9805.842
 30
-810.096
 70
    32
  0
VERTEX
  8
T60SSILL
 62
6
 10
5649.921
 20
-9823.765
 30
-810.069
 70
    32
  0
VERTEX
  8
T60SSILL
 62
6
 10
5656.363
 20
-9821.439
 30
-810.106
 70
    32
  0
VERTEX
  8
T60SSILL
 62
6
 10
5648.571
 20
-9803.109
 30
-810.132
 70
    32
  0
VERTEX
  8
T60SSILL
 62
6
 10
5641.773
 20
-9777.857
 30
-810.185
 70
    32
  0
VERTEX
  8
T60SSILL
 62
6
 10
5626.469
 20
-9762.167
 30
-810.169
 70
    32
  0
VERTEX
  8
T60SSILL
 62
6
 10
5725.506
 20
-9689.609
 30
-810.940
 70
    32
  0
VERTEX
  8
T60SSILL
 62
6
 10
5733.011
 20
-9678.916
 30
-810.931
 70
    32
  0
VERTEX
  8
T60SSILL
 62
6
 10
5735.214
 20
-9667.394
 30
-810.937
 70
    32
  0
VERTEX
  8
T60SSILL
 62
6
 10
5878.944
 20
-9867.184
 30
-810.932
 70
    32
  0
VERTEX
  8
T60SSILL
 62
6
 10
5884.767
 20
-9966.813
 30
-810.650
 70
    32
  0
VERTEX
  8
T60SSILL
 62
6
 10
5902.753
 20
-10065.083
 30
-810.819
 70
    32
  0
VERTEX
  8
T60SSILL
 62
6
 10
5968.680
 20
-10169.535
 30
-811.211
 70
    32
  0
VERTEX
  8
T60SSILL
 62
6
 10
5976.545
 20
-10164.035
 30
-811.193
 70
    32
  0
VERTEX
  8
T60SSILL
 62
6
 10
5911.367
 20
-10059.852
 30
-810.801
 70
    32
  0
VERTEX
  8
T60SSILL
 62
6
 10
5893.886
 20
-9963.701
 30
-810.702
 70
    32
  0
VERTEX
  8
T60SSILL
 62
6
 10
5888.625
 20
-9880.656
 30
-810.934
 70
    32
  0
VERTEX
  8
T60SSILL
 62
6
 10
5948.151
 20
-9963.272
 30
-810.941
 70
    32
  0
VERTEX
  8
T60SSILL
 62
6
 10
5943.054
 20
-9969.834
 30
-810.926
 70
    32
  0
VERTEX
  8
T60SSILL
 62
6
 10
5943.203
 20
-9972.523
 30
-810.916
 70
    32
  0
VERTEX
  8
T60SSILL
 62
6
 10
5945.277
 20
-9974.735
 30
-810.918
 70
    32
  0
VERTEX
  8
T60SSILL
 62
6
 10
5955.226
 20
-9973.090
 30
-810.942
 70
    32
  0
VERTEX
  8
T60SSILL
 62
6
 10
6010.748
 20
-10050.397
 30
-810.948
 70
    32
  0
VERTEX
  8
T60SSILL
 62
6
 10
6008.999
 20
-10058.496
 30
-810.907
 70
    32
  0
VERTEX
  8
T60SSILL
 62
6
 10
5999.438
 20
-10066.795
 30
-810.844
 70
    32
  0
VERTEX
  8
T60SSILL
 62
6
 10
5995.400
 20
-10079.611
 30
-810.889
 70
    32
  0
VERTEX
  8
T60SSILL
 62
6
 10
6011.454
 20
-10085.360
 30
-810.913
 70
    32
  0
VERTEX
  8
T60SSILL
 62
6
 10
6033.903
 20
-10099.637
 30
-810.970
 70
    32
  0
VERTEX
  8
T60SSILL
 62
6
 10
6038.201
 20
-10103.938
 30
-810.986
 70
    32
  0
VERTEX
  8
T60SSILL
 62
6
 10
6043.177
 20
-10104.755
 30
-810.990
 70
    32
  0
VERTEX
  8
T60SSILL
 62
6
 10
6053.754
 20
-10112.079
 30
-811.016
 70
    32
  0
VERTEX
  8
T60SSILL
 62
6
 10
6084.459
 20
-10156.254
 30
-810.813
 70
    32
  0
VERTEX
  8
T60SSILL
 62
6
 10
6086.624
 20
-10170.105
 30
-811.018
 70
    32
  0
VERTEX
  8
T60SSILL
 62
6
 10
6084.897
 20
-10177.007
 30
-811.222
 70
    32
  0
VERTEX
  8
T60SSILL
 62
6
 10
6079.347
 20
-10185.509
 30
-811.291
 70
    32
  0
VERTEX
  8
T60SSILL
 62
6
 10
6073.098
 20
-10190.094
 30
-811.306
 70
    32
  0
VERTEX
  8
T60SSILL
 62
6
 10
6077.531
 20
-10197.201
 30
-811.333
 70
    32
  0
VERTEX
  8
T60SSILL
 62
6
 10
6083.159
 20
-10193.265
 30
-811.320
 70
    32
  0
VERTEX
  8
T60SSILL
 62
6
 10
6091.574
 20
-10182.867
 30
-811.101
 70
    32
  0
VERTEX
  8
T60SSILL
 62
6
 10
6094.890
 20
-10170.555
 30
-810.730
 70
    32
  0
VERTEX
  8
T60SSILL
 62
6
 10
6188.197
 20
-10300.744
 30
-810.373
 70
    32
  0
VERTEX
  8
T60SSILL
 62
6
 10
6187.478
 20
-10312.314
 30
-810.594
 70
    32
  0
VERTEX
  8
T60SSILL
 62
6
 10
6176.326
 20
-10344.611
 30
-811.462
 70
    32
  0
VERTEX
  8
T60SSILL
 62
6
 10
6149.059
 20
-10306.776
 30
-811.563
 70
    32
  0
VERTEX
  8
T60SSILL
 62
6
 10
6142.635
 20
-10314.115
 30
-811.770
 70
    32
  0
VERTEX
  8
T60SSILL
 62
6
 10
6165.398
 20
-10346.344
 30
-811.791
 70
    32
  0
VERTEX
  8
T60SSILL
 62
6
 10
6162.752
 20
-10359.154
 30
-811.932
 70
    32
  0
VERTEX
  8
T60SSILL
 62
6
 10
6166.875
 20
-10365.511
 30
-811.933
 70
    32
  0
VERTEX
  8
T60SSILL
 62
6
 10
6172.890
 20
-10367.966
 30
-811.933
 70
    32
  0
VERTEX
  8
T60SSILL
 62
6
 10
6178.114
 20
-10364.527
 30
-811.759
 70
    32
  0
VERTEX
  8
T60SSILL
 62
6
 10
6183.882
 20
-10371.238
 30
-811.716
 70
    32
  0
VERTEX
  8
T60SSILL
 62
6
 10
6192.432
 20
-10364.721
 30
-811.369
 70
    32
  0
VERTEX
  8
T60SSILL
 62
6
 10
6183.451
 20
-10349.728
 30
-811.356
 70
    32
  0
VERTEX
  8
T60SSILL
 62
6
 10
6196.997
 20
-10317.476
 30
-810.423
 70
    32
  0
VERTEX
  8
T60SSILL
 62
6
 10
6200.192
 20
-10317.282
 30
-810.332
 70
    32
  0
VERTEX
  8
T60SSILL
 62
6
 10
6287.191
 20
-10438.452
 30
-810.035
 70
    32
  0
VERTEX
  8
T60SSILL
 62
6
 10
6282.370
 20
-10443.543
 30
-810.255
 70
    32
  0
VERTEX
  8
T60SSILL
 62
6
 10
6287.185
 20
-10451.350
 30
-810.257
 70
    32
  0
VERTEX
  8
T60SSILL
 62
6
 10
6290.445
 20
-10454.013
 30
-810.214
 70
    32
  0
VERTEX
  8
T60SSILL
 62
6
 10
6297.003
 20
-10451.253
 30
-809.986
 70
    32
  0
VERTEX
  8
T60SSILL
 62
6
 10
6334.403
 20
-10503.962
 30
-809.778
 70
    32
  0
VERTEX
  8
T60SSILL
 62
6
 10
6336.455
 20
-10511.659
 30
-809.745
 70
    32
  0
VERTEX
  8
T60SSILL
 62
6
 10
6334.993
 20
-10523.856
 30
-809.752
 70
    32
  0
VERTEX
  8
T60SSILL
 62
6
 10
6333.217
 20
-10528.537
 30
-809.770
 70
    32
  0
VERTEX
  8
T60SSILL
 62
6
 10
6328.425
 20
-10533.822
 30
-809.825
 70
    32
  0
VERTEX
  8
T60SSILL
 62
6
 10
6300.977
 20
-10553.878
 30
-810.150
 70
    32
  0
VERTEX
  8
T60SSILL
 62
6
 10
6286.558
 20
-10552.465
 30
-810.332
 70
    32
  0
VERTEX
  8
T60SSILL
 62
6
 10
6281.558
 20
-10556.070
 30
-810.391
 70
    32
  0
VERTEX
  8
T60SSILL
 62
6
 10
6279.965
 20
-10569.002
 30
-810.399
 70
    32
  0
VERTEX
  8
T60SSILL
 62
6
 10
6219.824
 20
-10611.600
 30
-810.333
 70
    32
  0
VERTEX
  8
T60SSILL
 62
6
 10
6223.905
 20
-10617.127
 30
-810.312
 70
    32
  0
VERTEX
  8
T60SSILL
 62
6
 10
6327.036
 20
-10543.819
 30
-809.833
 70
    32
  0
VERTEX
  8
T60SSILL
 62
6
 10
6339.982
 20
-10530.682
 30
-809.693
 70
    32
  0
VERTEX
  8
T60SSILL
 62
6
 10
6343.753
 20
-10516.870
 30
-809.719
 70
    32
  0
VERTEX
  8
T60SSILL
 62
6
 10
6362.085
 20
-10543.697
 30
-809.715
 70
    32
  0
VERTEX
  8
T60SSILL
 62
6
 10
6362.338
 20
-10558.347
 30
-809.695
 70
    32
  0
VERTEX
  8
T60SSILL
 62
6
 10
6358.090
 20
-10574.857
 30
-809.664
 70
    32
  0
VERTEX
  8
T60SSILL
 62
6
 10
6354.481
 20
-10580.604
 30
-809.649
 70
    32
  0
VERTEX
  8
T60SSILL
 62
6
 10
6275.904
 20
-10636.633
 30
-810.386
 70
    32
  0
VERTEX
  8
T60SSILL
 62
6
 10
6279.545
 20
-10642.145
 30
-810.335
 70
    32
  0
VERTEX
  8
T60SSILL
 62
6
 10
6360.004
 20
-10585.122
 30
-809.653
 70
    32
  0
VERTEX
  8
T60SSILL
 62
6
 10
6367.843
 20
-10574.053
 30
-809.683
 70
    32
  0
VERTEX
  8
T60SSILL
 62
6
 10
6373.360
 20
-10558.590
 30
-809.714
 70
    32
  0
VERTEX
  8
T60SSILL
 62
6
 10
6400.870
 20
-10597.157
 30
-809.710
 70
    32
  0
VERTEX
  8
T60SSILL
 62
6
 10
6379.527
 20
-10614.153
 30
-809.647
 70
    32
  0
VERTEX
  8
T60SSILL
 62
6
 10
6369.427
 20
-10615.203
 30
-809.628
 70
    32
  0
VERTEX
  8
T60SSILL
 62
6
 10
6359.331
 20
-10611.571
 30
-809.615
 70
    32
  0
VERTEX
  8
T60SSILL
 62
6
 10
6339.670
 20
-10618.273
 30
-809.604
 70
    32
  0
VERTEX
  8
T60SSILL
 62
6
 10
6328.677
 20
-10634.295
 30
-809.726
 70
    32
  0
VERTEX
  8
T60SSILL
 62
6
 10
6329.617
 20
-10639.851
 30
-809.709
 70
    32
  0
VERTEX
  8
T60SSILL
 62
6
 10
6332.598
 20
-10644.642
 30
-809.667
 70
    32
  0
VERTEX
  8
T60SSILL
 62
6
 10
6340.514
 20
-10646.354
 30
-809.567
 70
    32
  0
VERTEX
  8
T60SSILL
 62
6
 10
6353.210
 20
-10645.842
 30
-809.555
 70
    32
  0
VERTEX
  8
T60SSILL
 62
6
 10
6365.154
 20
-10642.532
 30
-809.582
 70
    32
  0
VERTEX
  8
T60SSILL
 62
6
 10
6380.351
 20
-10632.718
 30
-809.623
 70
    32
  0
VERTEX
  8
T60SSILL
 62
6
 10
6375.651
 20
-10626.356
 30
-809.623
 70
    32
  0
VERTEX
  8
T60SSILL
 62
6
 10
6406.024
 20
-10603.759
 30
-809.710
 70
    32
  0
VERTEX
  8
T60SSILL
 62
6
 10
6518.153
 20
-10759.787
 30
-809.694
 70
    32
  0
VERTEX
  8
T60SSILL
 62
6
 10
6520.780
 20
-10773.530
 30
-809.679
 70
    32
  0
VERTEX
  8
T60SSILL
 62
6
 10
6520.073
 20
-10791.108
 30
-809.653
 70
    32
  0
VERTEX
  8
T60SSILL
 62
6
 10
6516.902
 20
-10801.169
 30
-809.633
 70
    32
  0
VERTEX
  8
T60SSILL
 62
6
 10
6506.683
 20
-10814.978
 30
-809.595
 70
    32
  0
VERTEX
  8
T60SSILL
 62
6
 10
6344.522
 20
-10930.322
 30
-809.337
 70
    32
  0
VERTEX
  8
T60SSILL
 62
6
 10
6329.589
 20
-10949.683
 30
-809.323
 70
    32
  0
VERTEX
  8
T60SSILL
 62
6
 10
6324.561
 20
-10969.532
 30
-809.328
 70
    32
  0
VERTEX
  8
T60SSILL
 62
6
 10
6324.557
 20
-10977.056
 30
-809.334
 70
    32
  0
VERTEX
  8
T60SSILL
 62
6
 10
6327.424
 20
-10987.300
 30
-809.347
 70
    32
  0
VERTEX
  8
T60SSILL
 62
6
 10
6387.850
 20
-11088.910
 30
-809.540
 70
    32
  0
VERTEX
  8
T60SSILL
 62
6
 10
6385.714
 20
-11089.544
 30
-809.536
 70
    32
  0
VERTEX
  8
T60SSILL
 62
6
 10
6387.275
 20
-11099.304
 30
-809.546
 70
    32
  0
VERTEX
  8
T60SSILL
 62
6
 10
6393.284
 20
-11098.218
 30
-809.557
 70
    32
  0
VERTEX
  8
T60SSILL
 62
6
 10
6449.933
 20
-11193.659
 30
-809.738
 70
    32
  0
VERTEX
  8
T60SSILL
 62
6
 10
6458.512
 20
-11188.412
 30
-809.750
 70
    32
  0
VERTEX
  8
T60SSILL
 62
6
 10
6405.258
 20
-11099.514
 30
-809.581
 70
    32
  0
VERTEX
  8
T60SSILL
 62
6
 10
6406.680
 20
-11096.478
 30
-809.581
 70
    32
  0
VERTEX
  8
T60SSILL
 62
6
 10
6412.509
 20
-11094.980
 30
-809.591
 70
    32
  0
VERTEX
  8
T60SSILL
 62
6
 10
6410.154
 20
-11085.775
 30
-809.580
 70
    32
  0
VERTEX
  8
T60SSILL
 62
6
 10
6399.218
 20
-11087.191
 30
-809.560
 70
    32
  0
VERTEX
  8
T60SSILL
 62
6
 10
6344.227
 20
-10995.963
 30
-809.386
 70
    32
  0
VERTEX
  8
T60SSILL
 62
6
 10
6342.633
 20
-10996.756
 30
-809.383
 70
    32
  0
VERTEX
  8
T60SSILL
 62
6
 10
6335.765
 20
-10981.251
 30
-809.359
 70
    32
  0
VERTEX
  8
T60SSILL
 62
6
 10
6335.853
 20
-10961.097
 30
-809.344
 70
    32
  0
VERTEX
  8
T60SSILL
 62
6
 10
6343.455
 20
-10946.003
 30
-809.347
 70
    32
  0
VERTEX
  8
T60SSILL
 62
6
 10
6354.265
 20
-10934.575
 30
-809.359
 70
    32
  0
VERTEX
  8
T60SSILL
 62
6
 10
6517.026
 20
-10816.555
 30
-809.612
 70
    32
  0
VERTEX
  8
T60SSILL
 62
6
 10
6523.204
 20
-10808.796
 30
-809.634
 70
    32
  0
VERTEX
  8
T60SSILL
 62
6
 10
6527.319
 20
-10800.546
 30
-809.653
 70
    32
  0
VERTEX
  8
T60SSILL
 62
6
 10
6530.954
 20
-10782.853
 30
-809.684
 70
    32
  0
VERTEX
  8
T60SSILL
 62
6
 10
6533.379
 20
-10780.943
 30
-809.691
 70
    32
  0
VERTEX
  8
T60SSILL
 62
6
 10
6569.194
 20
-10830.463
 30
-809.687
 70
    32
  0
VERTEX
  8
T60SSILL
 62
6
 10
6575.053
 20
-10825.936
 30
-809.704
 70
    32
  0
VERTEX
  8
T60SSILL
 62
6
 10
6364.110
 20
-10531.536
 30
-809.727
 70
    32
  0
VERTEX
  8
T60SSILL
 62
6
 10
6376.234
 20
-10535.199
 30
-809.723
 70
    32
  0
VERTEX
  8
T60SSILL
 62
6
 10
6386.765
 20
-10535.355
 30
-809.720
 70
    32
  0
VERTEX
  8
T60SSILL
 62
6
 10
6484.087
 20
-10517.038
 30
-809.682
 70
    32
  0
VERTEX
  8
T60SSILL
 62
6
 10
6482.864
 20
-10510.373
 30
-809.681
 70
    32
  0
VERTEX
  8
T60SSILL
 62
6
 10
6391.507
 20
-10527.848
 30
-809.716
 70
    32
  0
VERTEX
  8
T60SSILL
 62
6
 10
6379.974
 20
-10526.566
 30
-809.720
 70
    32
  0
VERTEX
  8
T60SSILL
 62
6
 10
6365.225
 20
-10522.376
 30
-809.725
 70
    32
  0
VERTEX
  8
T60SSILL
 62
6
 10
6359.087
 20
-10519.899
 30
-809.726
 70
    32
  0
VERTEX
  8
T60SSILL
 62
6
 10
6352.770
 20
-10514.862
 30
-809.727
 70
    32
  0
VERTEX
  8
T60SSILL
 62
6
 10
6294.946
 20
-10435.714
 30
-809.881
 70
    32
  0
VERTEX
  8
T60SSILL
 62
6
 10
6315.461
 20
-10434.475
 30
-809.836
 70
    32
  0
VERTEX
  8
T60SSILL
 62
6
 10
6387.233
 20
-10384.388
 30
-809.716
 70
    32
  0
VERTEX
  8
T60SSILL
 62
6
 10
6396.711
 20
-10386.570
 30
-809.693
 70
    32
  0
VERTEX
  8
T60SSILL
 62
6
 10
6407.376
 20
-10376.318
 30
-809.681
 70
    32
  0
VERTEX
  8
T60SSILL
 62
6
 10
6408.822
 20
-10368.860
 30
-809.680
 70
    32
  0
VERTEX
  8
T60SSILL
 62
6
 10
6480.624
 20
-10316.817
 30
-809.644
 70
    32
  0
VERTEX
  8
T60SSILL
 62
6
 10
6476.493
 20
-10311.218
 30
-809.644
 70
    32
  0
VERTEX
  8
T60SSILL
 62
6
 10
6411.806
 20
-10356.995
 30
-809.683
 70
    32
  0
VERTEX
  8
T60SSILL
 62
6
 10
6405.605
 20
-10351.662
 30
-809.701
 70
    32
  0
VERTEX
  8
T60SSILL
 62
6
 10
6400.827
 20
-10357.582
 30
-809.707
 70
    32
  0
VERTEX
  8
T60SSILL
 62
6
 10
6394.277
 20
-10359.584
 30
-809.720
 70
    32
  0
VERTEX
  8
T60SSILL
 62
6
 10
6382.428
 20
-10354.011
 30
-809.751
 70
    32
  0
VERTEX
  8
T60SSILL
 62
6
 10
6377.593
 20
-10357.392
 30
-809.759
 70
    32
  0
VERTEX
  8
T60SSILL
 62
6
 10
6382.349
 20
-10370.183
 30
-809.738
 70
    32
  0
VERTEX
  8
T60SSILL
 62
6
 10
6382.504
 20
-10378.240
 30
-809.731
 70
    32
  0
VERTEX
  8
T60SSILL
 62
6
 10
6317.334
 20
-10425.322
 30
-809.839
 70
    32
  0
VERTEX
  8
T60SSILL
 62
6
 10
6307.457
 20
-10429.329
 30
-809.858
 70
    32
  0
VERTEX
  8
T60SSILL
 62
6
 10
6301.888
 20
-10429.355
 30
-809.870
 70
    32
  0
VERTEX
  8
T60SSILL
 62
6
 10
6296.024
 20
-10428.191
 30
-809.884
 70
    32
  0
VERTEX
  8
T60SSILL
 62
6
 10
6285.236
 20
-10420.909
 30
-809.914
 70
    32
  0
VERTEX
  8
T60SSILL
 62
6
 10
6220.629
 20
-10331.141
 30
-810.130
 70
    32
  0
VERTEX
  8
T60SSILL
 62
6
 10
6222.600
 20
-10326.431
 30
-810.129
 70
    32
  0
VERTEX
  8
T60SSILL
 62
6
 10
6214.347
 20
-10312.326
 30
-810.157
 70
    32
  0
VERTEX
  8
T60SSILL
 62
6
 10
6207.343
 20
-10312.604
 30
-810.171
 70
    32
  0
VERTEX
  8
T60SSILL
 62
6
 10
6204.041
 20
-10308.037
 30
-810.182
 70
    32
  0
VERTEX
  8
T60SSILL
 62
6
 10
6204.024
 20
-10296.337
 30
-810.190
 70
    32
  0
VERTEX
  8
T60SSILL
 62
6
 10
6207.050
 20
-10288.526
 30
-810.190
 70
    32
  0
VERTEX
  8
T60SSILL
 62
6
 10
6208.557
 20
-10289.298
 30
-810.186
 70
    32
  0
VERTEX
  8
T60SSILL
 62
6
 10
6217.686
 20
-10279.153
 30
-810.174
 70
    32
  0
VERTEX
  8
T60SSILL
 62
6
 10
6219.458
 20
-10268.781
 30
-810.178
 70
    32
  0
VERTEX
  8
T60SSILL
 62
6
 10
6214.678
 20
-10263.636
 30
-810.192
 70
    32
  0
VERTEX
  8
T60SSILL
 62
6
 10
6206.045
 20
-10259.896
 30
-810.213
 70
    32
  0
VERTEX
  8
T60SSILL
 62
6
 10
6205.783
 20
-10265.666
 30
-810.209
 70
    32
  0
VERTEX
  8
T60SSILL
 62
6
 10
6195.984
 20
-10291.753
 30
-810.211
 70
    32
  0
VERTEX
  8
T60SSILL
 62
6
 10
6192.651
 20
-10292.364
 30
-810.218
 70
    32
  0
VERTEX
  8
T60SSILL
 62
6
 10
6088.682
 20
-10147.391
 30
-810.630
 70
    32
  0
VERTEX
  8
T60SSILL
 62
6
 10
6100.765
 20
-10078.019
 30
-810.757
 70
    32
  0
VERTEX
  8
T60SSILL
 62
6
 10
6053.788
 20
-10009.691
 30
-810.878
 70
    32
  0
VERTEX
  8
T60SSILL
 62
6
 10
5944.164
 20
-9857.761
 30
-810.865
 70
    32
  0
VERTEX
  8
T60SSILL
 62
6
 10
5874.715
 20
-9847.023
 30
-810.921
 70
    32
  0
VERTEX
  8
T60SSILL
 62
6
 10
5832.646
 20
-9788.473
 30
-810.916
 70
    32
  0
VERTEX
  8
T60SSILL
 62
6
 10
5875.906
 20
-9757.367
 30
-810.852
 70
    32
  0
VERTEX
  8
T60SSILL
 62
6
 10
5871.932
 20
-9750.978
 30
-810.851
 70
    32
  0
VERTEX
  8
T60SSILL
 62
6
 10
5826.986
 20
-9783.187
 30
-810.917
 70
    32
  0
VERTEX
  8
T60SSILL
 62
6
 10
5744.127
 20
-9667.077
 30
-810.922
 70
    32
  0
VERTEX
  8
T60SSILL
 62
6
 10
5741.116
 20
-9657.683
 30
-810.935
 70
    32
  0
SEQEND
  8
T60SSILL
  0
POLYLINE
  8
T60SSILL
 62
6
 66
     1
 70
     9
  0
VERTEX
  8
T60SSILL
 62
6
 10
4303.811
 20
-9688.247
 30
-804.228
 70
    32
  0
VERTEX
  8
T60SSILL
 62
6
 10
4306.417
 20
-9698.495
 30
-804.251
 70
    32
  0
VERTEX
  8
T60SSILL
 62
6
 10
4297.330
 20
-9706.865
 30
-804.246
 70
    32
  0
VERTEX
  8
T60SSILL
 62
6
 10
4293.430
 20
-9712.646
 30
-804.249
 70
    32
  0
VERTEX
  8
T60SSILL
 62
6
 10
4287.526
 20
-9713.151
 30
-804.254
 70
    32
  0
VERTEX
  8
T60SSILL
 62
6
 10
4289.331
 20
-9704.102
 30
-804.248
 70
    32
  0
VERTEX
  8
T60SSILL
 62
6
 10
4283.634
 20
-9699.710
 30
-804.250
 70
    32
  0
VERTEX
  8
T60SSILL
 62
6
 10
4267.323
 20
-9701.529
 30
-804.263
 70
    32
  0
VERTEX
  8
T60SSILL
 62
6
 10
4266.026
 20
-9705.038
 30
-804.266
 70
    32
  0
VERTEX
  8
T60SSILL
 62
6
 10
4268.385
 20
-9713.410
 30
-804.268
 70
    32
  0
VERTEX
  8
T60SSILL
 62
6
 10
4279.757
 20
-9722.316
 30
-804.264
 70
    32
  0
VERTEX
  8
T60SSILL
 62
6
 10
4282.844
 20
-9721.644
 30
-804.262
 70
    32
  0
VERTEX
  8
T60SSILL
 62
6
 10
4283.730
 20
-9727.171
 30
-804.264
 70
    32
  0
VERTEX
  8
T60SSILL
 62
6
 10
4280.179
 20
-9739.398
 30
-804.273
 70
    32
  0
VERTEX
  8
T60SSILL
 62
6
 10
4279.264
 20
-9748.790
 30
-804.282
 70
    32
  0
VERTEX
  8
T60SSILL
 62
6
 10
4283.441
 20
-9753.933
 30
-804.301
 70
    32
  0
VERTEX
  8
T60SSILL
 62
6
 10
4286.603
 20
-9761.304
 30
-804.322
 70
    32
  0
VERTEX
  8
T60SSILL
 62
6
 10
4293.001
 20
-9758.291
 30
-804.331
 70
    32
  0
VERTEX
  8
T60SSILL
 62
6
 10
4305.050
 20
-9756.247
 30
-804.354
 70
    32
  0
VERTEX
  8
T60SSILL
 62
6
 10
4312.821
 20
-9759.604
 30
-804.378
 70
    32
  0
VERTEX
  8
T60SSILL
 62
6
 10
4322.487
 20
-9754.495
 30
-804.391
 70
    32
  0
VERTEX
  8
T60SSILL
 62
6
 10
4328.263
 20
-9761.746
 30
-804.417
 70
    32
  0
VERTEX
  8
T60SSILL
 62
6
 10
4315.194
 20
-9769.369
 30
-804.402
 70
    32
  0
VERTEX
  8
T60SSILL
 62
6
 10
4310.113
 20
-9782.030
 30
-804.414
 70
    32
  0
VERTEX
  8
T60SSILL
 62
6
 10
4301.892
 20
-9791.623
 30
-804.413
 70
    32
  0
VERTEX
  8
T60SSILL
 62
6
 10
4291.519
 20
-9796.800
 30
-804.399
 70
    32
  0
VERTEX
  8
T60SSILL
 62
6
 10
4290.252
 20
-9811.190
 30
-804.422
 70
    32
  0
VERTEX
  8
T60SSILL
 62
6
 10
4280.018
 20
-9824.042
 30
-804.423
 70
    32
  0
VERTEX
  8
T60SSILL
 62
6
 10
4275.340
 20
-9827.351
 30
-804.418
 70
    32
  0
VERTEX
  8
T60SSILL
 62
6
 10
4314.091
 20
-9858.025
 30
-804.697
 70
    32
  0
VERTEX
  8
T60SSILL
 62
6
 10
4329.453
 20
-9861.735
 30
-804.798
 70
    32
  0
VERTEX
  8
T60SSILL
 62
6
 10
4338.424
 20
-9860.681
 30
-804.843
 70
    32
  0
VERTEX
  8
T60SSILL
 62
6
 10
4381.395
 20
-9830.615
 30
-804.945
 70
    32
  0
VERTEX
  8
T60SSILL
 62
6
 10
4389.130
 20
-9822.013
 30
-804.949
 70
    32
  0
VERTEX
  8
T60SSILL
 62
6
 10
4399.191
 20
-9804.642
 30
-804.927
 70
    32
  0
VERTEX
  8
T60SSILL
 62
6
 10
4402.191
 20
-9796.367
 30
-804.906
 70
    32
  0
VERTEX
  8
T60SSILL
 62
6
 10
4402.950
 20
-9787.517
 30
-804.870
 70
    32
  0
VERTEX
  8
T60SSILL
 62
6
 10
4401.647
 20
-9770.410
 30
-804.786
 70
    32
  0
VERTEX
  8
T60SSILL
 62
6
 10
4314.972
 20
-9635.336
 30
-804.211
 70
    32
  0
VERTEX
  8
T60SSILL
 62
6
 10
4311.662
 20
-9637.677
 30
-804.210
 70
    32
  0
VERTEX
  8
T60SSILL
 62
6
 10
4309.882
 20
-9645.845
 30
-804.202
 70
    32
  0
VERTEX
  8
T60SSILL
 62
6
 10
4310.006
 20
-9656.553
 30
-804.207
 70
    32
  0
VERTEX
  8
T60SSILL
 62
6
 10
4304.423
 20
-9671.405
 30
-804.219
 70
    32
  0
VERTEX
  8
T60SSILL
 62
6
 10
4303.680
 20
-9679.055
 30
-804.224
 70
    32
  0
SEQEND
  8
T60SSILL
  0
POLYLINE
  8
T60SSILL
 62
6
 66
     1
 70
     9
  0
VERTEX
  8
T60SSILL
 62
6
 10
4301.778
 20
-9625.991
 30
-804.237
 70
    32
  0
VERTEX
  8
T60SSILL
 62
6
 10
4299.832
 20
-9634.384
 30
-804.225
 70
    32
  0
VERTEX
  8
T60SSILL
 62
6
 10
4296.461
 20
-9638.928
 30
-804.220
 70
    32
  0
VERTEX
  8
T60SSILL
 62
6
 10
4278.733
 20
-9653.153
 30
-804.229
 70
    32
  0
VERTEX
  8
T60SSILL
 62
6
 10
4272.020
 20
-9647.103
 30
-804.231
 70
    32
  0
VERTEX
  8
T60SSILL
 62
6
 10
4270.494
 20
-9642.354
 30
-804.235
 70
    32
  0
VERTEX
  8
T60SSILL
 62
6
 10
4255.592
 20
-9628.613
 30
-804.269
 70
    32
  0
VERTEX
  8
T60SSILL
 62
6
 10
4238.444
 20
-9594.765
 30
-804.338
 70
    32
  0
VERTEX
  8
T60SSILL
 62
6
 10
4231.182
 20
-9574.431
 30
-804.377
 70
    32
  0
VERTEX
  8
T60SSILL
 62
6
 10
4222.937
 20
-9562.779
 30
-804.403
 70
    32
  0
VERTEX
  8
T60SSILL
 62
6
 10
4211.439
 20
-9541.340
 30
-804.447
 70
    32
  0
VERTEX
  8
T60SSILL
 62
6
 10
4201.228
 20
-9527.518
 30
-804.500
 70
    32
  0
VERTEX
  8
T60SSILL
 62
6
 10
4190.308
 20
-9516.355
 30
-804.564
 70
    32
  0
VERTEX
  8
T60SSILL
 62
6
 10
4170.958
 20
-9505.329
 30
-804.670
 70
    32
  0
VERTEX
  8
T60SSILL
 62
6
 10
4160.642
 20
-9503.561
 30
-804.700
 70
    32
  0
VERTEX
  8
T60SSILL
 62
6
 10
4149.913
 20
-9504.568
 30
-804.712
 70
    32
  0
VERTEX
  8
T60SSILL
 62
6
 10
4134.007
 20
-9501.434
 30
-804.760
 70
    32
  0
VERTEX
  8
T60SSILL
 62
6
 10
4127.113
 20
-9491.826
 30
-804.835
 70
    32
  0
VERTEX
  8
T60SSILL
 62
6
 10
4206.720
 20
-9434.338
 30
-805.083
 70
    32
  0
VERTEX
  8
T60SSILL
 62
6
 10
4209.237
 20
-9435.149
 30
-805.070
 70
    32
  0
VERTEX
  8
T60SSILL
 62
6
 10
4206.091
 20
-9454.971
 30
-804.942
 70
    32
  0
VERTEX
  8
T60SSILL
 62
6
 10
4207.099
 20
-9464.946
 30
-804.874
 70
    32
  0
VERTEX
  8
T60SSILL
 62
6
 10
4210.009
 20
-9473.792
 30
-804.811
 70
    32
  0
VERTEX
  8
T60SSILL
 62
6
 10
4284.683
 20
-9589.608
 30
-804.310
 70
    32
  0
VERTEX
  8
T60SSILL
 62
6
 10
4279.586
 20
-9592.781
 30
-804.309
 70
    32
  0
VERTEX
  8
T60SSILL
 62
6
 10
4284.049
 20
-9600.312
 30
-804.293
 70
    32
  0
VERTEX
  8
T60SSILL
 62
6
 10
4289.485
 20
-9597.008
 30
-804.294
 70
    32
  0
VERTEX
  8
T60SSILL
 62
6
 10
4301.039
 20
-9615.178
 30
-804.255
 70
    32
  0
VERTEX
  8
T60SSILL
 62
6
 10
4301.722
 20
-9620.417
 30
-804.246
 70
    32
  0
SEQEND
  8
T60SSILL
  0
POLYLINE
  8
T60SSILL
 62
6
 66
     1
 70
     9
  0
VERTEX
  8
T60SSILL
 62
6
 10
4281.062
 20
-9693.330
 30
-804.248
 70
    32
  0
VERTEX
  8
T60SSILL
 62
6
 10
4253.844
 20
-9696.056
 30
-804.270
 70
    32
  0
VERTEX
  8
T60SSILL
 62
6
 10
4249.299
 20
-9695.276
 30
-804.273
 70
    32
  0
VERTEX
  8
T60SSILL
 62
6
 10
4246.550
 20
-9691.691
 30
-804.273
 70
    32
  0
VERTEX
  8
T60SSILL
 62
6
 10
4255.957
 20
-9684.846
 30
-804.263
 70
    32
  0
VERTEX
  8
T60SSILL
 62
6
 10
4252.340
 20
-9680.495
 30
-804.263
 70
    32
  0
VERTEX
  8
T60SSILL
 62
6
 10
4285.506
 20
-9656.715
 30
-804.226
 70
    32
  0
VERTEX
  8
T60SSILL
 62
6
 10
4289.067
 20
-9659.918
 30
-804.225
 70
    32
  0
VERTEX
  8
T60SSILL
 62
6
 10
4295.497
 20
-9660.768
 30
-804.220
 70
    32
  0
VERTEX
  8
T60SSILL
 62
6
 10
4292.952
 20
-9670.449
 30
-804.227
 70
    32
  0
VERTEX
  8
T60SSILL
 62
6
 10
4296.090
 20
-9674.276
 30
-804.227
 70
    32
  0
VERTEX
  8
T60SSILL
 62
6
 10
4293.033
 20
-9685.829
 30
-804.235
 70
    32
  0
VERTEX
  8
T60SSILL
 62
6
 10
4280.989
 20
-9693.376
 30
-804.248
 70
    32
  0
SEQEND
  8
T60SSILL
  0
POLYLINE
  8
T60SSILL
 62
6
 66
     1
 70
     9
  0
VERTEX
  8
T60SSILL
 62
6
 10
5480.681
 20
-9515.513
 30
-810.558
 70
    32
  0
VERTEX
  8
T60SSILL
 62
6
 10
5560.198
 20
-9456.484
 30
-810.941
 70
    32
  0
VERTEX
  8
T60SSILL
 62
6
 10
5565.043
 20
-9449.880
 30
-810.970
 70
    32
  0
VERTEX
  8
T60SSILL
 62
6
 10
5568.533
 20
-9437.023
 30
-811.010
 70
    32
  0
VERTEX
  8
T60SSILL
 62
6
 10
5646.995
 20
-9543.668
 30
-811.019
 70
    32
  0
VERTEX
  8
T60SSILL
 62
6
 10
5640.673
 20
-9548.183
 30
-810.989
 70
    32
  0
VERTEX
  8
T60SSILL
 62
6
 10
5649.934
 20
-9561.314
 30
-810.989
 70
    32
  0
VERTEX
  8
T60SSILL
 62
6
 10
5657.021
 20
-9558.203
 30
-811.018
 70
    32
  0
VERTEX
  8
T60SSILL
 62
6
 10
5727.696
 20
-9656.800
 30
-810.958
 70
    32
  0
VERTEX
  8
T60SSILL
 62
6
 10
5728.872
 20
-9669.756
 30
-810.945
 70
    32
  0
VERTEX
  8
T60SSILL
 62
6
 10
5723.373
 20
-9682.091
 30
-810.944
 70
    32
  0
VERTEX
  8
T60SSILL
 62
6
 10
5718.800
 20
-9687.109
 30
-810.917
 70
    32
  0
VERTEX
  8
T60SSILL
 62
6
 10
5622.007
 20
-9756.203
 30
-810.168
 70
    32
  0
VERTEX
  8
T60SSILL
 62
6
 10
5617.151
 20
-9746.459
 30
-810.179
 70
    32
  0
VERTEX
  8
T60SSILL
 62
6
 10
5617.889
 20
-9719.578
 30
-810.274
 70
    32
  0
VERTEX
  8
T60SSILL
 62
6
 10
5620.175
 20
-9711.742
 30
-810.317
 70
    32
  0
VERTEX
  8
T60SSILL
 62
6
 10
5615.920
 20
-9697.920
 30
-810.351
 70
    32
  0
VERTEX
  8
T60SSILL
 62
6
 10
5602.640
 20
-9683.502
 30
-810.341
 70
    32
  0
VERTEX
  8
T60SSILL
 62
6
 10
5593.450
 20
-9685.604
 30
-810.286
 70
    32
  0
VERTEX
  8
T60SSILL
 62
6
 10
5590.855
 20
-9696.238
 30
-810.230
 70
    32
  0
VERTEX
  8
T60SSILL
 62
6
 10
5602.307
 20
-9725.167
 30
-810.183
 70
    32
  0
VERTEX
  8
T60SSILL
 62
6
 10
5604.949
 20
-9742.697
 30
-810.136
 70
    32
  0
VERTEX
  8
T60SSILL
 62
6
 10
5613.786
 20
-9762.473
 30
-810.110
 70
    32
  0
VERTEX
  8
T60SSILL
 62
6
 10
5601.535
 20
-9769.291
 30
-810.033
 70
    32
  0
VERTEX
  8
T60SSILL
 62
6
 10
5586.767
 20
-9769.256
 30
-809.966
 70
    32
  0
VERTEX
  8
T60SSILL
 62
6
 10
5580.733
 20
-9766.467
 30
-809.948
 70
    32
  0
VERTEX
  8
T60SSILL
 62
6
 10
5570.489
 20
-9756.712
 30
-809.935
 70
    32
  0
VERTEX
  8
T60SSILL
 62
6
 10
5566.160
 20
-9747.570
 30
-809.946
 70
    32
  0
VERTEX
  8
T60SSILL
 62
6
 10
5569.200
 20
-9743.291
 30
-809.974
 70
    32
  0
VERTEX
  8
T60SSILL
 62
6
 10
5567.072
 20
-9738.216
 30
-809.981
 70
    32
  0
VERTEX
  8
T60SSILL
 62
6
 10
5568.884
 20
-9730.618
 30
-810.014
 70
    32
  0
VERTEX
  8
T60SSILL
 62
6
 10
5577.460
 20
-9729.818
 30
-810.056
 70
    32
  0
VERTEX
  8
T60SSILL
 62
6
 10
5576.665
 20
-9717.693
 30
-810.092
 70
    32
  0
VERTEX
  8
T60SSILL
 62
6
 10
5580.672
 20
-9682.786
 30
-810.232
 70
    32
  0
VERTEX
  8
T60SSILL
 62
6
 10
5583.559
 20
-9680.137
 30
-810.257
 70
    32
  0
VERTEX
  8
T60SSILL
 62
6
 10
5584.047
 20
-9674.963
 30
-810.281
 70
    32
  0
VERTEX
  8
T60SSILL
 62
6
 10
5581.745
 20
-9669.793
 30
-810.290
 70
    32
  0
VERTEX
  8
T60SSILL
 62
6
 10
5569.640
 20
-9658.864
 30
-810.272
 70
    32
  0
VERTEX
  8
T60SSILL
 62
6
 10
5572.182
 20
-9653.553
 30
-810.306
 70
    32
  0
VERTEX
  8
T60SSILL
 62
6
 10
5571.678
 20
-9648.961
 30
-810.322
 70
    32
  0
VERTEX
  8
T60SSILL
 62
6
 10
5566.947
 20
-9635.810
 30
-810.365
 70
    32
  0
VERTEX
  8
T60SSILL
 62
6
 10
5559.868
 20
-9630.414
 30
-810.355
 70
    32
  0
VERTEX
  8
T60SSILL
 62
6
 10
5551.467
 20
-9628.837
 30
-810.318
 70
    32
  0
VERTEX
  8
T60SSILL
 62
6
 10
5540.023
 20
-9629.374
 30
-810.253
 70
    32
  0
VERTEX
  8
T60SSILL
 62
6
 10
5538.557
 20
-9630.822
 30
-810.237
 70
    32
  0
VERTEX
  8
T60SSILL
 62
6
 10
5542.420
 20
-9638.237
 30
-810.219
 70
    32
  0
VERTEX
  8
T60SSILL
 62
6
 10
5542.825
 20
-9644.079
 30
-810.195
 70
    32
  0
VERTEX
  8
T60SSILL
 62
6
 10
5537.230
 20
-9652.264
 30
-810.133
 70
    32
  0
VERTEX
  8
T60SSILL
 62
6
 10
5534.929
 20
-9665.035
 30
-810.080
 70
    32
  0
VERTEX
  8
T60SSILL
 62
6
 10
5531.518
 20
-9666.704
 30
-810.059
 70
    32
  0
VERTEX
  8
T60SSILL
 62
6
 10
5476.451
 20
-9538.157
 30
-810.476
 70
    32
  0
VERTEX
  8
T60SSILL
 62
6
 10
5475.576
 20
-9530.265
 30
-810.506
 70
    32
  0
VERTEX
  8
T60SSILL
 62
6
 10
5478.266
 20
-9519.457
 30
-810.545
 70
    32
  0
SEQEND
  8
T60SSILL
  0
POLYLINE
  8
T60SSILL
 62
6
 66
     1
 70
     9
  0
VERTEX
  8
T60SSILL
 62
6
 10
5301.404
 20
-9629.364
 30
-809.145
 70
    32
  0
VERTEX
  8
T60SSILL
 62
6
 10
5289.536
 20
-9626.972
 30
-809.040
 70
    32
  0
VERTEX
  8
T60SSILL
 62
6
 10
5283.231
 20
-9623.617
 30
-808.985
 70
    32
  0
VERTEX
  8
T60SSILL
 62
6
 10
5278.149
 20
-9617.694
 30
-808.928
 70
    32
  0
VERTEX
  8
T60SSILL
 62
6
 10
5210.865
 20
-9523.157
 30
-808.129
 70
    32
  0
VERTEX
  8
T60SSILL
 62
6
 10
5213.665
 20
-9522.394
 30
-808.159
 70
    32
  0
VERTEX
  8
T60SSILL
 62
6
 10
5349.041
 20
-9592.619
 30
-809.645
 70
    32
  0
VERTEX
  8
T60SSILL
 62
6
 10
5352.102
 20
-9597.799
 30
-809.680
 70
    32
  0
VERTEX
  8
T60SSILL
 62
6
 10
5309.376
 20
-9627.694
 30
-809.216
 70
    32
  0
VERTEX
  8
T60SSILL
 62
6
 10
5305.930
 20
-9628.416
 30
-809.194
 70
    32
  0
SEQEND
  8
T60SSILL
  0
POLYLINE
  8
T60SSILL
 62
6
 66
     1
 70
     9
  0
VERTEX
  8
T60SSILL
 62
6
 10
4103.361
 20
-8844.699
 30
-810.069
 70
    32
  0
VERTEX
  8
T60SSILL
 62
6
 10
4086.893
 20
-8842.812
 30
-810.100
 70
    32
  0
VERTEX
  8
T60SSILL
 62
6
 10
4064.973
 20
-8843.620
 30
-810.053
 70
    32
  0
VERTEX
  8
T60SSILL
 62
6
 10
4048.809
 20
-8848.394
 30
-809.952
 70
    32
  0
VERTEX
  8
T60SSILL
 62
6
 10
4033.348
 20
-8855.166
 30
-809.841
 70
    32
  0
VERTEX
  8
T60SSILL
 62
6
 10
4026.988
 20
-8853.501
 30
-809.825
 70
    32
  0
VERTEX
  8
T60SSILL
 62
6
 10
4068.077
 20
-8780.027
 30
-810.484
 70
    32
  0
VERTEX
  8
T60SSILL
 62
6
 10
4119.245
 20
-8848.765
 30
-810.022
 70
    32
  0
VERTEX
  8
T60SSILL
 62
6
 10
4111.218
 20
-8846.467
 30
-810.048
 70
    32
  0
SEQEND
  8
T60SSILL
  0
POLYLINE
  8
T60SSILL
 62
6
 66
     1
 70
     9
  0
VERTEX
  8
T60SSILL
 62
6
 10
4213.888
 20
-8976.811
 30
-808.921
 70
    32
  0
VERTEX
  8
T60SSILL
 62
6
 10
4132.122
 20
-8962.362
 30
-809.123
 70
    32
  0
VERTEX
  8
T60SSILL
 62
6
 10
4118.687
 20
-8963.710
 30
-809.127
 70
    32
  0
VERTEX
  8
T60SSILL
 62
6
 10
4106.872
 20
-8970.535
 30
-809.086
 70
    32
  0
VERTEX
  8
T60SSILL
 62
6
 10
4097.390
 20
-8967.448
 30
-809.120
 70
    32
  0
VERTEX
  8
T60SSILL
 62
6
 10
4091.505
 20
-8967.619
 30
-809.125
 70
    32
  0
VERTEX
  8
T60SSILL
 62
6
 10
4083.534
 20
-8974.024
 30
-809.083
 70
    32
  0
VERTEX
  8
T60SSILL
 62
6
 10
4086.258
 20
-8985.464
 30
-808.991
 70
    32
  0
VERTEX
  8
T60SSILL
 62
6
 10
4051.333
 20
-9010.365
 30
-808.831
 70
    32
  0
VERTEX
  8
T60SSILL
 62
6
 10
4040.035
 20
-9009.268
 30
-808.851
 70
    32
  0
VERTEX
  8
T60SSILL
 62
6
 10
4009.423
 20
-9039.742
 30
-808.528
 70
    32
  0
VERTEX
  8
T60SSILL
 62
6
 10
4003.088
 20
-9039.152
 30
-808.504
 70
    32
  0
VERTEX
  8
T60SSILL
 62
6
 10
3964.078
 20
-8984.431
 30
-808.695
 70
    32
  0
VERTEX
  8
T60SSILL
 62
6
 10
3965.559
 20
-8969.790
 30
-808.798
 70
    32
  0
VERTEX
  8
T60SSILL
 62
6
 10
3962.076
 20
-8968.036
 30
-808.794
 70
    32
  0
VERTEX
  8
T60SSILL
 62
6
 10
4013.279
 20
-8879.313
 30
-809.596
 70
    32
  0
VERTEX
  8
T60SSILL
 62
6
 10
4027.097
 20
-8867.629
 30
-809.733
 70
    32
  0
VERTEX
  8
T60SSILL
 62
6
 10
4044.216
 20
-8857.016
 30
-809.876
 70
    32
  0
VERTEX
  8
T60SSILL
 62
6
 10
4062.385
 20
-8850.658
 30
-809.996
 70
    32
  0
VERTEX
  8
T60SSILL
 62
6
 10
4075.593
 20
-8849.149
 30
-810.062
 70
    32
  0
VERTEX
  8
T60SSILL
 62
6
 10
4096.288
 20
-8849.351
 30
-810.040
 70
    32
  0
VERTEX
  8
T60SSILL
 62
6
 10
4121.038
 20
-8856.409
 30
-809.961
 70
    32
  0
VERTEX
  8
T60SSILL
 62
6
 10
4128.612
 20
-8860.023
 30
-809.926
 70
    32
  0
VERTEX
  8
T60SSILL
 62
6
 10
4145.561
 20
-8883.087
 30
-809.727
 70
    32
  0
VERTEX
  8
T60SSILL
 62
6
 10
4142.117
 20
-8885.837
 30
-809.710
 70
    32
  0
VERTEX
  8
T60SSILL
 62
6
 10
4147.175
 20
-8892.721
 30
-809.650
 70
    32
  0
VERTEX
  8
T60SSILL
 62
6
 10
4151.216
 20
-8890.188
 30
-809.666
 70
    32
  0
VERTEX
  8
T60SSILL
 62
6
 10
4200.517
 20
-8957.128
 30
-809.090
 70
    32
  0
VERTEX
  8
T60SSILL
 62
6
 10
4200.382
 20
-8963.785
 30
-809.038
 70
    32
  0
VERTEX
  8
T60SSILL
 62
6
 10
4203.254
 20
-8967.248
 30
-809.008
 70
    32
  0
VERTEX
  8
T60SSILL
 62
6
 10
4206.529
 20
-8965.607
 30
-809.017
 70
    32
  0
SEQEND
  8
T60SSILL
  0
POLYLINE
  8
T60SSILL
 62
6
 66
     1
 70
     9
  0
VERTEX
  8
T60SSILL
 62
6
 10
6011.835
 20
-10037.761
 30
-810.939
 70
    32
  0
VERTEX
  8
T60SSILL
 62
6
 10
5884.972
 20
-9861.170
 30
-810.922
 70
    32
  0
VERTEX
  8
T60SSILL
 62
6
 10
5889.812
 20
-9858.238
 30
-810.915
 70
    32
  0
VERTEX
  8
T60SSILL
 62
6
 10
5940.480
 20
-9867.303
 30
-810.875
 70
    32
  0
VERTEX
  8
T60SSILL
 62
6
 10
6092.202
 20
-10079.602
 30
-810.789
 70
    32
  0
VERTEX
  8
T60SSILL
 62
6
 10
6081.697
 20
-10137.556
 30
-810.685
 70
    32
  0
VERTEX
  8
T60SSILL
 62
6
 10
6048.591
 20
-10090.265
 30
-810.944
 70
    32
  0
SEQEND
  8
T60SSILL
  0
POLYLINE
  8
T60SSILL
 62
6
 66
     1
 70
     9
  0
VERTEX
  8
T60SSILL
 62
6
 10
6701.954
 20
-8510.861
 30
-808.910
 70
    32
  0
VERTEX
  8
T60SSILL
 62
6
 10
6613.003
 20
-8385.811
 30
-809.388
 70
    32
  0
VERTEX
  8
T60SSILL
 62
6
 10
6660.753
 20
-8393.361
 30
-809.169
 70
    32
  0
VERTEX
  8
T60SSILL
 62
6
 10
6785.406
 20
-8304.150
 30
-808.905
 70
    32
  0
VERTEX
  8
T60SSILL
 62
6
 10
6812.171
 20
-8309.123
 30
-808.869
 70
    32
  0
VERTEX
  8
T60SSILL
 62
6
 10
6828.652
 20
-8317.239
 30
-808.875
 70
    32
  0
VERTEX
  8
T60SSILL
 62
6
 10
6832.211
 20
-8320.767
 30
-808.877
 70
    32
  0
VERTEX
  8
T60SSILL
 62
6
 10
6838.095
 20
-8318.566
 30
-808.878
 70
    32
  0
VERTEX
  8
T60SSILL
 62
6
 10
6860.357
 20
-8333.062
 30
-808.889
 70
    32
  0
VERTEX
  8
T60SSILL
 62
6
 10
6881.351
 20
-8363.207
 30
-808.903
 70
    32
  0
VERTEX
  8
T60SSILL
 62
6
 10
6879.484
 20
-8363.767
 30
-808.903
 70
    32
  0
VERTEX
  8
T60SSILL
 62
6
 10
6880.564
 20
-8371.732
 30
-808.906
 70
    32
  0
VERTEX
  8
T60SSILL
 62
6
 10
6887.867
 20
-8371.548
 30
-808.908
 70
    32
  0
VERTEX
  8
T60SSILL
 62
6
 10
6900.235
 20
-8389.128
 30
-808.916
 70
    32
  0
VERTEX
  8
T60SSILL
 62
6
 10
6900.624
 20
-8400.703
 30
-808.920
 70
    32
  0
VERTEX
  8
T60SSILL
 62
6
 10
6739.005
 20
-8516.676
 30
-808.920
 70
    32
  0
VERTEX
  8
T60SSILL
 62
6
 10
6731.459
 20
-8520.800
 30
-808.920
 70
    32
  0
VERTEX
  8
T60SSILL
 62
6
 10
6723.841
 20
-8522.067
 30
-808.918
 70
    32
  0
VERTEX
  8
T60SSILL
 62
6
 10
6711.826
 20
-8519.534
 30
-808.915
 70
    32
  0
VERTEX
  8
T60SSILL
 62
6
 10
6706.751
 20
-8515.995
 30
-808.913
 70
    32
  0
SEQEND
  8
T60SSILL
  0
POLYLINE
  8
T60SSILL
 62
6
 66
     1
 70
     9
  0
VERTEX
  8
T60SSILL
 62
6
 10
6696.436
 20
-8610.887
 30
-809.074
 70
    32
  0
VERTEX
  8
T60SSILL
 62
6
 10
6692.393
 20
-8607.037
 30
-809.074
 70
    32
  0
VERTEX
  8
T60SSILL
 62
6
 10
6691.382
 20
-8603.240
 30
-809.070
 70
    32
  0
VERTEX
  8
T60SSILL
 62
6
 10
6695.299
 20
-8589.200
 30
-809.041
 70
    32
  0
VERTEX
  8
T60SSILL
 62
6
 10
6690.290
 20
-8569.967
 30
-809.017
 70
    32
  0
VERTEX
  8
T60SSILL
 62
6
 10
6688.753
 20
-8566.960
 30
-809.015
 70
    32
  0
VERTEX
  8
T60SSILL
 62
6
 10
6669.050
 20
-8549.075
 30
-809.015
 70
    32
  0
VERTEX
  8
T60SSILL
 62
6
 10
6667.819
 20
-8537.191
 30
-808.997
 70
    32
  0
VERTEX
  8
T60SSILL
 62
6
 10
6679.845
 20
-8537.252
 30
-808.980
 70
    32
  0
VERTEX
  8
T60SSILL
 62
6
 10
6685.519
 20
-8534.306
 30
-808.967
 70
    32
  0
VERTEX
  8
T60SSILL
 62
6
 10
6693.550
 20
-8536.799
 30
-808.959
 70
    32
  0
VERTEX
  8
T60SSILL
 62
6
 10
6717.030
 20
-8562.033
 30
-808.965
 70
    32
  0
VERTEX
  8
T60SSILL
 62
6
 10
6727.942
 20
-8564.360
 30
-808.953
 70
    32
  0
VERTEX
  8
T60SSILL
 62
6
 10
6725.795
 20
-8558.135
 30
-808.946
 70
    32
  0
VERTEX
  8
T60SSILL
 62
6
 10
6678.196
 20
-8491.523
 30
-808.921
 70
    32
  0
VERTEX
  8
T60SSILL
 62
6
 10
6676.684
 20
-8499.734
 30
-808.924
 70
    32
  0
VERTEX
  8
T60SSILL
 62
6
 10
6671.615
 20
-8510.394
 30
-808.948
 70
    32
  0
VERTEX
  8
T60SSILL
 62
6
 10
6666.587
 20
-8515.676
 30
-808.964
 70
    32
  0
VERTEX
  8
T60SSILL
 62
6
 10
6641.038
 20
-8533.954
 30
-809.032
 70
    32
  0
VERTEX
  8
T60SSILL
 62
6
 10
6645.817
 20
-8536.938
 30
-809.030
 70
    32
  0
VERTEX
  8
T60SSILL
 62
6
 10
6652.295
 20
-8533.760
 30
-809.015
 70
    32
  0
VERTEX
  8
T60SSILL
 62
6
 10
6661.249
 20
-8534.333
 30
-809.003
 70
    32
  0
VERTEX
  8
T60SSILL
 62
6
 10
6662.799
 20
-8541.398
 30
-809.012
 70
    32
  0
VERTEX
  8
T60SSILL
 62
6
 10
6658.787
 20
-8591.026
 30
-809.098
 70
    32
  0
VERTEX
  8
T60SSILL
 62
6
 10
6655.096
 20
-8603.841
 30
-809.124
 70
    32
  0
VERTEX
  8
T60SSILL
 62
6
 10
6656.974
 20
-8618.061
 30
-809.144
 70
    32
  0
VERTEX
  8
T60SSILL
 62
6
 10
6654.332
 20
-8641.544
 30
-809.186
 70
    32
  0
VERTEX
  8
T60SSILL
 62
6
 10
6696.653
 20
-8610.737
 30
-809.074
 70
    32
  0
SEQEND
  8
T60SSILL
  0
POLYLINE
  8
T60SSILL
 62
6
 66
     1
 70
     9
  0
VERTEX
  8
T60SSILL
 62
6
 10
1782.213
 20
-8172.821
 30
-788.066
 70
    32
  0
VERTEX
  8
T60SSILL
 62
6
 10
1745.014
 20
-8028.378
 30
-787.894
 70
    32
  0
VERTEX
  8
T60SSILL
 62
6
 10
1735.080
 20
-8009.519
 30
-787.841
 70
    32
  0
VERTEX
  8
T60SSILL
 62
6
 10
1727.696
 20
-8010.673
 30
-787.797
 70
    32
  0
VERTEX
  8
T60SSILL
 62
6
 10
1724.227
 20
-8003.785
 30
-787.778
 70
    32
  0
VERTEX
  8
T60SSILL
 62
6
 10
1729.814
 20
-7998.542
 30
-787.813
 70
    32
  0
VERTEX
  8
T60SSILL
 62
6
 10
1630.823
 20
-7823.303
 30
-787.283
 70
    32
  0
VERTEX
  8
T60SSILL
 62
6
 10
1629.473
 20
-7820.913
 30
-787.292
 70
    32
  0
VERTEX
  8
T60SSILL
 62
6
 10
1629.429
 20
-7820.834
 30
-787.292
 70
    32
  0
VERTEX
  8
T60SSILL
 62
6
 10
1623.776
 20
-7822.200
 30
-787.277
 70
    32
  0
VERTEX
  8
T60SSILL
 62
6
 10
1620.825
 20
-7816.554
 30
-787.258
 70
    32
  0
VERTEX
  8
T60SSILL
 62
6
 10
1625.325
 20
-7813.633
 30
-787.268
 70
    32
  0
VERTEX
  8
T60SSILL
 62
6
 10
1624.785
 20
-7812.588
 30
-787.265
 70
    32
  0
VERTEX
  8
T60SSILL
 62
6
 10
1619.349
 20
-7802.073
 30
-787.290
 70
    32
  0
VERTEX
  8
T60SSILL
 62
6
 10
1613.945
 20
-7822.060
 30
-787.246
 70
    32
  0
VERTEX
  8
T60SSILL
 62
6
 10
1612.938
 20
-7825.782
 30
-787.248
 70
    32
  0
VERTEX
  8
T60SSILL
 62
6
 10
1609.813
 20
-7830.747
 30
-787.246
 70
    32
  0
VERTEX
  8
T60SSILL
 62
6
 10
1603.795
 20
-7837.869
 30
-787.239
 70
    32
  0
VERTEX
  8
T60SSILL
 62
6
 10
1568.413
 20
-7867.823
 30
-787.175
 70
    32
  0
VERTEX
  8
T60SSILL
 62
6
 10
1568.253
 20
-7904.602
 30
-787.232
 70
    32
  0
VERTEX
  8
T60SSILL
 62
6
 10
1558.667
 20
-7904.375
 30
-787.202
 70
    32
  0
VERTEX
  8
T60SSILL
 62
6
 10
1558.885
 20
-7881.229
 30
-787.166
 70
    32
  0
VERTEX
  8
T60SSILL
 62
6
 10
1554.982
 20
-7879.622
 30
-787.151
 70
    32
  0
VERTEX
  8
T60SSILL
 62
6
 10
1519.955
 20
-7909.798
 30
-787.089
 70
    32
  0
VERTEX
  8
T60SSILL
 62
6
 10
1505.744
 20
-7924.343
 30
-787.067
 70
    32
  0
VERTEX
  8
T60SSILL
 62
6
 10
1498.683
 20
-7938.392
 30
-787.067
 70
    32
  0
VERTEX
  8
T60SSILL
 62
6
 10
1500.486
 20
-7969.786
 30
-787.122
 70
    32
  0
VERTEX
  8
T60SSILL
 62
6
 10
1677.318
 20
-8212.521
 30
-788.057
 70
    32
  0
VERTEX
  8
T60SSILL
 62
6
 10
1689.759
 20
-8224.363
 30
-788.115
 70
    32
  0
VERTEX
  8
T60SSILL
 62
6
 10
1701.872
 20
-8235.892
 30
-787.992
 70
    32
  0
VERTEX
  8
T60SSILL
 62
6
 10
1723.090
 20
-8237.570
 30
-787.702
 70
    32
  0
VERTEX
  8
T60SSILL
 62
6
 10
1723.426
 20
-8237.321
 30
-787.696
 70
    32
  0
VERTEX
  8
T60SSILL
 62
6
 10
1776.881
 20
-8197.818
 30
-788.027
 70
    32
  0
VERTEX
  8
T60SSILL
 62
6
 10
1781.786
 20
-8186.993
 30
-788.059
 70
    32
  0
VERTEX
  8
T60SSILL
 62
6
 10
1782.974
 20
-8179.622
 30
-788.069
 70
    32
  0
SEQEND
  8
T60SSILL
  0
POLYLINE
  8
T60SSILL
 62
6
 66
     1
 70
     9
  0
VERTEX
  8
T60SSILL
 62
6
 10
1499.361
 20
-8143.156
 30
-787.404
 70
    32
  0
VERTEX
  8
T60SSILL
 62
6
 10
1469.944
 20
-8127.940
 30
-787.291
 70
    32
  0
VERTEX
  8
T60SSILL
 62
6
 10
1468.473
 20
-8120.506
 30
-787.274
 70
    32
  0
VERTEX
  8
T60SSILL
 62
6
 10
1485.086
 20
-8109.396
 30
-787.304
 70
    32
  0
VERTEX
  8
T60SSILL
 62
6
 10
1501.731
 20
-8105.732
 30
-787.348
 70
    32
  0
VERTEX
  8
T60SSILL
 62
6
 10
1529.381
 20
-8122.109
 30
-787.458
 70
    32
  0
VERTEX
  8
T60SSILL
 62
6
 10
1528.547
 20
-8131.013
 30
-787.471
 70
    32
  0
VERTEX
  8
T60SSILL
 62
6
 10
1509.489
 20
-8143.702
 30
-787.435
 70
    32
  0
SEQEND
  8
T60SSILL
  0
POLYLINE
  8
T60SSILL
 62
6
 66
     1
 70
     9
  0
VERTEX
  8
T60SSILL
 62
6
 10
1487.047
 20
-8074.298
 30
-787.251
 70
    32
  0
VERTEX
  8
T60SSILL
 62
6
 10
1493.531
 20
-8069.334
 30
-787.262
 70
    32
  0
VERTEX
  8
T60SSILL
 62
6
 10
1492.360
 20
-8056.871
 30
-787.237
 70
    32
  0
VERTEX
  8
T60SSILL
 62
6
 10
1496.520
 20
-8055.064
 30
-787.247
 70
    32
  0
VERTEX
  8
T60SSILL
 62
6
 10
1509.860
 20
-8043.451
 30
-787.267
 70
    32
  0
VERTEX
  8
T60SSILL
 62
6
 10
1510.512
 20
-8042.884
 30
-787.268
 70
    32
  0
VERTEX
  8
T60SSILL
 62
6
 10
1515.906
 20
-8007.329
 30
-787.229
 70
    32
  0
VERTEX
  8
T60SSILL
 62
6
 10
1556.191
 20
-8062.207
 30
-787.442
 70
    32
  0
VERTEX
  8
T60SSILL
 62
6
 10
1560.648
 20
-8073.882
 30
-787.474
 70
    32
  0
VERTEX
  8
T60SSILL
 62
6
 10
1562.176
 20
-8082.386
 30
-787.492
 70
    32
  0
VERTEX
  8
T60SSILL
 62
6
 10
1561.681
 20
-8091.582
 30
-787.505
 70
    32
  0
VERTEX
  8
T60SSILL
 62
6
 10
1557.855
 20
-8099.835
 30
-787.506
 70
    32
  0
VERTEX
  8
T60SSILL
 62
6
 10
1552.266
 20
-8111.888
 30
-787.510
 70
    32
  0
VERTEX
  8
T60SSILL
 62
6
 10
1540.148
 20
-8115.352
 30
-787.479
 70
    32
  0
VERTEX
  8
T60SSILL
 62
6
 10
1496.155
 20
-8090.918
 30
-787.306
 70
    32
  0
VERTEX
  8
T60SSILL
 62
6
 10
1486.212
 20
-8078.074
 30
-787.255
 70
    32
  0
SEQEND
  8
T60SSILL
  0
POLYLINE
  8
T60SSILL
 62
6
 66
     1
 70
     9
  0
VERTEX
  8
T60SSILL
 62
6
 10
1444.372
 20
-8038.017
 30
-787.062
 70
    32
  0
VERTEX
  8
T60SSILL
 62
6
 10
1455.353
 20
-8052.613
 30
-787.119
 70
    32
  0
VERTEX
  8
T60SSILL
 62
6
 10
1449.116
 20
-8057.608
 30
-787.109
 70
    32
  0
VERTEX
  8
T60SSILL
 62
6
 10
1445.422
 20
-8063.287
 30
-787.108
 70
    32
  0
VERTEX
  8
T60SSILL
 62
6
 10
1424.722
 20
-8068.157
 30
-787.054
 70
    32
  0
VERTEX
  8
T60SSILL
 62
6
 10
1419.152
 20
-8069.468
 30
-787.052
 70
    32
  0
VERTEX
  8
T60SSILL
 62
6
 10
1417.204
 20
-8066.979
 30
-787.047
 70
    32
  0
VERTEX
  8
T60SSILL
 62
6
 10
1414.342
 20
-8067.882
 30
-787.046
 70
    32
  0
VERTEX
  8
T60SSILL
 62
6
 10
1406.825
 20
-8057.710
 30
-787.029
 70
    32
  0
VERTEX
  8
T60SSILL
 62
6
 10
1430.837
 20
-8039.801
 30
-787.024
 70
    32
  0
VERTEX
  8
T60SSILL
 62
6
 10
1436.956
 20
-8035.237
 30
-787.035
 70
    32
  0
SEQEND
  8
T60SSILL
  0
POLYLINE
  8
T60SSILL
 62
6
 66
     1
 70
     9
  0
VERTEX
  8
T60SSILL
 62
6
 10
1483.353
 20
-8033.259
 30
-787.170
 70
    32
  0
VERTEX
  8
T60SSILL
 62
6
 10
1480.732
 20
-8039.882
 30
-787.174
 70
    32
  0
VERTEX
  8
T60SSILL
 62
6
 10
1474.197
 20
-8043.213
 30
-787.160
 70
    32
  0
VERTEX
  8
T60SSILL
 62
6
 10
1469.013
 20
-8049.837
 30
-787.156
 70
    32
  0
VERTEX
  8
T60SSILL
 62
6
 10
1467.871
 20
-8054.076
 30
-787.159
 70
    32
  0
VERTEX
  8
T60SSILL
 62
6
 10
1451.842
 20
-8033.173
 30
-787.076
 70
    32
  0
VERTEX
  8
T60SSILL
 62
6
 10
1454.444
 20
-8025.672
 30
-787.071
 70
    32
  0
VERTEX
  8
T60SSILL
 62
6
 10
1453.578
 20
-8022.002
 30
-787.062
 70
    32
  0
VERTEX
  8
T60SSILL
 62
6
 10
1470.264
 20
-8009.274
 30
-787.091
 70
    32
  0
VERTEX
  8
T60SSILL
 62
6
 10
1464.972
 20
-8001.375
 30
-787.062
 70
    32
  0
VERTEX
  8
T60SSILL
 62
6
 10
1460.769
 20
-8004.553
 30
-787.054
 70
    32
  0
VERTEX
  8
T60SSILL
 62
6
 10
1443.490
 20
-7981.128
 30
-786.963
 70
    32
  0
VERTEX
  8
T60SSILL
 62
6
 10
1440.747
 20
-7977.410
 30
-786.957
 70
    32
  0
VERTEX
  8
T60SSILL
 62
6
 10
1444.934
 20
-7974.431
 30
-786.956
 70
    32
  0
VERTEX
  8
T60SSILL
 62
6
 10
1448.554
 20
-7971.856
 30
-786.963
 70
    32
  0
VERTEX
  8
T60SSILL
 62
6
 10
1448.755
 20
-7971.665
 30
-786.963
 70
    32
  0
VERTEX
  8
T60SSILL
 62
6
 10
1482.711
 20
-7939.430
 30
-787.019
 70
    32
  0
VERTEX
  8
T60SSILL
 62
6
 10
1487.438
 20
-7943.758
 30
-787.040
 70
    32
  0
VERTEX
  8
T60SSILL
 62
6
 10
1487.282
 20
-7950.681
 30
-787.051
 70
    32
  0
VERTEX
  8
T60SSILL
 62
6
 10
1490.565
 20
-7968.405
 30
-787.089
 70
    32
  0
VERTEX
  8
T60SSILL
 62
6
 10
1497.261
 20
-7982.230
 30
-787.131
 70
    32
  0
VERTEX
  8
T60SSILL
 62
6
 10
1503.587
 20
-7990.881
 30
-787.165
 70
    32
  0
VERTEX
  8
T60SSILL
 62
6
 10
1505.233
 20
-7999.962
 30
-787.184
 70
    32
  0
VERTEX
  8
T60SSILL
 62
6
 10
1503.475
 20
-8023.639
 30
-787.216
 70
    32
  0
VERTEX
  8
T60SSILL
 62
6
 10
1501.064
 20
-8025.972
 30
-787.212
 70
    32
  0
VERTEX
  8
T60SSILL
 62
6
 10
1496.215
 20
-8027.420
 30
-787.199
 70
    32
  0
VERTEX
  8
T60SSILL
 62
6
 10
1493.925
 20
-8028.104
 30
-787.193
 70
    32
  0
SEQEND
  8
T60SSILL
  0
POLYLINE
  8
T60SSILL
 62
6
 66
     1
 70
     9
  0
VERTEX
  8
T60SSILL
 62
6
 10
1448.435
 20
-8005.177
 30
-787.019
 70
    32
  0
VERTEX
  8
T60SSILL
 62
6
 10
1450.018
 20
-8013.750
 30
-787.038
 70
    32
  0
VERTEX
  8
T60SSILL
 62
6
 10
1433.751
 20
-8026.290
 30
-787.010
 70
    32
  0
VERTEX
  8
T60SSILL
 62
6
 10
1422.063
 20
-8035.299
 30
-787.013
 70
    32
  0
VERTEX
  8
T60SSILL
 62
6
 10
1401.542
 20
-8008.659
 30
-786.966
 70
    32
  0
VERTEX
  8
T60SSILL
 62
6
 10
1432.743
 20
-7983.565
 30
-786.958
 70
    32
  0
VERTEX
  8
T60SSILL
 62
6
 10
1440.624
 20
-7994.419
 30
-786.977
 70
    32
  0
SEQEND
  8
T60SSILL
  0
POLYLINE
  8
T60SSILL
 62
6
 66
     1
 70
     9
  0
VERTEX
  8
T60SSILL
 62
6
 10
1365.989
 20
-8038.163
 30
-786.975
 70
    32
  0
VERTEX
  8
T60SSILL
 62
6
 10
1394.469
 20
-8014.864
 30
-786.968
 70
    32
  0
VERTEX
  8
T60SSILL
 62
6
 10
1413.788
 20
-8041.109
 30
-787.014
 70
    32
  0
VERTEX
  8
T60SSILL
 62
6
 10
1387.745
 20
-8060.827
 30
-787.018
 70
    32
  0
VERTEX
  8
T60SSILL
 62
6
 10
1382.135
 20
-8059.643
 30
-787.013
 70
    32
  0
VERTEX
  8
T60SSILL
 62
6
 10
1376.658
 20
-8056.349
 30
-787.005
 70
    32
  0
VERTEX
  8
T60SSILL
 62
6
 10
1373.184
 20
-8048.921
 30
-786.993
 70
    32
  0
VERTEX
  8
T60SSILL
 62
6
 10
1366.714
 20
-8043.505
 30
-786.982
 70
    32
  0
SEQEND
  8
T60SSILL
  0
POLYLINE
  8
T60SSILL
 62
6
 66
     1
 70
     9
  0
VERTEX
  8
T60SSILL
 62
6
 10
1372.171
 20
-8091.639
 30
-787.044
 70
    32
  0
VERTEX
  8
T60SSILL
 62
6
 10
1382.608
 20
-8085.030
 30
-787.044
 70
    32
  0
VERTEX
  8
T60SSILL
 62
6
 10
1390.795
 20
-8095.346
 30
-787.062
 70
    32
  0
VERTEX
  8
T60SSILL
 62
6
 10
1396.909
 20
-8090.337
 30
-787.061
 70
    32
  0
VERTEX
  8
T60SSILL
 62
6
 10
1400.889
 20
-8084.880
 30
-787.057
 70
    32
  0
VERTEX
  8
T60SSILL
 62
6
 10
1393.979
 20
-8074.345
 30
-787.039
 70
    32
  0
VERTEX
  8
T60SSILL
 62
6
 10
1393.320
 20
-8067.948
 30
-787.031
 70
    32
  0
VERTEX
  8
T60SSILL
 62
6
 10
1398.628
 20
-8063.904
 30
-787.030
 70
    32
  0
VERTEX
  8
T60SSILL
 62
6
 10
1405.928
 20
-8073.799
 30
-787.047
 70
    32
  0
VERTEX
  8
T60SSILL
 62
6
 10
1407.412
 20
-8082.673
 30
-787.059
 70
    32
  0
VERTEX
  8
T60SSILL
 62
6
 10
1412.562
 20
-8089.680
 30
-787.071
 70
    32
  0
VERTEX
  8
T60SSILL
 62
6
 10
1404.042
 20
-8103.152
 30
-787.081
 70
    32
  0
VERTEX
  8
T60SSILL
 62
6
 10
1405.214
 20
-8106.359
 30
-787.086
 70
    32
  0
VERTEX
  8
T60SSILL
 62
6
 10
1375.898
 20
-8128.305
 30
-787.091
 70
    32
  0
SEQEND
  8
T60SSILL
  0
POLYLINE
  8
T60SSILL
 62
6
 66
     1
 70
     9
  0
VERTEX
  8
T60SSILL
 62
6
 10
1429.585
 20
-8167.117
 30
-787.236
 70
    32
  0
VERTEX
  8
T60SSILL
 62
6
 10
1423.070
 20
-8162.070
 30
-787.208
 70
    32
  0
VERTEX
  8
T60SSILL
 62
6
 10
1425.894
 20
-8151.719
 30
-787.199
 70
    32
  0
VERTEX
  8
T60SSILL
 62
6
 10
1453.560
 20
-8131.511
 30
-787.248
 70
    32
  0
VERTEX
  8
T60SSILL
 62
6
 10
1496.038
 20
-8154.009
 30
-787.413
 70
    32
  0
VERTEX
  8
T60SSILL
 62
6
 10
1469.117
 20
-8173.746
 30
-787.366
 70
    32
  0
VERTEX
  8
T60SSILL
 62
6
 10
1462.528
 20
-8171.880
 30
-787.343
 70
    32
  0
VERTEX
  8
T60SSILL
 62
6
 10
1457.490
 20
-8173.705
 30
-787.331
 70
    32
  0
VERTEX
  8
T60SSILL
 62
6
 10
1449.673
 20
-8168.563
 30
-787.299
 70
    32
  0
SEQEND
  8
T60SSILL
  0
POLYLINE
  8
T60SSILL
 62
6
 66
     1
 70
     9
  0
VERTEX
  8
T60SSILL
 62
6
 10
1408.828
 20
-8129.064
 30
-787.116
 70
    32
  0
VERTEX
  8
T60SSILL
 62
6
 10
1411.468
 20
-8129.620
 30
-787.119
 70
    32
  0
VERTEX
  8
T60SSILL
 62
6
 10
1416.572
 20
-8130.695
 30
-787.136
 70
    32
  0
VERTEX
  8
T60SSILL
 62
6
 10
1424.652
 20
-8126.489
 30
-787.153
 70
    32
  0
VERTEX
  8
T60SSILL
 62
6
 10
1433.773
 20
-8125.035
 30
-787.177
 70
    32
  0
VERTEX
  8
T60SSILL
 62
6
 10
1437.261
 20
-8129.776
 30
-787.196
 70
    32
  0
VERTEX
  8
T60SSILL
 62
6
 10
1414.299
 20
-8147.305
 30
-787.157
 70
    32
  0
VERTEX
  8
T60SSILL
 62
6
 10
1408.854
 20
-8144.766
 30
-787.136
 70
    32
  0
VERTEX
  8
T60SSILL
 62
6
 10
1408.076
 20
-8145.351
 30
-787.135
 70
    32
  0
VERTEX
  8
T60SSILL
 62
6
 10
1401.694
 20
-8150.148
 30
-787.136
 70
    32
  0
VERTEX
  8
T60SSILL
 62
6
 10
1393.376
 20
-8147.070
 30
-787.126
 70
    32
  0
VERTEX
  8
T60SSILL
 62
6
 10
1390.873
 20
-8137.322
 30
-787.113
 70
    32
  0
VERTEX
  8
T60SSILL
 62
6
 10
1386.469
 20
-8132.407
 30
-787.104
 70
    32
  0
VERTEX
  8
T60SSILL
 62
6
 10
1396.556
 20
-8125.068
 30
-787.102
 70
    32
  0
VERTEX
  8
T60SSILL
 62
6
 10
1406.272
 20
-8124.375
 30
-787.108
 70
    32
  0
SEQEND
  8
T60SSILL
  0
POLYLINE
  8
T60SSILL
 62
6
 66
     1
 70
     9
  0
VERTEX
  8
T60SSILL
 62
6
 10
1456.202
 20
-8085.176
 30
-787.177
 70
    32
  0
VERTEX
  8
T60SSILL
 62
6
 10
1460.298
 20
-8092.117
 30
-787.201
 70
    32
  0
VERTEX
  8
T60SSILL
 62
6
 10
1466.845
 20
-8092.789
 30
-787.222
 70
    32
  0
VERTEX
  8
T60SSILL
 62
6
 10
1471.461
 20
-8101.107
 30
-787.250
 70
    32
  0
VERTEX
  8
T60SSILL
 62
6
 10
1461.548
 20
-8110.094
 30
-787.235
 70
    32
  0
VERTEX
  8
T60SSILL
 62
6
 10
1452.508
 20
-8105.240
 30
-787.200
 70
    32
  0
VERTEX
  8
T60SSILL
 62
6
 10
1442.345
 20
-8096.247
 30
-787.154
 70
    32
  0
VERTEX
  8
T60SSILL
 62
6
 10
1440.763
 20
-8090.238
 30
-787.140
 70
    32
  0
VERTEX
  8
T60SSILL
 62
6
 10
1450.057
 20
-8082.739
 30
-787.155
 70
    32
  0
SEQEND
  8
T60SSILL
  0
POLYLINE
  8
T60SSILL
 62
3
 66
     1
 70
     9
  0
VERTEX
  8
T60SSILL
 62
3
 10
1552.888
 20
-7847.427
 30
-787.201
 70
    32
  0
VERTEX
  8
T60SSILL
 62
3
 10
1544.031
 20
-7850.047
 30
-784.153
 70
    32
  0
VERTEX
  8
T60SSILL
 62
3
 10
1536.687
 20
-7850.453
 30
-782.562
 70
    32
  0
VERTEX
  8
T60SSILL
 62
3
 10
1534.029
 20
-7851.084
 30
-782.563
 70
    32
  0
VERTEX
  8
T60SSILL
 62
3
 10
1523.553
 20
-7858.346
 30
-781.846
 70
    32
  0
VERTEX
  8
T60SSILL
 62
3
 10
1518.194
 20
-7849.043
 30
-779.379
 70
    32
  0
VERTEX
  8
T60SSILL
 62
3
 10
1534.814
 20
-7840.013
 30
-783.249
 70
    32
  0
VERTEX
  8
T60SSILL
 62
3
 10
1549.571
 20
-7837.245
 30
-786.155
 70
    32
  0
VERTEX
  8
T60SSILL
 62
3
 10
1558.944
 20
-7837.841
 30
-787.222
 70
    32
  0
SEQEND
  8
T60SSILL
  0
TEXT
  8
T60SSILL
 62
3
 10
1539.554
 20
-7824.593
 30
-783.249
 40
8.202
  1
D
 41
 1.0 
  0
TEXT
  8
T60SSILL
 62
6
 10
1684.711
 20
-6741.461
 30
-788.038
 40
4.101
  1
6050
 50
-54.336
 41
 1.0 
  0
TEXT
  8
T60SSILL
 62
6
 10
6169.801
 20
-9374.952
 30
-809.177
 40
4.101
  1
6050
 50
-54.336
 41
 1.0 
  0
POLYLINE
  8
T60SSILL
 62
6
 66
     1
 70
     9
  0
VERTEX
  8
T60SSILL
 62
6
 10
758.980
 20
-5481.919
 30
-780.084
 70
    32
  0
VERTEX
  8
T60SSILL
 62
6
 10
705.255
 20
-5487.801
 30
-779.836
 70
    32
  0
VERTEX
  8
T60SSILL
 62
6
 10
699.672
 20
-5486.177
 30
-779.806
 70
    32
  0
VERTEX
  8
T60SSILL
 62
6
 10
687.575
 20
-5465.149
 30
-779.707
 70
    32
  0
VERTEX
  8
T60SSILL
 62
6
 10
689.230
 20
-5461.271
 30
-779.708
 70
    32
  0
VERTEX
  8
T60SSILL
 62
6
 10
703.568
 20
-5463.980
 30
-779.782
 70
    32
  0
VERTEX
  8
T60SSILL
 62
6
 10
759.108
 20
-5463.059
 30
-780.048
 70
    32
  0
VERTEX
  8
T60SSILL
 62
6
 10
758.748
 20
-5473.132
 30
-780.066
 70
    32
  0
VERTEX
  8
T60SSILL
 62
6
 10
756.093
 20
-5476.968
 30
-780.061
 70
    32
  0
SEQEND
  8
T60SSILL
  0
POLYLINE
  8
T60SSILL
 62
6
 66
     1
 70
     9
  0
VERTEX
  8
T60SSILL
 62
6
 10
765.183
 20
-5519.019
 30
-780.185
 70
    32
  0
VERTEX
  8
T60SSILL
 62
6
 10
760.896
 20
-5520.569
 30
-780.167
 70
    32
  0
VERTEX
  8
T60SSILL
 62
6
 10
728.277
 20
-5524.437
 30
-780.017
 70
    32
  0
VERTEX
  8
T60SSILL
 62
6
 10
724.044
 20
-5518.506
 30
-779.986
 70
    32
  0
VERTEX
  8
T60SSILL
 62
6
 10
710.606
 20
-5509.654
 30
-779.904
 70
    32
  0
VERTEX
  8
T60SSILL
 62
6
 10
708.199
 20
-5503.713
 30
-779.881
 70
    32
  0
VERTEX
  8
T60SSILL
 62
6
 10
710.855
 20
-5496.856
 30
-779.880
 70
    32
  0
VERTEX
  8
T60SSILL
 62
6
 10
758.833
 20
-5492.594
 30
-780.104
 70
    32
  0
VERTEX
  8
T60SSILL
 62
6
 10
766.870
 20
-5509.294
 30
-780.174
 70
    32
  0
VERTEX
  8
T60SSILL
 62
6
 10
770.819
 20
-5513.163
 30
-780.201
 70
    32
  0
VERTEX
  8
T60SSILL
 62
6
 10
763.215
 20
-5515.355
 30
-780.168
 70
    32
  0
SEQEND
  8
T60SSILL
  0
POLYLINE
  8
T60SSILL
 62
6
 66
     1
 70
     9
  0
VERTEX
  8
T60SSILL
 62
6
 10
629.674
 20
-5703.334
 30
-779.452
 70
    32
  0
VERTEX
  8
T60SSILL
 62
6
 10
613.726
 20
-5724.965
 30
-779.297
 70
    32
  0
VERTEX
  8
T60SSILL
 62
6
 10
615.960
 20
-5729.303
 30
-779.322
 70
    32
  0
VERTEX
  8
T60SSILL
 62
6
 10
633.926
 20
-5715.184
 30
-779.501
 70
    32
  0
SEQEND
  8
T60SSILL
  0
POLYLINE
  8
T60SSILL
 62
6
 66
     1
 70
     9
  0
VERTEX
  8
T60SSILL
 62
6
 10
636.681
 20
-5722.695
 30
-779.427
 70
    32
  0
VERTEX
  8
T60SSILL
 62
6
 10
625.980
 20
-5733.368
 30
-779.427
 70
    32
  0
VERTEX
  8
T60SSILL
 62
6
 10
616.455
 20
-5745.561
 30
-779.313
 70
    32
  0
VERTEX
  8
T60SSILL
 62
6
 10
617.596
 20
-5750.032
 30
-779.315
 70
    32
  0
VERTEX
  8
T60SSILL
 62
6
 10
637.204
 20
-5741.537
 30
-779.526
 70
    32
  0
VERTEX
  8
T60SSILL
 62
6
 10
642.013
 20
-5736.486
 30
-779.584
 70
    32
  0
SEQEND
  8
T60SSILL
  0
POLYLINE
  8
T60SSILL
 62
6
 66
     1
 70
     9
  0
VERTEX
  8
T60SSILL
 62
6
 10
639.333
 20
-5756.305
 30
-779.517
 70
    32
  0
VERTEX
  8
T60SSILL
 62
6
 10
634.718
 20
-5760.570
 30
-779.462
 70
    32
  0
VERTEX
  8
T60SSILL
 62
6
 10
628.979
 20
-5771.570
 30
-779.383
 70
    32
  0
VERTEX
  8
T60SSILL
 62
6
 10
625.375
 20
-5774.681
 30
-779.341
 70
    32
  0
VERTEX
  8
T60SSILL
 62
6
 10
606.179
 20
-5804.456
 30
-779.090
 70
    32
  0
VERTEX
  8
T60SSILL
 62
6
 10
615.406
 20
-5833.249
 30
-779.121
 70
    32
  0
VERTEX
  8
T60SSILL
 62
6
 10
624.398
 20
-5832.548
 30
-779.212
 70
    32
  0
VERTEX
  8
T60SSILL
 62
6
 10
634.464
 20
-5823.529
 30
-779.330
 70
    32
  0
VERTEX
  8
T60SSILL
 62
6
 10
638.679
 20
-5789.239
 30
-779.442
 70
    32
  0
VERTEX
  8
T60SSILL
 62
6
 10
638.091
 20
-5777.686
 30
-779.460
 70
    32
  0
VERTEX
  8
T60SSILL
 62
6
 10
640.439
 20
-5774.176
 30
-779.491
 70
    32
  0
VERTEX
  8
T60SSILL
 62
6
 10
640.106
 20
-5762.225
 30
-779.512
 70
    32
  0
VERTEX
  8
T60SSILL
 62
6
 10
641.638
 20
-5759.082
 30
-779.534
 70
    32
  0
SEQEND
  8
T60SSILL
  0
POLYLINE
  8
T60SSILL
 62
6
 66
     1
 70
     9
  0
VERTEX
  8
T60SSILL
 62
6
 10
652.600
 20
-5788.039
 30
-779.582
 70
    32
  0
VERTEX
  8
T60SSILL
 62
6
 10
647.945
 20
-5791.793
 30
-779.529
 70
    32
  0
VERTEX
  8
T60SSILL
 62
6
 10
645.909
 20
-5807.377
 30
-779.476
 70
    32
  0
VERTEX
  8
T60SSILL
 62
6
 10
658.762
 20
-5790.235
 30
-779.639
 70
    32
  0
SEQEND
  8
T60SSILL
  0
POLYLINE
  8
T60SSILL
 62
6
 66
     1
 70
     9
  0
VERTEX
  8
T60SSILL
 62
6
 10
664.818
 20
-5946.294
 30
-779.782
 70
    32
  0
VERTEX
  8
T60SSILL
 62
6
 10
657.001
 20
-5945.618
 30
-779.643
 70
    32
  0
VERTEX
  8
T60SSILL
 62
6
 10
646.436
 20
-5917.671
 30
-779.505
 70
    32
  0
VERTEX
  8
T60SSILL
 62
6
 10
644.666
 20
-5900.382
 30
-779.449
 70
    32
  0
VERTEX
  8
T60SSILL
 62
6
 10
646.014
 20
-5895.320
 30
-779.463
 70
    32
  0
VERTEX
  8
T60SSILL
 62
6
 10
675.715
 20
-5856.537
 30
-779.908
 70
    32
  0
VERTEX
  8
T60SSILL
 62
6
 10
680.243
 20
-5869.378
 30
-780.011
 70
    32
  0
VERTEX
  8
T60SSILL
 62
6
 10
680.669
 20
-5877.379
 30
-780.034
 70
    32
  0
VERTEX
  8
T60SSILL
 62
6
 10
679.830
 20
-5882.400
 30
-780.029
 70
    32
  0
VERTEX
  8
T60SSILL
 62
6
 10
672.917
 20
-5894.022
 30
-779.930
 70
    32
  0
VERTEX
  8
T60SSILL
 62
6
 10
670.567
 20
-5902.819
 30
-779.906
 70
    32
  0
VERTEX
  8
T60SSILL
 62
6
 10
676.882
 20
-5919.653
 30
-780.048
 70
    32
  0
VERTEX
  8
T60SSILL
 62
6
 10
677.451
 20
-5920.773
 30
-780.056
 70
    32
  0
VERTEX
  8
T60SSILL
 62
6
 10
679.215
 20
-5923.397
 30
-780.083
 70
    32
  0
SEQEND
  8
T60SSILL
  0
POLYLINE
  8
T60SSILL
 62
6
 66
     1
 70
     9
  0
VERTEX
  8
T60SSILL
 62
6
 10
698.675
 20
-5964.410
 30
-780.356
 70
    32
  0
VERTEX
  8
T60SSILL
 62
6
 10
683.430
 20
-5990.501
 30
-780.034
 70
    32
  0
VERTEX
  8
T60SSILL
 62
6
 10
677.215
 20
-5986.631
 30
-779.930
 70
    32
  0
VERTEX
  8
T60SSILL
 62
6
 10
665.660
 20
-5963.491
 30
-779.765
 70
    32
  0
VERTEX
  8
T60SSILL
 62
6
 10
685.602
 20
-5928.869
 30
-780.187
 70
    32
  0
VERTEX
  8
T60SSILL
 62
6
 10
689.070
 20
-5935.238
 30
-780.238
 70
    32
  0
VERTEX
  8
T60SSILL
 62
6
 10
694.178
 20
-5953.274
 30
-780.296
 70
    32
  0
VERTEX
  8
T60SSILL
 62
6
 10
696.054
 20
-5957.867
 30
-780.321
 70
    32
  0
SEQEND
  8
T60SSILL
  0
POLYLINE
  8
T60SSILL
 62
6
 66
     1
 70
     9
  0
VERTEX
  8
T60SSILL
 62
6
 10
699.349
 20
-5768.908
 30
-780.154
 70
    32
  0
VERTEX
  8
T60SSILL
 62
6
 10
688.657
 20
-5822.383
 30
-780.069
 70
    32
  0
VERTEX
  8
T60SSILL
 62
6
 10
684.289
 20
-5822.157
 30
-779.992
 70
    32
  0
VERTEX
  8
T60SSILL
 62
6
 10
678.446
 20
-5805.509
 30
-779.859
 70
    32
  0
VERTEX
  8
T60SSILL
 62
6
 10
666.717
 20
-5812.803
 30
-779.671
 70
    32
  0
VERTEX
  8
T60SSILL
 62
6
 10
661.848
 20
-5816.710
 30
-779.614
 70
    32
  0
VERTEX
  8
T60SSILL
 62
6
 10
670.942
 20
-5845.922
 30
-779.804
 70
    32
  0
VERTEX
  8
T60SSILL
 62
6
 10
634.921
 20
-5894.286
 30
-779.267
 70
    32
  0
VERTEX
  8
T60SSILL
 62
6
 10
621.850
 20
-5853.459
 30
-779.143
 70
    32
  0
VERTEX
  8
T60SSILL
 62
6
 10
668.245
 20
-5791.973
 30
-779.729
 70
    32
  0
VERTEX
  8
T60SSILL
 62
6
 10
680.777
 20
-5792.109
 30
-779.757
 70
    32
  0
VERTEX
  8
T60SSILL
 62
6
 10
689.616
 20
-5765.532
 30
-779.853
 70
    32
  0
SEQEND
  8
T60SSILL
  0
POLYLINE
  8
T60SSILL
 62
6
 66
     1
 70
     9
  0
VERTEX
  8
T60SSILL
 62
6
 10
704.327
 20
-5972.025
 30
-780.444
 70
    32
  0
VERTEX
  8
T60SSILL
 62
6
 10
688.049
 20
-6002.413
 30
-780.095
 70
    32
  0
VERTEX
  8
T60SSILL
 62
6
 10
687.598
 20
-6008.128
 30
-780.084
 70
    32
  0
VERTEX
  8
T60SSILL
 62
6
 10
698.573
 20
-6030.604
 30
-780.328
 70
    32
  0
VERTEX
  8
T60SSILL
 62
6
 10
702.216
 20
-6031.024
 30
-780.343
 70
    32
  0
VERTEX
  8
T60SSILL
 62
6
 10
703.554
 20
-6028.746
 30
-780.325
 70
    32
  0
VERTEX
  8
T60SSILL
 62
6
 10
714.000
 20
-6010.963
 30
-780.545
 70
    32
  0
VERTEX
  8
T60SSILL
 62
6
 10
711.935
 20
-5989.030
 30
-780.549
 70
    32
  0
SEQEND
  8
T60SSILL
  0
POLYLINE
  8
T60SSILL
 62
6
 66
     1
 70
     9
  0
VERTEX
  8
T60SSILL
 62
6
 10
727.323
 20
-5897.254
 30
-780.885
 70
    32
  0
VERTEX
  8
T60SSILL
 62
6
 10
782.958
 20
-5855.816
 30
-781.770
 70
    32
  0
VERTEX
  8
T60SSILL
 62
6
 10
793.402
 20
-5844.154
 30
-781.773
 70
    32
  0
VERTEX
  8
T60SSILL
 62
6
 10
799.264
 20
-5833.174
 30
-781.745
 70
    32
  0
VERTEX
  8
T60SSILL
 62
6
 10
817.289
 20
-5926.124
 30
-782.510
 70
    32
  0
VERTEX
  8
T60SSILL
 62
6
 10
812.969
 20
-5932.767
 30
-782.447
 70
    32
  0
VERTEX
  8
T60SSILL
 62
6
 10
820.734
 20
-5939.413
 30
-782.593
 70
    32
  0
VERTEX
  8
T60SSILL
 62
6
 10
826.123
 20
-5969.328
 30
-782.635
 70
    32
  0
VERTEX
  8
T60SSILL
 62
6
 10
820.872
 20
-5985.696
 30
-782.510
 70
    32
  0
VERTEX
  8
T60SSILL
 62
6
 10
812.898
 20
-5996.890
 30
-782.347
 70
    32
  0
VERTEX
  8
T60SSILL
 62
6
 10
733.765
 20
-6054.670
 30
-780.819
 70
    32
  0
VERTEX
  8
T60SSILL
 62
6
 10
732.489
 20
-6053.639
 30
-780.798
 70
    32
  0
VERTEX
  8
T60SSILL
 62
6
 10
718.899
 20
-6075.853
 30
-780.815
 70
    32
  0
VERTEX
  8
T60SSILL
 62
6
 10
707.058
 20
-6049.141
 30
-780.528
 70
    32
  0
VERTEX
  8
T60SSILL
 62
6
 10
710.553
 20
-6034.997
 30
-780.439
 70
    32
  0
VERTEX
  8
T60SSILL
 62
6
 10
730.935
 20
-5998.874
 30
-780.872
 70
    32
  0
VERTEX
  8
T60SSILL
 62
6
 10
736.826
 20
-5992.620
 30
-780.989
 70
    32
  0
VERTEX
  8
T60SSILL
 62
6
 10
739.799
 20
-5981.221
 30
-781.063
 70
    32
  0
VERTEX
  8
T60SSILL
 62
6
 10
741.177
 20
-5980.885
 30
-781.089
 70
    32
  0
VERTEX
  8
T60SSILL
 62
6
 10
746.615
 20
-5985.632
 30
-781.178
 70
    32
  0
VERTEX
  8
T60SSILL
 62
6
 10
755.398
 20
-5998.239
 30
-781.312
 70
    32
  0
VERTEX
  8
T60SSILL
 62
6
 10
763.626
 20
-5993.445
 30
-781.468
 70
    32
  0
VERTEX
  8
T60SSILL
 62
6
 10
753.527
 20
-5977.786
 30
-781.316
 70
    32
  0
VERTEX
  8
T60SSILL
 62
6
 10
744.206
 20
-5955.208
 30
-781.191
 70
    32
  0
VERTEX
  8
T60SSILL
 62
6
 10
735.281
 20
-5940.437
 30
-781.058
 70
    32
  0
VERTEX
  8
T60SSILL
 62
6
 10
734.884
 20
-5934.140
 30
-781.062
 70
    32
  0
VERTEX
  8
T60SSILL
 62
6
 10
729.206
 20
-5915.003
 30
-780.952
 70
    32
  0
VERTEX
  8
T60SSILL
 62
6
 10
727.323
 20
-5897.254
 30
-780.885
 70
    32
  0
SEQEND
  8
T60SSILL
  0
POLYLINE
  8
T60SSILL
 62
6
 66
     1
 70
     9
  0
VERTEX
  8
T60SSILL
 62
6
 10
695.892
 20
-5760.589
 30
-780.078
 70
    32
  0
VERTEX
  8
T60SSILL
 62
6
 10
701.996
 20
-5755.692
 30
-780.175
 70
    32
  0
VERTEX
  8
T60SSILL
 62
6
 10
704.708
 20
-5740.962
 30
-780.195
 70
    32
  0
VERTEX
  8
T60SSILL
 62
6
 10
707.384
 20
-5727.577
 30
-780.249
 70
    32
  0
VERTEX
  8
T60SSILL
 62
6
 10
705.935
 20
-5725.698
 30
-780.238
 70
    32
  0
VERTEX
  8
T60SSILL
 62
6
 10
702.169
 20
-5726.769
 30
-780.199
 70
    32
  0
VERTEX
  8
T60SSILL
 62
6
 10
690.765
 20
-5739.655
 30
-780.060
 70
    32
  0
VERTEX
  8
T60SSILL
 62
6
 10
690.335
 20
-5742.982
 30
-780.048
 70
    32
  0
VERTEX
  8
T60SSILL
 62
6
 10
695.892
 20
-5760.589
 30
-780.078
 70
    32
  0
SEQEND
  8
T60SSILL
  0
POLYLINE
  8
T60SSILL
 62
6
 66
     1
 70
     9
  0
VERTEX
  8
T60SSILL
 62
6
 10
698.821
 20
-5824.080
 30
-780.249
 70
    32
  0
VERTEX
  8
T60SSILL
 62
6
 10
717.047
 20
-5733.407
 30
-780.396
 70
    32
  0
VERTEX
  8
T60SSILL
 62
6
 10
729.156
 20
-5716.674
 30
-780.407
 70
    32
  0
VERTEX
  8
T60SSILL
 62
6
 10
743.905
 20
-5710.892
 30
-780.484
 70
    32
  0
VERTEX
  8
T60SSILL
 62
6
 10
750.508
 20
-5711.679
 30
-780.541
 70
    32
  0
VERTEX
  8
T60SSILL
 62
6
 10
758.214
 20
-5709.631
 30
-780.588
 70
    32
  0
VERTEX
  8
T60SSILL
 62
6
 10
769.155
 20
-5709.695
 30
-780.674
 70
    32
  0
VERTEX
  8
T60SSILL
 62
6
 10
776.461
 20
-5713.433
 30
-780.757
 70
    32
  0
VERTEX
  8
T60SSILL
 62
6
 10
795.984
 20
-5813.619
 30
-781.587
 70
    32
  0
VERTEX
  8
T60SSILL
 62
6
 10
789.020
 20
-5823.659
 30
-781.600
 70
    32
  0
VERTEX
  8
T60SSILL
 62
6
 10
793.224
 20
-5825.620
 30
-781.646
 70
    32
  0
VERTEX
  8
T60SSILL
 62
6
 10
792.590
 20
-5830.927
 30
-781.677
 70
    32
  0
VERTEX
  8
T60SSILL
 62
6
 10
783.747
 20
-5846.947
 30
-781.716
 70
    32
  0
VERTEX
  8
T60SSILL
 62
6
 10
731.767
 20
-5885.345
 30
-780.940
 70
    32
  0
VERTEX
  8
T60SSILL
 62
6
 10
727.177
 20
-5877.404
 30
-780.845
 70
    32
  0
VERTEX
  8
T60SSILL
 62
6
 10
725.606
 20
-5872.484
 30
-780.809
 70
    32
  0
VERTEX
  8
T60SSILL
 62
6
 10
717.225
 20
-5847.294
 30
-780.615
 70
    32
  0
VERTEX
  8
T60SSILL
 62
6
 10
709.460
 20
-5842.158
 30
-780.469
 70
    32
  0
VERTEX
  8
T60SSILL
 62
6
 10
703.616
 20
-5831.552
 30
-780.347
 70
    32
  0
VERTEX
  8
T60SSILL
 62
6
 10
696.115
 20
-5827.845
 30
-780.209
 70
    32
  0
SEQEND
  8
T60SSILL
  0
POLYLINE
  8
T60SSILL
 62
6
 66
     1
 70
     9
  0
VERTEX
  8
T60SSILL
 62
6
 10
1615.230
 20
-8448.842
 30
-787.883
 70
    32
  0
VERTEX
  8
T60SSILL
 62
6
 10
1627.690
 20
-8441.541
 30
-787.922
 70
    32
  0
VERTEX
  8
T60SSILL
 62
6
 10
1627.079
 20
-8435.775
 30
-787.923
 70
    32
  0
VERTEX
  8
T60SSILL
 62
6
 10
1628.978
 20
-8429.940
 30
-787.930
 70
    32
  0
VERTEX
  8
T60SSILL
 62
6
 10
1605.408
 20
-8381.601
 30
-787.878
 70
    32
  0
VERTEX
  8
T60SSILL
 62
6
 10
1600.076
 20
-8365.816
 30
-787.868
 70
    32
  0
VERTEX
  8
T60SSILL
 62
6
 10
1598.701
 20
-8357.080
 30
-787.868
 70
    32
  0
VERTEX
  8
T60SSILL
 62
6
 10
1599.424
 20
-8349.601
 30
-787.873
 70
    32
  0
VERTEX
  8
T60SSILL
 62
6
 10
1606.548
 20
-8322.950
 30
-787.904
 70
    32
  0
VERTEX
  8
T60SSILL
 62
6
 10
1688.818
 20
-8261.343
 30
-788.171
 70
    32
  0
VERTEX
  8
T60SSILL
 62
6
 10
1692.796
 20
-8258.364
 30
-788.178
 70
    32
  0
VERTEX
  8
T60SSILL
 62
6
 10
1694.634
 20
-8256.987
 30
-788.181
 70
    32
  0
VERTEX
  8
T60SSILL
 62
6
 10
1704.960
 20
-8249.255
 30
-788.004
 70
    32
  0
VERTEX
  8
T60SSILL
 62
6
 10
1691.577
 20
-8236.528
 30
-788.140
 70
    32
  0
VERTEX
  8
T60SSILL
 62
6
 10
1672.676
 20
-8218.554
 30
-788.052
 70
    32
  0
VERTEX
  8
T60SSILL
 62
6
 10
1632.098
 20
-8163.169
 30
-787.838
 70
    32
  0
VERTEX
  8
T60SSILL
 62
6
 10
1631.755
 20
-8175.268
 30
-787.856
 70
    32
  0
VERTEX
  8
T60SSILL
 62
6
 10
1629.086
 20
-8183.518
 30
-787.861
 70
    32
  0
VERTEX
  8
T60SSILL
 62
6
 10
1628.351
 20
-8185.793
 30
-787.862
 70
    32
  0
VERTEX
  8
T60SSILL
 62
6
 10
1614.385
 20
-8205.878
 30
-787.854
 70
    32
  0
VERTEX
  8
T60SSILL
 62
6
 10
1560.453
 20
-8246.975
 30
-787.763
 70
    32
  0
VERTEX
  8
T60SSILL
 62
6
 10
1565.535
 20
-8261.729
 30
-787.803
 70
    32
  0
VERTEX
  8
T60SSILL
 62
6
 10
1565.626
 20
-8262.592
 30
-787.804
 70
    32
  0
VERTEX
  8
T60SSILL
 62
6
 10
1566.893
 20
-8274.715
 30
-787.804
 70
    32
  0
VERTEX
  8
T60SSILL
 62
6
 10
1574.695
 20
-8302.059
 30
-787.817
 70
    32
  0
VERTEX
  8
T60SSILL
 62
6
 10
1578.321
 20
-8304.126
 30
-787.827
 70
    32
  0
VERTEX
  8
T60SSILL
 62
6
 10
1580.170
 20
-8328.993
 30
-787.823
 70
    32
  0
VERTEX
  8
T60SSILL
 62
6
 10
1585.140
 20
-8354.428
 30
-787.828
 70
    32
  0
VERTEX
  8
T60SSILL
 62
6
 10
1589.458
 20
-8363.647
 30
-787.838
 70
    32
  0
VERTEX
  8
T60SSILL
 62
6
 10
1596.542
 20
-8397.908
 30
-787.846
 70
    32
  0
VERTEX
  8
T60SSILL
 62
6
 10
1602.282
 20
-8406.237
 30
-787.860
 70
    32
  0
VERTEX
  8
T60SSILL
 62
6
 10
1609.661
 20
-8436.030
 30
-787.871
 70
    32
  0
VERTEX
  8
T60SSILL
 62
6
 10
1609.147
 20
-8439.220
 30
-787.868
 70
    32
  0
SEQEND
  8
T60SSILL
  0
POLYLINE
  8
T60SSILL
 62
6
 66
     1
 70
     9
  0
VERTEX
  8
T60SSILL
 62
6
 10
1233.178
 20
-6640.787
 30
-785.850
 70
    32
  0
VERTEX
  8
T60SSILL
 62
6
 10
1224.567
 20
-6643.980
 30
-785.857
 70
    32
  0
VERTEX
  8
T60SSILL
 62
6
 10
1209.872
 20
-6654.390
 30
-785.885
 70
    32
  0
VERTEX
  8
T60SSILL
 62
6
 10
1201.300
 20
-6658.094
 30
-785.894
 70
    32
  0
VERTEX
  8
T60SSILL
 62
6
 10
1196.664
 20
-6634.680
 30
-785.818
 70
    32
  0
VERTEX
  8
T60SSILL
 62
6
 10
1197.990
 20
-6627.282
 30
-785.795
 70
    32
  0
VERTEX
  8
T60SSILL
 62
6
 10
1203.521
 20
-6622.933
 30
-785.783
 70
    32
  0
VERTEX
  8
T60SSILL
 62
6
 10
1213.151
 20
-6625.585
 30
-785.795
 70
    32
  0
VERTEX
  8
T60SSILL
 62
6
 10
1236.923
 20
-6636.196
 30
-785.837
 70
    32
  0
SEQEND
  8
T60SSILL
  0
POLYLINE
  8
T60SSILL
 62
6
 66
     1
 70
     9
  0
VERTEX
  8
T60SSILL
 62
6
 10
1245.193
 20
-6628.723
 30
-785.816
 70
    32
  0
VERTEX
  8
T60SSILL
 62
6
 10
1218.380
 20
-6617.467
 30
-785.771
 70
    32
  0
VERTEX
  8
T60SSILL
 62
6
 10
1216.573
 20
-6612.180
 30
-785.753
 70
    32
  0
VERTEX
  8
T60SSILL
 62
6
 10
1242.256
 20
-6591.295
 30
-785.696
 70
    32
  0
VERTEX
  8
T60SSILL
 62
6
 10
1245.838
 20
-6612.764
 30
-785.766
 70
    32
  0
VERTEX
  8
T60SSILL
 62
6
 10
1246.988
 20
-6618.947
 30
-785.786
 70
    32
  0
SEQEND
  8
T60SSILL
  0
POLYLINE
  8
T60SSILL
 62
6
 66
     1
 70
     9
  0
VERTEX
  8
T60SSILL
 62
6
 10
1200.005
 20
-6613.259
 30
-785.751
 70
    32
  0
VERTEX
  8
T60SSILL
 62
6
 10
1192.404
 20
-6611.646
 30
-785.743
 70
    32
  0
VERTEX
  8
T60SSILL
 62
6
 10
1189.088
 20
-6592.680
 30
-785.682
 70
    32
  0
VERTEX
  8
T60SSILL
 62
6
 10
1193.502
 20
-6584.171
 30
-785.656
 70
    32
  0
VERTEX
  8
T60SSILL
 62
6
 10
1206.186
 20
-6573.355
 30
-785.626
 70
    32
  0
VERTEX
  8
T60SSILL
 62
6
 10
1224.850
 20
-6553.352
 30
-785.569
 70
    32
  0
VERTEX
  8
T60SSILL
 62
6
 10
1229.593
 20
-6562.479
 30
-785.600
 70
    32
  0
VERTEX
  8
T60SSILL
 62
6
 10
1233.446
 20
-6561.688
 30
-785.599
 70
    32
  0
VERTEX
  8
T60SSILL
 62
6
 10
1234.865
 20
-6564.450
 30
-785.608
 70
    32
  0
VERTEX
  8
T60SSILL
 62
6
 10
1236.317
 20
-6566.652
 30
-785.616
 70
    32
  0
VERTEX
  8
T60SSILL
 62
6
 10
1239.943
 20
-6579.369
 30
-785.657
 70
    32
  0
SEQEND
  8
T60SSILL
  0
POLYLINE
  8
T60SSILL
 62
6
 66
     1
 70
     9
  0
VERTEX
  8
T60SSILL
 62
6
 10
1215.961
 20
-6705.840
 30
-786.051
 70
    32
  0
VERTEX
  8
T60SSILL
 62
6
 10
1210.935
 20
-6706.494
 30
-786.051
 70
    32
  0
VERTEX
  8
T60SSILL
 62
6
 10
1202.319
 20
-6666.522
 30
-785.921
 70
    32
  0
VERTEX
  8
T60SSILL
 62
6
 10
1215.425
 20
-6660.253
 30
-785.906
 70
    32
  0
VERTEX
  8
T60SSILL
 62
6
 10
1217.056
 20
-6663.619
 30
-785.917
 70
    32
  0
VERTEX
  8
T60SSILL
 62
6
 10
1220.700
 20
-6664.051
 30
-785.920
 70
    32
  0
VERTEX
  8
T60SSILL
 62
6
 10
1229.290
 20
-6660.981
 30
-785.913
 70
    32
  0
VERTEX
  8
T60SSILL
 62
6
 10
1235.251
 20
-6664.078
 30
-785.925
 70
    32
  0
VERTEX
  8
T60SSILL
 62
6
 10
1237.501
 20
-6671.204
 30
-785.949
 70
    32
  0
VERTEX
  8
T60SSILL
 62
6
 10
1236.954
 20
-6675.144
 30
-785.961
 70
    32
  0
VERTEX
  8
T60SSILL
 62
6
 10
1240.216
 20
-6679.292
 30
-785.975
 70
    32
  0
VERTEX
  8
T60SSILL
 62
6
 10
1245.840
 20
-6679.937
 30
-785.979
 70
    32
  0
SEQEND
  8
T60SSILL
  0
POLYLINE
  8
T60SSILL
 62
6
 66
     1
 70
     9
  0
VERTEX
  8
T60SSILL
 62
6
 10
1258.343
 20
-6825.238
 30
-786.428
 70
    32
  0
VERTEX
  8
T60SSILL
 62
6
 10
1250.326
 20
-6817.568
 30
-786.428
 70
    32
  0
VERTEX
  8
T60SSILL
 62
6
 10
1249.952
 20
-6808.683
 30
-786.409
 70
    32
  0
VERTEX
  8
T60SSILL
 62
6
 10
1288.083
 20
-6764.339
 30
-786.222
 70
    32
  0
VERTEX
  8
T60SSILL
 62
6
 10
1280.890
 20
-6757.377
 30
-786.222
 70
    32
  0
VERTEX
  8
T60SSILL
 62
6
 10
1246.804
 20
-6799.071
 30
-786.361
 70
    32
  0
VERTEX
  8
T60SSILL
 62
6
 10
1235.711
 20
-6802.408
 30
-786.365
 70
    32
  0
VERTEX
  8
T60SSILL
 62
6
 10
1226.565
 20
-6788.433
 30
-786.317
 70
    32
  0
VERTEX
  8
T60SSILL
 62
6
 10
1221.669
 20
-6766.173
 30
-786.245
 70
    32
  0
VERTEX
  8
T60SSILL
 62
6
 10
1229.712
 20
-6756.707
 30
-786.218
 70
    32
  0
VERTEX
  8
T60SSILL
 62
6
 10
1272.857
 20
-6719.899
 30
-786.142
 70
    32
  0
VERTEX
  8
T60SSILL
 62
6
 10
1266.770
 20
-6712.370
 30
-786.093
 70
    32
  0
VERTEX
  8
T60SSILL
 62
6
 10
1219.849
 20
-6753.575
 30
-786.204
 70
    32
  0
VERTEX
  8
T60SSILL
 62
6
 10
1214.418
 20
-6724.480
 30
-786.110
 70
    32
  0
VERTEX
  8
T60SSILL
 62
6
 10
1220.361
 20
-6714.026
 30
-786.079
 70
    32
  0
VERTEX
  8
T60SSILL
 62
6
 10
1251.318
 20
-6686.607
 30
-786.002
 70
    32
  0
VERTEX
  8
T60SSILL
 62
6
 10
1255.377
 20
-6687.930
 30
-786.008
 70
    32
  0
VERTEX
  8
T60SSILL
 62
6
 10
1259.413
 20
-6695.298
 30
-786.033
 70
    32
  0
VERTEX
  8
T60SSILL
 62
6
 10
1268.633
 20
-6700.715
 30
-786.057
 70
    32
  0
VERTEX
  8
T60SSILL
 62
6
 10
1277.764
 20
-6710.718
 30
-786.122
 70
    32
  0
VERTEX
  8
T60SSILL
 62
6
 10
1281.408
 20
-6713.734
 30
-786.121
 70
    32
  0
VERTEX
  8
T60SSILL
 62
6
 10
1280.381
 20
-6723.074
 30
-786.145
 70
    32
  0
VERTEX
  8
T60SSILL
 62
6
 10
1289.643
 20
-6725.663
 30
-786.130
 70
    32
  0
VERTEX
  8
T60SSILL
 62
6
 10
1291.107
 20
-6732.593
 30
-786.142
 70
    32
  0
VERTEX
  8
T60SSILL
 62
6
 10
1294.467
 20
-6735.057
 30
-786.141
 70
    32
  0
VERTEX
  8
T60SSILL
 62
6
 10
1300.707
 20
-6735.050
 30
-786.127
 70
    32
  0
VERTEX
  8
T60SSILL
 62
6
 10
1296.502
 20
-6760.420
 30
-786.194
 70
    32
  0
VERTEX
  8
T60SSILL
 62
6
 10
1292.563
 20
-6767.625
 30
-786.219
 70
    32
  0
VERTEX
  8
T60SSILL
 62
6
 10
1290.324
 20
-6786.651
 30
-786.268
 70
    32
  0
VERTEX
  8
T60SSILL
 62
6
 10
1290.545
 20
-6800.488
 30
-786.299
 70
    32
  0
VERTEX
  8
T60SSILL
 62
6
 10
1285.408
 20
-6811.017
 30
-786.335
 70
    32
  0
SEQEND
  8
T60SSILL
  0
POLYLINE
  8
T60SSILL
 62
6
 66
     1
 70
     9
  0
VERTEX
  8
T60SSILL
 62
6
 10
1309.385
 20
-6847.751
 30
-786.520
 70
    32
  0
VERTEX
  8
T60SSILL
 62
6
 10
1269.365
 20
-6847.788
 30
-786.455
 70
    32
  0
VERTEX
  8
T60SSILL
 62
6
 10
1260.930
 20
-6832.233
 30
-786.438
 70
    32
  0
VERTEX
  8
T60SSILL
 62
6
 10
1292.102
 20
-6817.579
 30
-786.335
 70
    32
  0
VERTEX
  8
T60SSILL
 62
6
 10
1295.931
 20
-6817.665
 30
-786.326
 70
    32
  0
VERTEX
  8
T60SSILL
 62
6
 10
1302.508
 20
-6822.695
 30
-786.323
 70
    32
  0
VERTEX
  8
T60SSILL
 62
6
 10
1305.107
 20
-6826.667
 30
-786.326
 70
    32
  0
VERTEX
  8
T60SSILL
 62
6
 10
1310.851
 20
-6838.423
 30
-786.462
 70
    32
  0
SEQEND
  8
T60SSILL
  0
POLYLINE
  8
T60SSILL
 62
6
 66
     1
 70
     9
  0
VERTEX
  8
T60SSILL
 62
6
 10
1325.654
 20
-7165.262
 30
-787.322
 70
    32
  0
VERTEX
  8
T60SSILL
 62
6
 10
1329.149
 20
-7112.404
 30
-787.354
 70
    32
  0
VERTEX
  8
T60SSILL
 62
6
 10
1338.519
 20
-7097.845
 30
-787.415
 70
    32
  0
VERTEX
  8
T60SSILL
 62
6
 10
1340.102
 20
-7087.956
 30
-787.427
 70
    32
  0
VERTEX
  8
T60SSILL
 62
6
 10
1341.873
 20
-7087.056
 30
-787.438
 70
    32
  0
VERTEX
  8
T60SSILL
 62
6
 10
1379.437
 20
-7168.343
 30
-787.626
 70
    32
  0
VERTEX
  8
T60SSILL
 62
6
 10
1380.502
 20
-7185.992
 30
-787.619
 70
    32
  0
VERTEX
  8
T60SSILL
 62
6
 10
1368.972
 20
-7260.776
 30
-787.513
 70
    32
  0
VERTEX
  8
T60SSILL
 62
6
 10
1365.443
 20
-7260.101
 30
-787.496
 70
    32
  0
VERTEX
  8
T60SSILL
 62
6
 10
1324.992
 20
-7175.271
 30
-787.316
 70
    32
  0
VERTEX
  8
T60SSILL
 62
6
 10
1333.333
 20
-7170.418
 30
-787.369
 70
    32
  0
VERTEX
  8
T60SSILL
 62
6
 10
1329.994
 20
-7163.596
 30
-787.349
 70
    32
  0
SEQEND
  8
T60SSILL
  0
POLYLINE
  8
T60SSILL
 62
6
 66
     1
 70
     9
  0
VERTEX
  8
T60SSILL
 62
6
 10
1230.784
 20
-6991.490
 30
-786.851
 70
    32
  0
VERTEX
  8
T60SSILL
 62
6
 10
1227.146
 20
-6989.546
 30
-786.841
 70
    32
  0
VERTEX
  8
T60SSILL
 62
6
 10
1220.933
 20
-6980.167
 30
-786.825
 70
    32
  0
VERTEX
  8
T60SSILL
 62
6
 10
1219.353
 20
-6974.289
 30
-786.821
 70
    32
  0
VERTEX
  8
T60SSILL
 62
6
 10
1220.061
 20
-6970.881
 30
-786.823
 70
    32
  0
VERTEX
  8
T60SSILL
 62
6
 10
1183.434
 20
-6894.558
 30
-786.607
 70
    32
  0
VERTEX
  8
T60SSILL
 62
6
 10
1176.887
 20
-6892.307
 30
-786.559
 70
    32
  0
VERTEX
  8
T60SSILL
 62
6
 10
1173.977
 20
-6886.832
 30
-786.539
 70
    32
  0
VERTEX
  8
T60SSILL
 62
6
 10
1176.148
 20
-6880.019
 30
-786.557
 70
    32
  0
VERTEX
  8
T60SSILL
 62
6
 10
1140.934
 20
-6807.970
 30
-786.316
 70
    32
  0
VERTEX
  8
T60SSILL
 62
6
 10
1136.132
 20
-6808.789
 30
-786.280
 70
    32
  0
VERTEX
  8
T60SSILL
 62
6
 10
1133.876
 20
-6803.174
 30
-786.261
 70
    32
  0
VERTEX
  8
T60SSILL
 62
6
 10
1137.144
 20
-6800.644
 30
-786.290
 70
    32
  0
VERTEX
  8
T60SSILL
 62
6
 10
1098.351
 20
-6719.288
 30
-785.837
 70
    32
  0
VERTEX
  8
T60SSILL
 62
6
 10
1090.397
 20
-6719.002
 30
-785.783
 70
    32
  0
VERTEX
  8
T60SSILL
 62
6
 10
1088.638
 20
-6714.542
 30
-785.757
 70
    32
  0
VERTEX
  8
T60SSILL
 62
6
 10
1094.238
 20
-6710.898
 30
-785.783
 70
    32
  0
VERTEX
  8
T60SSILL
 62
6
 10
1056.288
 20
-6633.467
 30
-785.282
 70
    32
  0
VERTEX
  8
T60SSILL
 62
6
 10
1047.910
 20
-6629.391
 30
-785.214
 70
    32
  0
VERTEX
  8
T60SSILL
 62
6
 10
1049.445
 20
-6623.351
 30
-785.205
 70
    32
  0
VERTEX
  8
T60SSILL
 62
6
 10
1047.879
 20
-6616.279
 30
-785.172
 70
    32
  0
VERTEX
  8
T60SSILL
 62
6
 10
1012.053
 20
-6541.542
 30
-784.694
 70
    32
  0
VERTEX
  8
T60SSILL
 62
6
 10
1003.854
 20
-6533.463
 30
-784.614
 70
    32
  0
VERTEX
  8
T60SSILL
 62
6
 10
1000.255
 20
-6532.029
 30
-784.585
 70
    32
  0
VERTEX
  8
T60SSILL
 62
6
 10
1003.229
 20
-6523.463
 30
-784.578
 70
    32
  0
VERTEX
  8
T60SSILL
 62
6
 10
966.644
 20
-6446.895
 30
-784.089
 70
    32
  0
VERTEX
  8
T60SSILL
 62
6
 10
960.392
 20
-6444.757
 30
-784.041
 70
    32
  0
VERTEX
  8
T60SSILL
 62
6
 10
959.269
 20
-6442.107
 30
-784.025
 70
    32
  0
VERTEX
  8
T60SSILL
 62
6
 10
960.798
 20
-6434.996
 30
-784.023
 70
    32
  0
VERTEX
  8
T60SSILL
 62
6
 10
925.399
 20
-6363.293
 30
-783.636
 70
    32
  0
VERTEX
  8
T60SSILL
 62
6
 10
914.972
 20
-6355.716
 30
-783.539
 70
    32
  0
VERTEX
  8
T60SSILL
 62
6
 10
917.845
 20
-6347.007
 30
-783.552
 70
    32
  0
VERTEX
  8
T60SSILL
 62
6
 10
888.399
 20
-6285.835
 30
-783.228
 70
    32
  0
VERTEX
  8
T60SSILL
 62
6
 10
884.611
 20
-6267.419
 30
-783.134
 70
    32
  0
VERTEX
  8
T60SSILL
 62
6
 10
879.748
 20
-6262.682
 30
-783.056
 70
    32
  0
VERTEX
  8
T60SSILL
 62
6
 10
878.956
 20
-6258.829
 30
-783.048
 70
    32
  0
VERTEX
  8
T60SSILL
 62
6
 10
882.761
 20
-6254.627
 30
-783.125
 70
    32
  0
VERTEX
  8
T60SSILL
 62
6
 10
862.157
 20
-6151.989
 30
-782.944
 70
    32
  0
VERTEX
  8
T60SSILL
 62
6
 10
857.656
 20
-6151.410
 30
-782.865
 70
    32
  0
VERTEX
  8
T60SSILL
 62
6
 10
855.894
 20
-6145.123
 30
-782.845
 70
    32
  0
VERTEX
  8
T60SSILL
 62
6
 10
859.457
 20
-6137.539
 30
-782.923
 70
    32
  0
VERTEX
  8
T60SSILL
 62
6
 10
840.969
 20
-6046.641
 30
-782.759
 70
    32
  0
VERTEX
  8
T60SSILL
 62
6
 10
833.897
 20
-6043.384
 30
-782.638
 70
    32
  0
VERTEX
  8
T60SSILL
 62
6
 10
838.604
 20
-6036.680
 30
-782.735
 70
    32
  0
VERTEX
  8
T60SSILL
 62
6
 10
828.772
 20
-5984.372
 30
-782.655
 70
    32
  0
VERTEX
  8
T60SSILL
 62
6
 10
781.251
 20
-6092.937
 30
-781.601
 70
    32
  0
VERTEX
  8
T60SSILL
 62
6
 10
778.147
 20
-6097.202
 30
-781.537
 70
    32
  0
VERTEX
  8
T60SSILL
 62
6
 10
759.231
 20
-6111.351
 30
-781.268
 70
    32
  0
VERTEX
  8
T60SSILL
 62
6
 10
744.278
 20
-6116.092
 30
-781.270
 70
    32
  0
VERTEX
  8
T60SSILL
 62
6
 10
715.573
 20
-6137.229
 30
-781.387
 70
    32
  0
VERTEX
  8
T60SSILL
 62
6
 10
710.859
 20
-6130.778
 30
-781.312
 70
    32
  0
VERTEX
  8
T60SSILL
 62
6
 10
731.930
 20
-6113.904
 30
-781.213
 70
    32
  0
VERTEX
  8
T60SSILL
 62
6
 10
730.533
 20
-6109.832
 30
-781.171
 70
    32
  0
VERTEX
  8
T60SSILL
 62
6
 10
719.605
 20
-6100.265
 30
-781.049
 70
    32
  0
VERTEX
  8
T60SSILL
 62
6
 10
687.560
 20
-6032.101
 30
-780.311
 70
    32
  0
VERTEX
  8
T60SSILL
 62
6
 10
679.285
 20
-6026.251
 30
-780.231
 70
    32
  0
VERTEX
  8
T60SSILL
 62
6
 10
668.478
 20
-6024.257
 30
-780.181
 70
    32
  0
VERTEX
  8
T60SSILL
 62
6
 10
664.200
 20
-6028.389
 30
-780.208
 70
    32
  0
VERTEX
  8
T60SSILL
 62
6
 10
630.820
 20
-6018.346
 30
-780.017
 70
    32
  0
VERTEX
  8
T60SSILL
 62
6
 10
633.529
 20
-6006.274
 30
-779.910
 70
    32
  0
VERTEX
  8
T60SSILL
 62
6
 10
668.002
 20
-6013.163
 30
-780.075
 70
    32
  0
VERTEX
  8
T60SSILL
 62
6
 10
670.042
 20
-6016.021
 30
-780.108
 70
    32
  0
VERTEX
  8
T60SSILL
 62
6
 10
676.338
 20
-6017.136
 30
-780.137
 70
    32
  0
VERTEX
  8
T60SSILL
 62
6
 10
678.881
 20
-6012.085
 30
-780.096
 70
    32
  0
VERTEX
  8
T60SSILL
 62
6
 10
644.643
 20
-5940.848
 30
-779.430
 70
    32
  0
VERTEX
  8
T60SSILL
 62
6
 10
638.869
 20
-5933.212
 30
-779.340
 70
    32
  0
VERTEX
  8
T60SSILL
 62
6
 10
631.716
 20
-5928.178
 30
-779.221
 70
    32
  0
VERTEX
  8
T60SSILL
 62
6
 10
622.756
 20
-5926.808
 30
-779.127
 70
    32
  0
VERTEX
  8
T60SSILL
 62
6
 10
613.345
 20
-5929.642
 30
-779.126
 70
    32
  0
VERTEX
  8
T60SSILL
 62
6
 10
609.179
 20
-5905.218
 30
-778.960
 70
    32
  0
VERTEX
  8
T60SSILL
 62
6
 10
619.063
 20
-5890.505
 30
-779.039
 70
    32
  0
VERTEX
  8
T60SSILL
 62
6
 10
621.147
 20
-5881.034
 30
-779.079
 70
    32
  0
VERTEX
  8
T60SSILL
 62
6
 10
565.152
 20
-5708.294
 30
-778.977
 70
    32
  0
VERTEX
  8
T60SSILL
 62
6
 10
573.509
 20
-5707.292
 30
-778.980
 70
    32
  0
VERTEX
  8
T60SSILL
 62
6
 10
573.998
 20
-5709.003
 30
-778.979
 70
    32
  0
VERTEX
  8
T60SSILL
 62
6
 10
601.738
 20
-5672.493
 30
-779.153
 70
    32
  0
VERTEX
  8
T60SSILL
 62
6
 10
609.700
 20
-5675.956
 30
-779.236
 70
    32
  0
VERTEX
  8
T60SSILL
 62
6
 10
587.625
 20
-5707.138
 30
-779.022
 70
    32
  0
VERTEX
  8
T60SSILL
 62
6
 10
579.558
 20
-5722.281
 30
-778.972
 70
    32
  0
VERTEX
  8
T60SSILL
 62
6
 10
584.900
 20
-5738.530
 30
-779.007
 70
    32
  0
VERTEX
  8
T60SSILL
 62
6
 10
589.973
 20
-5738.685
 30
-779.059
 70
    32
  0
VERTEX
  8
T60SSILL
 62
6
 10
593.923
 20
-5736.512
 30
-779.099
 70
    32
  0
VERTEX
  8
T60SSILL
 62
6
 10
625.125
 20
-5693.637
 30
-779.401
 70
    32
  0
VERTEX
  8
T60SSILL
 62
6
 10
612.516
 20
-5676.426
 30
-779.265
 70
    32
  0
VERTEX
  8
T60SSILL
 62
6
 10
610.569
 20
-5669.618
 30
-779.242
 70
    32
  0
VERTEX
  8
T60SSILL
 62
6
 10
615.217
 20
-5655.730
 30
-779.284
 70
    32
  0
VERTEX
  8
T60SSILL
 62
6
 10
615.272
 20
-5645.228
 30
-779.280
 70
    32
  0
VERTEX
  8
T60SSILL
 62
6
 10
624.244
 20
-5639.362
 30
-779.370
 70
    32
  0
VERTEX
  8
T60SSILL
 62
6
 10
635.628
 20
-5625.843
 30
-779.481
 70
    32
  0
VERTEX
  8
T60SSILL
 62
6
 10
640.201
 20
-5624.089
 30
-779.527
 70
    32
  0
VERTEX
  8
T60SSILL
 62
6
 10
646.048
 20
-5627.898
 30
-779.589
 70
    32
  0
VERTEX
  8
T60SSILL
 62
6
 10
651.127
 20
-5637.432
 30
-779.645
 70
    32
  0
VERTEX
  8
T60SSILL
 62
6
 10
652.502
 20
-5645.403
 30
-779.662
 70
    32
  0
VERTEX
  8
T60SSILL
 62
6
 10
656.919
 20
-5653.253
 30
-779.711
 70
    32
  0
VERTEX
  8
T60SSILL
 62
6
 10
658.529
 20
-5660.193
 30
-779.730
 70
    32
  0
VERTEX
  8
T60SSILL
 62
6
 10
664.200
 20
-5670.707
 30
-779.793
 70
    32
  0
VERTEX
  8
T60SSILL
 62
6
 10
685.845
 20
-5707.679
 30
-780.030
 70
    32
  0
VERTEX
  8
T60SSILL
 62
6
 10
697.108
 20
-5722.399
 30
-780.152
 70
    32
  0
VERTEX
  8
T60SSILL
 62
6
 10
708.642
 20
-5717.402
 30
-780.268
 70
    32
  0
VERTEX
  8
T60SSILL
 62
6
 10
698.536
 20
-5693.874
 30
-780.155
 70
    32
  0
VERTEX
  8
T60SSILL
 62
6
 10
706.528
 20
-5688.601
 30
-780.227
 70
    32
  0
VERTEX
  8
T60SSILL
 62
6
 10
722.514
 20
-5711.599
 30
-780.348
 70
    32
  0
VERTEX
  8
T60SSILL
 62
6
 10
733.609
 20
-5707.347
 30
-780.394
 70
    32
  0
VERTEX
  8
T60SSILL
 62
6
 10
729.988
 20
-5698.497
 30
-780.359
 70
    32
  0
VERTEX
  8
T60SSILL
 62
6
 10
726.071
 20
-5694.067
 30
-780.332
 70
    32
  0
VERTEX
  8
T60SSILL
 62
6
 10
729.920
 20
-5687.975
 30
-780.339
 70
    32
  0
VERTEX
  8
T60SSILL
 62
6
 10
737.872
 20
-5683.701
 30
-780.369
 70
    32
  0
VERTEX
  8
T60SSILL
 62
6
 10
744.231
 20
-5682.183
 30
-780.397
 70
    32
  0
VERTEX
  8
T60SSILL
 62
6
 10
749.761
 20
-5684.491
 30
-780.428
 70
    32
  0
VERTEX
  8
T60SSILL
 62
6
 10
751.942
 20
-5694.044
 30
-780.457
 70
    32
  0
VERTEX
  8
T60SSILL
 62
6
 10
754.778
 20
-5698.924
 30
-780.489
 70
    32
  0
VERTEX
  8
T60SSILL
 62
6
 10
772.599
 20
-5692.459
 30
-780.585
 70
    32
  0
VERTEX
  8
T60SSILL
 62
6
 10
756.509
 20
-5614.308
 30
-780.326
 70
    32
  0
VERTEX
  8
T60SSILL
 62
6
 10
752.152
 20
-5611.377
 30
-780.299
 70
    32
  0
VERTEX
  8
T60SSILL
 62
6
 10
754.615
 20
-5602.285
 30
-780.294
 70
    32
  0
VERTEX
  8
T60SSILL
 62
6
 10
753.526
 20
-5592.599
 30
-780.270
 70
    32
  0
VERTEX
  8
T60SSILL
 62
6
 10
710.407
 20
-5523.278
 30
-779.929
 70
    32
  0
VERTEX
  8
T60SSILL
 62
6
 10
707.998
 20
-5524.890
 30
-779.920
 70
    32
  0
VERTEX
  8
T60SSILL
 62
6
 10
705.020
 20
-5519.357
 30
-779.895
 70
    32
  0
VERTEX
  8
T60SSILL
 62
6
 10
706.949
 20
-5517.980
 30
-779.902
 70
    32
  0
VERTEX
  8
T60SSILL
 62
6
 10
663.465
 20
-5446.332
 30
-779.555
 70
    32
  0
VERTEX
  8
T60SSILL
 62
6
 10
658.097
 20
-5445.310
 30
-779.527
 70
    32
  0
VERTEX
  8
T60SSILL
 62
6
 10
655.758
 20
-5449.136
 30
-779.523
 70
    32
  0
VERTEX
  8
T60SSILL
 62
6
 10
650.911
 20
-5446.879
 30
-779.496
 70
    32
  0
VERTEX
  8
T60SSILL
 62
6
 10
647.545
 20
-5441.408
 30
-779.469
 70
    32
  0
VERTEX
  8
T60SSILL
 62
6
 10
651.682
 20
-5430.581
 30
-779.468
 70
    32
  0
VERTEX
  8
T60SSILL
 62
6
 10
647.909
 20
-5421.517
 30
-779.433
 70
    32
  0
VERTEX
  8
T60SSILL
 62
6
 10
633.144
 20
-5412.317
 30
-779.344
 70
    32
  0
VERTEX
  8
T60SSILL
 62
6
 10
630.392
 20
-5400.906
 30
-779.309
 70
    32
  0
VERTEX
  8
T60SSILL
 62
6
 10
627.485
 20
-5396.078
 30
-779.285
 70
    32
  0
VERTEX
  8
T60SSILL
 62
6
 10
633.059
 20
-5390.589
 30
-779.302
 70
    32
  0
VERTEX
  8
T60SSILL
 62
6
 10
640.918
 20
-5386.489
 30
-779.332
 70
    32
  0
VERTEX
  8
T60SSILL
 62
6
 10
647.549
 20
-5395.778
 30
-779.382
 70
    32
  0
VERTEX
  8
T60SSILL
 62
6
 10
654.432
 20
-5414.487
 30
-779.451
 70
    32
  0
VERTEX
  8
T60SSILL
 62
6
 10
661.033
 20
-5423.583
 30
-779.500
 70
    32
  0
VERTEX
  8
T60SSILL
 62
6
 10
667.737
 20
-5426.024
 30
-779.537
 70
    32
  0
VERTEX
  8
T60SSILL
 62
6
 10
675.671
 20
-5444.091
 30
-779.610
 70
    32
  0
VERTEX
  8
T60SSILL
 62
6
 10
689.743
 20
-5452.168
 30
-779.693
 70
    32
  0
VERTEX
  8
T60SSILL
 62
6
 10
697.346
 20
-5453.752
 30
-779.733
 70
    32
  0
VERTEX
  8
T60SSILL
 62
6
 10
761.734
 20
-5453.742
 30
-780.043
 70
    32
  0
VERTEX
  8
T60SSILL
 62
6
 10
768.392
 20
-5442.518
 30
-780.054
 70
    32
  0
VERTEX
  8
T60SSILL
 62
6
 10
783.403
 20
-5445.717
 30
-780.132
 70
    32
  0
VERTEX
  8
T60SSILL
 62
6
 10
795.927
 20
-5441.955
 30
-780.186
 70
    32
  0
VERTEX
  8
T60SSILL
 62
6
 10
797.703
 20
-5442.629
 30
-780.195
 70
    32
  0
VERTEX
  8
T60SSILL
 62
6
 10
802.006
 20
-5453.040
 30
-780.236
 70
    32
  0
VERTEX
  8
T60SSILL
 62
6
 10
798.861
 20
-5459.816
 30
-780.234
 70
    32
  0
VERTEX
  8
T60SSILL
 62
6
 10
796.540
 20
-5473.338
 30
-780.249
 70
    32
  0
VERTEX
  8
T60SSILL
 62
6
 10
803.302
 20
-5486.740
 30
-780.307
 70
    32
  0
VERTEX
  8
T60SSILL
 62
6
 10
786.955
 20
-5511.137
 30
-780.275
 70
    32
  0
VERTEX
  8
T60SSILL
 62
6
 10
801.865
 20
-5513.438
 30
-780.351
 70
    32
  0
VERTEX
  8
T60SSILL
 62
6
 10
805.526
 20
-5521.287
 30
-780.384
 70
    32
  0
VERTEX
  8
T60SSILL
 62
6
 10
806.341
 20
-5527.717
 30
-780.400
 70
    32
  0
VERTEX
  8
T60SSILL
 62
6
 10
797.236
 20
-5529.470
 30
-780.360
 70
    32
  0
VERTEX
  8
T60SSILL
 62
6
 10
792.775
 20
-5533.949
 30
-780.347
 70
    32
  0
VERTEX
  8
T60SSILL
 62
6
 10
781.202
 20
-5533.904
 30
-780.291
 70
    32
  0
VERTEX
  8
T60SSILL
 62
6
 10
771.172
 20
-5527.257
 30
-780.230
 70
    32
  0
VERTEX
  8
T60SSILL
 62
6
 10
735.276
 20
-5532.277
 30
-780.066
 70
    32
  0
VERTEX
  8
T60SSILL
 62
6
 10
731.009
 20
-5535.970
 30
-780.053
 70
    32
  0
VERTEX
  8
T60SSILL
 62
6
 10
736.812
 20
-5547.576
 30
-780.103
 70
    32
  0
VERTEX
  8
T60SSILL
 62
6
 10
746.157
 20
-5560.969
 30
-780.174
 70
    32
  0
VERTEX
  8
T60SSILL
 62
6
 10
750.963
 20
-5564.226
 30
-780.203
 70
    32
  0
VERTEX
  8
T60SSILL
 62
6
 10
765.334
 20
-5559.577
 30
-780.263
 70
    32
  0
VERTEX
  8
T60SSILL
 62
6
 10
777.372
 20
-5573.420
 30
-780.348
 70
    32
  0
VERTEX
  8
T60SSILL
 62
6
 10
774.124
 20
-5583.074
 30
-780.351
 70
    32
  0
VERTEX
  8
T60SSILL
 62
6
 10
768.786
 20
-5583.756
 30
-780.326
 70
    32
  0
VERTEX
  8
T60SSILL
 62
6
 10
760.506
 20
-5592.254
 30
-780.303
 70
    32
  0
VERTEX
  8
T60SSILL
 62
6
 10
762.209
 20
-5599.021
 30
-780.324
 70
    32
  0
VERTEX
  8
T60SSILL
 62
6
 10
766.882
 20
-5601.187
 30
-780.351
 70
    32
  0
VERTEX
  8
T60SSILL
 62
6
 10
764.073
 20
-5610.095
 30
-780.354
 70
    32
  0
VERTEX
  8
T60SSILL
 62
6
 10
779.765
 20
-5689.501
 30
-780.621
 70
    32
  0
VERTEX
  8
T60SSILL
 62
6
 10
851.173
 20
-5661.397
 30
-780.992
 70
    32
  0
VERTEX
  8
T60SSILL
 62
6
 10
886.197
 20
-5635.965
 30
-781.096
 70
    32
  0
VERTEX
  8
T60SSILL
 62
6
 10
888.088
 20
-5628.035
 30
-781.057
 70
    32
  0
VERTEX
  8
T60SSILL
 62
6
 10
899.817
 20
-5618.476
 30
-781.085
 70
    32
  0
VERTEX
  8
T60SSILL
 62
6
 10
904.137
 20
-5611.078
 30
-781.069
 70
    32
  0
VERTEX
  8
T60SSILL
 62
6
 10
921.737
 20
-5593.877
 30
-781.091
 70
    32
  0
VERTEX
  8
T60SSILL
 62
6
 10
930.843
 20
-5587.593
 30
-781.120
 70
    32
  0
VERTEX
  8
T60SSILL
 62
6
 10
943.404
 20
-5593.404
 30
-781.258
 70
    32
  0
VERTEX
  8
T60SSILL
 62
6
 10
1195.188
 20
-5407.421
 30
-781.625
 70
    32
  0
VERTEX
  8
T60SSILL
 62
6
 10
1203.758
 20
-5418.671
 30
-781.694
 70
    32
  0
VERTEX
  8
T60SSILL
 62
6
 10
1211.076
 20
-5417.438
 30
-781.695
 70
    32
  0
VERTEX
  8
T60SSILL
 62
6
 10
1315.188
 20
-5340.856
 30
-781.557
 70
    32
  0
VERTEX
  8
T60SSILL
 62
6
 10
1319.222
 20
-5333.662
 30
-781.541
 70
    32
  0
VERTEX
  8
T60SSILL
 62
6
 10
1316.085
 20
-5314.005
 30
-781.411
 70
    32
  0
VERTEX
  8
T60SSILL
 62
6
 10
1323.617
 20
-5311.864
 30
-781.424
 70
    32
  0
VERTEX
  8
T60SSILL
 62
6
 10
1335.384
 20
-5312.633
 30
-781.474
 70
    32
  0
VERTEX
  8
T60SSILL
 62
6
 10
1340.865
 20
-5311.094
 30
-781.484
 70
    32
  0
VERTEX
  8
T60SSILL
 62
6
 10
1345.190
 20
-5318.362
 30
-781.516
 70
    32
  0
VERTEX
  8
T60SSILL
 62
6
 10
1686.459
 20
-5064.182
 30
-781.042
 70
    32
  0
VERTEX
  8
T60SSILL
 62
6
 10
1672.772
 20
-5044.456
 30
-780.985
 70
    32
  0
VERTEX
  8
T60SSILL
 62
6
 10
1687.956
 20
-5033.277
 30
-780.963
 70
    32
  0
VERTEX
  8
T60SSILL
 62
6
 10
1702.520
 20
-5052.253
 30
-781.059
 70
    32
  0
VERTEX
  8
T60SSILL
 62
6
 10
1728.343
 20
-5033.232
 30
-781.088
 70
    32
  0
VERTEX
  8
T60SSILL
 62
6
 10
1715.518
 20
-5014.728
 30
-780.940
 70
    32
  0
VERTEX
  8
T60SSILL
 62
6
 10
1725.728
 20
-5007.360
 30
-780.952
 70
    32
  0
VERTEX
  8
T60SSILL
 62
6
 10
1739.039
 20
-5025.148
 30
-781.099
 70
    32
  0
VERTEX
  8
T60SSILL
 62
6
 10
1851.805
 20
-4941.845
 30
-780.731
 70
    32
  0
VERTEX
  8
T60SSILL
 62
6
 10
1851.402
 20
-4940.028
 30
-780.729
 70
    32
  0
VERTEX
  8
T60SSILL
 62
6
 10
1855.491
 20
-4936.457
 30
-780.708
 70
    32
  0
VERTEX
  8
T60SSILL
 62
6
 10
1860.810
 20
-4935.534
 30
-780.687
 70
    32
  0
VERTEX
  8
T60SSILL
 62
6
 10
1973.476
 20
-4852.759
 30
-780.130
 70
    32
  0
VERTEX
  8
T60SSILL
 62
6
 10
2029.150
 20
-4811.856
 30
-784.668
 70
    32
  0
VERTEX
  8
T60SSILL
 62
6
 10
2014.933
 20
-4791.942
 30
-784.421
 70
    32
  0
VERTEX
  8
T60SSILL
 62
6
 10
2023.585
 20
-4785.229
 30
-785.137
 70
    32
  0
VERTEX
  8
T60SSILL
 62
6
 10
2038.286
 20
-4805.257
 30
-785.409
 70
    32
  0
VERTEX
  8
T60SSILL
 62
6
 10
2095.477
 20
-4763.459
 30
-790.064
 70
    32
  0
VERTEX
  8
T60SSILL
 62
6
 10
2142.258
 20
-4729.270
 30
-790.781
 70
    32
  0
VERTEX
  8
T60SSILL
 62
6
 10
2147.051
 20
-4735.496
 30
-791.129
 70
    32
  0
VERTEX
  8
T60SSILL
 62
6
 10
2114.516
 20
-4760.025
 30
-790.652
 70
    32
  0
VERTEX
  8
T60SSILL
 62
6
 10
2120.208
 20
-4782.024
 30
-790.976
 70
    32
  0
VERTEX
  8
T60SSILL
 62
6
 10
2144.291
 20
-4788.739
 30
-792.205
 70
    32
  0
VERTEX
  8
T60SSILL
 62
6
 10
2145.671
 20
-4784.291
 30
-792.421
 70
    32
  0
VERTEX
  8
T60SSILL
 62
6
 10
2158.321
 20
-4787.452
 30
-792.956
 70
    32
  0
VERTEX
  8
T60SSILL
 62
6
 10
2155.024
 20
-4802.987
 30
-792.929
 70
    32
  0
VERTEX
  8
T60SSILL
 62
6
 10
2141.567
 20
-4799.692
 30
-792.543
 70
    32
  0
VERTEX
  8
T60SSILL
 62
6
 10
2142.088
 20
-4797.203
 30
-792.533
 70
    32
  0
VERTEX
  8
T60SSILL
 62
6
 10
2128.798
 20
-4794.370
 30
-791.115
 70
    32
  0
VERTEX
  8
T60SSILL
 62
6
 10
2125.501
 20
-4797.552
 30
-790.824
 70
    32
  0
VERTEX
  8
T60SSILL
 62
6
 10
2103.223
 20
-4788.635
 30
-789.768
 70
    32
  0
VERTEX
  8
T60SSILL
 62
6
 10
2086.118
 20
-4789.222
 30
-788.734
 70
    32
  0
VERTEX
  8
T60SSILL
 62
6
 10
2008.011
 20
-4845.999
 30
-782.386
 70
    32
  0
VERTEX
  8
T60SSILL
 62
6
 10
1966.656
 20
-4876.060
 30
-782.771
 70
    32
  0
VERTEX
  8
T60SSILL
 62
6
 10
1952.572
 20
-4878.184
 30
-780.966
 70
    32
  0
VERTEX
  8
T60SSILL
 62
6
 10
1864.808
 20
-4942.976
 30
-781.961
 70
    32
  0
VERTEX
  8
T60SSILL
 62
6
 10
1862.538
 20
-4948.313
 30
-782.682
 70
    32
  0
VERTEX
  8
T60SSILL
 62
6
 10
1856.362
 20
-4949.354
 30
-782.012
 70
    32
  0
VERTEX
  8
T60SSILL
 62
6
 10
1266.350
 20
-5385.318
 30
-781.643
 70
    32
  0
VERTEX
  8
T60SSILL
 62
6
 10
1264.133
 20
-5392.185
 30
-781.659
 70
    32
  0
VERTEX
  8
T60SSILL
 62
6
 10
1259.081
 20
-5394.174
 30
-781.662
 70
    32
  0
VERTEX
  8
T60SSILL
 62
6
 10
1255.946
 20
-5399.000
 30
-781.672
 70
    32
  0
VERTEX
  8
T60SSILL
 62
6
 10
1235.876
 20
-5415.160
 30
-781.702
 70
    32
  0
VERTEX
  8
T60SSILL
 62
6
 10
1229.977
 20
-5416.566
 30
-781.703
 70
    32
  0
VERTEX
  8
T60SSILL
 62
6
 10
1215.287
 20
-5428.023
 30
-781.724
 70
    32
  0
VERTEX
  8
T60SSILL
 62
6
 10
1207.327
 20
-5428.204
 30
-781.720
 70
    32
  0
VERTEX
  8
T60SSILL
 62
6
 10
1204.490
 20
-5426.346
 30
-781.714
 70
    32
  0
VERTEX
  8
T60SSILL
 62
6
 10
1175.075
 20
-5432.133
 30
-781.713
 70
    32
  0
VERTEX
  8
T60SSILL
 62
6
 10
834.255
 20
-5684.691
 30
-781.017
 70
    32
  0
VERTEX
  8
T60SSILL
 62
6
 10
815.328
 20
-5703.056
 30
-780.992
 70
    32
  0
VERTEX
  8
T60SSILL
 62
6
 10
804.617
 20
-5719.330
 30
-781.018
 70
    32
  0
VERTEX
  8
T60SSILL
 62
6
 10
794.145
 20
-5754.527
 30
-781.174
 70
    32
  0
VERTEX
  8
T60SSILL
 62
6
 10
795.639
 20
-5774.602
 30
-781.321
 70
    32
  0
VERTEX
  8
T60SSILL
 62
6
 10
802.190
 20
-5808.110
 30
-781.599
 70
    32
  0
VERTEX
  8
T60SSILL
 62
6
 10
808.260
 20
-5815.858
 30
-781.699
 70
    32
  0
VERTEX
  8
T60SSILL
 62
6
 10
805.146
 20
-5821.317
 30
-781.711
 70
    32
  0
VERTEX
  8
T60SSILL
 62
6
 10
824.067
 20
-5920.207
 30
-782.528
 70
    32
  0
VERTEX
  8
T60SSILL
 62
6
 10
829.649
 20
-5921.076
 30
-782.577
 70
    32
  0
VERTEX
  8
T60SSILL
 62
6
 10
827.359
 20
-5935.547
 30
-782.653
 70
    32
  0
VERTEX
  8
T60SSILL
 62
6
 10
845.792
 20
-6029.069
 30
-782.817
 70
    32
  0
VERTEX
  8
T60SSILL
 62
6
 10
853.169
 20
-6032.755
 30
-782.823
 70
    32
  0
VERTEX
  8
T60SSILL
 62
6
 10
847.461
 20
-6041.684
 30
-782.839
 70
    32
  0
VERTEX
  8
T60SSILL
 62
6
 10
856.853
 20
-6085.235
 30
-782.916
 70
    32
  0
VERTEX
  8
T60SSILL
 62
6
 10
860.518
 20
-6093.296
 30
-782.930
 70
    32
  0
VERTEX
  8
T60SSILL
 62
6
 10
866.029
 20
-6099.404
 30
-782.940
 70
    32
  0
VERTEX
  8
T60SSILL
 62
6
 10
878.003
 20
-6108.253
 30
-782.954
 70
    32
  0
VERTEX
  8
T60SSILL
 62
6
 10
894.455
 20
-6113.393
 30
-782.960
 70
    32
  0
VERTEX
  8
T60SSILL
 62
6
 10
900.142
 20
-6113.670
 30
-782.960
 70
    32
  0
VERTEX
  8
T60SSILL
 62
6
 10
1003.341
 20
-6093.099
 30
-783.187
 70
    32
  0
VERTEX
  8
T60SSILL
 62
6
 10
1015.526
 20
-6087.051
 30
-783.224
 70
    32
  0
VERTEX
  8
T60SSILL
 62
6
 10
1055.451
 20
-6020.013
 30
-783.129
 70
    32
  0
VERTEX
  8
T60SSILL
 62
6
 10
1056.711
 20
-6008.571
 30
-783.101
 70
    32
  0
VERTEX
  8
T60SSILL
 62
6
 10
1044.476
 20
-5975.039
 30
-783.010
 70
    32
  0
VERTEX
  8
T60SSILL
 62
6
 10
1052.424
 20
-5971.669
 30
-783.006
 70
    32
  0
VERTEX
  8
T60SSILL
 62
6
 10
1066.350
 20
-6014.123
 30
-783.120
 70
    32
  0
VERTEX
  8
T60SSILL
 62
6
 10
1062.494
 20
-6023.421
 30
-783.141
 70
    32
  0
VERTEX
  8
T60SSILL
 62
6
 10
1024.382
 20
-6089.066
 30
-783.271
 70
    32
  0
VERTEX
  8
T60SSILL
 62
6
 10
1053.453
 20
-6084.513
 30
-783.290
 70
    32
  0
VERTEX
  8
T60SSILL
 62
6
 10
1062.786
 20
-6087.052
 30
-783.301
 70
    32
  0
VERTEX
  8
T60SSILL
 62
6
 10
1072.282
 20
-6092.705
 30
-783.321
 70
    32
  0
VERTEX
  8
T60SSILL
 62
6
 10
1078.668
 20
-6099.593
 30
-783.341
 70
    32
  0
VERTEX
  8
T60SSILL
 62
6
 10
1093.572
 20
-6106.043
 30
-783.365
 70
    32
  0
VERTEX
  8
T60SSILL
 62
6
 10
1105.301
 20
-6101.933
 30
-783.361
 70
    32
  0
VERTEX
  8
T60SSILL
 62
6
 10
1108.174
 20
-6108.725
 30
-783.380
 70
    32
  0
VERTEX
  8
T60SSILL
 62
6
 10
1103.035
 20
-6120.009
 30
-783.405
 70
    32
  0
VERTEX
  8
T60SSILL
 62
6
 10
1100.580
 20
-6134.020
 30
-783.439
 70
    32
  0
VERTEX
  8
T60SSILL
 62
6
 10
1237.166
 20
-6276.682
 30
-784.539
 70
    32
  0
VERTEX
  8
T60SSILL
 62
6
 10
1231.321
 20
-6282.868
 30
-784.541
 70
    32
  0
VERTEX
  8
T60SSILL
 62
6
 10
1156.737
 20
-6203.721
 30
-783.877
 70
    32
  0
VERTEX
  8
T60SSILL
 62
6
 10
1152.774
 20
-6204.053
 30
-783.862
 70
    32
  0
VERTEX
  8
T60SSILL
 62
6
 10
1144.960
 20
-6199.253
 30
-783.807
 70
    32
  0
VERTEX
  8
T60SSILL
 62
6
 10
1143.066
 20
-6190.045
 30
-783.759
 70
    32
  0
VERTEX
  8
T60SSILL
 62
6
 10
1093.991
 20
-6139.764
 30
-783.450
 70
    32
  0
VERTEX
  8
T60SSILL
 62
6
 10
1068.889
 20
-6101.137
 30
-783.340
 70
    32
  0
VERTEX
  8
T60SSILL
 62
6
 10
1058.050
 20
-6094.498
 30
-783.318
 70
    32
  0
VERTEX
  8
T60SSILL
 62
6
 10
1049.818
 20
-6092.148
 30
-783.307
 70
    32
  0
VERTEX
  8
T60SSILL
 62
6
 10
901.824
 20
-6123.885
 30
-782.978
 70
    32
  0
VERTEX
  8
T60SSILL
 62
6
 10
872.925
 20
-6116.870
 30
-782.970
 70
    32
  0
VERTEX
  8
T60SSILL
 62
6
 10
867.257
 20
-6126.583
 30
-782.988
 70
    32
  0
VERTEX
  8
T60SSILL
 62
6
 10
899.853
 20
-6288.960
 30
-783.316
 70
    32
  0
VERTEX
  8
T60SSILL
 62
6
 10
924.177
 20
-6338.229
 30
-783.580
 70
    32
  0
VERTEX
  8
T60SSILL
 62
6
 10
931.623
 20
-6341.230
 30
-783.623
 70
    32
  0
VERTEX
  8
T60SSILL
 62
6
 10
935.532
 20
-6346.749
 30
-783.658
 70
    32
  0
VERTEX
  8
T60SSILL
 62
6
 10
937.749
 20
-6354.437
 30
-783.692
 70
    32
  0
VERTEX
  8
T60SSILL
 62
6
 10
940.769
 20
-6357.788
 30
-783.717
 70
    32
  0
VERTEX
  8
T60SSILL
 62
6
 10
937.208
 20
-6364.624
 30
-783.721
 70
    32
  0
VERTEX
  8
T60SSILL
 62
6
 10
969.098
 20
-6429.218
 30
-784.067
 70
    32
  0
VERTEX
  8
T60SSILL
 62
6
 10
972.441
 20
-6429.547
 30
-784.084
 70
    32
  0
VERTEX
  8
T60SSILL
 62
6
 10
973.594
 20
-6432.391
 30
-784.098
 70
    32
  0
VERTEX
  8
T60SSILL
 62
6
 10
972.427
 20
-6435.961
 30
-784.103
 70
    32
  0
VERTEX
  8
T60SSILL
 62
6
 10
986.307
 20
-6464.076
 30
-784.263
 70
    32
  0
VERTEX
  8
T60SSILL
 62
6
 10
1000.957
 20
-6472.538
 30
-784.363
 70
    32
  0
VERTEX
  8
T60SSILL
 62
6
 10
1014.816
 20
-6474.778
 30
-784.433
 70
    32
  0
VERTEX
  8
T60SSILL
 62
6
 10
1057.631
 20
-6470.176
 30
-784.598
 70
    32
  0
VERTEX
  8
T60SSILL
 62
6
 10
1061.296
 20
-6465.320
 30
-784.593
 70
    32
  0
VERTEX
  8
T60SSILL
 62
6
 10
1068.536
 20
-6465.358
 30
-784.624
 70
    32
  0
VERTEX
  8
T60SSILL
 62
6
 10
1078.778
 20
-6468.115
 30
-784.680
 70
    32
  0
VERTEX
  8
T60SSILL
 62
6
 10
1148.994
 20
-6460.251
 30
-784.950
 70
    32
  0
VERTEX
  8
T60SSILL
 62
6
 10
1149.526
 20
-6467.840
 30
-784.985
 70
    32
  0
VERTEX
  8
T60SSILL
 62
6
 10
1116.528
 20
-6471.408
 30
-784.858
 70
    32
  0
VERTEX
  8
T60SSILL
 62
6
 10
1118.156
 20
-6480.696
 30
-784.905
 70
    32
  0
VERTEX
  8
T60SSILL
 62
6
 10
1109.772
 20
-6483.298
 30
-784.880
 70
    32
  0
VERTEX
  8
T60SSILL
 62
6
 10
1108.580
 20
-6472.193
 30
-784.827
 70
    32
  0
VERTEX
  8
T60SSILL
 62
6
 10
1079.065
 20
-6475.662
 30
-784.714
 70
    32
  0
VERTEX
  8
T60SSILL
 62
6
 10
1078.524
 20
-6483.258
 30
-784.744
 70
    32
  0
VERTEX
  8
T60SSILL
 62
6
 10
1071.470
 20
-6485.456
 30
-784.723
 70
    32
  0
VERTEX
  8
T60SSILL
 62
6
 10
1063.800
 20
-6485.722
 30
-784.691
 70
    32
  0
VERTEX
  8
T60SSILL
 62
6
 10
1060.033
 20
-6477.518
 30
-784.640
 70
    32
  0
VERTEX
  8
T60SSILL
 62
6
 10
1007.690
 20
-6482.194
 30
-784.434
 70
    32
  0
VERTEX
  8
T60SSILL
 62
6
 10
1001.892
 20
-6481.457
 30
-784.406
 70
    32
  0
VERTEX
  8
T60SSILL
 62
6
 10
989.625
 20
-6474.732
 30
-784.324
 70
    32
  0
VERTEX
  8
T60SSILL
 62
6
 10
1011.012
 20
-6518.368
 30
-784.604
 70
    32
  0
VERTEX
  8
T60SSILL
 62
6
 10
1015.785
 20
-6519.305
 30
-784.629
 70
    32
  0
VERTEX
  8
T60SSILL
 62
6
 10
1015.172
 20
-6526.855
 30
-784.659
 70
    32
  0
VERTEX
  8
T60SSILL
 62
6
 10
1057.245
 20
-6612.698
 30
-785.210
 70
    32
  0
VERTEX
  8
T60SSILL
 62
6
 10
1063.887
 20
-6611.095
 30
-785.232
 70
    32
  0
VERTEX
  8
T60SSILL
 62
6
 10
1070.263
 20
-6619.674
 30
-785.297
 70
    32
  0
VERTEX
  8
T60SSILL
 62
6
 10
1066.686
 20
-6631.961
 30
-785.334
 70
    32
  0
VERTEX
  8
T60SSILL
 62
6
 10
1092.464
 20
-6684.556
 30
-785.672
 70
    32
  0
VERTEX
  8
T60SSILL
 62
6
 10
1098.837
 20
-6689.124
 30
-785.720
 70
    32
  0
VERTEX
  8
T60SSILL
 62
6
 10
1106.128
 20
-6691.818
 30
-785.763
 70
    32
  0
VERTEX
  8
T60SSILL
 62
6
 10
1120.434
 20
-6694.386
 30
-785.836
 70
    32
  0
VERTEX
  8
T60SSILL
 62
6
 10
1134.681
 20
-6691.399
 30
-785.884
 70
    32
  0
VERTEX
  8
T60SSILL
 62
6
 10
1191.886
 20
-6663.040
 30
-785.906
 70
    32
  0
VERTEX
  8
T60SSILL
 62
6
 10
1175.972
 20
-6575.381
 30
-785.563
 70
    32
  0
VERTEX
  8
T60SSILL
 62
6
 10
1187.507
 20
-6573.885
 30
-785.606
 70
    32
  0
VERTEX
  8
T60SSILL
 62
6
 10
1200.162
 20
-6565.458
 30
-785.599
 70
    32
  0
VERTEX
  8
T60SSILL
 62
6
 10
1225.907
 20
-6539.039
 30
-785.524
 70
    32
  0
VERTEX
  8
T60SSILL
 62
6
 10
1227.512
 20
-6507.113
 30
-785.423
 70
    32
  0
VERTEX
  8
T60SSILL
 62
6
 10
1228.719
 20
-6504.106
 30
-785.414
 70
    32
  0
VERTEX
  8
T60SSILL
 62
6
 10
1230.669
 20
-6504.123
 30
-785.415
 70
    32
  0
VERTEX
  8
T60SSILL
 62
6
 10
1236.717
 20
-6498.224
 30
-785.398
 70
    32
  0
VERTEX
  8
T60SSILL
 62
6
 10
1241.923
 20
-6496.151
 30
-785.393
 70
    32
  0
VERTEX
  8
T60SSILL
 62
6
 10
1243.811
 20
-6496.536
 30
-785.395
 70
    32
  0
VERTEX
  8
T60SSILL
 62
6
 10
1245.511
 20
-6503.191
 30
-785.417
 70
    32
  0
VERTEX
  8
T60SSILL
 62
6
 10
1245.273
 20
-6524.890
 30
-785.486
 70
    32
  0
VERTEX
  8
T60SSILL
 62
6
 10
1261.379
 20
-6571.182
 30
-785.639
 70
    32
  0
VERTEX
  8
T60SSILL
 62
6
 10
1262.136
 20
-6591.853
 30
-785.705
 70
    32
  0
VERTEX
  8
T60SSILL
 62
6
 10
1266.829
 20
-6611.243
 30
-785.768
 70
    32
  0
VERTEX
  8
T60SSILL
 62
6
 10
1271.476
 20
-6616.132
 30
-785.785
 70
    32
  0
VERTEX
  8
T60SSILL
 62
6
 10
1277.023
 20
-6615.756
 30
-785.786
 70
    32
  0
VERTEX
  8
T60SSILL
 62
6
 10
1280.359
 20
-6619.098
 30
-785.798
 70
    32
  0
VERTEX
  8
T60SSILL
 62
6
 10
1287.133
 20
-6615.591
 30
-785.792
 70
    32
  0
VERTEX
  8
T60SSILL
 62
6
 10
1289.741
 20
-6619.880
 30
-785.809
 70
    32
  0
VERTEX
  8
T60SSILL
 62
6
 10
1293.618
 20
-6620.794
 30
-785.820
 70
    32
  0
VERTEX
  8
T60SSILL
 62
6
 10
1321.585
 20
-6610.886
 30
-785.796
 70
    32
  0
VERTEX
  8
T60SSILL
 62
6
 10
1324.226
 20
-6614.613
 30
-785.798
 70
    32
  0
VERTEX
  8
T60SSILL
 62
6
 10
1323.542
 20
-6627.477
 30
-785.829
 70
    32
  0
VERTEX
  8
T60SSILL
 62
6
 10
1315.541
 20
-6628.947
 30
-785.851
 70
    32
  0
VERTEX
  8
T60SSILL
 62
6
 10
1305.204
 20
-6627.119
 30
-785.870
 70
    32
  0
VERTEX
  8
T60SSILL
 62
6
 10
1297.139
 20
-6628.957
 30
-785.869
 70
    32
  0
VERTEX
  8
T60SSILL
 62
6
 10
1288.675
 20
-6639.043
 30
-785.875
 70
    32
  0
VERTEX
  8
T60SSILL
 62
6
 10
1296.519
 20
-6654.371
 30
-785.951
 70
    32
  0
VERTEX
  8
T60SSILL
 62
6
 10
1302.586
 20
-6662.023
 30
-785.955
 70
    32
  0
VERTEX
  8
T60SSILL
 62
6
 10
1312.421
 20
-6669.373
 30
-785.950
 70
    32
  0
VERTEX
  8
T60SSILL
 62
6
 10
1313.136
 20
-6682.539
 30
-785.979
 70
    32
  0
VERTEX
  8
T60SSILL
 62
6
 10
1326.762
 20
-6694.632
 30
-785.976
 70
    32
  0
VERTEX
  8
T60SSILL
 62
6
 10
1326.927
 20
-6704.742
 30
-785.999
 70
    32
  0
VERTEX
  8
T60SSILL
 62
6
 10
1330.377
 20
-6710.372
 30
-786.004
 70
    32
  0
VERTEX
  8
T60SSILL
 62
6
 10
1327.348
 20
-6714.455
 30
-786.020
 70
    32
  0
VERTEX
  8
T60SSILL
 62
6
 10
1312.116
 20
-6726.126
 30
-786.081
 70
    32
  0
VERTEX
  8
T60SSILL
 62
6
 10
1304.922
 20
-6764.252
 30
-786.184
 70
    32
  0
VERTEX
  8
T60SSILL
 62
6
 10
1312.312
 20
-6767.845
 30
-786.176
 70
    32
  0
VERTEX
  8
T60SSILL
 62
6
 10
1314.024
 20
-6799.896
 30
-786.245
 70
    32
  0
VERTEX
  8
T60SSILL
 62
6
 10
1317.672
 20
-6809.908
 30
-786.370
 70
    32
  0
VERTEX
  8
T60SSILL
 62
6
 10
1325.563
 20
-6820.896
 30
-786.793
 70
    32
  0
VERTEX
  8
T60SSILL
 62
6
 10
1326.749
 20
-6830.928
 30
-786.958
 70
    32
  0
VERTEX
  8
T60SSILL
 62
6
 10
1324.447
 20
-6842.571
 30
-787.013
 70
    32
  0
VERTEX
  8
T60SSILL
 62
6
 10
1341.607
 20
-6872.722
 30
-787.477
 70
    32
  0
VERTEX
  8
T60SSILL
 62
6
 10
1334.409
 20
-6877.605
 30
-787.431
 70
    32
  0
VERTEX
  8
T60SSILL
 62
6
 10
1321.073
 20
-6859.387
 30
-787.092
 70
    32
  0
VERTEX
  8
T60SSILL
 62
6
 10
1307.094
 20
-6858.954
 30
-786.571
 70
    32
  0
VERTEX
  8
T60SSILL
 62
6
 10
1306.685
 20
-6856.553
 30
-786.527
 70
    32
  0
VERTEX
  8
T60SSILL
 62
6
 10
1282.283
 20
-6858.122
 30
-786.449
 70
    32
  0
VERTEX
  8
T60SSILL
 62
6
 10
1279.293
 20
-6860.132
 30
-786.461
 70
    32
  0
VERTEX
  8
T60SSILL
 62
6
 10
1282.594
 20
-6877.709
 30
-786.493
 70
    32
  0
VERTEX
  8
T60SSILL
 62
6
 10
1286.481
 20
-6884.107
 30
-786.499
 70
    32
  0
VERTEX
  8
T60SSILL
 62
6
 10
1303.305
 20
-6890.381
 30
-786.810
 70
    32
  0
VERTEX
  8
T60SSILL
 62
6
 10
1340.966
 20
-6885.341
 30
-787.470
 70
    32
  0
VERTEX
  8
T60SSILL
 62
6
 10
1342.050
 20
-6877.145
 30
-787.478
 70
    32
  0
VERTEX
  8
T60SSILL
 62
6
 10
1355.941
 20
-6873.656
 30
-787.566
 70
    32
  0
VERTEX
  8
T60SSILL
 62
6
 10
1357.590
 20
-6875.072
 30
-787.576
 70
    32
  0
VERTEX
  8
T60SSILL
 62
6
 10
1362.387
 20
-6896.433
 30
-787.602
 70
    32
  0
VERTEX
  8
T60SSILL
 62
6
 10
1412.264
 20
-6966.385
 30
-787.900
 70
    32
  0
VERTEX
  8
T60SSILL
 62
6
 10
1405.555
 20
-6971.352
 30
-787.858
 70
    32
  0
VERTEX
  8
T60SSILL
 62
6
 10
1391.427
 20
-6951.864
 30
-787.773
 70
    32
  0
VERTEX
  8
T60SSILL
 62
6
 10
1387.171
 20
-6951.326
 30
-787.746
 70
    32
  0
VERTEX
  8
T60SSILL
 62
6
 10
1371.499
 20
-6955.646
 30
-787.648
 70
    32
  0
VERTEX
  8
T60SSILL
 62
6
 10
1337.328
 20
-6956.492
 30
-787.434
 70
    32
  0
VERTEX
  8
T60SSILL
 62
6
 10
1334.798
 20
-6960.976
 30
-787.417
 70
    32
  0
VERTEX
  8
T60SSILL
 62
6
 10
1327.926
 20
-6966.167
 30
-787.374
 70
    32
  0
VERTEX
  8
T60SSILL
 62
6
 10
1323.932
 20
-6966.305
 30
-787.349
 70
    32
  0
VERTEX
  8
T60SSILL
 62
6
 10
1319.858
 20
-6963.593
 30
-787.324
 70
    32
  0
VERTEX
  8
T60SSILL
 62
6
 10
1314.520
 20
-6944.660
 30
-787.294
 70
    32
  0
VERTEX
  8
T60SSILL
 62
6
 10
1263.075
 20
-6863.224
 30
-786.504
 70
    32
  0
VERTEX
  8
T60SSILL
 62
6
 10
1251.829
 20
-6848.261
 30
-786.495
 70
    32
  0
VERTEX
  8
T60SSILL
 62
6
 10
1226.555
 20
-6850.878
 30
-786.516
 70
    32
  0
VERTEX
  8
T60SSILL
 62
6
 10
1224.154
 20
-6848.704
 30
-786.508
 70
    32
  0
VERTEX
  8
T60SSILL
 62
6
 10
1212.467
 20
-6855.153
 30
-786.525
 70
    32
  0
VERTEX
  8
T60SSILL
 62
6
 10
1204.922
 20
-6857.268
 30
-786.529
 70
    32
  0
VERTEX
  8
T60SSILL
 62
6
 10
1177.769
 20
-6859.642
 30
-786.527
 70
    32
  0
VERTEX
  8
T60SSILL
 62
6
 10
1231.431
 20
-6971.462
 30
-786.822
 70
    32
  0
VERTEX
  8
T60SSILL
 62
6
 10
1303.970
 20
-7007.574
 30
-787.216
 70
    32
  0
VERTEX
  8
T60SSILL
 62
6
 10
1315.171
 20
-7015.787
 30
-787.285
 70
    32
  0
VERTEX
  8
T60SSILL
 62
6
 10
1322.065
 20
-7023.391
 30
-787.326
 70
    32
  0
VERTEX
  8
T60SSILL
 62
6
 10
1385.818
 20
-7156.869
 30
-787.665
 70
    32
  0
VERTEX
  8
T60SSILL
 62
6
 10
1390.468
 20
-7172.171
 30
-787.676
 70
    32
  0
VERTEX
  8
T60SSILL
 62
6
 10
1390.472
 20
-7186.957
 30
-787.666
 70
    32
  0
VERTEX
  8
T60SSILL
 62
6
 10
1376.071
 20
-7280.353
 30
-787.533
 70
    32
  0
VERTEX
  8
T60SSILL
 62
6
 10
1399.581
 20
-7327.215
 30
-787.612
 70
    32
  0
VERTEX
  8
T60SSILL
 62
6
 10
1421.618
 20
-7396.750
 30
-787.658
 70
    32
  0
VERTEX
  8
T60SSILL
 62
6
 10
1427.236
 20
-7405.591
 30
-787.675
 70
    32
  0
VERTEX
  8
T60SSILL
 62
6
 10
1433.595
 20
-7412.417
 30
-787.696
 70
    32
  0
VERTEX
  8
T60SSILL
 62
6
 10
1448.019
 20
-7421.131
 30
-787.751
 70
    32
  0
VERTEX
  8
T60SSILL
 62
6
 10
1458.071
 20
-7423.565
 30
-787.792
 70
    32
  0
VERTEX
  8
T60SSILL
 62
6
 10
1476.404
 20
-7422.806
 30
-787.871
 70
    32
  0
VERTEX
  8
T60SSILL
 62
6
 10
1489.750
 20
-7416.732
 30
-787.933
 70
    32
  0
VERTEX
  8
T60SSILL
 62
6
 10
1570.353
 20
-7356.557
 30
-788.219
 70
    32
  0
VERTEX
  8
T60SSILL
 62
6
 10
1566.914
 20
-7349.306
 30
-788.236
 70
    32
  0
VERTEX
  8
T60SSILL
 62
6
 10
1562.892
 20
-7347.069
 30
-788.244
 70
    32
  0
VERTEX
  8
T60SSILL
 62
6
 10
1552.915
 20
-7345.976
 30
-788.253
 70
    32
  0
VERTEX
  8
T60SSILL
 62
6
 10
1540.774
 20
-7340.388
 30
-788.215
 70
    32
  0
VERTEX
  8
T60SSILL
 62
6
 10
1533.296
 20
-7339.806
 30
-788.184
 70
    32
  0
VERTEX
  8
T60SSILL
 62
6
 10
1520.985
 20
-7330.586
 30
-788.138
 70
    32
  0
VERTEX
  8
T60SSILL
 62
6
 10
1520.765
 20
-7315.951
 30
-788.150
 70
    32
  0
VERTEX
  8
T60SSILL
 62
6
 10
1516.373
 20
-7306.255
 30
-788.139
 70
    32
  0
VERTEX
  8
T60SSILL
 62
6
 10
1521.093
 20
-7300.720
 30
-788.163
 70
    32
  0
VERTEX
  8
T60SSILL
 62
6
 10
1530.376
 20
-7302.510
 30
-788.202
 70
    32
  0
VERTEX
  8
T60SSILL
 62
6
 10
1534.279
 20
-7306.116
 30
-788.216
 70
    32
  0
VERTEX
  8
T60SSILL
 62
6
 10
1538.938
 20
-7318.197
 30
-788.226
 70
    32
  0
VERTEX
  8
T60SSILL
 62
6
 10
1544.223
 20
-7325.021
 30
-788.243
 70
    32
  0
VERTEX
  8
T60SSILL
 62
6
 10
1546.807
 20
-7326.115
 30
-788.253
 70
    32
  0
VERTEX
  8
T60SSILL
 62
6
 10
1550.276
 20
-7325.094
 30
-788.268
 70
    32
  0
VERTEX
  8
T60SSILL
 62
6
 10
1551.386
 20
-7322.071
 30
-788.276
 70
    32
  0
VERTEX
  8
T60SSILL
 62
6
 10
1550.967
 20
-7317.004
 30
-788.278
 70
    32
  0
VERTEX
  8
T60SSILL
 62
6
 10
1544.160
 20
-7310.919
 30
-788.254
 70
    32
  0
VERTEX
  8
T60SSILL
 62
6
 10
1545.175
 20
-7292.209
 30
-788.274
 70
    32
  0
VERTEX
  8
T60SSILL
 62
6
 10
1542.567
 20
-7283.844
 30
-788.269
 70
    32
  0
VERTEX
  8
T60SSILL
 62
6
 10
1529.745
 20
-7263.728
 30
-788.231
 70
    32
  0
VERTEX
  8
T60SSILL
 62
6
 10
1525.564
 20
-7253.564
 30
-788.222
 70
    32
  0
VERTEX
  8
T60SSILL
 62
6
 10
1529.559
 20
-7249.605
 30
-788.242
 70
    32
  0
VERTEX
  8
T60SSILL
 62
6
 10
1544.381
 20
-7246.574
 30
-788.308
 70
    32
  0
VERTEX
  8
T60SSILL
 62
6
 10
1551.012
 20
-7248.710
 30
-788.335
 70
    32
  0
VERTEX
  8
T60SSILL
 62
6
 10
1557.197
 20
-7252.978
 30
-788.358
 70
    32
  0
VERTEX
  8
T60SSILL
 62
6
 10
1571.438
 20
-7281.752
 30
-788.369
 70
    32
  0
VERTEX
  8
T60SSILL
 62
6
 10
1596.787
 20
-7268.287
 30
-788.378
 70
    32
  0
VERTEX
  8
T60SSILL
 62
6
 10
1594.579
 20
-7264.037
 30
-788.388
 70
    32
  0
VERTEX
  8
T60SSILL
 62
6
 10
1607.119
 20
-7257.881
 30
-788.391
 70
    32
  0
VERTEX
  8
T60SSILL
 62
6
 10
1609.414
 20
-7259.177
 30
-788.387
 70
    32
  0
VERTEX
  8
T60SSILL
 62
6
 10
1614.323
 20
-7269.155
 30
-788.364
 70
    32
  0
VERTEX
  8
T60SSILL
 62
6
 10
1575.590
 20
-7289.256
 30
-788.351
 70
    32
  0
VERTEX
  8
T60SSILL
 62
6
 10
1573.925
 20
-7308.419
 30
-788.313
 70
    32
  0
VERTEX
  8
T60SSILL
 62
6
 10
1575.757
 20
-7313.359
 30
-788.302
 70
    32
  0
VERTEX
  8
T60SSILL
 62
6
 10
1576.523
 20
-7326.007
 30
-788.276
 70
    32
  0
VERTEX
  8
T60SSILL
 62
6
 10
1592.389
 20
-7340.046
 30
-788.237
 70
    32
  0
VERTEX
  8
T60SSILL
 62
6
 10
1629.626
 20
-7313.157
 30
-788.265
 70
    32
  0
VERTEX
  8
T60SSILL
 62
6
 10
1633.818
 20
-7319.026
 30
-788.250
 70
    32
  0
VERTEX
  8
T60SSILL
 62
6
 10
1598.262
 20
-7345.565
 30
-788.222
 70
    32
  0
VERTEX
  8
T60SSILL
 62
6
 10
1598.936
 20
-7346.199
 30
-788.220
 70
    32
  0
VERTEX
  8
T60SSILL
 62
6
 10
1599.955
 20
-7353.205
 30
-788.205
 70
    32
  0
VERTEX
  8
T60SSILL
 62
6
 10
1619.255
 20
-7365.384
 30
-788.167
 70
    32
  0
VERTEX
  8
T60SSILL
 62
6
 10
1618.217
 20
-7370.821
 30
-788.157
 70
    32
  0
VERTEX
  8
T60SSILL
 62
6
 10
1614.890
 20
-7372.815
 30
-788.156
 70
    32
  0
VERTEX
  8
T60SSILL
 62
6
 10
1609.660
 20
-7369.919
 30
-788.165
 70
    32
  0
VERTEX
  8
T60SSILL
 62
6
 10
1603.410
 20
-7370.947
 30
-788.167
 70
    32
  0
VERTEX
  8
T60SSILL
 62
6
 10
1596.856
 20
-7364.150
 30
-788.186
 70
    32
  0
VERTEX
  8
T60SSILL
 62
6
 10
1591.754
 20
-7361.593
 30
-788.194
 70
    32
  0
VERTEX
  8
T60SSILL
 62
6
 10
1577.916
 20
-7360.187
 30
-788.207
 70
    32
  0
VERTEX
  8
T60SSILL
 62
6
 10
1488.695
 20
-7426.146
 30
-787.921
 70
    32
  0
VERTEX
  8
T60SSILL
 62
6
 10
1475.769
 20
-7431.286
 30
-787.862
 70
    32
  0
VERTEX
  8
T60SSILL
 62
6
 10
1460.889
 20
-7431.462
 30
-787.798
 70
    32
  0
VERTEX
  8
T60SSILL
 62
6
 10
1447.105
 20
-7429.159
 30
-787.740
 70
    32
  0
VERTEX
  8
T60SSILL
 62
6
 10
1438.238
 20
-7446.720
 30
-787.692
 70
    32
  0
VERTEX
  8
T60SSILL
 62
6
 10
1440.688
 20
-7454.632
 30
-787.697
 70
    32
  0
VERTEX
  8
T60SSILL
 62
6
 10
1448.806
 20
-7453.054
 30
-787.728
 70
    32
  0
VERTEX
  8
T60SSILL
 62
6
 10
1451.193
 20
-7457.715
 30
-787.734
 70
    32
  0
VERTEX
  8
T60SSILL
 62
6
 10
1445.161
 20
-7463.521
 30
-787.709
 70
    32
  0
VERTEX
  8
T60SSILL
 62
6
 10
1488.349
 20
-7542.659
 30
-787.824
 70
    32
  0
VERTEX
  8
T60SSILL
 62
6
 10
1494.515
 20
-7543.511
 30
-787.849
 70
    32
  0
VERTEX
  8
T60SSILL
 62
6
 10
1497.033
 20
-7547.438
 30
-787.857
 70
    32
  0
VERTEX
  8
T60SSILL
 62
6
 10
1492.768
 20
-7550.085
 30
-787.836
 70
    32
  0
VERTEX
  8
T60SSILL
 62
6
 10
1576.460
 20
-7707.457
 30
-787.511
 70
    32
  0
VERTEX
  8
T60SSILL
 62
6
 10
1592.084
 20
-7699.488
 30
-787.516
 70
    32
  0
VERTEX
  8
T60SSILL
 62
6
 10
1595.718
 20
-7705.204
 30
-787.502
 70
    32
  0
VERTEX
  8
T60SSILL
 62
6
 10
1579.829
 20
-7713.881
 30
-787.496
 70
    32
  0
VERTEX
  8
T60SSILL
 62
6
 10
1632.042
 20
-7810.385
 30
-787.295
 70
    32
  0
VERTEX
  8
T60SSILL
 62
6
 10
1637.524
 20
-7808.922
 30
-787.328
 70
    32
  0
VERTEX
  8
T60SSILL
 62
6
 10
1640.375
 20
-7814.105
 30
-787.343
 70
    32
  0
VERTEX
  8
T60SSILL
 62
6
 10
1636.145
 20
-7817.269
 30
-787.317
 70
    32
  0
VERTEX
  8
T60SSILL
 62
6
 10
1638.236
 20
-7821.480
 30
-787.328
 70
    32
  0
VERTEX
  8
T60SSILL
 62
6
 10
1645.524
 20
-7820.497
 30
-787.372
 70
    32
  0
VERTEX
  8
T60SSILL
 62
6
 10
1679.935
 20
-7877.469
 30
-787.557
 70
    32
  0
VERTEX
  8
T60SSILL
 62
6
 10
1682.146
 20
-7886.898
 30
-787.567
 70
    32
  0
VERTEX
  8
T60SSILL
 62
6
 10
1698.225
 20
-7917.096
 30
-787.653
 70
    32
  0
VERTEX
  8
T60SSILL
 62
6
 10
1698.128
 20
-7928.608
 30
-787.648
 70
    32
  0
VERTEX
  8
T60SSILL
 62
6
 10
1702.330
 20
-7935.956
 30
-787.671
 70
    32
  0
VERTEX
  8
T60SSILL
 62
6
 10
1704.586
 20
-7933.166
 30
-787.685
 70
    32
  0
VERTEX
  8
T60SSILL
 62
6
 10
1709.942
 20
-7913.876
 30
-787.723
 70
    32
  0
VERTEX
  8
T60SSILL
 62
6
 10
1719.003
 20
-7916.788
 30
-787.776
 70
    32
  0
VERTEX
  8
T60SSILL
 62
6
 10
1713.679
 20
-7943.687
 30
-787.736
 70
    32
  0
VERTEX
  8
T60SSILL
 62
6
 10
1713.962
 20
-7958.441
 30
-787.732
 70
    32
  0
VERTEX
  8
T60SSILL
 62
6
 10
1722.136
 20
-7965.235
 30
-787.779
 70
    32
  0
VERTEX
  8
T60SSILL
 62
6
 10
1744.133
 20
-7964.849
 30
-787.909
 70
    32
  0
VERTEX
  8
T60SSILL
 62
6
 10
1746.794
 20
-7971.008
 30
-787.923
 70
    32
  0
VERTEX
  8
T60SSILL
 62
6
 10
1732.720
 20
-7982.067
 30
-787.836
 70
    32
  0
VERTEX
  8
T60SSILL
 62
6
 10
1733.097
 20
-7990.504
 30
-787.835
 70
    32
  0
VERTEX
  8
T60SSILL
 62
6
 10
1751.903
 20
-8025.227
 30
-787.935
 70
    32
  0
VERTEX
  8
T60SSILL
 62
6
 10
1765.332
 20
-8080.313
 30
-787.997
 70
    32
  0
VERTEX
  8
T60SSILL
 62
6
 10
1772.037
 20
-8085.552
 30
-788.035
 70
    32
  0
VERTEX
  8
T60SSILL
 62
6
 10
1775.349
 20
-8090.318
 30
-788.053
 70
    32
  0
VERTEX
  8
T60SSILL
 62
6
 10
1776.542
 20
-8101.069
 30
-788.057
 70
    32
  0
VERTEX
  8
T60SSILL
 62
6
 10
1773.430
 20
-8109.203
 30
-788.035
 70
    32
  0
VERTEX
  8
T60SSILL
 62
6
 10
1790.656
 20
-8179.541
 30
-788.114
 70
    32
  0
VERTEX
  8
T60SSILL
 62
6
 10
1787.256
 20
-8194.335
 30
-788.089
 70
    32
  0
VERTEX
  8
T60SSILL
 62
6
 10
1783.578
 20
-8201.155
 30
-788.065
 70
    32
  0
VERTEX
  8
T60SSILL
 62
6
 10
1778.235
 20
-8206.446
 30
-788.032
 70
    32
  0
VERTEX
  8
T60SSILL
 62
6
 10
1688.129
 20
-8271.948
 30
-788.165
 70
    32
  0
VERTEX
  8
T60SSILL
 62
6
 10
1681.356
 20
-8279.367
 30
-788.142
 70
    32
  0
VERTEX
  8
T60SSILL
 62
6
 10
1676.659
 20
-8287.508
 30
-788.125
 70
    32
  0
VERTEX
  8
T60SSILL
 62
6
 10
1674.020
 20
-8297.763
 30
-788.113
 70
    32
  0
VERTEX
  8
T60SSILL
 62
6
 10
1673.463
 20
-8310.008
 30
-788.107
 70
    32
  0
VERTEX
  8
T60SSILL
 62
6
 10
1675.756
 20
-8321.607
 30
-788.110
 70
    32
  0
VERTEX
  8
T60SSILL
 62
6
 10
1678.889
 20
-8329.886
 30
-788.116
 70
    32
  0
VERTEX
  8
T60SSILL
 62
6
 10
1710.397
 20
-8380.968
 30
-788.154
 70
    32
  0
VERTEX
  8
T60SSILL
 62
6
 10
1704.513
 20
-8383.854
 30
-788.143
 70
    32
  0
VERTEX
  8
T60SSILL
 62
6
 10
1667.718
 20
-8321.895
 30
-788.086
 70
    32
  0
VERTEX
  8
T60SSILL
 62
6
 10
1664.451
 20
-8309.177
 30
-788.081
 70
    32
  0
VERTEX
  8
T60SSILL
 62
6
 10
1664.781
 20
-8301.336
 30
-788.085
 70
    32
  0
VERTEX
  8
T60SSILL
 62
6
 10
1669.114
 20
-8285.791
 30
-788.103
 70
    32
  0
VERTEX
  8
T60SSILL
 62
6
 10
1620.590
 20
-8321.658
 30
-787.946
 70
    32
  0
VERTEX
  8
T60SSILL
 62
6
 10
1610.127
 20
-8334.644
 30
-787.910
 70
    32
  0
VERTEX
  8
T60SSILL
 62
6
 10
1605.842
 20
-8348.256
 30
-787.892
 70
    32
  0
VERTEX
  8
T60SSILL
 62
6
 10
1607.429
 20
-8365.524
 30
-787.890
 70
    32
  0
VERTEX
  8
T60SSILL
 62
6
 10
1635.140
 20
-8425.562
 30
-787.950
 70
    32
  0
VERTEX
  8
T60SSILL
 62
6
 10
1639.514
 20
-8425.595
 30
-787.963
 70
    32
  0
VERTEX
  8
T60SSILL
 62
6
 10
1640.615
 20
-8427.155
 30
-787.966
 70
    32
  0
VERTEX
  8
T60SSILL
 62
6
 10
1642.059
 20
-8440.917
 30
-787.965
 70
    32
  0
VERTEX
  8
T60SSILL
 62
6
 10
1680.130
 20
-8520.643
 30
-788.028
 70
    32
  0
VERTEX
  8
T60SSILL
 62
6
 10
1686.930
 20
-8521.451
 30
-788.040
 70
    32
  0
VERTEX
  8
T60SSILL
 62
6
 10
1687.626
 20
-8526.281
 30
-788.039
 70
    32
  0
VERTEX
  8
T60SSILL
 62
6
 10
1685.821
 20
-8532.611
 30
-788.032
 70
    32
  0
VERTEX
  8
T60SSILL
 62
6
 10
1721.964
 20
-8608.951
 30
-788.056
 70
    32
  0
VERTEX
  8
T60SSILL
 62
6
 10
1729.584
 20
-8608.942
 30
-788.070
 70
    32
  0
VERTEX
  8
T60SSILL
 62
6
 10
1731.228
 20
-8612.536
 30
-788.071
 70
    32
  0
VERTEX
  8
T60SSILL
 62
6
 10
1727.958
 20
-8620.589
 30
-788.061
 70
    32
  0
VERTEX
  8
T60SSILL
 62
6
 10
1721.165
 20
-8623.371
 30
-788.047
 70
    32
  0
VERTEX
  8
T60SSILL
 62
6
 10
1715.193
 20
-8622.503
 30
-788.037
 70
    32
  0
VERTEX
  8
T60SSILL
 62
6
 10
1713.609
 20
-8619.738
 30
-788.036
 70
    32
  0
VERTEX
  8
T60SSILL
 62
6
 10
1715.218
 20
-8612.244
 30
-788.043
 70
    32
  0
VERTEX
  8
T60SSILL
 62
6
 10
1678.692
 20
-8535.530
 30
-788.018
 70
    32
  0
VERTEX
  8
T60SSILL
 62
6
 10
1673.042
 20
-8534.209
 30
-788.009
 70
    32
  0
VERTEX
  8
T60SSILL
 62
6
 10
1671.700
 20
-8529.088
 30
-788.009
 70
    32
  0
VERTEX
  8
T60SSILL
 62
6
 10
1673.881
 20
-8523.573
 30
-788.016
 70
    32
  0
VERTEX
  8
T60SSILL
 62
6
 10
1637.445
 20
-8449.517
 30
-787.948
 70
    32
  0
VERTEX
  8
T60SSILL
 62
6
 10
1630.644
 20
-8448.412
 30
-787.929
 70
    32
  0
VERTEX
  8
T60SSILL
 62
6
 10
1622.394
 20
-8452.154
 30
-787.903
 70
    32
  0
VERTEX
  8
T60SSILL
 62
6
 10
1620.844
 20
-8458.719
 30
-787.896
 70
    32
  0
VERTEX
  8
T60SSILL
 62
6
 10
1623.878
 20
-8466.156
 30
-787.902
 70
    32
  0
VERTEX
  8
T60SSILL
 62
6
 10
1629.510
 20
-8513.374
 30
-787.901
 70
    32
  0
VERTEX
  8
T60SSILL
 62
6
 10
1635.060
 20
-8517.615
 30
-787.916
 70
    32
  0
VERTEX
  8
T60SSILL
 62
6
 10
1636.214
 20
-8536.893
 30
-787.912
 70
    32
  0
VERTEX
  8
T60SSILL
 62
6
 10
1641.854
 20
-8545.523
 30
-787.926
 70
    32
  0
VERTEX
  8
T60SSILL
 62
6
 10
1649.878
 20
-8570.016
 30
-787.941
 70
    32
  0
VERTEX
  8
T60SSILL
 62
6
 10
1661.644
 20
-8584.333
 30
-787.963
 70
    32
  0
VERTEX
  8
T60SSILL
 62
6
 10
1663.528
 20
-8598.134
 30
-787.959
 70
    32
  0
VERTEX
  8
T60SSILL
 62
6
 10
1667.600
 20
-8612.452
 30
-787.958
 70
    32
  0
VERTEX
  8
T60SSILL
 62
6
 10
1680.375
 20
-8624.640
 30
-787.975
 70
    32
  0
VERTEX
  8
T60SSILL
 62
6
 10
1684.335
 20
-8632.690
 30
-787.977
 70
    32
  0
VERTEX
  8
T60SSILL
 62
6
 10
1676.559
 20
-8637.997
 30
-787.961
 70
    32
  0
VERTEX
  8
T60SSILL
 62
6
 10
1667.551
 20
-8626.205
 30
-787.951
 70
    32
  0
VERTEX
  8
T60SSILL
 62
6
 10
1661.780
 20
-8615.558
 30
-787.947
 70
    32
  0
VERTEX
  8
T60SSILL
 62
6
 10
1653.642
 20
-8613.566
 30
-787.933
 70
    32
  0
VERTEX
  8
T60SSILL
 62
6
 10
1650.338
 20
-8608.348
 30
-787.928
 70
    32
  0
VERTEX
  8
T60SSILL
 62
6
 10
1647.106
 20
-8606.641
 30
-787.919
 70
    32
  0
VERTEX
  8
T60SSILL
 62
6
 10
1644.108
 20
-8598.395
 30
-787.913
 70
    32
  0
VERTEX
  8
T60SSILL
 62
6
 10
1644.287
 20
-8591.788
 30
-787.916
 70
    32
  0
VERTEX
  8
T60SSILL
 62
6
 10
1620.221
 20
-8520.310
 30
-787.871
 70
    32
  0
VERTEX
  8
T60SSILL
 62
6
 10
1615.683
 20
-8485.172
 30
-787.870
 70
    32
  0
VERTEX
  8
T60SSILL
 62
6
 10
1613.915
 20
-8483.768
 30
-787.866
 70
    32
  0
VERTEX
  8
T60SSILL
 62
6
 10
1609.226
 20
-8466.811
 30
-787.858
 70
    32
  0
VERTEX
  8
T60SSILL
 62
6
 10
1604.123
 20
-8455.307
 30
-787.847
 70
    32
  0
VERTEX
  8
T60SSILL
 62
6
 10
1590.402
 20
-8428.806
 30
-787.816
 70
    32
  0
VERTEX
  8
T60SSILL
 62
6
 10
1586.513
 20
-8411.446
 30
-787.811
 70
    32
  0
VERTEX
  8
T60SSILL
 62
6
 10
1577.933
 20
-8388.949
 30
-787.794
 70
    32
  0
VERTEX
  8
T60SSILL
 62
6
 10
1573.611
 20
-8354.087
 30
-787.794
 70
    32
  0
VERTEX
  8
T60SSILL
 62
6
 10
1566.422
 20
-8342.767
 30
-787.777
 70
    32
  0
VERTEX
  8
T60SSILL
 62
6
 10
1561.859
 20
-8326.825
 30
-787.769
 70
    32
  0
VERTEX
  8
T60SSILL
 62
6
 10
1561.009
 20
-8311.211
 30
-787.773
 70
    32
  0
VERTEX
  8
T60SSILL
 62
6
 10
1551.342
 20
-8278.638
 30
-787.756
 70
    32
  0
VERTEX
  8
T60SSILL
 62
6
 10
1547.593
 20
-8273.991
 30
-787.747
 70
    32
  0
VERTEX
  8
T60SSILL
 62
6
 10
1547.483
 20
-8258.467
 30
-787.743
 70
    32
  0
VERTEX
  8
T60SSILL
 62
6
 10
1546.415
 20
-8256.961
 30
-787.738
 70
    32
  0
VERTEX
  8
T60SSILL
 62
6
 10
1532.525
 20
-8264.713
 30
-787.705
 70
    32
  0
VERTEX
  8
T60SSILL
 62
6
 10
1525.287
 20
-8272.274
 30
-787.681
 70
    32
  0
VERTEX
  8
T60SSILL
 62
6
 10
1518.884
 20
-8276.060
 30
-787.661
 70
    32
  0
VERTEX
  8
T60SSILL
 62
6
 10
1512.438
 20
-8268.395
 30
-787.644
 70
    32
  0
VERTEX
  8
T60SSILL
 62
6
 10
1532.743
 20
-8253.169
 30
-787.690
 70
    32
  0
VERTEX
  8
T60SSILL
 62
6
 10
1530.914
 20
-8249.694
 30
-787.679
 70
    32
  0
VERTEX
  8
T60SSILL
 62
6
 10
1536.008
 20
-8247.095
 30
-787.690
 70
    32
  0
VERTEX
  8
T60SSILL
 62
6
 10
1537.783
 20
-8249.780
 30
-787.700
 70
    32
  0
VERTEX
  8
T60SSILL
 62
6
 10
1545.872
 20
-8243.448
 30
-787.713
 70
    32
  0
VERTEX
  8
T60SSILL
 62
6
 10
1541.966
 20
-8235.467
 30
-787.688
 70
    32
  0
VERTEX
  8
T60SSILL
 62
6
 10
1537.673
 20
-8231.692
 30
-787.669
 70
    32
  0
VERTEX
  8
T60SSILL
 62
6
 10
1531.937
 20
-8229.492
 30
-787.648
 70
    32
  0
VERTEX
  8
T60SSILL
 62
6
 10
1522.089
 20
-8234.860
 30
-787.627
 70
    32
  0
VERTEX
  8
T60SSILL
 62
6
 10
1506.011
 20
-8225.146
 30
-787.563
 70
    32
  0
VERTEX
  8
T60SSILL
 62
6
 10
1477.911
 20
-8261.750
 30
-787.541
 70
    32
  0
VERTEX
  8
T60SSILL
 62
6
 10
1472.911
 20
-8278.153
 30
-787.523
 70
    32
  0
VERTEX
  8
T60SSILL
 62
6
 10
1472.644
 20
-8283.937
 30
-787.520
 70
    32
  0
VERTEX
  8
T60SSILL
 62
6
 10
1492.213
 20
-8316.341
 30
-787.567
 70
    32
  0
VERTEX
  8
T60SSILL
 62
6
 10
1482.973
 20
-8323.909
 30
-787.536
 70
    32
  0
VERTEX
  8
T60SSILL
 62
6
 10
1467.789
 20
-8324.311
 30
-787.491
 70
    32
  0
VERTEX
  8
T60SSILL
 62
6
 10
1454.101
 20
-8298.565
 30
-787.460
 70
    32
  0
VERTEX
  8
T60SSILL
 62
6
 10
1453.428
 20
-8275.342
 30
-787.467
 70
    32
  0
VERTEX
  8
T60SSILL
 62
6
 10
1430.548
 20
-8279.872
 30
-787.397
 70
    32
  0
VERTEX
  8
T60SSILL
 62
6
 10
1424.937
 20
-8270.996
 30
-787.384
 70
    32
  0
VERTEX
  8
T60SSILL
 62
6
 10
1415.500
 20
-8264.780
 30
-787.358
 70
    32
  0
VERTEX
  8
T60SSILL
 62
6
 10
1416.131
 20
-8262.168
 30
-787.357
 70
    32
  0
VERTEX
  8
T60SSILL
 62
6
 10
1421.992
 20
-8257.691
 30
-787.367
 70
    32
  0
VERTEX
  8
T60SSILL
 62
6
 10
1440.632
 20
-8266.403
 30
-787.432
 70
    32
  0
VERTEX
  8
T60SSILL
 62
6
 10
1448.415
 20
-8263.098
 30
-787.455
 70
    32
  0
VERTEX
  8
T60SSILL
 62
6
 10
1443.095
 20
-8253.882
 30
-787.423
 70
    32
  0
VERTEX
  8
T60SSILL
 62
6
 10
1430.275
 20
-8239.499
 30
-787.361
 70
    32
  0
VERTEX
  8
T60SSILL
 62
6
 10
1432.767
 20
-8235.988
 30
-787.362
 70
    32
  0
VERTEX
  8
T60SSILL
 62
6
 10
1439.536
 20
-8233.810
 30
-787.379
 70
    32
  0
VERTEX
  8
T60SSILL
 62
6
 10
1464.492
 20
-8265.119
 30
-787.503
 70
    32
  0
VERTEX
  8
T60SSILL
 62
6
 10
1498.579
 20
-8219.925
 30
-787.532
 70
    32
  0
VERTEX
  8
T60SSILL
 62
6
 10
1495.331
 20
-8213.213
 30
-787.511
 70
    32
  0
VERTEX
  8
T60SSILL
 62
6
 10
1499.845
 20
-8206.446
 30
-787.513
 70
    32
  0
VERTEX
  8
T60SSILL
 62
6
 10
1504.697
 20
-8204.097
 30
-787.523
 70
    32
  0
VERTEX
  8
T60SSILL
 62
6
 10
1522.404
 20
-8205.065
 30
-787.578
 70
    32
  0
VERTEX
  8
T60SSILL
 62
6
 10
1533.251
 20
-8211.515
 30
-787.621
 70
    32
  0
VERTEX
  8
T60SSILL
 62
6
 10
1544.817
 20
-8221.305
 30
-787.672
 70
    32
  0
VERTEX
  8
T60SSILL
 62
6
 10
1550.577
 20
-8221.256
 30
-787.690
 70
    32
  0
VERTEX
  8
T60SSILL
 62
6
 10
1562.777
 20
-8231.998
 30
-787.744
 70
    32
  0
VERTEX
  8
T60SSILL
 62
6
 10
1607.297
 20
-8198.707
 30
-787.821
 70
    32
  0
VERTEX
  8
T60SSILL
 62
6
 10
1619.202
 20
-8181.582
 30
-787.828
 70
    32
  0
VERTEX
  8
T60SSILL
 62
6
 10
1621.811
 20
-8173.520
 30
-787.822
 70
    32
  0
VERTEX
  8
T60SSILL
 62
6
 10
1620.500
 20
-8151.674
 30
-787.784
 70
    32
  0
VERTEX
  8
T60SSILL
 62
6
 10
1573.294
 20
-8087.033
 30
-787.534
 70
    32
  0
VERTEX
  8
T60SSILL
 62
6
 10
1570.750
 20
-8088.497
 30
-787.529
 70
    32
  0
VERTEX
  8
T60SSILL
 62
6
 10
1569.465
 20
-8098.535
 30
-787.540
 70
    32
  0
VERTEX
  8
T60SSILL
 62
6
 10
1562.340
 20
-8114.928
 30
-787.545
 70
    32
  0
VERTEX
  8
T60SSILL
 62
6
 10
1557.077
 20
-8121.167
 30
-787.540
 70
    32
  0
VERTEX
  8
T60SSILL
 62
6
 10
1484.635
 20
-8174.477
 30
-787.413
 70
    32
  0
VERTEX
  8
T60SSILL
 62
6
 10
1483.633
 20
-8182.930
 30
-787.425
 70
    32
  0
VERTEX
  8
T60SSILL
 62
6
 10
1473.598
 20
-8202.253
 30
-787.427
 70
    32
  0
VERTEX
  8
T60SSILL
 62
6
 10
1472.668
 20
-8208.083
 30
-787.434
 70
    32
  0
VERTEX
  8
T60SSILL
 62
6
 10
1474.291
 20
-8216.492
 30
-787.453
 70
    32
  0
VERTEX
  8
T60SSILL
 62
6
 10
1478.357
 20
-8223.897
 30
-787.478
 70
    32
  0
VERTEX
  8
T60SSILL
 62
6
 10
1468.978
 20
-8228.714
 30
-787.458
 70
    32
  0
VERTEX
  8
T60SSILL
 62
6
 10
1464.894
 20
-8212.103
 30
-787.418
 70
    32
  0
VERTEX
  8
T60SSILL
 62
6
 10
1447.061
 20
-8186.263
 30
-787.321
 70
    32
  0
VERTEX
  8
T60SSILL
 62
6
 10
1378.956
 20
-8150.442
 30
-787.120
 70
    32
  0
VERTEX
  8
T60SSILL
 62
6
 10
1362.100
 20
-8150.703
 30
-787.108
 70
    32
  0
VERTEX
  8
T60SSILL
 62
6
 10
1348.486
 20
-8160.803
 30
-787.110
 70
    32
  0
VERTEX
  8
T60SSILL
 62
6
 10
1343.546
 20
-8154.635
 30
-787.099
 70
    32
  0
VERTEX
  8
T60SSILL
 62
6
 10
1363.529
 20
-8139.995
 30
-787.096
 70
    32
  0
VERTEX
  8
T60SSILL
 62
6
 10
1362.801
 20
-8133.652
 30
-787.088
 70
    32
  0
VERTEX
  8
T60SSILL
 62
6
 10
1366.429
 20
-8129.028
 30
-787.085
 70
    32
  0
VERTEX
  8
T60SSILL
 62
6
 10
1358.033
 20
-8044.949
 30
-786.978
 70
    32
  0
VERTEX
  8
T60SSILL
 62
6
 10
1340.007
 20
-8059.953
 30
-786.983
 70
    32
  0
VERTEX
  8
T60SSILL
 62
6
 10
1334.186
 20
-8052.802
 30
-786.970
 70
    32
  0
VERTEX
  8
T60SSILL
 62
6
 10
1423.669
 20
-7977.956
 30
-786.960
 70
    32
  0
VERTEX
  8
T60SSILL
 62
6
 10
1430.580
 20
-7974.107
 30
-786.960
 70
    32
  0
VERTEX
  8
T60SSILL
 62
6
 10
1425.435
 20
-7966.539
 30
-786.986
 70
    32
  0
VERTEX
  8
T60SSILL
 62
6
 10
1431.059
 20
-7962.470
 30
-786.987
 70
    32
  0
VERTEX
  8
T60SSILL
 62
6
 10
1437.073
 20
-7969.582
 30
-786.961
 70
    32
  0
VERTEX
  8
T60SSILL
 62
6
 10
1445.594
 20
-7963.803
 30
-786.963
 70
    32
  0
VERTEX
  8
T60SSILL
 62
6
 10
1510.418
 20
-7907.593
 30
-787.074
 70
    32
  0
VERTEX
  8
T60SSILL
 62
6
 10
1505.396
 20
-7897.475
 30
-787.098
 70
    32
  0
VERTEX
  8
T60SSILL
 62
6
 10
1505.344
 20
-7893.278
 30
-787.108
 70
    32
  0
VERTEX
  8
T60SSILL
 62
6
 10
1512.603
 20
-7885.032
 30
-787.125
 70
    32
  0
VERTEX
  8
T60SSILL
 62
6
 10
1532.217
 20
-7872.911
 30
-787.148
 70
    32
  0
VERTEX
  8
T60SSILL
 62
6
 10
1536.570
 20
-7873.629
 30
-787.146
 70
    32
  0
VERTEX
  8
T60SSILL
 62
6
 10
1543.237
 20
-7870.751
 30
-787.151
 70
    32
  0
VERTEX
  8
T60SSILL
 62
6
 10
1553.058
 20
-7871.759
 30
-787.146
 70
    32
  0
VERTEX
  8
T60SSILL
 62
6
 10
1555.977
 20
-7869.363
 30
-787.151
 70
    32
  0
VERTEX
  8
T60SSILL
 62
6
 10
1560.389
 20
-7856.370
 30
-787.179
 70
    32
  0
VERTEX
  8
T60SSILL
 62
6
 10
1552.888
 20
-7847.427
 30
-787.201
 70
    32
  0
VERTEX
  8
T60SSILL
 62
6
 10
1558.944
 20
-7837.841
 30
-787.222
 70
    32
  0
VERTEX
  8
T60SSILL
 62
6
 10
1572.022
 20
-7844.834
 30
-787.203
 70
    32
  0
VERTEX
  8
T60SSILL
 62
6
 10
1577.052
 20
-7840.495
 30
-787.212
 70
    32
  0
VERTEX
  8
T60SSILL
 62
6
 10
1581.756
 20
-7839.768
 30
-787.212
 70
    32
  0
VERTEX
  8
T60SSILL
 62
6
 10
1592.256
 20
-7831.431
 30
-787.229
 70
    32
  0
VERTEX
  8
T60SSILL
 62
6
 10
1604.844
 20
-7815.013
 30
-787.264
 70
    32
  0
VERTEX
  8
T60SSILL
 62
6
 10
1607.884
 20
-7801.415
 30
-787.294
 70
    32
  0
VERTEX
  8
T60SSILL
 62
6
 10
1606.231
 20
-7785.569
 30
-787.330
 70
    32
  0
VERTEX
  8
T60SSILL
 62
6
 10
1579.170
 20
-7736.688
 30
-787.447
 70
    32
  0
VERTEX
  8
T60SSILL
 62
6
 10
1560.768
 20
-7744.936
 30
-787.432
 70
    32
  0
VERTEX
  8
T60SSILL
 62
6
 10
1556.343
 20
-7736.785
 30
-787.451
 70
    32
  0
VERTEX
  8
T60SSILL
 62
6
 10
1573.883
 20
-7726.467
 30
-787.471
 70
    32
  0
VERTEX
  8
T60SSILL
 62
6
 10
1559.912
 20
-7698.772
 30
-787.537
 70
    32
  0
VERTEX
  8
T60SSILL
 62
6
 10
1529.467
 20
-7645.490
 30
-787.664
 70
    32
  0
VERTEX
  8
T60SSILL
 62
6
 10
1504.321
 20
-7656.475
 30
-787.645
 70
    32
  0
VERTEX
  8
T60SSILL
 62
6
 10
1500.652
 20
-7648.345
 30
-787.664
 70
    32
  0
VERTEX
  8
T60SSILL
 62
6
 10
1525.040
 20
-7636.705
 30
-787.685
 70
    32
  0
VERTEX
  8
T60SSILL
 62
6
 10
1482.171
 20
-7556.845
 30
-787.795
 70
    32
  0
VERTEX
  8
T60SSILL
 62
6
 10
1480.298
 20
-7557.265
 30
-787.789
 70
    32
  0
VERTEX
  8
T60SSILL
 62
6
 10
1478.171
 20
-7552.208
 30
-787.784
 70
    32
  0
VERTEX
  8
T60SSILL
 62
6
 10
1479.029
 20
-7550.833
 30
-787.787
 70
    32
  0
VERTEX
  8
T60SSILL
 62
6
 10
1435.452
 20
-7467.460
 30
-787.676
 70
    32
  0
VERTEX
  8
T60SSILL
 62
6
 10
1406.466
 20
-7382.042
 30
-787.612
 70
    32
  0
VERTEX
  8
T60SSILL
 62
6
 10
1404.257
 20
-7381.507
 30
-787.605
 70
    32
  0
VERTEX
  8
T60SSILL
 62
6
 10
1375.678
 20
-7390.211
 30
-787.497
 70
    32
  0
VERTEX
  8
T60SSILL
 62
6
 10
1374.162
 20
-7383.380
 30
-787.493
 70
    32
  0
VERTEX
  8
T60SSILL
 62
6
 10
1397.550
 20
-7375.566
 30
-787.581
 70
    32
  0
VERTEX
  8
T60SSILL
 62
6
 10
1386.658
 20
-7366.538
 30
-787.543
 70
    32
  0
VERTEX
  8
T60SSILL
 62
6
 10
1391.271
 20
-7360.540
 30
-787.562
 70
    32
  0
VERTEX
  8
T60SSILL
 62
6
 10
1396.094
 20
-7365.006
 30
-787.579
 70
    32
  0
VERTEX
  8
T60SSILL
 62
6
 10
1400.360
 20
-7362.774
 30
-787.595
 70
    32
  0
VERTEX
  8
T60SSILL
 62
6
 10
1390.287
 20
-7330.991
 30
-787.565
 70
    32
  0
VERTEX
  8
T60SSILL
 62
6
 10
1365.702
 20
-7281.984
 30
-787.486
 70
    32
  0
VERTEX
  8
T60SSILL
 62
6
 10
1366.545
 20
-7276.518
 30
-787.490
 70
    32
  0
VERTEX
  8
T60SSILL
 62
6
 10
1359.758
 20
-7272.311
 30
-787.466
 70
    32
  0
VERTEX
  8
T60SSILL
 62
6
 10
1360.275
 20
-7267.665
 30
-787.469
 70
    32
  0
VERTEX
  8
T60SSILL
 62
6
 10
1358.582
 20
-7264.771
 30
-787.463
 70
    32
  0
VERTEX
  8
T60SSILL
 62
6
 10
1359.652
 20
-7263.383
 30
-787.467
 70
    32
  0
VERTEX
  8
T60SSILL
 62
6
 10
1340.807
 20
-7226.455
 30
-787.406
 70
    32
  0
VERTEX
  8
T60SSILL
 62
6
 10
1335.376
 20
-7228.199
 30
-787.374
 70
    32
  0
VERTEX
  8
T60SSILL
 62
6
 10
1333.054
 20
-7231.637
 30
-787.360
 70
    32
  0
VERTEX
  8
T60SSILL
 62
6
 10
1335.690
 20
-7286.385
 30
-787.372
 70
    32
  0
VERTEX
  8
T60SSILL
 62
6
 10
1333.386
 20
-7288.310
 30
-787.358
 70
    32
  0
VERTEX
  8
T60SSILL
 62
6
 10
1323.353
 20
-7286.827
 30
-787.298
 70
    32
  0
VERTEX
  8
T60SSILL
 62
6
 10
1320.978
 20
-7269.405
 30
-787.285
 70
    32
  0
VERTEX
  8
T60SSILL
 62
6
 10
1312.961
 20
-7260.197
 30
-787.238
 70
    32
  0
VERTEX
  8
T60SSILL
 62
6
 10
1311.818
 20
-7256.706
 30
-787.231
 70
    32
  0
VERTEX
  8
T60SSILL
 62
6
 10
1311.758
 20
-7233.065
 30
-787.232
 70
    32
  0
VERTEX
  8
T60SSILL
 62
6
 10
1307.802
 20
-7195.204
 30
-787.211
 70
    32
  0
VERTEX
  8
T60SSILL
 62
6
 10
1302.870
 20
-7193.814
 30
-787.181
 70
    32
  0
VERTEX
  8
T60SSILL
 62
6
 10
1295.271
 20
-7195.675
 30
-787.136
 70
    32
  0
VERTEX
  8
T60SSILL
 62
6
 10
1294.051
 20
-7190.844
 30
-787.129
 70
    32
  0
VERTEX
  8
T60SSILL
 62
6
 10
1307.369
 20
-7184.574
 30
-787.209
 70
    32
  0
VERTEX
  8
T60SSILL
 62
6
 10
1297.460
 20
-7166.181
 30
-787.151
 70
    32
  0
VERTEX
  8
T60SSILL
 62
6
 10
1291.566
 20
-7159.238
 30
-787.116
 70
    32
  0
VERTEX
  8
T60SSILL
 62
6
 10
1263.303
 20
-7194.242
 30
-786.945
 70
    32
  0
VERTEX
  8
T60SSILL
 62
6
 10
1257.027
 20
-7189.074
 30
-786.917
 70
    32
  0
VERTEX
  8
T60SSILL
 62
6
 10
1289.410
 20
-7147.995
 30
-787.104
 70
    32
  0
VERTEX
  8
T60SSILL
 62
6
 10
1286.813
 20
-7132.871
 30
-787.089
 70
    32
  0
VERTEX
  8
T60SSILL
 62
6
 10
1282.446
 20
-7121.979
 30
-787.064
 70
    32
  0
VERTEX
  8
T60SSILL
 62
6
 10
1265.831
 20
-7089.178
 30
-786.967
 70
    32
  0
VERTEX
  8
T60SSILL
 62
6
 10
1259.939
 20
-7066.703
 30
-786.933
 70
    32
  0
VERTEX
  8
T60SSILL
 62
6
 10
1259.670
 20
-7056.924
 30
-786.932
 70
    32
  0
SEQEND
  8
T60SSILL
  0
POLYLINE
  8
T60SSILL
 62
6
 66
     1
 70
     9
  0
VERTEX
  8
T60SSILL
 62
6
 10
1315.594
 20
-7115.288
 30
-787.268
 70
    32
  0
VERTEX
  8
T60SSILL
 62
6
 10
1325.659
 20
-7102.617
 30
-787.334
 70
    32
  0
VERTEX
  8
T60SSILL
 62
6
 10
1329.879
 20
-7092.822
 30
-787.362
 70
    32
  0
VERTEX
  8
T60SSILL
 62
6
 10
1332.730
 20
-7085.371
 30
-787.381
 70
    32
  0
VERTEX
  8
T60SSILL
 62
6
 10
1333.947
 20
-7070.037
 30
-787.392
 70
    32
  0
VERTEX
  8
T60SSILL
 62
6
 10
1333.932
 20
-7070.201
 30
-787.392
 70
    32
  0
VERTEX
  8
T60SSILL
 62
6
 10
1313.905
 20
-7029.347
 30
-787.274
 70
    32
  0
VERTEX
  8
T60SSILL
 62
6
 10
1308.281
 20
-7023.100
 30
-787.240
 70
    32
  0
VERTEX
  8
T60SSILL
 62
6
 10
1298.847
 20
-7016.194
 30
-787.182
 70
    32
  0
VERTEX
  8
T60SSILL
 62
6
 10
1246.245
 20
-6990.007
 30
-786.832
 70
    32
  0
VERTEX
  8
T60SSILL
 62
6
 10
1236.371
 20
-6988.546
 30
-786.850
 70
    32
  0
VERTEX
  8
T60SSILL
 62
6
 10
1262.026
 20
-7041.456
 30
-786.948
 70
    32
  0
VERTEX
  8
T60SSILL
 62
6
 10
1268.705
 20
-7046.349
 30
-786.988
 70
    32
  0
VERTEX
  8
T60SSILL
 62
6
 10
1277.005
 20
-7057.503
 30
-787.038
 70
    32
  0
VERTEX
  8
T60SSILL
 62
6
 10
1299.426
 20
-7072.010
 30
-787.176
 70
    32
  0
VERTEX
  8
T60SSILL
 62
6
 10
1310.765
 20
-7110.626
 30
-787.239
 70
    32
  0
SEQEND
  8
T60SSILL
  0
POLYLINE
  8
T60SSILL
 62
3
 66
     1
 70
     8
  0
VERTEX
  8
T60SSILL
 62
3
 10
822.193
 20
-5910.411
 30
-782.447
 70
    32
  0
VERTEX
  8
T60SSILL
 62
3
 10
830.207
 20
-5913.122
 30
-782.447
 70
    32
  0
VERTEX
  8
T60SSILL
 62
3
 10
833.524
 20
-5908.582
 30
-781.000
 70
    32
  0
VERTEX
  8
T60SSILL
 62
3
 10
842.799
 20
-5915.290
 30
-781.000
 70
    32
  0
VERTEX
  8
T60SSILL
 62
3
 10
839.008
 20
-5924.031
 30
-782.447
 70
    32
  0
VERTEX
  8
T60SSILL
 62
3
 10
840.091
 20
-5931.349
 30
-782.447
 70
    32
  0
VERTEX
  8
T60SSILL
 62
3
 10
831.426
 20
-5936.770
 30
-782.447
 70
    32
  0
VERTEX
  8
T60SSILL
 62
3
 10
828.097
 20
-5939.293
 30
-782.659
 70
    32
  0
SEQEND
  8
T60SSILL
  0
TEXT
  8
T60SSILL
 62
3
 10
836.029
 20
-5904.448
 30
1000.000
 40
2.756
  1
U
 41
 1.0 
  0
ENDSEC
  0
EOF
