999
********************************
999
*   DXF File - Entities Only   *
999
*        3D Data Format        *
999
*     Output from ENVISAGE     *
999
*     24-Dec-2007 12:25:30     *
999
********************************
  0
SECTION 
  2
HEADER
  9
$ACADVER
  1
AC1009
  9
$EXTMIN
 10
-290000.000
 20
-250000.000
 30
-4000.000
  9
$EXTMAX
 10
5000000.000
 20
600000.000
 30
6000.000
  0
ENDSEC
  0
SECTION
  2
ENTITIES
  0
POLYLINE
  8
T62SSILL
 62
4
 66
     1
 70
     9
  0
VERTEX
  8
T62SSILL
 62
4
 10
1560.211
 20
-7993.042
 30
-924.480
 70
    32
  0
VERTEX
  8
T62SSILL
 62
4
 10
1560.227
 20
-7993.069
 30
-924.480
 70
    32
  0
SEQEND
  8
T62SSILL
  0
POLYLINE
  8
T62SSILL
 62
4
 66
     1
 70
     9
  0
VERTEX
  8
T62SSILL
 62
4
 10
5070.193
 20
-9388.231
 30
-959.255
 70
    32
  0
VERTEX
  8
T62SSILL
 62
4
 10
5070.092
 20
-9388.428
 30
-959.255
 70
    32
  0
SEQEND
  8
T62SSILL
  0
LINE
  8
T62SSILL
 62
4
 10
3143.313
 20
-8848.686
 30
-953.000
 11
3143.313
 21
-8848.686
 31
-952.390
  0
POINT
  8
T62SSILL
 62
4
 10
3143.313
 20
-8848.686
 30
-952.390
  0
POLYLINE
  8
T62SSILL
 62
13
 66
     1
 70
     9
  0
VERTEX
  8
T62SSILL
 62
13
 10
1495.695
 20
-7787.349
 30
-934.396
 70
    32
  0
VERTEX
  8
T62SSILL
 62
13
 10
1484.522
 20
-7772.264
 30
-921.830
 70
    32
  0
VERTEX
  8
T62SSILL
 62
13
 10
1492.163
 20
-7766.417
 30
-921.823
 70
    32
  0
VERTEX
  8
T62SSILL
 62
13
 10
1509.978
 20
-7790.077
 30
-934.363
 70
    32
  0
VERTEX
  8
T62SSILL
 62
13
 10
1516.165
 20
-7794.064
 30
-934.352
 70
    32
  0
VERTEX
  8
T62SSILL
 62
13
 10
1502.290
 20
-7796.504
 30
-934.390
 70
    32
  0
SEQEND
  8
T62SSILL
  0
POLYLINE
  8
T62SSILL
 62
13
 66
     1
 70
     9
  0
VERTEX
  8
T62SSILL
 62
13
 10
1445.492
 20
-7801.050
 30
-934.500
 70
    32
  0
VERTEX
  8
T62SSILL
 62
13
 10
1446.830
 20
-7765.123
 30
-930.127
 70
    32
  0
VERTEX
  8
T62SSILL
 62
13
 10
1457.847
 20
-7765.635
 30
-930.519
 70
    32
  0
VERTEX
  8
T62SSILL
 62
13
 10
1457.995
 20
-7797.456
 30
-934.500
 70
    32
  0
SEQEND
  8
T62SSILL
  0
POLYLINE
  8
T62SSILL
 62
13
 66
     1
 70
     9
  0
VERTEX
  8
T62SSILL
 62
13
 10
1658.123
 20
-7349.168
 30
-933.448
 70
    32
  0
VERTEX
  8
T62SSILL
 62
13
 10
1663.109
 20
-7364.104
 30
-933.453
 70
    32
  0
VERTEX
  8
T62SSILL
 62
13
 10
1641.446
 20
-7372.247
 30
-933.518
 70
    32
  0
VERTEX
  8
T62SSILL
 62
13
 10
1633.059
 20
-7353.891
 30
-933.518
 70
    32
  0
VERTEX
  8
T62SSILL
 62
13
 10
1654.235
 20
-7344.149
 30
-933.452
 70
    32
  0
SEQEND
  8
T62SSILL
  0
POLYLINE
  8
T62SSILL
 62
13
 66
     1
 70
     9
  0
VERTEX
  8
T62SSILL
 62
13
 10
1643.417
 20
-7322.980
 30
-933.454
 70
    32
  0
VERTEX
  8
T62SSILL
 62
13
 10
1645.392
 20
-7331.087
 30
-933.458
 70
    32
  0
VERTEX
  8
T62SSILL
 62
13
 10
1652.247
 20
-7337.241
 30
-933.448
 70
    32
  0
VERTEX
  8
T62SSILL
 62
13
 10
1629.239
 20
-7346.230
 30
-933.518
 70
    32
  0
VERTEX
  8
T62SSILL
 62
13
 10
1620.954
 20
-7328.018
 30
-933.517
 70
    32
  0
VERTEX
  8
T62SSILL
 62
13
 10
1642.039
 20
-7317.692
 30
-933.451
 70
    32
  0
SEQEND
  8
T62SSILL
  0
POLYLINE
  8
T62SSILL
 62
13
 66
     1
 70
     9
  0
VERTEX
  8
T62SSILL
 62
13
 10
1631.314
 20
-7293.000
 30
-933.448
 70
    32
  0
VERTEX
  8
T62SSILL
 62
13
 10
1639.278
 20
-7305.282
 30
-933.443
 70
    32
  0
VERTEX
  8
T62SSILL
 62
13
 10
1640.316
 20
-7311.460
 30
-933.448
 70
    32
  0
VERTEX
  8
T62SSILL
 62
13
 10
1627.651
 20
-7317.211
 30
-933.487
 70
    32
  0
VERTEX
  8
T62SSILL
 62
13
 10
1626.087
 20
-7316.377
 30
-933.490
 70
    32
  0
VERTEX
  8
T62SSILL
 62
13
 10
1617.751
 20
-7319.703
 30
-933.516
 70
    32
  0
VERTEX
  8
T62SSILL
 62
13
 10
1609.157
 20
-7301.818
 30
-933.516
 70
    32
  0
VERTEX
  8
T62SSILL
 62
13
 10
1617.525
 20
-7297.929
 30
-933.490
 70
    32
  0
VERTEX
  8
T62SSILL
 62
13
 10
1617.191
 20
-7296.545
 30
-933.489
 70
    32
  0
SEQEND
  8
T62SSILL
  0
POLYLINE
  8
T62SSILL
 62
13
 66
     1
 70
     9
  0
VERTEX
  8
T62SSILL
 62
13
 10
1605.498
 20
-7269.731
 30
-933.486
 70
    32
  0
VERTEX
  8
T62SSILL
 62
13
 10
1621.166
 20
-7263.036
 30
-933.438
 70
    32
  0
VERTEX
  8
T62SSILL
 62
13
 10
1626.749
 20
-7269.985
 30
-933.432
 70
    32
  0
VERTEX
  8
T62SSILL
 62
13
 10
1629.934
 20
-7281.014
 30
-933.437
 70
    32
  0
VERTEX
  8
T62SSILL
 62
13
 10
1604.535
 20
-7291.809
 30
-933.516
 70
    32
  0
VERTEX
  8
T62SSILL
 62
13
 10
1596.595
 20
-7274.540
 30
-933.515
 70
    32
  0
VERTEX
  8
T62SSILL
 62
13
 10
1606.252
 20
-7271.249
 30
-933.486
 70
    32
  0
SEQEND
  8
T62SSILL
  0
POLYLINE
  8
T62SSILL
 62
13
 66
     1
 70
     9
  0
VERTEX
  8
T62SSILL
 62
13
 10
1588.650
 20
-7255.438
 30
-933.512
 70
    32
  0
VERTEX
  8
T62SSILL
 62
13
 10
1585.410
 20
-7249.202
 30
-933.513
 70
    32
  0
VERTEX
  8
T62SSILL
 62
13
 10
1593.345
 20
-7246.377
 30
-933.489
 70
    32
  0
VERTEX
  8
T62SSILL
 62
13
 10
1592.244
 20
-7244.674
 30
-933.490
 70
    32
  0
VERTEX
  8
T62SSILL
 62
13
 10
1607.571
 20
-7238.869
 30
-933.444
 70
    32
  0
VERTEX
  8
T62SSILL
 62
13
 10
1613.525
 20
-7245.123
 30
-933.436
 70
    32
  0
VERTEX
  8
T62SSILL
 62
13
 10
1616.252
 20
-7251.398
 30
-933.437
 70
    32
  0
VERTEX
  8
T62SSILL
 62
13
 10
1616.510
 20
-7254.348
 30
-933.439
 70
    32
  0
VERTEX
  8
T62SSILL
 62
13
 10
1592.414
 20
-7264.543
 30
-933.514
 70
    32
  0
VERTEX
  8
T62SSILL
 62
13
 10
1589.330
 20
-7257.765
 30
-933.513
 70
    32
  0
SEQEND
  8
T62SSILL
  0
POLYLINE
  8
T62SSILL
 62
13
 66
     1
 70
     9
  0
VERTEX
  8
T62SSILL
 62
13
 10
1568.304
 20
-7231.959
 30
-933.536
 70
    32
  0
VERTEX
  8
T62SSILL
 62
13
 10
1555.541
 20
-7225.246
 30
-933.561
 70
    32
  0
VERTEX
  8
T62SSILL
 62
13
 10
1587.187
 20
-7218.226
 30
-933.471
 70
    32
  0
VERTEX
  8
T62SSILL
 62
13
 10
1599.773
 20
-7222.256
 30
-933.443
 70
    32
  0
VERTEX
  8
T62SSILL
 62
13
 10
1603.072
 20
-7228.881
 30
-933.443
 70
    32
  0
VERTEX
  8
T62SSILL
 62
13
 10
1586.450
 20
-7236.362
 30
-933.495
 70
    32
  0
VERTEX
  8
T62SSILL
 62
13
 10
1575.265
 20
-7236.741
 30
-933.524
 70
    32
  0
VERTEX
  8
T62SSILL
 62
13
 10
1571.197
 20
-7233.903
 30
-933.531
 70
    32
  0
SEQEND
  8
T62SSILL
  0
POLYLINE
  8
T62SSILL
 62
13
 66
     1
 70
     9
  0
VERTEX
  8
T62SSILL
 62
13
 10
1663.808
 20
-8272.041
 30
-934.553
 70
    32
  0
VERTEX
  8
T62SSILL
 62
13
 10
1670.315
 20
-8272.517
 30
-934.536
 70
    32
  0
VERTEX
  8
T62SSILL
 62
13
 10
1635.598
 20
-8297.951
 30
-934.656
 70
    32
  0
VERTEX
  8
T62SSILL
 62
13
 10
1629.220
 20
-8290.458
 30
-934.664
 70
    32
  0
VERTEX
  8
T62SSILL
 62
13
 10
1635.598
 20
-8277.270
 30
-934.631
 70
    32
  0
VERTEX
  8
T62SSILL
 62
13
 10
1639.229
 20
-8273.520
 30
-934.617
 70
    32
  0
VERTEX
  8
T62SSILL
 62
13
 10
1654.464
 20
-8271.469
 30
-934.576
 70
    32
  0
VERTEX
  8
T62SSILL
 62
13
 10
1661.808
 20
-8272.548
 30
-934.558
 70
    32
  0
SEQEND
  8
T62SSILL
  0
POLYLINE
  8
T62SSILL
 62
13
 66
     1
 70
     9
  0
VERTEX
  8
T62SSILL
 62
13
 10
1679.729
 20
-8296.067
 30
-934.541
 70
    32
  0
VERTEX
  8
T62SSILL
 62
13
 10
1688.319
 20
-8289.263
 30
-934.511
 70
    32
  0
VERTEX
  8
T62SSILL
 62
13
 10
1690.791
 20
-8271.589
 30
-934.483
 70
    32
  0
VERTEX
  8
T62SSILL
 62
13
 10
1687.983
 20
-8269.342
 30
-934.487
 70
    32
  0
VERTEX
  8
T62SSILL
 62
13
 10
1632.208
 20
-8309.106
 30
-934.679
 70
    32
  0
VERTEX
  8
T62SSILL
 62
13
 10
1629.356
 20
-8315.098
 30
-934.693
 70
    32
  0
VERTEX
  8
T62SSILL
 62
13
 10
1624.455
 20
-8342.206
 30
-934.739
 70
    32
  0
VERTEX
  8
T62SSILL
 62
13
 10
1625.775
 20
-8349.943
 30
-934.745
 70
    32
  0
VERTEX
  8
T62SSILL
 62
13
 10
1633.535
 20
-8348.501
 30
-934.723
 70
    32
  0
VERTEX
  8
T62SSILL
 62
13
 10
1645.902
 20
-8340.512
 30
-934.682
 70
    32
  0
VERTEX
  8
T62SSILL
 62
13
 10
1649.978
 20
-8332.088
 30
-934.661
 70
    32
  0
VERTEX
  8
T62SSILL
 62
13
 10
1649.993
 20
-8323.337
 30
-934.650
 70
    32
  0
VERTEX
  8
T62SSILL
 62
13
 10
1660.577
 20
-8320.718
 30
-934.620
 70
    32
  0
VERTEX
  8
T62SSILL
 62
13
 10
1662.272
 20
-8324.149
 30
-934.620
 70
    32
  0
VERTEX
  8
T62SSILL
 62
13
 10
1662.692
 20
-8334.950
 30
-934.632
 70
    32
  0
VERTEX
  8
T62SSILL
 62
13
 10
1674.242
 20
-8351.611
 30
-934.622
 70
    32
  0
VERTEX
  8
T62SSILL
 62
13
 10
1678.592
 20
-8354.087
 30
-934.614
 70
    32
  0
VERTEX
  8
T62SSILL
 62
13
 10
1681.126
 20
-8353.110
 30
-934.606
 70
    32
  0
VERTEX
  8
T62SSILL
 62
13
 10
1682.996
 20
-8338.938
 30
-934.584
 70
    32
  0
VERTEX
  8
T62SSILL
 62
13
 10
1679.798
 20
-8331.732
 30
-934.584
 70
    32
  0
VERTEX
  8
T62SSILL
 62
13
 10
1680.940
 20
-8318.056
 30
-934.564
 70
    32
  0
VERTEX
  8
T62SSILL
 62
13
 10
1678.249
 20
-8297.181
 30
-934.546
 70
    32
  0
SEQEND
  8
T62SSILL
  0
POLYLINE
  8
T62SSILL
 62
13
 66
     1
 70
     9
  0
VERTEX
  8
T62SSILL
 62
13
 10
1601.646
 20
-8246.644
 30
-934.681
 70
    32
  0
VERTEX
  8
T62SSILL
 62
13
 10
1606.179
 20
-8247.823
 30
-934.671
 70
    32
  0
VERTEX
  8
T62SSILL
 62
13
 10
1612.292
 20
-8245.369
 30
-934.652
 70
    32
  0
VERTEX
  8
T62SSILL
 62
13
 10
1614.815
 20
-8240.774
 30
-934.640
 70
    32
  0
VERTEX
  8
T62SSILL
 62
13
 10
1604.731
 20
-8229.087
 30
-934.652
 70
    32
  0
VERTEX
  8
T62SSILL
 62
13
 10
1592.924
 20
-8231.790
 30
-934.686
 70
    32
  0
VERTEX
  8
T62SSILL
 62
13
 10
1580.142
 20
-8225.787
 30
-934.677
 70
    32
  0
VERTEX
  8
T62SSILL
 62
13
 10
1576.710
 20
-8222.266
 30
-934.666
 70
    32
  0
VERTEX
  8
T62SSILL
 62
13
 10
1578.027
 20
-8210.052
 30
-934.674
 70
    32
  0
VERTEX
  8
T62SSILL
 62
13
 10
1576.633
 20
-8210.041
 30
-934.670
 70
    32
  0
VERTEX
  8
T62SSILL
 62
13
 10
1571.991
 20
-8218.103
 30
-934.652
 70
    32
  0
VERTEX
  8
T62SSILL
 62
13
 10
1564.530
 20
-8225.312
 30
-934.626
 70
    32
  0
VERTEX
  8
T62SSILL
 62
13
 10
1565.414
 20
-8236.011
 30
-934.625
 70
    32
  0
VERTEX
  8
T62SSILL
 62
13
 10
1593.860
 20
-8240.215
 30
-934.693
 70
    32
  0
VERTEX
  8
T62SSILL
 62
13
 10
1599.098
 20
-8246.032
 30
-934.687
 70
    32
  0
SEQEND
  8
T62SSILL
  0
POLYLINE
  8
T62SSILL
 62
13
 66
     1
 70
     9
  0
VERTEX
  8
T62SSILL
 62
13
 10
1611.966
 20
-8180.029
 30
-934.574
 70
    32
  0
VERTEX
  8
T62SSILL
 62
13
 10
1576.460
 20
-8178.923
 30
-934.664
 70
    32
  0
VERTEX
  8
T62SSILL
 62
13
 10
1573.789
 20
-8185.964
 30
-934.668
 70
    32
  0
VERTEX
  8
T62SSILL
 62
13
 10
1628.837
 20
-8247.437
 30
-934.612
 70
    32
  0
VERTEX
  8
T62SSILL
 62
13
 10
1632.948
 20
-8247.838
 30
-934.602
 70
    32
  0
VERTEX
  8
T62SSILL
 62
13
 10
1657.738
 20
-8214.553
 30
-934.498
 70
    32
  0
VERTEX
  8
T62SSILL
 62
13
 10
1660.456
 20
-8168.569
 30
-934.436
 70
    32
  0
VERTEX
  8
T62SSILL
 62
13
 10
1643.641
 20
-8179.264
 30
-934.492
 70
    32
  0
VERTEX
  8
T62SSILL
 62
13
 10
1639.183
 20
-8178.353
 30
-934.502
 70
    32
  0
VERTEX
  8
T62SSILL
 62
13
 10
1620.861
 20
-8182.291
 30
-934.554
 70
    32
  0
VERTEX
  8
T62SSILL
 62
13
 10
1612.841
 20
-8182.098
 30
-934.574
 70
    32
  0
SEQEND
  8
T62SSILL
  0
POLYLINE
  8
T62SSILL
 62
13
 66
     1
 70
     9
  0
VERTEX
  8
T62SSILL
 62
13
 10
1633.976
 20
-7897.153
 30
-934.174
 70
    32
  0
VERTEX
  8
T62SSILL
 62
13
 10
1639.008
 20
-7907.055
 30
-934.173
 70
    32
  0
VERTEX
  8
T62SSILL
 62
13
 10
1652.840
 20
-7922.056
 30
-934.156
 70
    32
  0
VERTEX
  8
T62SSILL
 62
13
 10
1647.653
 20
-7929.317
 30
-934.178
 70
    32
  0
VERTEX
  8
T62SSILL
 62
13
 10
1632.330
 20
-7919.832
 30
-934.206
 70
    32
  0
VERTEX
  8
T62SSILL
 62
13
 10
1626.073
 20
-7946.950
 30
-934.255
 70
    32
  0
VERTEX
  8
T62SSILL
 62
13
 10
1716.386
 20
-8072.945
 30
-934.176
 70
    32
  0
VERTEX
  8
T62SSILL
 62
13
 10
1777.618
 20
-8105.904
 30
-934.059
 70
    32
  0
VERTEX
  8
T62SSILL
 62
13
 10
1773.046
 20
-8113.599
 30
-934.080
 70
    32
  0
VERTEX
  8
T62SSILL
 62
13
 10
1767.786
 20
-8110.569
 30
-934.090
 70
    32
  0
VERTEX
  8
T62SSILL
 62
13
 10
1761.747
 20
-8115.637
 30
-934.112
 70
    32
  0
VERTEX
  8
T62SSILL
 62
13
 10
1728.569
 20
-8097.540
 30
-934.175
 70
    32
  0
VERTEX
  8
T62SSILL
 62
13
 10
1729.420
 20
-8091.473
 30
-934.165
 70
    32
  0
VERTEX
  8
T62SSILL
 62
13
 10
1716.227
 20
-8084.460
 30
-934.191
 70
    32
  0
VERTEX
  8
T62SSILL
 62
13
 10
1711.886
 20
-8085.601
 30
-934.203
 70
    32
  0
VERTEX
  8
T62SSILL
 62
13
 10
1695.077
 20
-8117.613
 30
-934.285
 70
    32
  0
VERTEX
  8
T62SSILL
 62
13
 10
1674.258
 20
-8152.035
 30
-934.380
 70
    32
  0
VERTEX
  8
T62SSILL
 62
13
 10
1670.734
 20
-8223.939
 30
-934.476
 70
    32
  0
VERTEX
  8
T62SSILL
 62
13
 10
1666.965
 20
-8238.658
 30
-934.504
 70
    32
  0
VERTEX
  8
T62SSILL
 62
13
 10
1669.068
 20
-8243.303
 30
-934.504
 70
    32
  0
VERTEX
  8
T62SSILL
 62
13
 10
1674.775
 20
-8247.824
 30
-934.495
 70
    32
  0
VERTEX
  8
T62SSILL
 62
13
 10
1679.688
 20
-8261.530
 30
-934.499
 70
    32
  0
VERTEX
  8
T62SSILL
 62
13
 10
1683.280
 20
-8264.475
 30
-934.493
 70
    32
  0
VERTEX
  8
T62SSILL
 62
13
 10
1686.234
 20
-8263.603
 30
-934.485
 70
    32
  0
VERTEX
  8
T62SSILL
 62
13
 10
1795.299
 20
-8185.336
 30
-934.234
 70
    32
  0
VERTEX
  8
T62SSILL
 62
13
 10
1802.456
 20
-8177.660
 30
-934.192
 70
    32
  0
VERTEX
  8
T62SSILL
 62
13
 10
1807.726
 20
-8165.424
 30
-934.157
 70
    32
  0
VERTEX
  8
T62SSILL
 62
13
 10
1810.015
 20
-8140.686
 30
-934.132
 70
    32
  0
VERTEX
  8
T62SSILL
 62
13
 10
1807.191
 20
-8128.569
 30
-934.141
 70
    32
  0
VERTEX
  8
T62SSILL
 62
13
 10
1794.888
 20
-8107.158
 30
-934.102
 70
    32
  0
VERTEX
  8
T62SSILL
 62
13
 10
1786.777
 20
-8112.784
 30
-934.090
 70
    32
  0
VERTEX
  8
T62SSILL
 62
13
 10
1784.116
 20
-8108.091
 30
-934.075
 70
    32
  0
VERTEX
  8
T62SSILL
 62
13
 10
1792.321
 20
-8101.976
 30
-934.086
 70
    32
  0
VERTEX
  8
T62SSILL
 62
13
 10
1742.257
 20
-8016.963
 30
-934.042
 70
    32
  0
VERTEX
  8
T62SSILL
 62
13
 10
1740.406
 20
-8017.689
 30
-934.047
 70
    32
  0
VERTEX
  8
T62SSILL
 62
13
 10
1736.523
 20
-8015.428
 30
-934.055
 70
    32
  0
VERTEX
  8
T62SSILL
 62
13
 10
1730.305
 20
-8017.101
 30
-934.073
 70
    32
  0
VERTEX
  8
T62SSILL
 62
13
 10
1727.046
 20
-8008.551
 30
-934.071
 70
    32
  0
VERTEX
  8
T62SSILL
 62
13
 10
1733.957
 20
-8005.234
 30
-934.049
 70
    32
  0
VERTEX
  8
T62SSILL
 62
13
 10
1727.665
 20
-7993.951
 30
-934.051
 70
    32
  0
VERTEX
  8
T62SSILL
 62
13
 10
1720.684
 20
-7997.635
 30
-934.074
 70
    32
  0
VERTEX
  8
T62SSILL
 62
13
 10
1713.713
 20
-7984.256
 30
-934.075
 70
    32
  0
VERTEX
  8
T62SSILL
 62
13
 10
1718.099
 20
-7982.504
 30
-934.062
 70
    32
  0
VERTEX
  8
T62SSILL
 62
13
 10
1715.296
 20
-7977.828
 30
-934.064
 70
    32
  0
VERTEX
  8
T62SSILL
 62
13
 10
1707.603
 20
-7976.331
 30
-934.081
 70
    32
  0
VERTEX
  8
T62SSILL
 62
13
 10
1703.426
 20
-7979.329
 30
-934.096
 70
    32
  0
VERTEX
  8
T62SSILL
 62
13
 10
1697.735
 20
-7970.420
 30
-934.100
 70
    32
  0
VERTEX
  8
T62SSILL
 62
13
 10
1704.631
 20
-7965.822
 30
-934.076
 70
    32
  0
VERTEX
  8
T62SSILL
 62
13
 10
1704.856
 20
-7960.413
 30
-934.069
 70
    32
  0
VERTEX
  8
T62SSILL
 62
13
 10
1676.906
 20
-7913.788
 30
-934.084
 70
    32
  0
VERTEX
  8
T62SSILL
 62
13
 10
1675.630
 20
-7914.149
 30
-934.088
 70
    32
  0
VERTEX
  8
T62SSILL
 62
13
 10
1672.512
 20
-7909.115
 30
-934.090
 70
    32
  0
VERTEX
  8
T62SSILL
 62
13
 10
1673.629
 20
-7907.888
 30
-934.086
 70
    32
  0
VERTEX
  8
T62SSILL
 62
13
 10
1646.722
 20
-7863.127
 30
-934.100
 70
    32
  0
VERTEX
  8
T62SSILL
 62
13
 10
1639.629
 20
-7866.555
 30
-934.123
 70
    32
  0
SEQEND
  8
T62SSILL
  0
POLYLINE
  8
T62SSILL
 62
13
 66
     1
 70
     9
  0
VERTEX
  8
T62SSILL
 62
13
 10
903.650
 20
-5644.462
 30
-931.458
 70
    32
  0
VERTEX
  8
T62SSILL
 62
13
 10
886.241
 20
-5656.905
 30
-931.486
 70
    32
  0
VERTEX
  8
T62SSILL
 62
13
 10
890.497
 20
-5678.573
 30
-931.514
 70
    32
  0
VERTEX
  8
T62SSILL
 62
13
 10
893.180
 20
-5667.735
 30
-931.497
 70
    32
  0
VERTEX
  8
T62SSILL
 62
13
 10
902.076
 20
-5646.832
 30
-931.462
 70
    32
  0
SEQEND
  8
T62SSILL
  0
POLYLINE
  8
T62SSILL
 62
13
 66
     1
 70
     9
  0
VERTEX
  8
T62SSILL
 62
13
 10
1022.276
 20
-6416.789
 30
-932.187
 70
    32
  0
VERTEX
  8
T62SSILL
 62
13
 10
1029.454
 20
-6411.600
 30
-932.169
 70
    32
  0
VERTEX
  8
T62SSILL
 62
13
 10
1025.528
 20
-6405.936
 30
-932.166
 70
    32
  0
VERTEX
  8
T62SSILL
 62
13
 10
1020.926
 20
-6408.859
 30
-932.177
 70
    32
  0
VERTEX
  8
T62SSILL
 62
13
 10
1018.445
 20
-6394.279
 30
-932.158
 70
    32
  0
VERTEX
  8
T62SSILL
 62
13
 10
1066.061
 20
-6426.746
 30
-932.141
 70
    32
  0
VERTEX
  8
T62SSILL
 62
13
 10
1073.641
 20
-6418.961
 30
-932.119
 70
    32
  0
VERTEX
  8
T62SSILL
 62
13
 10
1155.793
 20
-6414.898
 30
-931.975
 70
    32
  0
VERTEX
  8
T62SSILL
 62
13
 10
1228.831
 20
-6460.935
 30
-931.662
 70
    32
  0
VERTEX
  8
T62SSILL
 62
13
 10
1237.495
 20
-6472.337
 30
-931.688
 70
    32
  0
VERTEX
  8
T62SSILL
 62
13
 10
1242.429
 20
-6493.121
 30
-931.753
 70
    32
  0
VERTEX
  8
T62SSILL
 62
13
 10
1214.311
 20
-6505.882
 30
-931.889
 70
    32
  0
VERTEX
  8
T62SSILL
 62
13
 10
1224.450
 20
-6520.573
 30
-931.897
 70
    32
  0
VERTEX
  8
T62SSILL
 62
13
 10
1240.420
 20
-6505.834
 30
-931.783
 70
    32
  0
VERTEX
  8
T62SSILL
 62
13
 10
1245.484
 20
-6505.481
 30
-931.792
 70
    32
  0
VERTEX
  8
T62SSILL
 62
13
 10
1278.288
 20
-6632.247
 30
-932.198
 70
    32
  0
VERTEX
  8
T62SSILL
 62
13
 10
1265.349
 20
-6638.752
 30
-932.189
 70
    32
  0
VERTEX
  8
T62SSILL
 62
13
 10
1264.420
 20
-6642.017
 30
-932.196
 70
    32
  0
VERTEX
  8
T62SSILL
 62
13
 10
1221.348
 20
-6658.873
 30
-932.415
 70
    32
  0
VERTEX
  8
T62SSILL
 62
13
 10
1130.872
 20
-6698.076
 30
-932.933
 70
    32
  0
VERTEX
  8
T62SSILL
 62
13
 10
1112.939
 20
-6702.581
 30
-933.010
 70
    32
  0
VERTEX
  8
T62SSILL
 62
13
 10
1104.620
 20
-6701.512
 30
-933.033
 70
    32
  0
VERTEX
  8
T62SSILL
 62
13
 10
1089.084
 20
-6695.779
 30
-933.060
 70
    32
  0
VERTEX
  8
T62SSILL
 62
13
 10
1082.887
 20
-6691.790
 30
-933.065
 70
    32
  0
VERTEX
  8
T62SSILL
 62
13
 10
1071.207
 20
-6679.524
 30
-933.028
 70
    32
  0
VERTEX
  8
T62SSILL
 62
13
 10
1064.906
 20
-6664.817
 30
-932.983
 70
    32
  0
VERTEX
  8
T62SSILL
 62
13
 10
1057.418
 20
-6623.294
 30
-932.866
 70
    32
  0
VERTEX
  8
T62SSILL
 62
13
 10
1063.160
 20
-6618.974
 30
-932.836
 70
    32
  0
VERTEX
  8
T62SSILL
 62
13
 10
1062.431
 20
-6613.217
 30
-932.840
 70
    32
  0
VERTEX
  8
T62SSILL
 62
13
 10
1056.208
 20
-6616.179
 30
-932.846
 70
    32
  0
SEQEND
  8
T62SSILL
  0
POLYLINE
  8
T62SSILL
 62
13
 66
     1
 70
     9
  0
VERTEX
  8
T62SSILL
 62
13
 10
1285.089
 20
-6662.658
 30
-932.293
 70
    32
  0
VERTEX
  8
T62SSILL
 62
13
 10
1286.980
 20
-6669.881
 30
-932.316
 70
    32
  0
VERTEX
  8
T62SSILL
 62
13
 10
1314.267
 20
-6695.245
 30
-932.439
 70
    32
  0
VERTEX
  8
T62SSILL
 62
13
 10
1320.550
 20
-6721.577
 30
-932.523
 70
    32
  0
VERTEX
  8
T62SSILL
 62
13
 10
1298.584
 20
-6710.538
 30
-932.448
 70
    32
  0
VERTEX
  8
T62SSILL
 62
13
 10
1292.901
 20
-6697.230
 30
-932.401
 70
    32
  0
VERTEX
  8
T62SSILL
 62
13
 10
1288.695
 20
-6677.771
 30
-932.341
 70
    32
  0
VERTEX
  8
T62SSILL
 62
13
 10
1285.432
 20
-6675.323
 30
-932.328
 70
    32
  0
VERTEX
  8
T62SSILL
 62
13
 10
1280.449
 20
-6663.005
 30
-932.285
 70
    32
  0
VERTEX
  8
T62SSILL
 62
13
 10
1268.896
 20
-6659.114
 30
-932.251
 70
    32
  0
VERTEX
  8
T62SSILL
 62
13
 10
1264.369
 20
-6665.702
 30
-932.259
 70
    32
  0
VERTEX
  8
T62SSILL
 62
13
 10
1275.273
 20
-6675.833
 30
-932.308
 70
    32
  0
VERTEX
  8
T62SSILL
 62
13
 10
1278.099
 20
-6698.987
 30
-932.376
 70
    32
  0
VERTEX
  8
T62SSILL
 62
13
 10
1229.932
 20
-6672.333
 30
-932.423
 70
    32
  0
VERTEX
  8
T62SSILL
 62
13
 10
1216.328
 20
-6668.464
 30
-932.473
 70
    32
  0
VERTEX
  8
T62SSILL
 62
13
 10
1267.750
 20
-6648.215
 30
-932.219
 70
    32
  0
VERTEX
  8
T62SSILL
 62
13
 10
1270.154
 20
-6655.397
 30
-932.243
 70
    32
  0
VERTEX
  8
T62SSILL
 62
13
 10
1276.619
 20
-6660.666
 30
-932.269
 70
    32
  0
VERTEX
  8
T62SSILL
 62
13
 10
1280.088
 20
-6661.881
 30
-932.281
 70
    32
  0
SEQEND
  8
T62SSILL
  0
POLYLINE
  8
T62SSILL
 62
4
 66
     1
 70
     9
  0
VERTEX
  8
T62SSILL
 62
4
 10
5905.367
 20
-8441.186
 30
-960.685
 70
    32
  0
VERTEX
  8
T62SSILL
 62
4
 10
5921.351
 20
-8441.758
 30
-960.718
 70
    32
  0
VERTEX
  8
T62SSILL
 62
4
 10
5959.752
 20
-8447.662
 30
-960.821
 70
    32
  0
VERTEX
  8
T62SSILL
 62
4
 10
5921.727
 20
-8475.138
 30
-960.879
 70
    32
  0
VERTEX
  8
T62SSILL
 62
4
 10
5914.048
 20
-8475.224
 30
-960.864
 70
    32
  0
VERTEX
  8
T62SSILL
 62
4
 10
5901.407
 20
-8471.891
 30
-960.824
 70
    32
  0
VERTEX
  8
T62SSILL
 62
4
 10
5895.946
 20
-8468.067
 30
-960.795
 70
    32
  0
VERTEX
  8
T62SSILL
 62
4
 10
5886.057
 20
-8453.572
 30
-960.707
 70
    32
  0
VERTEX
  8
T62SSILL
 62
4
 10
5902.272
 20
-8442.913
 30
-960.687
 70
    32
  0
SEQEND
  8
T62SSILL
  0
POLYLINE
  8
T62SSILL
 62
4
 66
     1
 70
     9
  0
VERTEX
  8
T62SSILL
 62
4
 10
6406.232
 20
-10589.118
 30
-961.733
 70
    32
  0
VERTEX
  8
T62SSILL
 62
4
 10
6413.241
 20
-10590.445
 30
-961.732
 70
    32
  0
VERTEX
  8
T62SSILL
 62
4
 10
6420.856
 20
-10590.088
 30
-961.732
 70
    32
  0
VERTEX
  8
T62SSILL
 62
4
 10
6430.232
 20
-10586.502
 30
-961.731
 70
    32
  0
VERTEX
  8
T62SSILL
 62
4
 10
6439.377
 20
-10580.425
 30
-961.730
 70
    32
  0
VERTEX
  8
T62SSILL
 62
4
 10
6443.092
 20
-10585.594
 30
-961.730
 70
    32
  0
VERTEX
  8
T62SSILL
 62
4
 10
6449.245
 20
-10581.130
 30
-961.729
 70
    32
  0
VERTEX
  8
T62SSILL
 62
4
 10
6445.581
 20
-10575.590
 30
-961.729
 70
    32
  0
VERTEX
  8
T62SSILL
 62
4
 10
6449.206
 20
-10573.495
 30
-961.728
 70
    32
  0
VERTEX
  8
T62SSILL
 62
4
 10
6455.583
 20
-10572.971
 30
-961.728
 70
    32
  0
VERTEX
  8
T62SSILL
 62
4
 10
6459.809
 20
-10575.750
 30
-961.728
 70
    32
  0
VERTEX
  8
T62SSILL
 62
4
 10
6459.932
 20
-10582.766
 30
-961.728
 70
    32
  0
VERTEX
  8
T62SSILL
 62
4
 10
6456.753
 20
-10595.073
 30
-961.730
 70
    32
  0
VERTEX
  8
T62SSILL
 62
4
 10
6452.753
 20
-10596.675
 30
-961.730
 70
    32
  0
VERTEX
  8
T62SSILL
 62
4
 10
6452.095
 20
-10603.396
 30
-961.731
 70
    32
  0
VERTEX
  8
T62SSILL
 62
4
 10
6445.625
 20
-10605.547
 30
-961.731
 70
    32
  0
VERTEX
  8
T62SSILL
 62
4
 10
6444.209
 20
-10607.625
 30
-961.732
 70
    32
  0
VERTEX
  8
T62SSILL
 62
4
 10
6444.622
 20
-10613.419
 30
-961.732
 70
    32
  0
VERTEX
  8
T62SSILL
 62
4
 10
6442.021
 20
-10617.733
 30
-961.733
 70
    32
  0
VERTEX
  8
T62SSILL
 62
4
 10
6439.135
 20
-10619.486
 30
-961.733
 70
    32
  0
VERTEX
  8
T62SSILL
 62
4
 10
6422.876
 20
-10612.431
 30
-961.734
 70
    32
  0
SEQEND
  8
T62SSILL
  0
POLYLINE
  8
T62SSILL
 62
4
 66
     1
 70
     9
  0
VERTEX
  8
T62SSILL
 62
4
 10
5316.007
 20
-9797.228
 30
-959.386
 70
    32
  0
VERTEX
  8
T62SSILL
 62
4
 10
5356.691
 20
-9767.930
 30
-959.404
 70
    32
  0
VERTEX
  8
T62SSILL
 62
4
 10
5334.844
 20
-9766.524
 30
-959.359
 70
    32
  0
VERTEX
  8
T62SSILL
 62
4
 10
5321.981
 20
-9759.447
 30
-959.314
 70
    32
  0
VERTEX
  8
T62SSILL
 62
4
 10
5314.473
 20
-9752.132
 30
-959.278
 70
    32
  0
VERTEX
  8
T62SSILL
 62
4
 10
5311.456
 20
-9752.375
 30
-959.273
 70
    32
  0
VERTEX
  8
T62SSILL
 62
4
 10
5310.675
 20
-9758.102
 30
-959.289
 70
    32
  0
VERTEX
  8
T62SSILL
 62
4
 10
5311.816
 20
-9760.722
 30
-959.299
 70
    32
  0
VERTEX
  8
T62SSILL
 62
4
 10
5307.840
 20
-9762.681
 30
-959.297
 70
    32
  0
VERTEX
  8
T62SSILL
 62
4
 10
5308.007
 20
-9769.294
 30
-959.318
 70
    32
  0
VERTEX
  8
T62SSILL
 62
4
 10
5309.547
 20
-9774.643
 30
-959.337
 70
    32
  0
VERTEX
  8
T62SSILL
 62
4
 10
5311.437
 20
-9775.373
 30
-959.342
 70
    32
  0
VERTEX
  8
T62SSILL
 62
4
 10
5309.555
 20
-9782.113
 30
-959.359
 70
    32
  0
VERTEX
  8
T62SSILL
 62
4
 10
5310.384
 20
-9787.203
 30
-959.376
 70
    32
  0
VERTEX
  8
T62SSILL
 62
4
 10
5315.945
 20
-9797.157
 30
-959.386
 70
    32
  0
SEQEND
  8
T62SSILL
  0
POLYLINE
  8
T62SSILL
 62
4
 66
     1
 70
     9
  0
VERTEX
  8
T62SSILL
 62
4
 10
4405.107
 20
-9819.825
 30
-956.111
 70
    32
  0
VERTEX
  8
T62SSILL
 62
4
 10
4383.327
 20
-9816.732
 30
-956.139
 70
    32
  0
VERTEX
  8
T62SSILL
 62
4
 10
4371.452
 20
-9808.473
 30
-956.203
 70
    32
  0
VERTEX
  8
T62SSILL
 62
4
 10
4347.363
 20
-9766.805
 30
-955.396
 70
    32
  0
VERTEX
  8
T62SSILL
 62
4
 10
4393.324
 20
-9774.269
 30
-956.451
 70
    32
  0
VERTEX
  8
T62SSILL
 62
4
 10
4420.546
 20
-9809.704
 30
-956.182
 70
    32
  0
VERTEX
  8
T62SSILL
 62
4
 10
4412.170
 20
-9813.824
 30
-956.154
 70
    32
  0
SEQEND
  8
T62SSILL
  0
POLYLINE
  8
T62SSILL
 62
4
 66
     1
 70
     9
  0
VERTEX
  8
T62SSILL
 62
4
 10
4318.543
 20
-9718.438
 30
-955.238
 70
    32
  0
VERTEX
  8
T62SSILL
 62
4
 10
4356.984
 20
-9727.498
 30
-955.202
 70
    32
  0
VERTEX
  8
T62SSILL
 62
4
 10
4340.175
 20
-9705.403
 30
-955.211
 70
    32
  0
VERTEX
  8
T62SSILL
 62
4
 10
4336.775
 20
-9705.874
 30
-955.217
 70
    32
  0
VERTEX
  8
T62SSILL
 62
4
 10
4328.416
 20
-9699.929
 30
-955.235
 70
    32
  0
VERTEX
  8
T62SSILL
 62
4
 10
4303.306
 20
-9692.283
 30
-955.282
 70
    32
  0
SEQEND
  8
T62SSILL
  0
POLYLINE
  8
T62SSILL
 62
4
 66
     1
 70
     9
  0
VERTEX
  8
T62SSILL
 62
4
 10
4317.249
 20
-9654.018
 30
-955.286
 70
    32
  0
VERTEX
  8
T62SSILL
 62
4
 10
4311.896
 20
-9655.413
 30
-955.294
 70
    32
  0
VERTEX
  8
T62SSILL
 62
4
 10
4280.355
 20
-9653.289
 30
-955.347
 70
    32
  0
VERTEX
  8
T62SSILL
 62
4
 10
4297.100
 20
-9682.171
 30
-955.299
 70
    32
  0
VERTEX
  8
T62SSILL
 62
4
 10
4332.355
 20
-9692.424
 30
-955.234
 70
    32
  0
VERTEX
  8
T62SSILL
 62
4
 10
4337.420
 20
-9689.479
 30
-955.227
 70
    32
  0
SEQEND
  8
T62SSILL
  0
POLYLINE
  8
T62SSILL
 62
4
 66
     1
 70
     9
  0
VERTEX
  8
T62SSILL
 62
4
 10
4254.447
 20
-9610.676
 30
-955.403
 70
    32
  0
VERTEX
  8
T62SSILL
 62
4
 10
4293.415
 20
-9614.587
 30
-955.354
 70
    32
  0
VERTEX
  8
T62SSILL
 62
4
 10
4280.042
 20
-9591.775
 30
-955.392
 70
    32
  0
VERTEX
  8
T62SSILL
 62
4
 10
4244.145
 20
-9589.297
 30
-955.389
 70
    32
  0
VERTEX
  8
T62SSILL
 62
4
 10
4244.053
 20
-9593.122
 30
-955.386
 70
    32
  0
SEQEND
  8
T62SSILL
  0
POLYLINE
  8
T62SSILL
 62
4
 66
     1
 70
     9
  0
VERTEX
  8
T62SSILL
 62
4
 10
4303.101
 20
-9636.320
 30
-955.322
 70
    32
  0
VERTEX
  8
T62SSILL
 62
4
 10
4299.885
 20
-9629.140
 30
-955.332
 70
    32
  0
VERTEX
  8
T62SSILL
 62
4
 10
4283.736
 20
-9623.559
 30
-955.363
 70
    32
  0
VERTEX
  8
T62SSILL
 62
4
 10
4265.310
 20
-9621.688
 30
-955.395
 70
    32
  0
VERTEX
  8
T62SSILL
 62
4
 10
4276.731
 20
-9640.894
 30
-955.362
 70
    32
  0
VERTEX
  8
T62SSILL
 62
4
 10
4281.062
 20
-9644.139
 30
-955.353
 70
    32
  0
VERTEX
  8
T62SSILL
 62
4
 10
4293.105
 20
-9645.311
 30
-955.332
 70
    32
  0
SEQEND
  8
T62SSILL
  0
POLYLINE
  8
T62SSILL
 62
4
 66
     1
 70
     9
  0
VERTEX
  8
T62SSILL
 62
4
 10
4232.824
 20
-9549.468
 30
-955.386
 70
    32
  0
VERTEX
  8
T62SSILL
 62
4
 10
4255.426
 20
-9550.725
 30
-955.449
 70
    32
  0
VERTEX
  8
T62SSILL
 62
4
 10
4221.866
 20
-9493.015
 30
-955.427
 70
    32
  0
VERTEX
  8
T62SSILL
 62
4
 10
4218.084
 20
-9495.321
 30
-955.411
 70
    32
  0
VERTEX
  8
T62SSILL
 62
4
 10
4209.741
 20
-9512.784
 30
-955.359
 70
    32
  0
VERTEX
  8
T62SSILL
 62
4
 10
4222.644
 20
-9533.290
 30
-955.368
 70
    32
  0
SEQEND
  8
T62SSILL
  0
POLYLINE
  8
T62SSILL
 62
4
 66
     1
 70
     9
  0
VERTEX
  8
T62SSILL
 62
4
 10
4225.699
 20
-9562.696
 30
-955.356
 70
    32
  0
VERTEX
  8
T62SSILL
 62
4
 10
4236.514
 20
-9579.930
 30
-955.374
 70
    32
  0
VERTEX
  8
T62SSILL
 62
4
 10
4274.296
 20
-9582.418
 30
-955.408
 70
    32
  0
VERTEX
  8
T62SSILL
 62
4
 10
4261.721
 20
-9561.101
 30
-955.444
 70
    32
  0
VERTEX
  8
T62SSILL
 62
4
 10
4232.929
 20
-9558.668
 30
-955.379
 70
    32
  0
SEQEND
  8
T62SSILL
  0
POLYLINE
  8
T62SSILL
 62
4
 66
     1
 70
     9
  0
VERTEX
  8
T62SSILL
 62
4
 10
4381.399
 20
-9761.851
 30
-956.223
 70
    32
  0
VERTEX
  8
T62SSILL
 62
4
 10
4382.803
 20
-9760.347
 30
-956.242
 70
    32
  0
VERTEX
  8
T62SSILL
 62
4
 10
4365.270
 20
-9737.585
 30
-955.530
 70
    32
  0
VERTEX
  8
T62SSILL
 62
4
 10
4324.519
 20
-9728.392
 30
-955.221
 70
    32
  0
VERTEX
  8
T62SSILL
 62
4
 10
4335.929
 20
-9749.044
 30
-955.187
 70
    32
  0
VERTEX
  8
T62SSILL
 62
4
 10
4338.079
 20
-9748.966
 30
-955.184
 70
    32
  0
VERTEX
  8
T62SSILL
 62
4
 10
4345.741
 20
-9757.204
 30
-955.246
 70
    32
  0
SEQEND
  8
T62SSILL
  0
POLYLINE
  8
T62SSILL
 62
4
 66
     1
 70
     9
  0
VERTEX
  8
T62SSILL
 62
4
 10
4441.829
 20
-9618.414
 30
-957.244
 70
    32
  0
VERTEX
  8
T62SSILL
 62
4
 10
4441.719
 20
-9624.764
 30
-957.242
 70
    32
  0
VERTEX
  8
T62SSILL
 62
4
 10
4409.544
 20
-9579.782
 30
-957.204
 70
    32
  0
VERTEX
  8
T62SSILL
 62
4
 10
4417.335
 20
-9576.070
 30
-957.216
 70
    32
  0
VERTEX
  8
T62SSILL
 62
4
 10
4419.282
 20
-9573.960
 30
-957.220
 70
    32
  0
VERTEX
  8
T62SSILL
 62
4
 10
4426.989
 20
-9579.437
 30
-957.230
 70
    32
  0
VERTEX
  8
T62SSILL
 62
4
 10
4443.539
 20
-9611.752
 30
-957.248
 70
    32
  0
VERTEX
  8
T62SSILL
 62
4
 10
4442.314
 20
-9615.964
 30
-957.245
 70
    32
  0
SEQEND
  8
T62SSILL
  0
POLYLINE
  8
T62SSILL
 62
4
 66
     1
 70
     9
  0
VERTEX
  8
T62SSILL
 62
4
 10
4729.744
 20
-9317.537
 30
-956.971
 70
    32
  0
VERTEX
  8
T62SSILL
 62
4
 10
4730.076
 20
-9321.484
 30
-956.985
 70
    32
  0
VERTEX
  8
T62SSILL
 62
4
 10
4734.813
 20
-9324.975
 30
-957.007
 70
    32
  0
VERTEX
  8
T62SSILL
 62
4
 10
4731.919
 20
-9329.039
 30
-957.015
 70
    32
  0
VERTEX
  8
T62SSILL
 62
4
 10
4738.159
 20
-9333.934
 30
-957.044
 70
    32
  0
VERTEX
  8
T62SSILL
 62
4
 10
4742.572
 20
-9345.181
 30
-957.092
 70
    32
  0
VERTEX
  8
T62SSILL
 62
4
 10
4733.238
 20
-9357.096
 30
-957.115
 70
    32
  0
VERTEX
  8
T62SSILL
 62
4
 10
4721.535
 20
-9349.572
 30
-957.065
 70
    32
  0
VERTEX
  8
T62SSILL
 62
4
 10
4716.042
 20
-9349.000
 30
-957.052
 70
    32
  0
VERTEX
  8
T62SSILL
 62
4
 10
4696.708
 20
-9335.655
 30
-956.967
 70
    32
  0
VERTEX
  8
T62SSILL
 62
4
 10
4702.318
 20
-9322.467
 30
-956.932
 70
    32
  0
SEQEND
  8
T62SSILL
  0
POLYLINE
  8
T62SSILL
 62
4
 66
     1
 70
     9
  0
VERTEX
  8
T62SSILL
 62
4
 10
4415.912
 20
-9562.020
 30
-957.178
 70
    32
  0
VERTEX
  8
T62SSILL
 62
4
 10
4403.547
 20
-9571.898
 30
-957.197
 70
    32
  0
VERTEX
  8
T62SSILL
 62
4
 10
4395.539
 20
-9560.717
 30
-957.143
 70
    32
  0
VERTEX
  8
T62SSILL
 62
4
 10
4399.656
 20
-9553.740
 30
-957.122
 70
    32
  0
VERTEX
  8
T62SSILL
 62
4
 10
4398.719
 20
-9543.103
 30
-957.079
 70
    32
  0
VERTEX
  8
T62SSILL
 62
4
 10
4413.773
 20
-9547.448
 30
-957.118
 70
    32
  0
SEQEND
  8
T62SSILL
  0
POLYLINE
  8
T62SSILL
 62
4
 66
     1
 70
     9
  0
VERTEX
  8
T62SSILL
 62
4
 10
4147.358
 20
-9430.239
 30
-955.288
 70
    32
  0
VERTEX
  8
T62SSILL
 62
4
 10
4161.348
 20
-9452.696
 30
-955.298
 70
    32
  0
VERTEX
  8
T62SSILL
 62
4
 10
4172.490
 20
-9429.142
 30
-955.368
 70
    32
  0
VERTEX
  8
T62SSILL
 62
4
 10
4168.420
 20
-9419.956
 30
-955.369
 70
    32
  0
VERTEX
  8
T62SSILL
 62
4
 10
4172.524
 20
-9414.424
 30
-955.391
 70
    32
  0
VERTEX
  8
T62SSILL
 62
4
 10
4170.367
 20
-9407.769
 30
-955.394
 70
    32
  0
VERTEX
  8
T62SSILL
 62
4
 10
4177.147
 20
-9396.569
 30
-955.432
 70
    32
  0
VERTEX
  8
T62SSILL
 62
4
 10
4177.284
 20
-9390.611
 30
-955.441
 70
    32
  0
VERTEX
  8
T62SSILL
 62
4
 10
4154.504
 20
-9403.297
 30
-955.351
 70
    32
  0
VERTEX
  8
T62SSILL
 62
4
 10
4148.202
 20
-9410.159
 30
-955.321
 70
    32
  0
VERTEX
  8
T62SSILL
 62
4
 10
4146.166
 20
-9417.552
 30
-955.303
 70
    32
  0
VERTEX
  8
T62SSILL
 62
4
 10
4146.450
 20
-9427.721
 30
-955.289
 70
    32
  0
SEQEND
  8
T62SSILL
  0
POLYLINE
  8
T62SSILL
 62
4
 66
     1
 70
     9
  0
VERTEX
  8
T62SSILL
 62
4
 10
3080.558
 20
-8601.410
 30
-953.686
 70
    32
  0
VERTEX
  8
T62SSILL
 62
4
 10
3079.873
 20
-8600.056
 30
-953.690
 70
    32
  0
VERTEX
  8
T62SSILL
 62
4
 10
3080.788
 20
-8598.932
 30
-953.703
 70
    32
  0
VERTEX
  8
T62SSILL
 62
4
 10
3009.454
 20
-8573.988
 30
-953.427
 70
    32
  0
VERTEX
  8
T62SSILL
 62
4
 10
3014.161
 20
-8585.034
 30
-953.383
 70
    32
  0
VERTEX
  8
T62SSILL
 62
4
 10
3013.913
 20
-8586.756
 30
-953.370
 70
    32
  0
VERTEX
  8
T62SSILL
 62
4
 10
3042.458
 20
-8639.387
 30
-953.196
 70
    32
  0
VERTEX
  8
T62SSILL
 62
4
 10
3046.959
 20
-8637.773
 30
-953.235
 70
    32
  0
VERTEX
  8
T62SSILL
 62
4
 10
3049.212
 20
-8633.011
 30
-953.281
 70
    32
  0
VERTEX
  8
T62SSILL
 62
4
 10
3061.967
 20
-8617.639
 30
-953.462
 70
    32
  0
VERTEX
  8
T62SSILL
 62
4
 10
3078.200
 20
-8605.592
 30
-953.643
 70
    32
  0
VERTEX
  8
T62SSILL
 62
4
 10
3079.995
 20
-8602.710
 30
-953.673
 70
    32
  0
SEQEND
  8
T62SSILL
  0
POLYLINE
  8
T62SSILL
 62
4
 66
     1
 70
     9
  0
VERTEX
  8
T62SSILL
 62
4
 10
4166.884
 20
-9462.652
 30
-955.300
 70
    32
  0
VERTEX
  8
T62SSILL
 62
4
 10
4176.922
 20
-9479.590
 30
-955.306
 70
    32
  0
VERTEX
  8
T62SSILL
 62
4
 10
4181.580
 20
-9480.930
 30
-955.319
 70
    32
  0
VERTEX
  8
T62SSILL
 62
4
 10
4196.131
 20
-9449.608
 30
-955.411
 70
    32
  0
VERTEX
  8
T62SSILL
 62
4
 10
4184.464
 20
-9430.808
 30
-955.403
 70
    32
  0
VERTEX
  8
T62SSILL
 62
4
 10
4179.837
 20
-9433.310
 30
-955.385
 70
    32
  0
SEQEND
  8
T62SSILL
  0
POLYLINE
  8
T62SSILL
 62
4
 66
     1
 70
     9
  0
VERTEX
  8
T62SSILL
 62
4
 10
4185.015
 20
-9494.684
 30
-955.309
 70
    32
  0
VERTEX
  8
T62SSILL
 62
4
 10
4197.141
 20
-9513.799
 30
-955.318
 70
    32
  0
VERTEX
  8
T62SSILL
 62
4
 10
4199.621
 20
-9512.257
 30
-955.328
 70
    32
  0
VERTEX
  8
T62SSILL
 62
4
 10
4210.639
 20
-9488.685
 30
-955.398
 70
    32
  0
VERTEX
  8
T62SSILL
 62
4
 10
4209.806
 20
-9472.965
 30
-955.419
 70
    32
  0
VERTEX
  8
T62SSILL
 62
4
 10
4201.487
 20
-9458.595
 30
-955.415
 70
    32
  0
SEQEND
  8
T62SSILL
  0
POLYLINE
  8
T62SSILL
 62
4
 66
     1
 70
     9
  0
VERTEX
  8
T62SSILL
 62
4
 10
4558.537
 20
-9755.350
 30
-956.586
 70
    32
  0
VERTEX
  8
T62SSILL
 62
4
 10
4481.810
 20
-9808.475
 30
-956.220
 70
    32
  0
VERTEX
  8
T62SSILL
 62
4
 10
4475.649
 20
-9810.701
 30
-956.194
 70
    32
  0
VERTEX
  8
T62SSILL
 62
4
 10
4469.785
 20
-9812.150
 30
-956.169
 70
    32
  0
VERTEX
  8
T62SSILL
 62
4
 10
4455.885
 20
-9809.398
 30
-956.177
 70
    32
  0
VERTEX
  8
T62SSILL
 62
4
 10
4452.242
 20
-9801.215
 30
-956.238
 70
    32
  0
VERTEX
  8
T62SSILL
 62
4
 10
4452.985
 20
-9792.259
 30
-956.304
 70
    32
  0
VERTEX
  8
T62SSILL
 62
4
 10
4451.725
 20
-9790.007
 30
-956.321
 70
    32
  0
VERTEX
  8
T62SSILL
 62
4
 10
4446.004
 20
-9787.261
 30
-956.343
 70
    32
  0
VERTEX
  8
T62SSILL
 62
4
 10
4441.692
 20
-9793.833
 30
-956.295
 70
    32
  0
VERTEX
  8
T62SSILL
 62
4
 10
4431.206
 20
-9799.107
 30
-956.259
 70
    32
  0
VERTEX
  8
T62SSILL
 62
4
 10
4349.492
 20
-9693.612
 30
-955.268
 70
    32
  0
VERTEX
  8
T62SSILL
 62
4
 10
4322.288
 20
-9648.553
 30
-955.337
 70
    32
  0
VERTEX
  8
T62SSILL
 62
4
 10
4345.900
 20
-9627.174
 30
-955.883
 70
    32
  0
VERTEX
  8
T62SSILL
 62
4
 10
4344.677
 20
-9615.616
 30
-955.982
 70
    32
  0
VERTEX
  8
T62SSILL
 62
4
 10
4336.973
 20
-9620.332
 30
-955.826
 70
    32
  0
VERTEX
  8
T62SSILL
 62
4
 10
4328.733
 20
-9613.083
 30
-955.783
 70
    32
  0
VERTEX
  8
T62SSILL
 62
4
 10
4310.882
 20
-9623.812
 30
-955.425
 70
    32
  0
VERTEX
  8
T62SSILL
 62
4
 10
4304.445
 20
-9618.072
 30
-955.392
 70
    32
  0
VERTEX
  8
T62SSILL
 62
4
 10
4183.754
 20
-9415.105
 30
-955.425
 70
    32
  0
VERTEX
  8
T62SSILL
 62
4
 10
4192.175
 20
-9288.552
 30
-956.064
 70
    32
  0
VERTEX
  8
T62SSILL
 62
4
 10
4364.505
 20
-9528.716
 30
-956.927
 70
    32
  0
VERTEX
  8
T62SSILL
 62
4
 10
4359.004
 20
-9542.484
 30
-956.794
 70
    32
  0
VERTEX
  8
T62SSILL
 62
4
 10
4367.855
 20
-9562.528
 30
-956.821
 70
    32
  0
VERTEX
  8
T62SSILL
 62
4
 10
4387.367
 20
-9576.946
 30
-956.969
 70
    32
  0
VERTEX
  8
T62SSILL
 62
4
 10
4394.503
 20
-9571.332
 30
-957.126
 70
    32
  0
VERTEX
  8
T62SSILL
 62
4
 10
4398.558
 20
-9576.552
 30
-957.131
 70
    32
  0
VERTEX
  8
T62SSILL
 62
4
 10
4393.002
 20
-9580.309
 30
-957.015
 70
    32
  0
VERTEX
  8
T62SSILL
 62
4
 10
4398.393
 20
-9589.050
 30
-957.005
 70
    32
  0
VERTEX
  8
T62SSILL
 62
4
 10
4404.388
 20
-9584.851
 30
-957.134
 70
    32
  0
VERTEX
  8
T62SSILL
 62
4
 10
4517.885
 20
-9737.505
 30
-956.696
 70
    32
  0
VERTEX
  8
T62SSILL
 62
4
 10
4526.206
 20
-9745.303
 30
-956.636
 70
    32
  0
VERTEX
  8
T62SSILL
 62
4
 10
4535.590
 20
-9750.949
 30
-956.592
 70
    32
  0
VERTEX
  8
T62SSILL
 62
4
 10
4547.331
 20
-9755.357
 30
-956.557
 70
    32
  0
VERTEX
  8
T62SSILL
 62
4
 10
4550.450
 20
-9755.355
 30
-956.556
 70
    32
  0
SEQEND
  8
T62SSILL
  0
POLYLINE
  8
T62SSILL
 62
4
 66
     1
 70
     9
  0
VERTEX
  8
T62SSILL
 62
4
 10
4159.648
 20
-9388.031
 30
-955.390
 70
    32
  0
VERTEX
  8
T62SSILL
 62
4
 10
4177.437
 20
-9379.558
 30
-955.458
 70
    32
  0
VERTEX
  8
T62SSILL
 62
4
 10
4179.367
 20
-9348.053
 30
-955.572
 70
    32
  0
VERTEX
  8
T62SSILL
 62
4
 10
4174.862
 20
-9345.161
 30
-955.516
 70
    32
  0
VERTEX
  8
T62SSILL
 62
4
 10
4157.700
 20
-9361.334
 30
-955.424
 70
    32
  0
VERTEX
  8
T62SSILL
 62
4
 10
4150.335
 20
-9371.761
 30
-955.385
 70
    32
  0
VERTEX
  8
T62SSILL
 62
4
 10
4149.640
 20
-9393.937
 30
-955.350
 70
    32
  0
VERTEX
  8
T62SSILL
 62
4
 10
4154.776
 20
-9390.940
 30
-955.370
 70
    32
  0
SEQEND
  8
T62SSILL
  0
POLYLINE
  8
T62SSILL
 62
4
 66
     1
 70
     9
  0
VERTEX
  8
T62SSILL
 62
4
 10
5365.183
 20
-9695.244
 30
-959.199
 70
    32
  0
VERTEX
  8
T62SSILL
 62
4
 10
5371.695
 20
-9671.565
 30
-959.139
 70
    32
  0
VERTEX
  8
T62SSILL
 62
4
 10
5292.167
 20
-9639.991
 30
-958.896
 70
    32
  0
VERTEX
  8
T62SSILL
 62
4
 10
5285.971
 20
-9641.331
 30
-958.888
 70
    32
  0
VERTEX
  8
T62SSILL
 62
4
 10
5285.063
 20
-9637.492
 30
-958.875
 70
    32
  0
VERTEX
  8
T62SSILL
 62
4
 10
5231.342
 20
-9617.089
 30
-958.713
 70
    32
  0
VERTEX
  8
T62SSILL
 62
4
 10
5226.909
 20
-9616.808
 30
-958.704
 70
    32
  0
VERTEX
  8
T62SSILL
 62
4
 10
5225.363
 20
-9618.281
 30
-958.705
 70
    32
  0
VERTEX
  8
T62SSILL
 62
4
 10
5294.525
 20
-9714.755
 30
-959.127
 70
    32
  0
VERTEX
  8
T62SSILL
 62
4
 10
5296.515
 20
-9713.936
 30
-959.128
 70
    32
  0
VERTEX
  8
T62SSILL
 62
4
 10
5294.059
 20
-9705.314
 30
-959.097
 70
    32
  0
VERTEX
  8
T62SSILL
 62
4
 10
5286.225
 20
-9687.825
 30
-959.030
 70
    32
  0
VERTEX
  8
T62SSILL
 62
4
 10
5293.776
 20
-9682.384
 30
-959.027
 70
    32
  0
VERTEX
  8
T62SSILL
 62
4
 10
5296.824
 20
-9685.938
 30
-959.044
 70
    32
  0
VERTEX
  8
T62SSILL
 62
4
 10
5309.339
 20
-9707.357
 30
-959.132
 70
    32
  0
VERTEX
  8
T62SSILL
 62
4
 10
5312.423
 20
-9739.416
 30
-959.235
 70
    32
  0
VERTEX
  8
T62SSILL
 62
4
 10
5323.863
 20
-9751.277
 30
-959.292
 70
    32
  0
VERTEX
  8
T62SSILL
 62
4
 10
5331.984
 20
-9756.055
 30
-959.322
 70
    32
  0
VERTEX
  8
T62SSILL
 62
4
 10
5344.888
 20
-9759.286
 30
-959.356
 70
    32
  0
VERTEX
  8
T62SSILL
 62
4
 10
5358.739
 20
-9759.222
 30
-959.381
 70
    32
  0
VERTEX
  8
T62SSILL
 62
4
 10
5370.619
 20
-9756.254
 30
-959.394
 70
    32
  0
VERTEX
  8
T62SSILL
 62
4
 10
5384.976
 20
-9750.160
 30
-959.403
 70
    32
  0
VERTEX
  8
T62SSILL
 62
4
 10
5450.303
 20
-9702.338
 30
-959.442
 70
    32
  0
VERTEX
  8
T62SSILL
 62
4
 10
5453.630
 20
-9698.512
 30
-959.458
 70
    32
  0
VERTEX
  8
T62SSILL
 62
4
 10
5436.673
 20
-9696.387
 30
-959.389
 70
    32
  0
VERTEX
  8
T62SSILL
 62
4
 10
5425.921
 20
-9707.387
 30
-959.349
 70
    32
  0
VERTEX
  8
T62SSILL
 62
4
 10
5416.202
 20
-9712.602
 30
-959.347
 70
    32
  0
VERTEX
  8
T62SSILL
 62
4
 10
5408.771
 20
-9708.840
 30
-959.321
 70
    32
  0
VERTEX
  8
T62SSILL
 62
4
 10
5400.452
 20
-9709.711
 30
-959.309
 70
    32
  0
VERTEX
  8
T62SSILL
 62
4
 10
5388.625
 20
-9704.159
 30
-959.270
 70
    32
  0
VERTEX
  8
T62SSILL
 62
4
 10
5381.790
 20
-9704.871
 30
-959.259
 70
    32
  0
SEQEND
  8
T62SSILL
  0
POLYLINE
  8
T62SSILL
 62
4
 66
     1
 70
     9
  0
VERTEX
  8
T62SSILL
 62
4
 10
5952.204
 20
-8477.537
 30
-960.949
 70
    32
  0
VERTEX
  8
T62SSILL
 62
4
 10
5949.821
 20
-8477.049
 30
-960.942
 70
    32
  0
VERTEX
  8
T62SSILL
 62
4
 10
5944.767
 20
-8479.820
 30
-960.946
 70
    32
  0
VERTEX
  8
T62SSILL
 62
4
 10
5939.038
 20
-8472.528
 30
-960.900
 70
    32
  0
VERTEX
  8
T62SSILL
 62
4
 10
5910.727
 20
-8493.124
 30
-960.944
 70
    32
  0
VERTEX
  8
T62SSILL
 62
4
 10
5932.451
 20
-8528.603
 30
-961.101
 70
    32
  0
VERTEX
  8
T62SSILL
 62
4
 10
5986.766
 20
-8492.888
 30
-961.089
 70
    32
  0
VERTEX
  8
T62SSILL
 62
4
 10
5985.688
 20
-8490.416
 30
-961.076
 70
    32
  0
VERTEX
  8
T62SSILL
 62
4
 10
5992.956
 20
-8485.887
 30
-961.068
 70
    32
  0
VERTEX
  8
T62SSILL
 62
4
 10
5994.462
 20
-8487.739
 30
-961.080
 70
    32
  0
VERTEX
  8
T62SSILL
 62
4
 10
6022.112
 20
-8469.431
 30
-961.045
 70
    32
  0
VERTEX
  8
T62SSILL
 62
4
 10
6032.107
 20
-8406.680
 30
-960.790
 70
    32
  0
VERTEX
  8
T62SSILL
 62
4
 10
5951.834
 20
-8463.285
 30
-960.880
 70
    32
  0
VERTEX
  8
T62SSILL
 62
4
 10
5955.347
 20
-8476.958
 30
-960.952
 70
    32
  0
SEQEND
  8
T62SSILL
  0
POLYLINE
  8
T62SSILL
 62
4
 66
     1
 70
     9
  0
VERTEX
  8
T62SSILL
 62
4
 10
5894.935
 20
-8553.574
 30
-961.073
 70
    32
  0
VERTEX
  8
T62SSILL
 62
4
 10
5838.901
 20
-8544.270
 30
-961.028
 70
    32
  0
VERTEX
  8
T62SSILL
 62
4
 10
5903.682
 20
-8497.820
 30
-960.952
 70
    32
  0
VERTEX
  8
T62SSILL
 62
4
 10
5926.542
 20
-8532.615
 30
-961.097
 70
    32
  0
SEQEND
  8
T62SSILL
  0
POLYLINE
  8
T62SSILL
 62
13
 66
     1
 70
     9
  0
VERTEX
  8
T62SSILL
 62
13
 10
1548.623
 20
-7679.123
 30
-934.129
 70
    32
  0
VERTEX
  8
T62SSILL
 62
13
 10
1548.176
 20
-7665.462
 30
-934.113
 70
    32
  0
VERTEX
  8
T62SSILL
 62
13
 10
1542.866
 20
-7659.694
 30
-934.120
 70
    32
  0
VERTEX
  8
T62SSILL
 62
13
 10
1544.289
 20
-7652.543
 30
-934.108
 70
    32
  0
VERTEX
  8
T62SSILL
 62
13
 10
1542.708
 20
-7637.841
 30
-934.094
 70
    32
  0
VERTEX
  8
T62SSILL
 62
13
 10
1542.837
 20
-7637.041
 30
-934.093
 70
    32
  0
VERTEX
  8
T62SSILL
 62
13
 10
1541.415
 20
-7635.522
 30
-934.095
 70
    32
  0
VERTEX
  8
T62SSILL
 62
13
 10
1533.214
 20
-7643.671
 30
-934.125
 70
    32
  0
VERTEX
  8
T62SSILL
 62
13
 10
1535.296
 20
-7656.708
 30
-934.136
 70
    32
  0
SEQEND
  8
T62SSILL
  0
POLYLINE
  8
T62SSILL
 62
13
 66
     1
 70
     9
  0
VERTEX
  8
T62SSILL
 62
13
 10
1539.783
 20
-7821.556
 30
-934.324
 70
    32
  0
VERTEX
  8
T62SSILL
 62
13
 10
1542.115
 20
-7813.099
 30
-934.308
 70
    32
  0
VERTEX
  8
T62SSILL
 62
13
 10
1555.320
 20
-7785.227
 30
-934.240
 70
    32
  0
VERTEX
  8
T62SSILL
 62
13
 10
1556.022
 20
-7771.942
 30
-934.222
 70
    32
  0
VERTEX
  8
T62SSILL
 62
13
 10
1554.413
 20
-7762.544
 30
-934.215
 70
    32
  0
VERTEX
  8
T62SSILL
 62
13
 10
1561.367
 20
-7721.525
 30
-934.148
 70
    32
  0
VERTEX
  8
T62SSILL
 62
13
 10
1564.219
 20
-7720.012
 30
-934.138
 70
    32
  0
VERTEX
  8
T62SSILL
 62
13
 10
1569.139
 20
-7728.700
 30
-934.136
 70
    32
  0
VERTEX
  8
T62SSILL
 62
13
 10
1559.812
 20
-7735.047
 30
-934.168
 70
    32
  0
VERTEX
  8
T62SSILL
 62
13
 10
1564.822
 20
-7742.724
 30
-934.164
 70
    32
  0
VERTEX
  8
T62SSILL
 62
13
 10
1574.255
 20
-7737.159
 30
-934.134
 70
    32
  0
VERTEX
  8
T62SSILL
 62
13
 10
1628.295
 20
-7829.096
 30
-934.106
 70
    32
  0
VERTEX
  8
T62SSILL
 62
13
 10
1629.885
 20
-7853.161
 30
-934.131
 70
    32
  0
VERTEX
  8
T62SSILL
 62
13
 10
1626.871
 20
-7858.695
 30
-934.146
 70
    32
  0
VERTEX
  8
T62SSILL
 62
13
 10
1609.419
 20
-7929.214
 30
-934.276
 70
    32
  0
VERTEX
  8
T62SSILL
 62
13
 10
1548.759
 20
-7844.443
 30
-934.329
 70
    32
  0
VERTEX
  8
T62SSILL
 62
13
 10
1542.117
 20
-7830.469
 30
-934.329
 70
    32
  0
SEQEND
  8
T62SSILL
  0
POLYLINE
  8
T62SSILL
 62
4
 66
     1
 70
     8
  0
VERTEX
  8
T62SSILL
 62
4
 10
3137.556
 20
-8603.404
 30
-953.000
 70
    32
  0
VERTEX
  8
T62SSILL
 62
4
 10
3090.041
 20
-8589.127
 30
-953.000
 70
    32
  0
VERTEX
  8
T62SSILL
 62
4
 10
3095.432
 20
-8579.451
 30
-950.000
 70
    32
  0
VERTEX
  8
T62SSILL
 62
4
 10
3099.654
 20
-8575.148
 30
-950.000
 70
    32
  0
VERTEX
  8
T62SSILL
 62
4
 10
3095.973
 20
-8568.248
 30
-948.000
 70
    32
  0
VERTEX
  8
T62SSILL
 62
4
 10
3086.294
 20
-8564.063
 30
-946.000
 70
    32
  0
VERTEX
  8
T62SSILL
 62
4
 10
3070.452
 20
-8568.119
 30
-948.000
 70
    32
  0
VERTEX
  8
T62SSILL
 62
4
 10
3061.657
 20
-8568.707
 30
-951.000
 70
    32
  0
VERTEX
  8
T62SSILL
 62
4
 10
3059.721
 20
-8574.867
 30
-953.000
 70
    32
  0
VERTEX
  8
T62SSILL
 62
4
 10
3010.085
 20
-8558.606
 30
-953.000
 70
    32
  0
SEQEND
  8
T62SSILL
  0
POLYLINE
  8
T62SSILL
 62
4
 66
     1
 70
     8
  0
VERTEX
  8
T62SSILL
 62
4
 10
3143.313
 20
-8848.686
 30
-953.000
 70
    32
  0
VERTEX
  8
T62SSILL
 62
4
 10
3154.212
 20
-8845.561
 30
-953.000
 70
    32
  0
VERTEX
  8
T62SSILL
 62
4
 10
3165.264
 20
-8842.882
 30
-953.000
 70
    32
  0
VERTEX
  8
T62SSILL
 62
4
 10
3177.840
 20
-8839.437
 30
-953.000
 70
    32
  0
VERTEX
  8
T62SSILL
 62
4
 10
3187.748
 20
-8829.870
 30
-953.000
 70
    32
  0
VERTEX
  8
T62SSILL
 62
4
 10
3194.608
 20
-8822.216
 30
-953.000
 70
    32
  0
VERTEX
  8
T62SSILL
 62
4
 10
3204.373
 20
-8800.921
 30
-953.000
 70
    32
  0
VERTEX
  8
T62SSILL
 62
4
 10
3206.875
 20
-8791.410
 30
-953.000
 70
    32
  0
VERTEX
  8
T62SSILL
 62
4
 10
3212.464
 20
-8778.256
 30
-953.000
 70
    32
  0
VERTEX
  8
T62SSILL
 62
4
 10
3225.146
 20
-8754.368
 30
-953.000
 70
    32
  0
VERTEX
  8
T62SSILL
 62
4
 10
3227.794
 20
-8744.214
 30
-953.000
 70
    32
  0
VERTEX
  8
T62SSILL
 62
4
 10
3226.734
 20
-8740.518
 30
-953.000
 70
    32
  0
VERTEX
  8
T62SSILL
 62
4
 10
3228.406
 20
-8732.545
 30
-953.000
 70
    32
  0
VERTEX
  8
T62SSILL
 62
4
 10
3223.465
 20
-8711.087
 30
-953.000
 70
    32
  0
VERTEX
  8
T62SSILL
 62
4
 10
3209.222
 20
-8712.165
 30
-953.000
 70
    32
  0
VERTEX
  8
T62SSILL
 62
4
 10
3213.150
 20
-8721.514
 30
-953.000
 70
    32
  0
VERTEX
  8
T62SSILL
 62
4
 10
3215.439
 20
-8739.912
 30
-953.000
 70
    32
  0
VERTEX
  8
T62SSILL
 62
4
 10
3213.667
 20
-8750.131
 30
-953.000
 70
    32
  0
VERTEX
  8
T62SSILL
 62
4
 10
3199.095
 20
-8780.595
 30
-953.000
 70
    32
  0
VERTEX
  8
T62SSILL
 62
4
 10
3198.122
 20
-8784.317
 30
-953.000
 70
    32
  0
VERTEX
  8
T62SSILL
 62
4
 10
3192.874
 20
-8800.289
 30
-953.000
 70
    32
  0
VERTEX
  8
T62SSILL
 62
4
 10
3186.690
 20
-8813.312
 30
-953.000
 70
    32
  0
VERTEX
  8
T62SSILL
 62
4
 10
3176.176
 20
-8825.314
 30
-953.000
 70
    32
  0
VERTEX
  8
T62SSILL
 62
4
 10
3172.647
 20
-8827.858
 30
-953.000
 70
    32
  0
VERTEX
  8
T62SSILL
 62
4
 10
3163.298
 20
-8829.802
 30
-953.000
 70
    32
  0
VERTEX
  8
T62SSILL
 62
4
 10
3144.776
 20
-8826.693
 30
-953.000
 70
    32
  0
VERTEX
  8
T62SSILL
 62
4
 10
3142.927
 20
-8825.806
 30
-953.000
 70
    32
  0
VERTEX
  8
T62SSILL
 62
4
 10
3142.607
 20
-8825.489
 30
-953.000
 70
    32
  0
VERTEX
  8
T62SSILL
 62
4
 10
3141.655
 20
-8824.093
 30
-953.000
 70
    32
  0
VERTEX
  8
T62SSILL
 62
4
 10
3130.464
 20
-8819.381
 30
-953.000
 70
    32
  0
VERTEX
  8
T62SSILL
 62
4
 10
3127.236
 20
-8815.157
 30
-953.000
 70
    32
  0
VERTEX
  8
T62SSILL
 62
4
 10
3127.287
 20
-8815.223
 30
-953.000
 70
    32
  0
VERTEX
  8
T62SSILL
 62
4
 10
3127.287
 20
-8815.223
 30
-952.534
 70
    32
  0
VERTEX
  8
T62SSILL
 62
4
 10
3113.316
 20
-8786.053
 30
-952.659
 70
    32
  0
VERTEX
  8
T62SSILL
 62
4
 10
3118.442
 20
-8770.904
 30
-952.792
 70
    32
  0
VERTEX
  8
T62SSILL
 62
4
 10
3101.397
 20
-8762.806
 30
-952.740
 70
    32
  0
VERTEX
  8
T62SSILL
 62
4
 10
3066.073
 20
-8677.811
 30
-953.087
 70
    32
  0
VERTEX
  8
T62SSILL
 62
4
 10
3056.223
 20
-8662.019
 30
-953.131
 70
    32
  0
VERTEX
  8
T62SSILL
 62
4
 10
3057.643
 20
-8642.069
 30
-953.273
 70
    32
  0
VERTEX
  8
T62SSILL
 62
4
 10
3059.509
 20
-8638.695
 30
-953.307
 70
    32
  0
VERTEX
  8
T62SSILL
 62
4
 10
3088.002
 20
-8613.843
 30
-953.649
 70
    32
  0
VERTEX
  8
T62SSILL
 62
4
 10
3116.164
 20
-8610.980
 30
-953.843
 70
    32
  0
VERTEX
  8
T62SSILL
 62
4
 10
3195.877
 20
-8638.686
 30
-954.132
 70
    32
  0
VERTEX
  8
T62SSILL
 62
4
 10
3200.162
 20
-8645.140
 30
-954.136
 70
    32
  0
VERTEX
  8
T62SSILL
 62
4
 10
3207.788
 20
-8648.432
 30
-954.161
 70
    32
  0
VERTEX
  8
T62SSILL
 62
4
 10
3213.620
 20
-8653.288
 30
-954.165
 70
    32
  0
VERTEX
  8
T62SSILL
 62
4
 10
3220.362
 20
-8664.490
 30
-954.132
 70
    32
  0
VERTEX
  8
T62SSILL
 62
4
 10
3228.570
 20
-8666.359
 30
-954.156
 70
    32
  0
VERTEX
  8
T62SSILL
 62
4
 10
3235.728
 20
-8661.547
 30
-954.218
 70
    32
  0
VERTEX
  8
T62SSILL
 62
4
 10
3246.256
 20
-8662.996
 30
-954.235
 70
    32
  0
VERTEX
  8
T62SSILL
 62
4
 10
3254.133
 20
-8659.732
 30
-954.234
 70
    32
  0
VERTEX
  8
T62SSILL
 62
4
 10
3350.752
 20
-8692.565
 30
-954.275
 70
    32
  0
VERTEX
  8
T62SSILL
 62
4
 10
3357.130
 20
-8697.562
 30
-954.250
 70
    32
  0
VERTEX
  8
T62SSILL
 62
4
 10
3365.145
 20
-8697.708
 30
-954.272
 70
    32
  0
VERTEX
  8
T62SSILL
 62
4
 10
3465.190
 20
-8733.795
 30
-954.318
 70
    32
  0
VERTEX
  8
T62SSILL
 62
4
 10
3467.983
 20
-8736.645
 30
-954.310
 70
    32
  0
VERTEX
  8
T62SSILL
 62
4
 10
3471.763
 20
-8735.681
 30
-954.331
 70
    32
  0
VERTEX
  8
T62SSILL
 62
4
 10
3478.152
 20
-8748.464
 30
-954.273
 70
    32
  0
VERTEX
  8
T62SSILL
 62
4
 10
3485.003
 20
-8754.094
 30
-954.262
 70
    32
  0
VERTEX
  8
T62SSILL
 62
4
 10
3528.842
 20
-8754.863
 30
-954.402
 70
    32
  0
VERTEX
  8
T62SSILL
 62
4
 10
3583.442
 20
-8774.254
 30
-954.332
 70
    32
  0
VERTEX
  8
T62SSILL
 62
4
 10
3584.723
 20
-8777.578
 30
-954.301
 70
    32
  0
VERTEX
  8
T62SSILL
 62
4
 10
3592.000
 20
-8777.618
 30
-954.318
 70
    32
  0
VERTEX
  8
T62SSILL
 62
4
 10
3688.332
 20
-8808.668
 30
-954.548
 70
    32
  0
VERTEX
  8
T62SSILL
 62
4
 10
3691.894
 20
-8813.819
 30
-954.545
 70
    32
  0
VERTEX
  8
T62SSILL
 62
4
 10
3697.863
 20
-8812.070
 30
-954.575
 70
    32
  0
VERTEX
  8
T62SSILL
 62
4
 10
3790.704
 20
-8846.630
 30
-954.961
 70
    32
  0
VERTEX
  8
T62SSILL
 62
4
 10
3792.721
 20
-8848.862
 30
-954.966
 70
    32
  0
VERTEX
  8
T62SSILL
 62
4
 10
3803.735
 20
-8852.911
 30
-954.969
 70
    32
  0
VERTEX
  8
T62SSILL
 62
4
 10
3807.113
 20
-8851.241
 30
-954.962
 70
    32
  0
VERTEX
  8
T62SSILL
 62
4
 10
3890.223
 20
-8880.673
 30
-954.980
 70
    32
  0
VERTEX
  8
T62SSILL
 62
4
 10
3905.316
 20
-8891.581
 30
-954.999
 70
    32
  0
VERTEX
  8
T62SSILL
 62
4
 10
3915.875
 20
-8906.137
 30
-955.032
 70
    32
  0
VERTEX
  8
T62SSILL
 62
4
 10
3918.345
 20
-8906.921
 30
-955.032
 70
    32
  0
VERTEX
  8
T62SSILL
 62
4
 10
4031.435
 20
-9065.480
 30
-955.391
 70
    32
  0
VERTEX
  8
T62SSILL
 62
4
 10
4025.013
 20
-9068.676
 30
-955.405
 70
    32
  0
VERTEX
  8
T62SSILL
 62
4
 10
4024.626
 20
-9073.719
 30
-955.419
 70
    32
  0
VERTEX
  8
T62SSILL
 62
4
 10
4022.240
 20
-9076.847
 30
-955.424
 70
    32
  0
VERTEX
  8
T62SSILL
 62
4
 10
4024.696
 20
-9083.166
 30
-955.417
 70
    32
  0
VERTEX
  8
T62SSILL
 62
4
 10
4022.006
 20
-9089.839
 30
-955.386
 70
    32
  0
VERTEX
  8
T62SSILL
 62
4
 10
4026.531
 20
-9093.488
 30
-955.396
 70
    32
  0
VERTEX
  8
T62SSILL
 62
4
 10
4052.161
 20
-9093.782
 30
-955.455
 70
    32
  0
VERTEX
  8
T62SSILL
 62
4
 10
4182.912
 20
-9276.442
 30
-956.040
 70
    32
  0
VERTEX
  8
T62SSILL
 62
4
 10
4180.920
 20
-9319.704
 30
-955.807
 70
    32
  0
VERTEX
  8
T62SSILL
 62
4
 10
4175.711
 20
-9336.345
 30
-955.595
 70
    32
  0
VERTEX
  8
T62SSILL
 62
4
 10
4147.674
 20
-9362.393
 30
-955.391
 70
    32
  0
VERTEX
  8
T62SSILL
 62
4
 10
4141.588
 20
-9365.888
 30
-955.367
 70
    32
  0
VERTEX
  8
T62SSILL
 62
4
 10
4140.754
 20
-9369.170
 30
-955.359
 70
    32
  0
VERTEX
  8
T62SSILL
 62
4
 10
4142.529
 20
-9377.218
 30
-955.353
 70
    32
  0
VERTEX
  8
T62SSILL
 62
4
 10
4141.091
 20
-9403.381
 30
-955.309
 70
    32
  0
VERTEX
  8
T62SSILL
 62
4
 10
4135.595
 20
-9413.942
 30
-955.276
 70
    32
  0
VERTEX
  8
T62SSILL
 62
4
 10
4134.381
 20
-9419.499
 30
-955.264
 70
    32
  0
VERTEX
  8
T62SSILL
 62
4
 10
4135.290
 20
-9426.987
 30
-955.255
 70
    32
  0
VERTEX
  8
T62SSILL
 62
4
 10
4194.301
 20
-9527.435
 30
-955.292
 70
    32
  0
VERTEX
  8
T62SSILL
 62
4
 10
4189.359
 20
-9535.367
 30
-955.273
 70
    32
  0
VERTEX
  8
T62SSILL
 62
4
 10
4202.777
 20
-9551.076
 30
-955.299
 70
    32
  0
VERTEX
  8
T62SSILL
 62
4
 10
4209.928
 20
-9563.899
 30
-955.310
 70
    32
  0
VERTEX
  8
T62SSILL
 62
4
 10
4217.370
 20
-9565.124
 30
-955.331
 70
    32
  0
VERTEX
  8
T62SSILL
 62
4
 10
4227.979
 20
-9583.839
 30
-955.347
 70
    32
  0
VERTEX
  8
T62SSILL
 62
4
 10
4204.532
 20
-9601.781
 30
-955.268
 70
    32
  0
VERTEX
  8
T62SSILL
 62
4
 10
4212.793
 20
-9614.759
 30
-955.282
 70
    32
  0
VERTEX
  8
T62SSILL
 62
4
 10
4239.897
 20
-9603.555
 30
-955.367
 70
    32
  0
VERTEX
  8
T62SSILL
 62
4
 10
4329.551
 20
-9754.637
 30
-955.194
 70
    32
  0
VERTEX
  8
T62SSILL
 62
4
 10
4327.736
 20
-9764.515
 30
-955.190
 70
    32
  0
VERTEX
  8
T62SSILL
 62
4
 10
4336.285
 20
-9764.571
 30
-955.175
 70
    32
  0
VERTEX
  8
T62SSILL
 62
4
 10
4380.937
 20
-9842.951
 30
-955.945
 70
    32
  0
VERTEX
  8
T62SSILL
 62
4
 10
4389.400
 20
-9838.655
 30
-955.975
 70
    32
  0
VERTEX
  8
T62SSILL
 62
4
 10
4383.916
 20
-9828.328
 30
-956.053
 70
    32
  0
VERTEX
  8
T62SSILL
 62
4
 10
4384.948
 20
-9826.332
 30
-956.067
 70
    32
  0
VERTEX
  8
T62SSILL
 62
4
 10
4415.388
 20
-9830.945
 30
-956.026
 70
    32
  0
VERTEX
  8
T62SSILL
 62
4
 10
4428.978
 20
-9840.449
 30
-955.974
 70
    32
  0
VERTEX
  8
T62SSILL
 62
4
 10
4437.250
 20
-9842.040
 30
-956.003
 70
    32
  0
VERTEX
  8
T62SSILL
 62
4
 10
4443.629
 20
-9841.417
 30
-956.028
 70
    32
  0
VERTEX
  8
T62SSILL
 62
4
 10
4445.667
 20
-9844.406
 30
-956.032
 70
    32
  0
VERTEX
  8
T62SSILL
 62
4
 10
4448.633
 20
-9865.142
 30
-956.013
 70
    32
  0
VERTEX
  8
T62SSILL
 62
4
 10
4447.376
 20
-9868.302
 30
-956.004
 70
    32
  0
VERTEX
  8
T62SSILL
 62
4
 10
4437.445
 20
-9875.917
 30
-955.955
 70
    32
  0
VERTEX
  8
T62SSILL
 62
4
 10
4435.612
 20
-9880.947
 30
-955.941
 70
    32
  0
VERTEX
  8
T62SSILL
 62
4
 10
4428.897
 20
-9885.802
 30
-955.909
 70
    32
  0
VERTEX
  8
T62SSILL
 62
4
 10
4433.938
 20
-9890.719
 30
-955.921
 70
    32
  0
VERTEX
  8
T62SSILL
 62
4
 10
4448.484
 20
-9887.017
 30
-955.981
 70
    32
  0
VERTEX
  8
T62SSILL
 62
4
 10
4456.252
 20
-9875.954
 30
-956.026
 70
    32
  0
VERTEX
  8
T62SSILL
 62
4
 10
4458.734
 20
-9865.352
 30
-956.051
 70
    32
  0
VERTEX
  8
T62SSILL
 62
4
 10
4468.637
 20
-9856.667
 30
-956.101
 70
    32
  0
VERTEX
  8
T62SSILL
 62
4
 10
4466.671
 20
-9850.420
 30
-956.102
 70
    32
  0
VERTEX
  8
T62SSILL
 62
4
 10
4468.537
 20
-9837.848
 30
-956.128
 70
    32
  0
VERTEX
  8
T62SSILL
 62
4
 10
4476.842
 20
-9819.186
 30
-956.186
 70
    32
  0
VERTEX
  8
T62SSILL
 62
4
 10
4491.022
 20
-9813.978
 30
-956.247
 70
    32
  0
VERTEX
  8
T62SSILL
 62
4
 10
4519.042
 20
-9793.771
 30
-956.382
 70
    32
  0
VERTEX
  8
T62SSILL
 62
4
 10
4529.610
 20
-9793.230
 30
-956.423
 70
    32
  0
VERTEX
  8
T62SSILL
 62
4
 10
4549.976
 20
-9780.711
 30
-956.517
 70
    32
  0
VERTEX
  8
T62SSILL
 62
4
 10
4551.761
 20
-9786.874
 30
-956.515
 70
    32
  0
VERTEX
  8
T62SSILL
 62
4
 10
4559.716
 20
-9800.573
 30
-956.526
 70
    32
  0
VERTEX
  8
T62SSILL
 62
4
 10
4653.367
 20
-9931.051
 30
-956.691
 70
    32
  0
VERTEX
  8
T62SSILL
 62
4
 10
4659.053
 20
-9926.970
 30
-956.718
 70
    32
  0
VERTEX
  8
T62SSILL
 62
4
 10
4564.403
 20
-9795.099
 30
-956.551
 70
    32
  0
VERTEX
  8
T62SSILL
 62
4
 10
4562.170
 20
-9776.325
 30
-956.570
 70
    32
  0
VERTEX
  8
T62SSILL
 62
4
 10
4567.692
 20
-9762.503
 30
-956.611
 70
    32
  0
VERTEX
  8
T62SSILL
 62
4
 10
4573.997
 20
-9756.640
 30
-956.643
 70
    32
  0
VERTEX
  8
T62SSILL
 62
4
 10
5023.016
 20
-9433.382
 30
-958.916
 70
    32
  0
VERTEX
  8
T62SSILL
 62
4
 10
5036.249
 20
-9426.496
 30
-959.048
 70
    32
  0
VERTEX
  8
T62SSILL
 62
4
 10
5042.893
 20
-9424.920
 30
-959.109
 70
    32
  0
VERTEX
  8
T62SSILL
 62
4
 10
5061.423
 20
-9425.063
 30
-959.224
 70
    32
  0
VERTEX
  8
T62SSILL
 62
4
 10
5074.331
 20
-9429.292
 30
-959.154
 70
    32
  0
VERTEX
  8
T62SSILL
 62
4
 10
5085.927
 20
-9438.391
 30
-959.067
 70
    32
  0
VERTEX
  8
T62SSILL
 62
4
 10
5154.895
 20
-9533.531
 30
-958.322
 70
    32
  0
VERTEX
  8
T62SSILL
 62
4
 10
5297.647
 20
-9730.456
 30
-959.180
 70
    32
  0
VERTEX
  8
T62SSILL
 62
4
 10
5298.863
 20
-9740.322
 30
-959.213
 70
    32
  0
VERTEX
  8
T62SSILL
 62
4
 10
5290.319
 20
-9742.472
 30
-959.203
 70
    32
  0
VERTEX
  8
T62SSILL
 62
4
 10
5282.605
 20
-9742.435
 30
-959.189
 70
    32
  0
VERTEX
  8
T62SSILL
 62
4
 10
5278.220
 20
-9753.457
 30
-959.214
 70
    32
  0
VERTEX
  8
T62SSILL
 62
4
 10
5274.979
 20
-9757.287
 30
-959.220
 70
    32
  0
VERTEX
  8
T62SSILL
 62
4
 10
5270.985
 20
-9758.003
 30
-959.214
 70
    32
  0
VERTEX
  8
T62SSILL
 62
4
 10
5268.954
 20
-9761.107
 30
-959.220
 70
    32
  0
VERTEX
  8
T62SSILL
 62
4
 10
5269.878
 20
-9767.734
 30
-959.242
 70
    32
  0
VERTEX
  8
T62SSILL
 62
4
 10
5278.123
 20
-9770.718
 30
-959.266
 70
    32
  0
VERTEX
  8
T62SSILL
 62
4
 10
5278.030
 20
-9790.004
 30
-959.253
 70
    32
  0
VERTEX
  8
T62SSILL
 62
4
 10
5283.133
 20
-9795.254
 30
-959.265
 70
    32
  0
VERTEX
  8
T62SSILL
 62
4
 10
5289.033
 20
-9806.790
 30
-959.271
 70
    32
  0
VERTEX
  8
T62SSILL
 62
4
 10
5287.445
 20
-9813.648
 30
-959.255
 70
    32
  0
VERTEX
  8
T62SSILL
 62
4
 10
5283.601
 20
-9819.708
 30
-959.231
 70
    32
  0
VERTEX
  8
T62SSILL
 62
4
 10
5288.287
 20
-9826.526
 30
-959.239
 70
    32
  0
VERTEX
  8
T62SSILL
 62
4
 10
5293.681
 20
-9823.352
 30
-959.264
 70
    32
  0
VERTEX
  8
T62SSILL
 62
4
 10
5300.489
 20
-9824.546
 30
-959.288
 70
    32
  0
VERTEX
  8
T62SSILL
 62
4
 10
5307.532
 20
-9835.725
 30
-959.299
 70
    32
  0
VERTEX
  8
T62SSILL
 62
4
 10
5326.038
 20
-9841.053
 30
-959.361
 70
    32
  0
VERTEX
  8
T62SSILL
 62
4
 10
5335.200
 20
-9829.523
 30
-959.412
 70
    32
  0
VERTEX
  8
T62SSILL
 62
4
 10
5322.121
 20
-9812.669
 30
-959.387
 70
    32
  0
VERTEX
  8
T62SSILL
 62
4
 10
5320.297
 20
-9804.406
 30
-959.392
 70
    32
  0
VERTEX
  8
T62SSILL
 62
4
 10
5334.997
 20
-9794.466
 30
-959.444
 70
    32
  0
VERTEX
  8
T62SSILL
 62
4
 10
5348.338
 20
-9807.464
 30
-959.494
 70
    32
  0
VERTEX
  8
T62SSILL
 62
4
 10
5359.957
 20
-9829.807
 30
-959.505
 70
    32
  0
VERTEX
  8
T62SSILL
 62
4
 10
5362.720
 20
-9843.927
 30
-959.495
 70
    32
  0
VERTEX
  8
T62SSILL
 62
4
 10
5361.336
 20
-9858.227
 30
-959.469
 70
    32
  0
VERTEX
  8
T62SSILL
 62
4
 10
5364.987
 20
-9893.128
 30
-959.433
 70
    32
  0
VERTEX
  8
T62SSILL
 62
4
 10
5357.109
 20
-9928.308
 30
-959.352
 70
    32
  0
VERTEX
  8
T62SSILL
 62
4
 10
5388.358
 20
-9947.868
 30
-959.442
 70
    32
  0
VERTEX
  8
T62SSILL
 62
4
 10
5390.415
 20
-9958.751
 30
-959.434
 70
    32
  0
VERTEX
  8
T62SSILL
 62
4
 10
5401.752
 20
-9957.120
 30
-959.479
 70
    32
  0
VERTEX
  8
T62SSILL
 62
4
 10
5402.215
 20
-9948.960
 30
-959.493
 70
    32
  0
VERTEX
  8
T62SSILL
 62
4
 10
5398.596
 20
-9928.377
 30
-959.509
 70
    32
  0
VERTEX
  8
T62SSILL
 62
4
 10
5394.311
 20
-9920.633
 30
-959.504
 70
    32
  0
VERTEX
  8
T62SSILL
 62
4
 10
5390.615
 20
-9908.127
 30
-959.508
 70
    32
  0
VERTEX
  8
T62SSILL
 62
4
 10
5389.539
 20
-9890.107
 30
-959.530
 70
    32
  0
VERTEX
  8
T62SSILL
 62
4
 10
5383.218
 20
-9862.286
 30
-959.546
 70
    32
  0
VERTEX
  8
T62SSILL
 62
4
 10
5378.869
 20
-9856.640
 30
-959.538
 70
    32
  0
VERTEX
  8
T62SSILL
 62
4
 10
5379.649
 20
-9855.039
 30
-959.543
 70
    32
  0
VERTEX
  8
T62SSILL
 62
4
 10
5371.906
 20
-9825.439
 30
-959.557
 70
    32
  0
VERTEX
  8
T62SSILL
 62
4
 10
5374.145
 20
-9823.259
 30
-959.568
 70
    32
  0
VERTEX
  8
T62SSILL
 62
4
 10
5372.139
 20
-9814.280
 30
-959.573
 70
    32
  0
VERTEX
  8
T62SSILL
 62
4
 10
5359.885
 20
-9795.363
 30
-959.493
 70
    32
  0
VERTEX
  8
T62SSILL
 62
4
 10
5359.077
 20
-9778.724
 30
-959.441
 70
    32
  0
VERTEX
  8
T62SSILL
 62
4
 10
5436.511
 20
-9723.441
 30
-959.417
 70
    32
  0
VERTEX
  8
T62SSILL
 62
4
 10
5435.742
 20
-9733.030
 30
-959.445
 70
    32
  0
VERTEX
  8
T62SSILL
 62
4
 10
5438.681
 20
-9744.688
 30
-959.486
 70
    32
  0
VERTEX
  8
T62SSILL
 62
4
 10
5430.003
 20
-9770.562
 30
-959.548
 70
    32
  0
VERTEX
  8
T62SSILL
 62
4
 10
5432.389
 20
-9778.415
 30
-959.577
 70
    32
  0
VERTEX
  8
T62SSILL
 62
4
 10
5438.083
 20
-9788.834
 30
-959.619
 70
    32
  0
VERTEX
  8
T62SSILL
 62
4
 10
5454.533
 20
-9789.936
 30
-959.653
 70
    32
  0
VERTEX
  8
T62SSILL
 62
4
 10
5464.156
 20
-9795.505
 30
-959.687
 70
    32
  0
VERTEX
  8
T62SSILL
 62
4
 10
5572.567
 20
-10007.084
 30
-960.052
 70
    32
  0
VERTEX
  8
T62SSILL
 62
4
 10
5579.211
 20
-10003.506
 30
-960.083
 70
    32
  0
VERTEX
  8
T62SSILL
 62
4
 10
5570.401
 20
-9985.557
 30
-960.075
 70
    32
  0
VERTEX
  8
T62SSILL
 62
4
 10
5577.068
 20
-9980.585
 30
-960.108
 70
    32
  0
VERTEX
  8
T62SSILL
 62
4
 10
5563.239
 20
-9960.518
 30
-960.084
 70
    32
  0
VERTEX
  8
T62SSILL
 62
4
 10
5559.115
 20
-9963.577
 30
-960.064
 70
    32
  0
VERTEX
  8
T62SSILL
 62
4
 10
5484.367
 20
-9814.391
 30
-959.782
 70
    32
  0
VERTEX
  8
T62SSILL
 62
4
 10
5486.986
 20
-9807.734
 30
-959.767
 70
    32
  0
VERTEX
  8
T62SSILL
 62
4
 10
5468.342
 20
-9772.992
 30
-959.627
 70
    32
  0
VERTEX
  8
T62SSILL
 62
4
 10
5461.730
 20
-9771.100
 30
-959.609
 70
    32
  0
VERTEX
  8
T62SSILL
 62
4
 10
5445.127
 20
-9737.842
 30
-959.477
 70
    32
  0
VERTEX
  8
T62SSILL
 62
4
 10
5445.059
 20
-9724.722
 30
-959.437
 70
    32
  0
VERTEX
  8
T62SSILL
 62
4
 10
5453.308
 20
-9711.569
 30
-959.450
 70
    32
  0
VERTEX
  8
T62SSILL
 62
4
 10
5611.485
 20
-9598.449
 30
-960.169
 70
    32
  0
VERTEX
  8
T62SSILL
 62
4
 10
5615.095
 20
-9599.623
 30
-960.183
 70
    32
  0
VERTEX
  8
T62SSILL
 62
4
 10
5613.111
 20
-9620.608
 30
-960.164
 70
    32
  0
VERTEX
  8
T62SSILL
 62
4
 10
5587.104
 20
-9632.331
 30
-960.049
 70
    32
  0
VERTEX
  8
T62SSILL
 62
4
 10
5588.954
 20
-9640.539
 30
-960.052
 70
    32
  0
VERTEX
  8
T62SSILL
 62
4
 10
5610.741
 20
-9641.252
 30
-960.142
 70
    32
  0
VERTEX
  8
T62SSILL
 62
4
 10
5606.513
 20
-9678.585
 30
-960.104
 70
    32
  0
VERTEX
  8
T62SSILL
 62
4
 10
5599.953
 20
-9680.378
 30
-960.076
 70
    32
  0
VERTEX
  8
T62SSILL
 62
4
 10
5598.596
 20
-9688.394
 30
-960.066
 70
    32
  0
VERTEX
  8
T62SSILL
 62
4
 10
5605.567
 20
-9690.544
 30
-960.094
 70
    32
  0
VERTEX
  8
T62SSILL
 62
4
 10
5596.790
 20
-9767.717
 30
-960.015
 70
    32
  0
VERTEX
  8
T62SSILL
 62
4
 10
5604.342
 20
-9768.480
 30
-960.045
 70
    32
  0
VERTEX
  8
T62SSILL
 62
4
 10
5624.921
 20
-9589.119
 30
-960.230
 70
    32
  0
VERTEX
  8
T62SSILL
 62
4
 10
5768.759
 20
-9484.225
 30
-960.886
 70
    32
  0
VERTEX
  8
T62SSILL
 62
4
 10
5778.709
 20
-9472.941
 30
-960.933
 70
    32
  0
VERTEX
  8
T62SSILL
 62
4
 10
5783.995
 20
-9463.592
 30
-960.960
 70
    32
  0
VERTEX
  8
T62SSILL
 62
4
 10
5800.813
 20
-9568.501
 30
-960.972
 70
    32
  0
VERTEX
  8
T62SSILL
 62
4
 10
5781.778
 20
-9582.374
 30
-960.885
 70
    32
  0
VERTEX
  8
T62SSILL
 62
4
 10
5785.980
 20
-9588.359
 30
-960.900
 70
    32
  0
VERTEX
  8
T62SSILL
 62
4
 10
5802.065
 20
-9577.453
 30
-960.972
 70
    32
  0
VERTEX
  8
T62SSILL
 62
4
 10
5832.966
 20
-9780.361
 30
-960.989
 70
    32
  0
VERTEX
  8
T62SSILL
 62
4
 10
5816.026
 20
-9792.370
 30
-960.912
 70
    32
  0
VERTEX
  8
T62SSILL
 62
4
 10
5820.680
 20
-9798.027
 30
-960.928
 70
    32
  0
VERTEX
  8
T62SSILL
 62
4
 10
5834.205
 20
-9788.392
 30
-960.989
 70
    32
  0
VERTEX
  8
T62SSILL
 62
4
 10
5838.922
 20
-9810.964
 30
-960.996
 70
    32
  0
VERTEX
  8
T62SSILL
 62
4
 10
5845.753
 20
-9823.522
 30
-961.018
 70
    32
  0
VERTEX
  8
T62SSILL
 62
4
 10
5931.950
 20
-9943.237
 30
-961.310
 70
    32
  0
VERTEX
  8
T62SSILL
 62
4
 10
5916.191
 20
-9954.358
 30
-961.238
 70
    32
  0
VERTEX
  8
T62SSILL
 62
4
 10
5920.694
 20
-9960.710
 30
-961.253
 70
    32
  0
VERTEX
  8
T62SSILL
 62
4
 10
5936.274
 20
-9949.242
 30
-961.324
 70
    32
  0
VERTEX
  8
T62SSILL
 62
4
 10
6041.354
 20
-10095.182
 30
-961.680
 70
    32
  0
VERTEX
  8
T62SSILL
 62
4
 10
6021.681
 20
-10109.760
 30
-961.596
 70
    32
  0
VERTEX
  8
T62SSILL
 62
4
 10
6025.963
 20
-10115.997
 30
-961.600
 70
    32
  0
VERTEX
  8
T62SSILL
 62
4
 10
6045.970
 20
-10101.592
 30
-961.699
 70
    32
  0
VERTEX
  8
T62SSILL
 62
4
 10
6096.287
 20
-10171.476
 30
-961.729
 70
    32
  0
VERTEX
  8
T62SSILL
 62
4
 10
6087.616
 20
-10178.197
 30
-961.708
 70
    32
  0
VERTEX
  8
T62SSILL
 62
4
 10
6092.254
 20
-10183.995
 30
-961.714
 70
    32
  0
VERTEX
  8
T62SSILL
 62
4
 10
6100.786
 20
-10177.724
 30
-961.729
 70
    32
  0
VERTEX
  8
T62SSILL
 62
4
 10
6151.285
 20
-10248.671
 30
-961.728
 70
    32
  0
VERTEX
  8
T62SSILL
 62
4
 10
6142.055
 20
-10255.366
 30
-961.729
 70
    32
  0
VERTEX
  8
T62SSILL
 62
4
 10
6146.375
 20
-10261.185
 30
-961.729
 70
    32
  0
VERTEX
  8
T62SSILL
 62
4
 10
6155.394
 20
-10254.649
 30
-961.728
 70
    32
  0
VERTEX
  8
T62SSILL
 62
4
 10
6398.760
 20
-10594.475
 30
-961.734
 70
    32
  0
VERTEX
  8
T62SSILL
 62
4
 10
6398.808
 20
-10723.177
 30
-961.745
 70
    32
  0
VERTEX
  8
T62SSILL
 62
4
 10
6408.073
 20
-10723.674
 30
-961.744
 70
    32
  0
VERTEX
  8
T62SSILL
 62
4
 10
6406.469
 20
-10611.597
 30
-961.735
 70
    32
  0
VERTEX
  8
T62SSILL
 62
4
 10
6409.666
 20
-10608.940
 30
-961.734
 70
    32
  0
VERTEX
  8
T62SSILL
 62
4
 10
6777.923
 20
-11119.901
 30
-961.753
 70
    32
  0
VERTEX
  8
T62SSILL
 62
4
 10
6779.257
 20
-11130.549
 30
-961.754
 70
    32
  0
VERTEX
  8
T62SSILL
 62
4
 10
6777.950
 20
-11140.208
 30
-961.755
 70
    32
  0
VERTEX
  8
T62SSILL
 62
4
 10
6776.128
 20
-11144.817
 30
-961.755
 70
    32
  0
VERTEX
  8
T62SSILL
 62
4
 10
6769.392
 20
-11151.724
 30
-961.756
 70
    32
  0
VERTEX
  8
T62SSILL
 62
4
 10
6584.639
 20
-11284.987
 30
-961.781
 70
    32
  0
VERTEX
  8
T62SSILL
 62
4
 10
6580.781
 20
-11279.484
 30
-961.781
 70
    32
  0
VERTEX
  8
T62SSILL
 62
4
 10
6573.500
 20
-11284.362
 30
-961.782
 70
    32
  0
VERTEX
  8
T62SSILL
 62
4
 10
6577.398
 20
-11290.502
 30
-961.782
 70
    32
  0
VERTEX
  8
T62SSILL
 62
4
 10
6532.516
 20
-11323.017
 30
-961.788
 70
    32
  0
VERTEX
  8
T62SSILL
 62
4
 10
6526.125
 20
-11326.440
 30
-961.789
 70
    32
  0
VERTEX
  8
T62SSILL
 62
4
 10
6515.940
 20
-11328.088
 30
-961.790
 70
    32
  0
VERTEX
  8
T62SSILL
 62
4
 10
6510.420
 20
-11327.404
 30
-961.790
 70
    32
  0
VERTEX
  8
T62SSILL
 62
4
 10
6500.792
 20
-11323.074
 30
-961.790
 70
    32
  0
VERTEX
  8
T62SSILL
 62
4
 10
6491.817
 20
-11311.582
 30
-961.790
 70
    32
  0
VERTEX
  8
T62SSILL
 62
4
 10
6475.824
 20
-11263.891
 30
-961.787
 70
    32
  0
VERTEX
  8
T62SSILL
 62
4
 10
6482.846
 20
-11247.880
 30
-961.785
 70
    32
  0
VERTEX
  8
T62SSILL
 62
4
 10
6483.202
 20
-11241.055
 30
-961.784
 70
    32
  0
VERTEX
  8
T62SSILL
 62
4
 10
6473.956
 20
-11228.769
 30
-961.784
 70
    32
  0
VERTEX
  8
T62SSILL
 62
4
 10
6467.969
 20
-11224.554
 30
-961.784
 70
    32
  0
VERTEX
  8
T62SSILL
 62
4
 10
6461.871
 20
-11224.422
 30
-961.784
 70
    32
  0
VERTEX
  8
T62SSILL
 62
4
 10
6450.361
 20
-11183.203
 30
-961.782
 70
    32
  0
VERTEX
  8
T62SSILL
 62
4
 10
6451.830
 20
-11169.089
 30
-961.780
 70
    32
  0
VERTEX
  8
T62SSILL
 62
4
 10
6467.778
 20
-11160.275
 30
-961.778
 70
    32
  0
VERTEX
  8
T62SSILL
 62
4
 10
6473.498
 20
-11161.806
 30
-961.778
 70
    32
  0
VERTEX
  8
T62SSILL
 62
4
 10
6481.033
 20
-11174.617
 30
-961.779
 70
    32
  0
VERTEX
  8
T62SSILL
 62
4
 10
6487.688
 20
-11171.104
 30
-961.778
 70
    32
  0
VERTEX
  8
T62SSILL
 62
4
 10
6483.007
 20
-11147.455
 30
-961.776
 70
    32
  0
VERTEX
  8
T62SSILL
 62
4
 10
6484.080
 20
-11134.864
 30
-961.775
 70
    32
  0
VERTEX
  8
T62SSILL
 62
4
 10
6511.293
 20
-11115.027
 30
-961.771
 70
    32
  0
VERTEX
  8
T62SSILL
 62
4
 10
6507.004
 20
-11108.520
 30
-961.771
 70
    32
  0
VERTEX
  8
T62SSILL
 62
4
 10
6483.068
 20
-11124.638
 30
-961.774
 70
    32
  0
VERTEX
  8
T62SSILL
 62
4
 10
6480.819
 20
-11109.579
 30
-961.773
 70
    32
  0
VERTEX
  8
T62SSILL
 62
4
 10
6478.346
 20
-11107.352
 30
-961.773
 70
    32
  0
VERTEX
  8
T62SSILL
 62
4
 10
6475.835
 20
-11092.825
 30
-961.772
 70
    32
  0
VERTEX
  8
T62SSILL
 62
4
 10
6472.493
 20
-11085.374
 30
-961.771
 70
    32
  0
VERTEX
  8
T62SSILL
 62
4
 10
6468.443
 20
-11068.242
 30
-961.770
 70
    32
  0
VERTEX
  8
T62SSILL
 62
4
 10
6470.460
 20
-11056.598
 30
-961.769
 70
    32
  0
VERTEX
  8
T62SSILL
 62
4
 10
6458.772
 20
-11039.063
 30
-961.768
 70
    32
  0
VERTEX
  8
T62SSILL
 62
4
 10
6450.804
 20
-11032.247
 30
-961.768
 70
    32
  0
VERTEX
  8
T62SSILL
 62
4
 10
6445.231
 20
-11031.492
 30
-961.769
 70
    32
  0
VERTEX
  8
T62SSILL
 62
4
 10
6449.494
 20
-11051.238
 30
-961.770
 70
    32
  0
VERTEX
  8
T62SSILL
 62
4
 10
6452.942
 20
-11101.707
 30
-961.774
 70
    32
  0
VERTEX
  8
T62SSILL
 62
4
 10
6458.530
 20
-11126.109
 30
-961.776
 70
    32
  0
VERTEX
  8
T62SSILL
 62
4
 10
6454.021
 20
-11142.650
 30
-961.778
 70
    32
  0
VERTEX
  8
T62SSILL
 62
4
 10
6446.902
 20
-11157.513
 30
-961.780
 70
    32
  0
VERTEX
  8
T62SSILL
 62
4
 10
6444.061
 20
-11170.118
 30
-961.781
 70
    32
  0
VERTEX
  8
T62SSILL
 62
4
 10
6443.244
 20
-11188.735
 30
-961.782
 70
    32
  0
VERTEX
  8
T62SSILL
 62
4
 10
6437.432
 20
-11181.832
 30
-961.782
 70
    32
  0
VERTEX
  8
T62SSILL
 62
4
 10
6425.714
 20
-11179.426
 30
-961.783
 70
    32
  0
VERTEX
  8
T62SSILL
 62
4
 10
6414.839
 20
-11181.044
 30
-961.784
 70
    32
  0
VERTEX
  8
T62SSILL
 62
4
 10
6412.060
 20
-11182.938
 30
-961.784
 70
    32
  0
VERTEX
  8
T62SSILL
 62
4
 10
6411.962
 20
-11186.456
 30
-961.785
 70
    32
  0
VERTEX
  8
T62SSILL
 62
4
 10
6414.666
 20
-11191.172
 30
-961.785
 70
    32
  0
VERTEX
  8
T62SSILL
 62
4
 10
6425.822
 20
-11191.673
 30
-961.784
 70
    32
  0
VERTEX
  8
T62SSILL
 62
4
 10
6432.387
 20
-11200.002
 30
-961.784
 70
    32
  0
VERTEX
  8
T62SSILL
 62
4
 10
6440.202
 20
-11205.158
 30
-961.784
 70
    32
  0
VERTEX
  8
T62SSILL
 62
4
 10
6442.868
 20
-11214.347
 30
-961.785
 70
    32
  0
VERTEX
  8
T62SSILL
 62
4
 10
6453.075
 20
-11220.458
 30
-961.785
 70
    32
  0
VERTEX
  8
T62SSILL
 62
4
 10
6480.573
 20
-11299.151
 30
-961.789
 70
    32
  0
VERTEX
  8
T62SSILL
 62
4
 10
6471.421
 20
-11302.011
 30
-961.790
 70
    32
  0
VERTEX
  8
T62SSILL
 62
4
 10
6478.657
 20
-11324.492
 30
-961.792
 70
    32
  0
VERTEX
  8
T62SSILL
 62
4
 10
6489.941
 20
-11320.786
 30
-961.791
 70
    32
  0
VERTEX
  8
T62SSILL
 62
4
 10
6496.409
 20
-11327.967
 30
-961.791
 70
    32
  0
VERTEX
  8
T62SSILL
 62
4
 10
6505.847
 20
-11332.775
 30
-961.791
 70
    32
  0
VERTEX
  8
T62SSILL
 62
4
 10
6521.147
 20
-11334.342
 30
-961.790
 70
    32
  0
VERTEX
  8
T62SSILL
 62
4
 10
6530.040
 20
-11332.456
 30
-961.789
 70
    32
  0
VERTEX
  8
T62SSILL
 62
4
 10
6535.775
 20
-11328.755
 30
-961.788
 70
    32
  0
VERTEX
  8
T62SSILL
 62
4
 10
6776.524
 20
-11155.401
 30
-961.756
 70
    32
  0
VERTEX
  8
T62SSILL
 62
4
 10
6784.954
 20
-11143.426
 30
-961.754
 70
    32
  0
VERTEX
  8
T62SSILL
 62
4
 10
6787.353
 20
-11133.158
 30
-961.753
 70
    32
  0
VERTEX
  8
T62SSILL
 62
4
 10
6825.845
 20
-11185.595
 30
-961.755
 70
    32
  0
VERTEX
  8
T62SSILL
 62
4
 10
6832.015
 20
-11181.008
 30
-961.754
 70
    32
  0
VERTEX
  8
T62SSILL
 62
4
 10
6582.313
 20
-10835.343
 30
-961.742
 70
    32
  0
VERTEX
  8
T62SSILL
 62
4
 10
6587.306
 20
-10824.543
 30
-961.741
 70
    32
  0
VERTEX
  8
T62SSILL
 62
4
 10
6578.214
 20
-10811.584
 30
-961.740
 70
    32
  0
VERTEX
  8
T62SSILL
 62
4
 10
6570.042
 20
-10803.479
 30
-961.740
 70
    32
  0
VERTEX
  8
T62SSILL
 62
4
 10
6562.005
 20
-10806.490
 30
-961.741
 70
    32
  0
VERTEX
  8
T62SSILL
 62
4
 10
6460.611
 20
-10665.333
 30
-961.736
 70
    32
  0
VERTEX
  8
T62SSILL
 62
4
 10
6460.731
 20
-10655.135
 30
-961.735
 70
    32
  0
VERTEX
  8
T62SSILL
 62
4
 10
6465.029
 20
-10653.194
 30
-961.734
 70
    32
  0
VERTEX
  8
T62SSILL
 62
4
 10
6483.365
 20
-10651.893
 30
-961.733
 70
    32
  0
VERTEX
  8
T62SSILL
 62
4
 10
6483.335
 20
-10631.144
 30
-961.731
 70
    32
  0
VERTEX
  8
T62SSILL
 62
4
 10
6486.189
 20
-10622.639
 30
-961.730
 70
    32
  0
VERTEX
  8
T62SSILL
 62
4
 10
6491.930
 20
-10619.822
 30
-961.729
 70
    32
  0
VERTEX
  8
T62SSILL
 62
4
 10
6484.189
 20
-10598.281
 30
-961.728
 70
    32
  0
VERTEX
  8
T62SSILL
 62
4
 10
6468.169
 20
-10566.162
 30
-961.726
 70
    32
  0
VERTEX
  8
T62SSILL
 62
4
 10
6476.100
 20
-10558.345
 30
-961.725
 70
    32
  0
VERTEX
  8
T62SSILL
 62
4
 10
6485.133
 20
-10546.578
 30
-961.724
 70
    32
  0
VERTEX
  8
T62SSILL
 62
4
 10
6669.314
 20
-10414.751
 30
-961.699
 70
    32
  0
VERTEX
  8
T62SSILL
 62
4
 10
6677.354
 20
-10412.182
 30
-961.698
 70
    32
  0
VERTEX
  8
T62SSILL
 62
4
 10
6693.245
 20
-10415.226
 30
-961.697
 70
    32
  0
VERTEX
  8
T62SSILL
 62
4
 10
6701.577
 20
-10424.401
 30
-961.698
 70
    32
  0
VERTEX
  8
T62SSILL
 62
4
 10
6821.274
 20
-10591.169
 30
-961.704
 70
    32
  0
VERTEX
  8
T62SSILL
 62
4
 10
6826.961
 20
-10587.087
 30
-961.703
 70
    32
  0
VERTEX
  8
T62SSILL
 62
4
 10
6725.521
 20
-10445.757
 30
-961.698
 70
    32
  0
VERTEX
  8
T62SSILL
 62
4
 10
6731.964
 20
-10438.237
 30
-961.697
 70
    32
  0
VERTEX
  8
T62SSILL
 62
4
 10
6735.910
 20
-10438.897
 30
-961.696
 70
    32
  0
VERTEX
  8
T62SSILL
 62
4
 10
6743.541
 20
-10445.416
 30
-961.696
 70
    32
  0
VERTEX
  8
T62SSILL
 62
4
 10
6749.647
 20
-10439.432
 30
-961.695
 70
    32
  0
VERTEX
  8
T62SSILL
 62
4
 10
6722.390
 20
-10410.206
 30
-961.695
 70
    32
  0
VERTEX
  8
T62SSILL
 62
4
 10
6717.031
 20
-10397.626
 30
-961.694
 70
    32
  0
VERTEX
  8
T62SSILL
 62
4
 10
6710.288
 20
-10386.877
 30
-961.694
 70
    32
  0
VERTEX
  8
T62SSILL
 62
4
 10
6712.609
 20
-10382.777
 30
-961.693
 70
    32
  0
VERTEX
  8
T62SSILL
 62
4
 10
6768.019
 20
-10342.355
 30
-961.686
 70
    32
  0
VERTEX
  8
T62SSILL
 62
4
 10
6764.358
 20
-10337.257
 30
-961.685
 70
    32
  0
VERTEX
  8
T62SSILL
 62
4
 10
6475.664
 20
-10544.792
 30
-961.724
 70
    32
  0
VERTEX
  8
T62SSILL
 62
4
 10
6470.537
 20
-10542.143
 30
-961.724
 70
    32
  0
VERTEX
  8
T62SSILL
 62
4
 10
6469.140
 20
-10532.433
 30
-961.723
 70
    32
  0
VERTEX
  8
T62SSILL
 62
4
 10
6456.499
 20
-10527.065
 30
-961.724
 70
    32
  0
VERTEX
  8
T62SSILL
 62
4
 10
6432.456
 20
-10526.270
 30
-961.725
 70
    32
  0
VERTEX
  8
T62SSILL
 62
4
 10
6426.324
 20
-10545.492
 30
-961.728
 70
    32
  0
VERTEX
  8
T62SSILL
 62
4
 10
6428.582
 20
-10549.770
 30
-961.728
 70
    32
  0
VERTEX
  8
T62SSILL
 62
4
 10
6444.510
 20
-10557.411
 30
-961.727
 70
    32
  0
VERTEX
  8
T62SSILL
 62
4
 10
6447.726
 20
-10562.071
 30
-961.728
 70
    32
  0
VERTEX
  8
T62SSILL
 62
4
 10
6421.323
 20
-10581.513
 30
-961.731
 70
    32
  0
VERTEX
  8
T62SSILL
 62
4
 10
6411.683
 20
-10582.856
 30
-961.732
 70
    32
  0
VERTEX
  8
T62SSILL
 62
4
 10
6399.239
 20
-10577.893
 30
-961.732
 70
    32
  0
VERTEX
  8
T62SSILL
 62
4
 10
6394.594
 20
-10573.544
 30
-961.732
 70
    32
  0
VERTEX
  8
T62SSILL
 62
4
 10
5888.380
 20
-9866.447
 30
-961.171
 70
    32
  0
VERTEX
  8
T62SSILL
 62
4
 10
5895.858
 20
-9861.477
 30
-961.205
 70
    32
  0
VERTEX
  8
T62SSILL
 62
4
 10
5891.244
 20
-9855.067
 30
-961.189
 70
    32
  0
VERTEX
  8
T62SSILL
 62
4
 10
5883.737
 20
-9859.960
 30
-961.156
 70
    32
  0
VERTEX
  8
T62SSILL
 62
4
 10
5853.249
 20
-9817.363
 30
-961.052
 70
    32
  0
VERTEX
  8
T62SSILL
 62
4
 10
5847.723
 20
-9806.891
 30
-961.035
 70
    32
  0
VERTEX
  8
T62SSILL
 62
4
 10
5845.679
 20
-9796.894
 30
-961.032
 70
    32
  0
VERTEX
  8
T62SSILL
 62
4
 10
5670.028
 20
-8701.655
 30
-960.908
 70
    32
  0
VERTEX
  8
T62SSILL
 62
4
 10
5669.879
 20
-8685.099
 30
-960.916
 70
    32
  0
VERTEX
  8
T62SSILL
 62
4
 10
5672.946
 20
-8671.461
 30
-960.928
 70
    32
  0
VERTEX
  8
T62SSILL
 62
4
 10
5677.080
 20
-8663.205
 30
-960.923
 70
    32
  0
VERTEX
  8
T62SSILL
 62
4
 10
5686.750
 20
-8653.025
 30
-960.917
 70
    32
  0
VERTEX
  8
T62SSILL
 62
4
 10
5790.026
 20
-8579.309
 30
-960.991
 70
    32
  0
VERTEX
  8
T62SSILL
 62
4
 10
5779.697
 20
-8646.054
 30
-960.985
 70
    32
  0
VERTEX
  8
T62SSILL
 62
4
 10
5787.367
 20
-8646.726
 30
-960.991
 70
    32
  0
VERTEX
  8
T62SSILL
 62
4
 10
5798.793
 20
-8572.767
 30
-960.998
 70
    32
  0
VERTEX
  8
T62SSILL
 62
4
 10
5812.665
 20
-8563.527
 30
-961.008
 70
    32
  0
VERTEX
  8
T62SSILL
 62
4
 10
5868.374
 20
-8625.401
 30
-961.054
 70
    32
  0
VERTEX
  8
T62SSILL
 62
4
 10
5869.787
 20
-8641.612
 30
-961.056
 70
    32
  0
VERTEX
  8
T62SSILL
 62
4
 10
5884.027
 20
-8654.793
 30
-961.067
 70
    32
  0
VERTEX
  8
T62SSILL
 62
4
 10
5890.739
 20
-8650.545
 30
-961.072
 70
    32
  0
VERTEX
  8
T62SSILL
 62
4
 10
5906.185
 20
-8667.614
 30
-961.085
 70
    32
  0
VERTEX
  8
T62SSILL
 62
4
 10
5911.040
 20
-8663.478
 30
-961.089
 70
    32
  0
VERTEX
  8
T62SSILL
 62
4
 10
5894.846
 20
-8644.565
 30
-961.075
 70
    32
  0
VERTEX
  8
T62SSILL
 62
4
 10
5898.234
 20
-8636.936
 30
-961.078
 70
    32
  0
VERTEX
  8
T62SSILL
 62
4
 10
5895.590
 20
-8629.751
 30
-961.075
 70
    32
  0
VERTEX
  8
T62SSILL
 62
4
 10
5890.098
 20
-8626.808
 30
-961.071
 70
    32
  0
VERTEX
  8
T62SSILL
 62
4
 10
5880.425
 20
-8627.425
 30
-961.063
 70
    32
  0
VERTEX
  8
T62SSILL
 62
4
 10
5818.879
 20
-8558.873
 30
-961.013
 70
    32
  0
VERTEX
  8
T62SSILL
 62
4
 10
5830.445
 20
-8550.487
 30
-961.022
 70
    32
  0
VERTEX
  8
T62SSILL
 62
4
 10
5896.661
 20
-8561.291
 30
-961.074
 70
    32
  0
VERTEX
  8
T62SSILL
 62
4
 10
5930.878
 20
-8538.836
 30
-961.100
 70
    32
  0
VERTEX
  8
T62SSILL
 62
4
 10
5945.520
 20
-8560.765
 30
-961.112
 70
    32
  0
VERTEX
  8
T62SSILL
 62
4
 10
5951.118
 20
-8557.077
 30
-961.117
 70
    32
  0
VERTEX
  8
T62SSILL
 62
4
 10
5936.737
 20
-8534.751
 30
-961.105
 70
    32
  0
VERTEX
  8
T62SSILL
 62
4
 10
6029.080
 20
-8474.031
 30
-961.081
 70
    32
  0
VERTEX
  8
T62SSILL
 62
4
 10
6040.217
 20
-8400.274
 30
-960.798
 70
    32
  0
VERTEX
  8
T62SSILL
 62
4
 10
6287.081
 20
-8223.559
 30
-961.047
 70
    32
  0
VERTEX
  8
T62SSILL
 62
4
 10
6378.128
 20
-8155.955
 30
-961.137
 70
    32
  0
VERTEX
  8
T62SSILL
 62
4
 10
6387.997
 20
-8150.671
 30
-961.149
 70
    32
  0
VERTEX
  8
T62SSILL
 62
4
 10
6398.460
 20
-8147.565
 30
-961.162
 70
    32
  0
VERTEX
  8
T62SSILL
 62
4
 10
6419.984
 20
-8149.394
 30
-961.197
 70
    32
  0
VERTEX
  8
T62SSILL
 62
4
 10
6427.451
 20
-8152.362
 30
-961.211
 70
    32
  0
VERTEX
  8
T62SSILL
 62
4
 10
6437.964
 20
-8160.299
 30
-961.233
 70
    32
  0
VERTEX
  8
T62SSILL
 62
4
 10
6721.442
 20
-8551.910
 30
-961.598
 70
    32
  0
VERTEX
  8
T62SSILL
 62
4
 10
6727.946
 20
-8558.773
 30
-961.598
 70
    32
  0
VERTEX
  8
T62SSILL
 62
4
 10
6731.312
 20
-8568.237
 30
-961.597
 70
    32
  0
VERTEX
  8
T62SSILL
 62
4
 10
6730.436
 20
-8579.685
 30
-961.598
 70
    32
  0
VERTEX
  8
T62SSILL
 62
4
 10
6728.196
 20
-8585.787
 30
-961.599
 70
    32
  0
VERTEX
  8
T62SSILL
 62
4
 10
6636.459
 20
-8653.596
 30
-961.614
 70
    32
  0
VERTEX
  8
T62SSILL
 62
4
 10
6640.253
 20
-8659.583
 30
-961.614
 70
    32
  0
VERTEX
  8
T62SSILL
 62
4
 10
6728.818
 20
-8595.384
 30
-961.599
 70
    32
  0
VERTEX
  8
T62SSILL
 62
4
 10
6735.902
 20
-8585.116
 30
-961.597
 70
    32
  0
VERTEX
  8
T62SSILL
 62
4
 10
6738.922
 20
-8574.517
 30
-961.597
 70
    32
  0
VERTEX
  8
T62SSILL
 62
4
 10
6771.117
 20
-8619.986
 30
-961.594
 70
    32
  0
VERTEX
  8
T62SSILL
 62
4
 10
6765.950
 20
-8623.405
 30
-961.595
 70
    32
  0
VERTEX
  8
T62SSILL
 62
4
 10
6769.277
 20
-8628.747
 30
-961.594
 70
    32
  0
VERTEX
  8
T62SSILL
 62
4
 10
6775.081
 20
-8625.304
 30
-961.593
 70
    32
  0
VERTEX
  8
T62SSILL
 62
4
 10
6860.323
 20
-8744.707
 30
-961.586
 70
    32
  0
VERTEX
  8
T62SSILL
 62
4
 10
6853.040
 20
-8749.877
 30
-961.587
 70
    32
  0
VERTEX
  8
T62SSILL
 62
4
 10
6857.367
 20
-8755.696
 30
-961.587
 70
    32
  0
VERTEX
  8
T62SSILL
 62
4
 10
6864.962
 20
-8750.955
 30
-961.585
 70
    32
  0
VERTEX
  8
T62SSILL
 62
4
 10
7071.158
 20
-9039.780
 30
-961.567
 70
    32
  0
VERTEX
  8
T62SSILL
 62
4
 10
7073.033
 20
-9050.653
 30
-961.567
 70
    32
  0
VERTEX
  8
T62SSILL
 62
4
 10
7071.794
 20
-9057.231
 30
-961.567
 70
    32
  0
VERTEX
  8
T62SSILL
 62
4
 10
7064.827
 20
-9067.960
 30
-961.569
 70
    32
  0
VERTEX
  8
T62SSILL
 62
4
 10
6991.415
 20
-9120.520
 30
-961.581
 70
    32
  0
VERTEX
  8
T62SSILL
 62
4
 10
6987.542
 20
-9115.027
 30
-961.581
 70
    32
  0
VERTEX
  8
T62SSILL
 62
4
 10
6980.350
 20
-9120.022
 30
-961.583
 70
    32
  0
VERTEX
  8
T62SSILL
 62
4
 10
6983.936
 20
-9125.722
 30
-961.582
 70
    32
  0
VERTEX
  8
T62SSILL
 62
4
 10
6980.193
 20
-9128.545
 30
-961.583
 70
    32
  0
VERTEX
  8
T62SSILL
 62
4
 10
6985.208
 20
-9135.613
 30
-961.583
 70
    32
  0
VERTEX
  8
T62SSILL
 62
4
 10
7073.344
 20
-9071.725
 30
-961.568
 70
    32
  0
VERTEX
  8
T62SSILL
 62
4
 10
7077.476
 20
-9065.672
 30
-961.567
 70
    32
  0
VERTEX
  8
T62SSILL
 62
4
 10
7081.149
 20
-9052.961
 30
-961.566
 70
    32
  0
VERTEX
  8
T62SSILL
 62
4
 10
7136.363
 20
-9129.583
 30
-961.561
 70
    32
  0
VERTEX
  8
T62SSILL
 62
4
 10
7143.320
 20
-9124.867
 30
-961.558
 70
    32
  0
VERTEX
  8
T62SSILL
 62
4
 10
7086.926
 20
-9046.917
 30
-961.564
 70
    32
  0
VERTEX
  8
T62SSILL
 62
4
 10
7092.741
 20
-9040.627
 30
-961.560
 70
    32
  0
VERTEX
  8
T62SSILL
 62
4
 10
7074.945
 20
-9016.829
 30
-961.562
 70
    32
  0
VERTEX
  8
T62SSILL
 62
4
 10
7069.010
 20
-9020.695
 30
-961.565
 70
    32
  0
VERTEX
  8
T62SSILL
 62
4
 10
7024.544
 20
-8959.655
 30
-961.569
 70
    32
  0
VERTEX
  8
T62SSILL
 62
4
 10
7064.232
 20
-8957.753
 30
-961.554
 70
    32
  0
VERTEX
  8
T62SSILL
 62
4
 10
7071.957
 20
-8961.328
 30
-961.552
 70
    32
  0
VERTEX
  8
T62SSILL
 62
4
 10
7071.885
 20
-8965.749
 30
-961.553
 70
    32
  0
VERTEX
  8
T62SSILL
 62
4
 10
7081.332
 20
-8965.673
 30
-961.550
 70
    32
  0
VERTEX
  8
T62SSILL
 62
4
 10
7080.908
 20
-8962.376
 30
-961.549
 70
    32
  0
VERTEX
  8
T62SSILL
 62
4
 10
7087.577
 20
-8954.702
 30
-961.545
 70
    32
  0
VERTEX
  8
T62SSILL
 62
4
 10
7102.524
 20
-8954.680
 30
-961.540
 70
    32
  0
VERTEX
  8
T62SSILL
 62
4
 10
7103.431
 20
-8960.903
 30
-961.541
 70
    32
  0
VERTEX
  8
T62SSILL
 62
4
 10
7111.038
 20
-8960.850
 30
-961.538
 70
    32
  0
VERTEX
  8
T62SSILL
 62
4
 10
7114.428
 20
-8954.679
 30
-961.535
 70
    32
  0
VERTEX
  8
T62SSILL
 62
4
 10
7112.226
 20
-8945.463
 30
-961.534
 70
    32
  0
VERTEX
  8
T62SSILL
 62
4
 10
7089.631
 20
-8946.988
 30
-961.543
 70
    32
  0
VERTEX
  8
T62SSILL
 62
4
 10
7080.387
 20
-8942.221
 30
-961.545
 70
    32
  0
VERTEX
  8
T62SSILL
 62
4
 10
7079.821
 20
-8937.825
 30
-961.545
 70
    32
  0
VERTEX
  8
T62SSILL
 62
4
 10
7070.530
 20
-8938.116
 30
-961.548
 70
    32
  0
VERTEX
  8
T62SSILL
 62
4
 10
7070.283
 20
-8942.446
 30
-961.549
 70
    32
  0
VERTEX
  8
T62SSILL
 62
4
 10
7063.146
 20
-8949.475
 30
-961.553
 70
    32
  0
VERTEX
  8
T62SSILL
 62
4
 10
7038.660
 20
-8950.952
 30
-961.562
 70
    32
  0
VERTEX
  8
T62SSILL
 62
4
 10
7039.106
 20
-8939.816
 30
-961.560
 70
    32
  0
VERTEX
  8
T62SSILL
 62
4
 10
7035.092
 20
-8933.223
 30
-961.560
 70
    32
  0
VERTEX
  8
T62SSILL
 62
4
 10
7014.134
 20
-8943.937
 30
-961.570
 70
    32
  0
VERTEX
  8
T62SSILL
 62
4
 10
6865.271
 20
-8736.315
 30
-961.583
 70
    32
  0
VERTEX
  8
T62SSILL
 62
4
 10
6877.096
 20
-8736.808
 30
-961.579
 70
    32
  0
VERTEX
  8
T62SSILL
 62
4
 10
6884.127
 20
-8735.206
 30
-961.576
 70
    32
  0
VERTEX
  8
T62SSILL
 62
4
 10
6894.838
 20
-8728.526
 30
-961.571
 70
    32
  0
VERTEX
  8
T62SSILL
 62
4
 10
6913.335
 20
-8732.710
 30
-961.565
 70
    32
  0
VERTEX
  8
T62SSILL
 62
4
 10
6924.959
 20
-8720.571
 30
-961.558
 70
    32
  0
VERTEX
  8
T62SSILL
 62
4
 10
6926.945
 20
-8714.872
 30
-961.557
 70
    32
  0
VERTEX
  8
T62SSILL
 62
4
 10
6943.261
 20
-8707.850
 30
-961.549
 70
    32
  0
VERTEX
  8
T62SSILL
 62
4
 10
6974.633
 20
-8685.437
 30
-961.533
 70
    32
  0
VERTEX
  8
T62SSILL
 62
4
 10
6976.273
 20
-8670.779
 30
-961.530
 70
    32
  0
VERTEX
  8
T62SSILL
 62
4
 10
6985.413
 20
-8664.298
 30
-961.525
 70
    32
  0
VERTEX
  8
T62SSILL
 62
4
 10
6999.691
 20
-8659.737
 30
-961.519
 70
    32
  0
VERTEX
  8
T62SSILL
 62
4
 10
7004.604
 20
-8661.090
 30
-961.518
 70
    32
  0
VERTEX
  8
T62SSILL
 62
4
 10
7007.090
 20
-8659.397
 30
-961.517
 70
    32
  0
VERTEX
  8
T62SSILL
 62
4
 10
7013.662
 20
-8643.603
 30
-961.511
 70
    32
  0
VERTEX
  8
T62SSILL
 62
4
 10
7035.583
 20
-8628.040
 30
-961.500
 70
    32
  0
VERTEX
  8
T62SSILL
 62
4
 10
7031.179
 20
-8621.512
 30
-961.500
 70
    32
  0
VERTEX
  8
T62SSILL
 62
4
 10
7003.086
 20
-8642.422
 30
-961.515
 70
    32
  0
VERTEX
  8
T62SSILL
 62
4
 10
6997.246
 20
-8639.338
 30
-961.516
 70
    32
  0
VERTEX
  8
T62SSILL
 62
4
 10
6977.668
 20
-8612.027
 30
-961.518
 70
    32
  0
VERTEX
  8
T62SSILL
 62
4
 10
6993.652
 20
-8601.533
 30
-961.510
 70
    32
  0
VERTEX
  8
T62SSILL
 62
4
 10
6990.156
 20
-8595.657
 30
-961.510
 70
    32
  0
VERTEX
  8
T62SSILL
 62
4
 10
6972.089
 20
-8603.729
 30
-961.518
 70
    32
  0
VERTEX
  8
T62SSILL
 62
4
 10
6970.103
 20
-8601.893
 30
-961.519
 70
    32
  0
VERTEX
  8
T62SSILL
 62
4
 10
6964.975
 20
-8605.064
 30
-961.521
 70
    32
  0
VERTEX
  8
T62SSILL
 62
4
 10
6991.468
 20
-8642.215
 30
-961.519
 70
    32
  0
VERTEX
  8
T62SSILL
 62
4
 10
6992.842
 20
-8649.083
 30
-961.520
 70
    32
  0
VERTEX
  8
T62SSILL
 62
4
 10
6957.003
 20
-8674.770
 30
-961.538
 70
    32
  0
VERTEX
  8
T62SSILL
 62
4
 10
6947.053
 20
-8673.756
 30
-961.541
 70
    32
  0
VERTEX
  8
T62SSILL
 62
4
 10
6929.755
 20
-8684.547
 30
-961.550
 70
    32
  0
VERTEX
  8
T62SSILL
 62
4
 10
6907.462
 20
-8701.253
 30
-961.561
 70
    32
  0
VERTEX
  8
T62SSILL
 62
4
 10
6906.373
 20
-8711.058
 30
-961.563
 70
    32
  0
VERTEX
  8
T62SSILL
 62
4
 10
6885.676
 20
-8725.892
 30
-961.574
 70
    32
  0
VERTEX
  8
T62SSILL
 62
4
 10
6872.939
 20
-8730.319
 30
-961.579
 70
    32
  0
VERTEX
  8
T62SSILL
 62
4
 10
6866.003
 20
-8729.340
 30
-961.582
 70
    32
  0
VERTEX
  8
T62SSILL
 62
4
 10
6855.013
 20
-8723.218
 30
-961.584
 70
    32
  0
VERTEX
  8
T62SSILL
 62
4
 10
6804.329
 20
-8651.941
 30
-961.589
 70
    32
  0
VERTEX
  8
T62SSILL
 62
4
 10
6813.650
 20
-8653.048
 30
-961.586
 70
    32
  0
VERTEX
  8
T62SSILL
 62
4
 10
6823.002
 20
-8651.184
 30
-961.582
 70
    32
  0
VERTEX
  8
T62SSILL
 62
4
 10
6852.790
 20
-8631.557
 30
-961.567
 70
    32
  0
VERTEX
  8
T62SSILL
 62
4
 10
6856.877
 20
-8636.894
 30
-961.567
 70
    32
  0
VERTEX
  8
T62SSILL
 62
4
 10
6863.425
 20
-8632.367
 30
-961.563
 70
    32
  0
VERTEX
  8
T62SSILL
 62
4
 10
6859.883
 20
-8627.179
 30
-961.564
 70
    32
  0
VERTEX
  8
T62SSILL
 62
4
 10
6926.775
 20
-8578.582
 30
-961.530
 70
    32
  0
VERTEX
  8
T62SSILL
 62
4
 10
6931.122
 20
-8584.278
 30
-961.529
 70
    32
  0
VERTEX
  8
T62SSILL
 62
4
 10
6938.829
 20
-8578.035
 30
-961.525
 70
    32
  0
VERTEX
  8
T62SSILL
 62
4
 10
6935.066
 20
-8573.446
 30
-961.526
 70
    32
  0
VERTEX
  8
T62SSILL
 62
4
 10
7045.116
 20
-8494.437
 30
-961.470
 70
    32
  0
VERTEX
  8
T62SSILL
 62
4
 10
7055.969
 20
-8497.055
 30
-961.467
 70
    32
  0
VERTEX
  8
T62SSILL
 62
4
 10
7063.664
 20
-8494.863
 30
-961.464
 70
    32
  0
VERTEX
  8
T62SSILL
 62
4
 10
7068.823
 20
-8484.352
 30
-961.460
 70
    32
  0
VERTEX
  8
T62SSILL
 62
4
 10
7079.969
 20
-8470.046
 30
-961.459
 70
    32
  0
VERTEX
  8
T62SSILL
 62
4
 10
7078.937
 20
-8465.006
 30
-961.459
 70
    32
  0
VERTEX
  8
T62SSILL
 62
4
 10
7074.957
 20
-8457.406
 30
-961.457
 70
    32
  0
VERTEX
  8
T62SSILL
 62
4
 10
7072.988
 20
-8456.649
 30
-961.457
 70
    32
  0
VERTEX
  8
T62SSILL
 62
4
 10
7071.591
 20
-8447.941
 30
-961.456
 70
    32
  0
VERTEX
  8
T62SSILL
 62
4
 10
7064.681
 20
-8434.492
 30
-961.454
 70
    32
  0
VERTEX
  8
T62SSILL
 62
4
 10
7016.121
 20
-8368.556
 30
-961.456
 70
    32
  0
VERTEX
  8
T62SSILL
 62
4
 10
7018.451
 20
-8359.113
 30
-961.453
 70
    32
  0
VERTEX
  8
T62SSILL
 62
4
 10
7008.352
 20
-8343.826
 30
-961.454
 70
    32
  0
VERTEX
  8
T62SSILL
 62
4
 10
7013.825
 20
-8307.530
 30
-961.445
 70
    32
  0
VERTEX
  8
T62SSILL
 62
4
 10
7021.727
 20
-8301.256
 30
-961.441
 70
    32
  0
VERTEX
  8
T62SSILL
 62
4
 10
7023.176
 20
-8293.762
 30
-961.439
 70
    32
  0
VERTEX
  8
T62SSILL
 62
4
 10
7029.286
 20
-8278.083
 30
-961.434
 70
    32
  0
VERTEX
  8
T62SSILL
 62
4
 10
7028.668
 20
-8261.712
 30
-961.431
 70
    32
  0
VERTEX
  8
T62SSILL
 62
4
 10
7033.262
 20
-8258.709
 30
-961.430
 70
    32
  0
VERTEX
  8
T62SSILL
 62
4
 10
7034.014
 20
-8255.979
 30
-961.429
 70
    32
  0
VERTEX
  8
T62SSILL
 62
4
 10
7025.587
 20
-8248.873
 30
-961.429
 70
    32
  0
VERTEX
  8
T62SSILL
 62
4
 10
7040.868
 20
-8176.087
 30
-961.420
 70
    32
  0
VERTEX
  8
T62SSILL
 62
4
 10
7034.056
 20
-8175.127
 30
-961.420
 70
    32
  0
VERTEX
  8
T62SSILL
 62
4
 10
7023.732
 20
-8224.769
 30
-961.425
 70
    32
  0
VERTEX
  8
T62SSILL
 62
4
 10
7003.010
 20
-8197.086
 30
-961.427
 70
    32
  0
VERTEX
  8
T62SSILL
 62
4
 10
7002.216
 20
-8189.361
 30
-961.426
 70
    32
  0
VERTEX
  8
T62SSILL
 62
4
 10
6995.129
 20
-8185.761
 30
-961.428
 70
    32
  0
VERTEX
  8
T62SSILL
 62
4
 10
6959.934
 20
-8137.661
 30
-961.431
 70
    32
  0
VERTEX
  8
T62SSILL
 62
4
 10
6954.011
 20
-8141.845
 30
-961.434
 70
    32
  0
VERTEX
  8
T62SSILL
 62
4
 10
6987.996
 20
-8190.386
 30
-961.431
 70
    32
  0
VERTEX
  8
T62SSILL
 62
4
 10
6984.450
 20
-8196.342
 30
-961.434
 70
    32
  0
VERTEX
  8
T62SSILL
 62
4
 10
6991.249
 20
-8205.721
 30
-961.433
 70
    32
  0
VERTEX
  8
T62SSILL
 62
4
 10
6995.611
 20
-8201.795
 30
-961.431
 70
    32
  0
VERTEX
  8
T62SSILL
 62
4
 10
7009.639
 20
-8219.855
 30
-961.429
 70
    32
  0
VERTEX
  8
T62SSILL
 62
4
 10
6999.564
 20
-8230.602
 30
-961.435
 70
    32
  0
VERTEX
  8
T62SSILL
 62
4
 10
6997.965
 20
-8234.273
 30
-961.436
 70
    32
  0
VERTEX
  8
T62SSILL
 62
4
 10
6999.164
 20
-8241.049
 30
-961.437
 70
    32
  0
VERTEX
  8
T62SSILL
 62
4
 10
6993.832
 20
-8245.898
 30
-961.440
 70
    32
  0
VERTEX
  8
T62SSILL
 62
4
 10
6987.694
 20
-8245.869
 30
-961.442
 70
    32
  0
VERTEX
  8
T62SSILL
 62
4
 10
6985.838
 20
-8247.979
 30
-961.443
 70
    32
  0
VERTEX
  8
T62SSILL
 62
4
 10
6986.462
 20
-8252.004
 30
-961.444
 70
    32
  0
VERTEX
  8
T62SSILL
 62
4
 10
6991.964
 20
-8259.593
 30
-961.444
 70
    32
  0
VERTEX
  8
T62SSILL
 62
4
 10
6992.792
 20
-8266.311
 30
-961.445
 70
    32
  0
VERTEX
  8
T62SSILL
 62
4
 10
6983.908
 20
-8280.723
 30
-961.451
 70
    32
  0
VERTEX
  8
T62SSILL
 62
4
 10
6983.315
 20
-8290.000
 30
-961.453
 70
    32
  0
VERTEX
  8
T62SSILL
 62
4
 10
6986.525
 20
-8299.250
 30
-961.453
 70
    32
  0
VERTEX
  8
T62SSILL
 62
4
 10
6987.431
 20
-8315.978
 30
-961.456
 70
    32
  0
VERTEX
  8
T62SSILL
 62
4
 10
6977.286
 20
-8315.886
 30
-961.460
 70
    32
  0
VERTEX
  8
T62SSILL
 62
4
 10
6963.204
 20
-8295.404
 30
-961.461
 70
    32
  0
VERTEX
  8
T62SSILL
 62
4
 10
6958.414
 20
-8298.439
 30
-961.463
 70
    32
  0
VERTEX
  8
T62SSILL
 62
4
 10
6982.993
 20
-8333.702
 30
-961.461
 70
    32
  0
VERTEX
  8
T62SSILL
 62
4
 10
6981.204
 20
-8342.535
 30
-961.464
 70
    32
  0
VERTEX
  8
T62SSILL
 62
4
 10
6993.877
 20
-8358.360
 30
-961.462
 70
    32
  0
VERTEX
  8
T62SSILL
 62
4
 10
6995.554
 20
-8374.837
 30
-961.465
 70
    32
  0
VERTEX
  8
T62SSILL
 62
4
 10
7010.258
 20
-8372.370
 30
-961.459
 70
    32
  0
VERTEX
  8
T62SSILL
 62
4
 10
7061.710
 20
-8443.199
 30
-961.454
 70
    32
  0
VERTEX
  8
T62SSILL
 62
4
 10
7065.125
 20
-8458.308
 30
-961.456
 70
    32
  0
VERTEX
  8
T62SSILL
 62
4
 10
7059.349
 20
-8459.982
 30
-961.458
 70
    32
  0
VERTEX
  8
T62SSILL
 62
4
 10
7054.289
 20
-8465.507
 30
-961.461
 70
    32
  0
VERTEX
  8
T62SSILL
 62
4
 10
7035.221
 20
-8477.472
 30
-961.471
 70
    32
  0
VERTEX
  8
T62SSILL
 62
4
 10
7032.140
 20
-8494.014
 30
-961.475
 70
    32
  0
VERTEX
  8
T62SSILL
 62
4
 10
6824.615
 20
-8642.260
 30
-961.580
 70
    32
  0
VERTEX
  8
T62SSILL
 62
4
 10
6816.958
 20
-8645.407
 30
-961.583
 70
    32
  0
VERTEX
  8
T62SSILL
 62
4
 10
6809.559
 20
-8645.747
 30
-961.586
 70
    32
  0
VERTEX
  8
T62SSILL
 62
4
 10
6803.678
 20
-8644.112
 30
-961.588
 70
    32
  0
VERTEX
  8
T62SSILL
 62
4
 10
6793.247
 20
-8637.256
 30
-961.590
 70
    32
  0
VERTEX
  8
T62SSILL
 62
4
 10
6603.756
 20
-8372.340
 30
-961.607
 70
    32
  0
VERTEX
  8
T62SSILL
 62
4
 10
6611.185
 20
-8366.538
 30
-961.603
 70
    32
  0
VERTEX
  8
T62SSILL
 62
4
 10
6607.196
 20
-8361.165
 30
-961.603
 70
    32
  0
VERTEX
  8
T62SSILL
 62
4
 10
6599.631
 20
-8366.631
 30
-961.607
 70
    32
  0
VERTEX
  8
T62SSILL
 62
4
 10
6543.836
 20
-8289.853
 30
-961.491
 70
    32
  0
VERTEX
  8
T62SSILL
 62
4
 10
6551.635
 20
-8284.110
 30
-961.499
 70
    32
  0
VERTEX
  8
T62SSILL
 62
4
 10
6547.153
 20
-8278.659
 30
-961.488
 70
    32
  0
VERTEX
  8
T62SSILL
 62
4
 10
6540.346
 20
-8284.120
 30
-961.481
 70
    32
  0
VERTEX
  8
T62SSILL
 62
4
 10
6482.739
 20
-8207.240
 30
-961.336
 70
    32
  0
VERTEX
  8
T62SSILL
 62
4
 10
6490.842
 20
-8201.168
 30
-961.344
 70
    32
  0
VERTEX
  8
T62SSILL
 62
4
 10
6486.845
 20
-8196.236
 30
-961.334
 70
    32
  0
VERTEX
  8
T62SSILL
 62
4
 10
6478.812
 20
-8202.256
 30
-961.326
 70
    32
  0
VERTEX
  8
T62SSILL
 62
4
 10
6439.870
 20
-8151.210
 30
-961.229
 70
    32
  0
VERTEX
  8
T62SSILL
 62
4
 10
6408.585
 20
-8134.819
 30
-961.169
 70
    32
  0
VERTEX
  8
T62SSILL
 62
4
 10
7144.799
 20
-7603.467
 30
-961.361
 70
    32
  0
VERTEX
  8
T62SSILL
 62
4
 10
7138.896
 20
-7596.220
 30
-961.355
 70
    32
  0
VERTEX
  8
T62SSILL
 62
4
 10
7139.608
 20
-7567.653
 30
-961.330
 70
    32
  0
VERTEX
  8
T62SSILL
 62
4
 10
7057.029
 20
-7290.652
 30
-961.019
 70
    32
  0
VERTEX
  8
T62SSILL
 62
4
 10
7050.352
 20
-7292.869
 30
-961.016
 70
    32
  0
VERTEX
  8
T62SSILL
 62
4
 10
7130.439
 20
-7566.997
 30
-961.323
 70
    32
  0
VERTEX
  8
T62SSILL
 62
4
 10
7132.529
 20
-7577.697
 30
-961.334
 70
    32
  0
VERTEX
  8
T62SSILL
 62
4
 10
7131.689
 20
-7587.843
 30
-961.343
 70
    32
  0
VERTEX
  8
T62SSILL
 62
4
 10
7123.192
 20
-7606.407
 30
-961.354
 70
    32
  0
VERTEX
  8
T62SSILL
 62
4
 10
7116.263
 20
-7614.646
 30
-961.357
 70
    32
  0
VERTEX
  8
T62SSILL
 62
4
 10
6891.756
 20
-7775.852
 30
-961.428
 70
    32
  0
VERTEX
  8
T62SSILL
 62
4
 10
6886.702
 20
-7770.473
 30
-961.430
 70
    32
  0
VERTEX
  8
T62SSILL
 62
4
 10
6889.405
 20
-7759.160
 30
-961.421
 70
    32
  0
VERTEX
  8
T62SSILL
 62
4
 10
6887.926
 20
-7728.472
 30
-961.405
 70
    32
  0
VERTEX
  8
T62SSILL
 62
4
 10
6856.599
 20
-7622.103
 30
-961.211
 70
    32
  0
VERTEX
  8
T62SSILL
 62
4
 10
6848.342
 20
-7624.654
 30
-961.206
 70
    32
  0
VERTEX
  8
T62SSILL
 62
4
 10
6878.054
 20
-7728.190
 30
-961.387
 70
    32
  0
VERTEX
  8
T62SSILL
 62
4
 10
6880.389
 20
-7741.275
 30
-961.411
 70
    32
  0
VERTEX
  8
T62SSILL
 62
4
 10
6879.581
 20
-7763.313
 30
-961.433
 70
    32
  0
VERTEX
  8
T62SSILL
 62
4
 10
6873.723
 20
-7780.288
 30
-961.448
 70
    32
  0
VERTEX
  8
T62SSILL
 62
4
 10
6858.435
 20
-7799.657
 30
-961.458
 70
    32
  0
VERTEX
  8
T62SSILL
 62
4
 10
6057.198
 20
-8378.226
 30
-960.807
 70
    32
  0
VERTEX
  8
T62SSILL
 62
4
 10
6053.941
 20
-8374.478
 30
-960.800
 70
    32
  0
VERTEX
  8
T62SSILL
 62
4
 10
6047.735
 20
-8378.374
 30
-960.793
 70
    32
  0
VERTEX
  8
T62SSILL
 62
4
 10
6051.079
 20
-8382.707
 30
-960.801
 70
    32
  0
VERTEX
  8
T62SSILL
 62
4
 10
5968.410
 20
-8441.734
 30
-960.809
 70
    32
  0
VERTEX
  8
T62SSILL
 62
4
 10
5919.307
 20
-8434.047
 30
-960.677
 70
    32
  0
VERTEX
  8
T62SSILL
 62
4
 10
5911.170
 20
-8428.542
 30
-960.635
 70
    32
  0
VERTEX
  8
T62SSILL
 62
4
 10
5903.162
 20
-8419.830
 30
-960.601
 70
    32
  0
VERTEX
  8
T62SSILL
 62
4
 10
5867.779
 20
-8443.851
 30
-960.625
 70
    32
  0
VERTEX
  8
T62SSILL
 62
4
 10
5886.172
 20
-8472.086
 30
-960.795
 70
    32
  0
VERTEX
  8
T62SSILL
 62
4
 10
5888.440
 20
-8487.057
 30
-960.871
 70
    32
  0
VERTEX
  8
T62SSILL
 62
4
 10
5883.968
 20
-8502.535
 30
-960.937
 70
    32
  0
VERTEX
  8
T62SSILL
 62
4
 10
5766.588
 20
-8586.083
 30
-960.973
 70
    32
  0
VERTEX
  8
T62SSILL
 62
4
 10
5736.413
 20
-8584.117
 30
-960.949
 70
    32
  0
VERTEX
  8
T62SSILL
 62
4
 10
5735.291
 20
-8592.530
 30
-960.949
 70
    32
  0
VERTEX
  8
T62SSILL
 62
4
 10
5748.088
 20
-8593.927
 30
-960.959
 70
    32
  0
VERTEX
  8
T62SSILL
 62
4
 10
5748.801
 20
-8598.804
 30
-960.959
 70
    32
  0
VERTEX
  8
T62SSILL
 62
4
 10
5683.347
 20
-8645.831
 30
-960.913
 70
    32
  0
VERTEX
  8
T62SSILL
 62
4
 10
5675.075
 20
-8653.854
 30
-960.918
 70
    32
  0
VERTEX
  8
T62SSILL
 62
4
 10
5664.717
 20
-8668.599
 30
-960.904
 70
    32
  0
VERTEX
  8
T62SSILL
 62
4
 10
5641.697
 20
-8515.472
 30
-960.531
 70
    32
  0
VERTEX
  8
T62SSILL
 62
4
 10
5646.936
 20
-8510.960
 30
-960.519
 70
    32
  0
VERTEX
  8
T62SSILL
 62
4
 10
5643.616
 20
-8505.428
 30
-960.486
 70
    32
  0
VERTEX
  8
T62SSILL
 62
4
 10
5640.011
 20
-8506.115
 30
-960.482
 70
    32
  0
VERTEX
  8
T62SSILL
 62
4
 10
5618.847
 20
-8371.685
 30
-960.020
 70
    32
  0
VERTEX
  8
T62SSILL
 62
4
 10
5620.293
 20
-8367.130
 30
-960.014
 70
    32
  0
VERTEX
  8
T62SSILL
 62
4
 10
5630.915
 20
-8365.099
 30
-960.034
 70
    32
  0
VERTEX
  8
T62SSILL
 62
4
 10
5629.367
 20
-8355.323
 30
-960.011
 70
    32
  0
VERTEX
  8
T62SSILL
 62
4
 10
5623.630
 20
-8355.883
 30
-959.999
 70
    32
  0
VERTEX
  8
T62SSILL
 62
4
 10
5615.920
 20
-8349.757
 30
-959.969
 70
    32
  0
VERTEX
  8
T62SSILL
 62
4
 10
5592.897
 20
-8205.876
 30
-959.628
 70
    32
  0
VERTEX
  8
T62SSILL
 62
4
 10
5585.346
 20
-8207.378
 30
-959.614
 70
    32
  0
VERTEX
  8
T62SSILL
 62
4
 10
5607.675
 20
-8355.505
 30
-959.962
 70
    32
  0
VERTEX
  8
T62SSILL
 62
4
 10
5606.671
 20
-8358.999
 30
-959.967
 70
    32
  0
VERTEX
  8
T62SSILL
 62
4
 10
5584.715
 20
-8361.731
 30
-959.923
 70
    32
  0
VERTEX
  8
T62SSILL
 62
4
 10
5585.500
 20
-8370.104
 30
-959.941
 70
    32
  0
VERTEX
  8
T62SSILL
 62
4
 10
5607.674
 20
-8367.221
 30
-959.986
 70
    32
  0
VERTEX
  8
T62SSILL
 62
4
 10
5609.952
 20
-8369.718
 30
-959.996
 70
    32
  0
VERTEX
  8
T62SSILL
 62
4
 10
5631.999
 20
-8510.195
 30
-960.473
 70
    32
  0
VERTEX
  8
T62SSILL
 62
4
 10
5615.865
 20
-8512.952
 30
-960.401
 70
    32
  0
VERTEX
  8
T62SSILL
 62
4
 10
5617.832
 20
-8522.866
 30
-960.453
 70
    32
  0
VERTEX
  8
T62SSILL
 62
4
 10
5633.357
 20
-8521.393
 30
-960.528
 70
    32
  0
VERTEX
  8
T62SSILL
 62
4
 10
5717.901
 20
-9057.254
 30
-960.910
 70
    32
  0
VERTEX
  8
T62SSILL
 62
4
 10
5733.796
 20
-9148.506
 30
-960.926
 70
    32
  0
VERTEX
  8
T62SSILL
 62
4
 10
5718.682
 20
-9159.846
 30
-960.857
 70
    32
  0
VERTEX
  8
T62SSILL
 62
4
 10
5722.684
 20
-9166.079
 30
-960.870
 70
    32
  0
VERTEX
  8
T62SSILL
 62
4
 10
5735.336
 20
-9156.904
 30
-960.928
 70
    32
  0
VERTEX
  8
T62SSILL
 62
4
 10
5767.929
 20
-9358.723
 30
-960.951
 70
    32
  0
VERTEX
  8
T62SSILL
 62
4
 10
5752.753
 20
-9368.694
 30
-960.883
 70
    32
  0
VERTEX
  8
T62SSILL
 62
4
 10
5757.039
 20
-9374.653
 30
-960.897
 70
    32
  0
VERTEX
  8
T62SSILL
 62
4
 10
5768.756
 20
-9366.328
 30
-960.951
 70
    32
  0
VERTEX
  8
T62SSILL
 62
4
 10
5779.374
 20
-9448.948
 30
-960.949
 70
    32
  0
VERTEX
  8
T62SSILL
 62
4
 10
5775.571
 20
-9463.289
 30
-960.925
 70
    32
  0
VERTEX
  8
T62SSILL
 62
4
 10
5763.985
 20
-9477.310
 30
-960.870
 70
    32
  0
VERTEX
  8
T62SSILL
 62
4
 10
5597.830
 20
-9597.113
 30
-960.113
 70
    32
  0
VERTEX
  8
T62SSILL
 62
4
 10
5586.554
 20
-9595.396
 30
-960.067
 70
    32
  0
VERTEX
  8
T62SSILL
 62
4
 10
5579.497
 20
-9598.548
 30
-960.036
 70
    32
  0
VERTEX
  8
T62SSILL
 62
4
 10
5579.377
 20
-9604.324
 30
-960.033
 70
    32
  0
VERTEX
  8
T62SSILL
 62
4
 10
5574.543
 20
-9613.345
 30
-960.007
 70
    32
  0
VERTEX
  8
T62SSILL
 62
4
 10
5475.026
 20
-9685.375
 30
-959.554
 70
    32
  0
VERTEX
  8
T62SSILL
 62
4
 10
5464.944
 20
-9689.204
 30
-959.510
 70
    32
  0
VERTEX
  8
T62SSILL
 62
4
 10
5458.207
 20
-9689.849
 30
-959.482
 70
    32
  0
VERTEX
  8
T62SSILL
 62
4
 10
5440.300
 20
-9687.357
 30
-959.409
 70
    32
  0
VERTEX
  8
T62SSILL
 62
4
 10
5410.692
 20
-9676.294
 30
-959.292
 70
    32
  0
VERTEX
  8
T62SSILL
 62
4
 10
5408.863
 20
-9672.080
 30
-959.287
 70
    32
  0
VERTEX
  8
T62SSILL
 62
4
 10
5411.216
 20
-9668.045
 30
-959.299
 70
    32
  0
VERTEX
  8
T62SSILL
 62
4
 10
5392.920
 20
-9660.305
 30
-959.227
 70
    32
  0
VERTEX
  8
T62SSILL
 62
4
 10
5383.213
 20
-9666.028
 30
-959.184
 70
    32
  0
VERTEX
  8
T62SSILL
 62
4
 10
5359.604
 20
-9657.207
 30
-959.090
 70
    32
  0
VERTEX
  8
T62SSILL
 62
4
 10
5358.161
 20
-9651.750
 30
-959.087
 70
    32
  0
VERTEX
  8
T62SSILL
 62
4
 10
5360.022
 20
-9635.108
 30
-959.104
 70
    32
  0
VERTEX
  8
T62SSILL
 62
4
 10
5358.111
 20
-9633.541
 30
-959.097
 70
    32
  0
VERTEX
  8
T62SSILL
 62
4
 10
5354.369
 20
-9622.398
 30
-959.088
 70
    32
  0
VERTEX
  8
T62SSILL
 62
4
 10
5351.900
 20
-9621.103
 30
-959.078
 70
    32
  0
VERTEX
  8
T62SSILL
 62
4
 10
5347.026
 20
-9620.486
 30
-959.058
 70
    32
  0
VERTEX
  8
T62SSILL
 62
4
 10
5339.925
 20
-9639.409
 30
-959.018
 70
    32
  0
VERTEX
  8
T62SSILL
 62
4
 10
5335.138
 20
-9648.066
 30
-959.000
 70
    32
  0
VERTEX
  8
T62SSILL
 62
4
 10
5235.687
 20
-9609.580
 30
-958.698
 70
    32
  0
VERTEX
  8
T62SSILL
 62
4
 10
5223.630
 20
-9599.624
 30
-958.646
 70
    32
  0
VERTEX
  8
T62SSILL
 62
4
 10
5217.716
 20
-9599.818
 30
-958.635
 70
    32
  0
VERTEX
  8
T62SSILL
 62
4
 10
5207.219
 20
-9593.257
 30
-958.596
 70
    32
  0
VERTEX
  8
T62SSILL
 62
4
 10
5074.523
 20
-9409.855
 30
-959.244
 70
    32
  0
VERTEX
  8
T62SSILL
 62
4
 10
5073.772
 20
-9400.481
 30
-959.291
 70
    32
  0
VERTEX
  8
T62SSILL
 62
4
 10
5075.522
 20
-9391.338
 30
-959.287
 70
    32
  0
VERTEX
  8
T62SSILL
 62
4
 10
5081.433
 20
-9381.082
 30
-959.300
 70
    32
  0
VERTEX
  8
T62SSILL
 62
4
 10
5102.494
 20
-9365.946
 30
-959.341
 70
    32
  0
VERTEX
  8
T62SSILL
 62
4
 10
5105.500
 20
-9368.520
 30
-959.318
 70
    32
  0
VERTEX
  8
T62SSILL
 62
4
 10
5114.253
 20
-9370.594
 30
-959.274
 70
    32
  0
VERTEX
  8
T62SSILL
 62
4
 10
5118.157
 20
-9373.512
 30
-959.246
 70
    32
  0
VERTEX
  8
T62SSILL
 62
4
 10
5121.564
 20
-9393.101
 30
-959.141
 70
    32
  0
VERTEX
  8
T62SSILL
 62
4
 10
5108.948
 20
-9403.288
 30
-959.142
 70
    32
  0
VERTEX
  8
T62SSILL
 62
4
 10
5094.007
 20
-9411.361
 30
-959.162
 70
    32
  0
VERTEX
  8
T62SSILL
 62
4
 10
5089.794
 20
-9418.847
 30
-959.143
 70
    32
  0
VERTEX
  8
T62SSILL
 62
4
 10
5096.777
 20
-9424.307
 30
-959.091
 70
    32
  0
VERTEX
  8
T62SSILL
 62
4
 10
5115.176
 20
-9420.028
 30
-959.040
 70
    32
  0
VERTEX
  8
T62SSILL
 62
4
 10
5126.779
 20
-9408.619
 30
-959.048
 70
    32
  0
VERTEX
  8
T62SSILL
 62
4
 10
5145.182
 20
-9376.326
 30
-959.128
 70
    32
  0
VERTEX
  8
T62SSILL
 62
4
 10
5158.355
 20
-9357.851
 30
-959.163
 70
    32
  0
VERTEX
  8
T62SSILL
 62
4
 10
5165.879
 20
-9338.839
 30
-959.223
 70
    32
  0
VERTEX
  8
T62SSILL
 62
4
 10
5172.586
 20
-9334.435
 30
-959.218
 70
    32
  0
VERTEX
  8
T62SSILL
 62
4
 10
5174.938
 20
-9326.354
 30
-959.247
 70
    32
  0
VERTEX
  8
T62SSILL
 62
4
 10
5178.211
 20
-9324.266
 30
-959.244
 70
    32
  0
VERTEX
  8
T62SSILL
 62
4
 10
5178.970
 20
-9317.140
 30
-959.274
 70
    32
  0
VERTEX
  8
T62SSILL
 62
4
 10
5165.557
 20
-9318.833
 30
-959.318
 70
    32
  0
VERTEX
  8
T62SSILL
 62
4
 10
5155.980
 20
-9316.382
 30
-959.366
 70
    32
  0
VERTEX
  8
T62SSILL
 62
4
 10
5150.769
 20
-9307.098
 30
-959.430
 70
    32
  0
VERTEX
  8
T62SSILL
 62
4
 10
5147.832
 20
-9306.529
 30
-959.444
 70
    32
  0
VERTEX
  8
T62SSILL
 62
4
 10
5147.635
 20
-9302.407
 30
-959.464
 70
    32
  0
VERTEX
  8
T62SSILL
 62
4
 10
5145.541
 20
-9300.014
 30
-959.483
 70
    32
  0
VERTEX
  8
T62SSILL
 62
4
 10
5134.932
 20
-9305.655
 30
-959.449
 70
    32
  0
VERTEX
  8
T62SSILL
 62
4
 10
5137.630
 20
-9321.171
 30
-959.415
 70
    32
  0
VERTEX
  8
T62SSILL
 62
4
 10
5137.072
 20
-9327.383
 30
-959.388
 70
    32
  0
VERTEX
  8
T62SSILL
 62
4
 10
5134.467
 20
-9331.712
 30
-959.378
 70
    32
  0
VERTEX
  8
T62SSILL
 62
4
 10
5127.013
 20
-9339.705
 30
-959.369
 70
    32
  0
VERTEX
  8
T62SSILL
 62
4
 10
5077.347
 20
-9375.398
 30
-959.271
 70
    32
  0
VERTEX
  8
T62SSILL
 62
4
 10
5070.092
 20
-9388.428
 30
-959.255
 70
    32
  0
VERTEX
  8
T62SSILL
 62
4
 10
5067.232
 20
-9399.072
 30
-959.258
 70
    32
  0
VERTEX
  8
T62SSILL
 62
4
 10
5019.819
 20
-9333.004
 30
-958.913
 70
    32
  0
VERTEX
  8
T62SSILL
 62
4
 10
4961.824
 20
-9295.340
 30
-958.561
 70
    32
  0
VERTEX
  8
T62SSILL
 62
4
 10
4958.012
 20
-9301.210
 30
-958.551
 70
    32
  0
VERTEX
  8
T62SSILL
 62
4
 10
5014.503
 20
-9337.898
 30
-958.894
 70
    32
  0
VERTEX
  8
T62SSILL
 62
4
 10
5073.141
 20
-9420.758
 30
-959.199
 70
    32
  0
VERTEX
  8
T62SSILL
 62
4
 10
5053.330
 20
-9416.672
 30
-959.216
 70
    32
  0
VERTEX
  8
T62SSILL
 62
4
 10
5034.523
 20
-9418.880
 30
-959.053
 70
    32
  0
VERTEX
  8
T62SSILL
 62
4
 10
5024.417
 20
-9424.092
 30
-958.952
 70
    32
  0
VERTEX
  8
T62SSILL
 62
4
 10
4948.752
 20
-9478.242
 30
-958.163
 70
    32
  0
VERTEX
  8
T62SSILL
 62
4
 10
4926.017
 20
-9477.413
 30
-957.971
 70
    32
  0
VERTEX
  8
T62SSILL
 62
4
 10
4806.542
 20
-9404.101
 30
-957.425
 70
    32
  0
VERTEX
  8
T62SSILL
 62
4
 10
4805.316
 20
-9401.603
 30
-957.414
 70
    32
  0
VERTEX
  8
T62SSILL
 62
4
 10
4743.236
 20
-9363.017
 30
-957.155
 70
    32
  0
VERTEX
  8
T62SSILL
 62
4
 10
4750.524
 20
-9350.881
 30
-957.128
 70
    32
  0
VERTEX
  8
T62SSILL
 62
4
 10
4754.535
 20
-9348.733
 30
-957.129
 70
    32
  0
VERTEX
  8
T62SSILL
 62
4
 10
4765.399
 20
-9355.215
 30
-957.173
 70
    32
  0
VERTEX
  8
T62SSILL
 62
4
 10
4768.642
 20
-9359.945
 30
-957.196
 70
    32
  0
VERTEX
  8
T62SSILL
 62
4
 10
4773.342
 20
-9358.271
 30
-957.200
 70
    32
  0
VERTEX
  8
T62SSILL
 62
4
 10
4773.034
 20
-9350.992
 30
-957.174
 70
    32
  0
VERTEX
  8
T62SSILL
 62
4
 10
4761.233
 20
-9339.032
 30
-957.109
 70
    32
  0
VERTEX
  8
T62SSILL
 62
4
 10
4766.440
 20
-9326.481
 30
-957.076
 70
    32
  0
VERTEX
  8
T62SSILL
 62
4
 10
4758.740
 20
-9322.578
 30
-957.047
 70
    32
  0
VERTEX
  8
T62SSILL
 62
4
 10
4754.652
 20
-9318.045
 30
-957.023
 70
    32
  0
VERTEX
  8
T62SSILL
 62
4
 10
4747.153
 20
-9301.398
 30
-956.950
 70
    32
  0
VERTEX
  8
T62SSILL
 62
4
 10
4741.019
 20
-9296.644
 30
-956.921
 70
    32
  0
VERTEX
  8
T62SSILL
 62
4
 10
4739.115
 20
-9286.815
 30
-956.883
 70
    32
  0
VERTEX
  8
T62SSILL
 62
4
 10
4731.709
 20
-9286.226
 30
-956.866
 70
    32
  0
VERTEX
  8
T62SSILL
 62
4
 10
4729.757
 20
-9306.591
 30
-956.933
 70
    32
  0
VERTEX
  8
T62SSILL
 62
4
 10
4694.574
 20
-9311.197
 30
-956.878
 70
    32
  0
VERTEX
  8
T62SSILL
 62
4
 10
4684.272
 20
-9328.262
 30
-956.916
 70
    32
  0
VERTEX
  8
T62SSILL
 62
4
 10
4592.725
 20
-9271.734
 30
-956.535
 70
    32
  0
VERTEX
  8
T62SSILL
 62
4
 10
4584.832
 20
-9262.897
 30
-956.489
 70
    32
  0
VERTEX
  8
T62SSILL
 62
4
 10
4546.743
 20
-9162.214
 30
-956.063
 70
    32
  0
VERTEX
  8
T62SSILL
 62
4
 10
4539.493
 20
-9165.483
 30
-956.060
 70
    32
  0
VERTEX
  8
T62SSILL
 62
4
 10
4573.115
 20
-9259.379
 30
-956.453
 70
    32
  0
VERTEX
  8
T62SSILL
 62
4
 10
4580.901
 20
-9272.606
 30
-956.514
 70
    32
  0
VERTEX
  8
T62SSILL
 62
4
 10
4624.576
 20
-9300.578
 30
-956.699
 70
    32
  0
VERTEX
  8
T62SSILL
 62
4
 10
4627.660
 20
-9310.067
 30
-956.738
 70
    32
  0
VERTEX
  8
T62SSILL
 62
4
 10
4649.993
 20
-9324.562
 30
-956.834
 70
    32
  0
VERTEX
  8
T62SSILL
 62
4
 10
4670.826
 20
-9329.034
 30
-956.891
 70
    32
  0
VERTEX
  8
T62SSILL
 62
4
 10
4800.325
 20
-9410.346
 30
-957.435
 70
    32
  0
VERTEX
  8
T62SSILL
 62
4
 10
4803.094
 20
-9410.794
 30
-957.442
 70
    32
  0
VERTEX
  8
T62SSILL
 62
4
 10
4922.835
 20
-9484.457
 30
-957.939
 70
    32
  0
VERTEX
  8
T62SSILL
 62
4
 10
4936.171
 20
-9487.246
 30
-958.032
 70
    32
  0
VERTEX
  8
T62SSILL
 62
4
 10
4578.576
 20
-9743.161
 30
-956.680
 70
    32
  0
VERTEX
  8
T62SSILL
 62
4
 10
4563.459
 20
-9748.146
 30
-956.615
 70
    32
  0
VERTEX
  8
T62SSILL
 62
4
 10
4543.279
 20
-9746.585
 30
-956.622
 70
    32
  0
VERTEX
  8
T62SSILL
 62
4
 10
4533.859
 20
-9742.259
 30
-956.657
 70
    32
  0
VERTEX
  8
T62SSILL
 62
4
 10
4525.878
 20
-9736.159
 30
-956.704
 70
    32
  0
VERTEX
  8
T62SSILL
 62
4
 10
4450.178
 20
-9636.963
 30
-957.252
 70
    32
  0
VERTEX
  8
T62SSILL
 62
4
 10
4447.033
 20
-9625.200
 30
-957.250
 70
    32
  0
VERTEX
  8
T62SSILL
 62
4
 10
4454.576
 20
-9620.272
 30
-957.263
 70
    32
  0
VERTEX
  8
T62SSILL
 62
4
 10
4479.063
 20
-9626.070
 30
-957.298
 70
    32
  0
VERTEX
  8
T62SSILL
 62
4
 10
4483.071
 20
-9623.041
 30
-957.305
 70
    32
  0
VERTEX
  8
T62SSILL
 62
4
 10
4502.437
 20
-9592.829
 30
-957.341
 70
    32
  0
VERTEX
  8
T62SSILL
 62
4
 10
4505.455
 20
-9569.780
 30
-957.339
 70
    32
  0
VERTEX
  8
T62SSILL
 62
4
 10
4511.574
 20
-9565.598
 30
-957.331
 70
    32
  0
VERTEX
  8
T62SSILL
 62
4
 10
4508.276
 20
-9560.358
 30
-957.306
 70
    32
  0
VERTEX
  8
T62SSILL
 62
4
 10
4498.385
 20
-9559.548
 30
-957.288
 70
    32
  0
VERTEX
  8
T62SSILL
 62
4
 10
4494.605
 20
-9557.323
 30
-957.274
 70
    32
  0
VERTEX
  8
T62SSILL
 62
4
 10
4483.645
 20
-9563.286
 30
-957.281
 70
    32
  0
VERTEX
  8
T62SSILL
 62
4
 10
4474.301
 20
-9562.615
 30
-957.265
 70
    32
  0
VERTEX
  8
T62SSILL
 62
4
 10
4466.387
 20
-9557.990
 30
-957.236
 70
    32
  0
VERTEX
  8
T62SSILL
 62
4
 10
4474.479
 20
-9548.672
 30
-957.211
 70
    32
  0
VERTEX
  8
T62SSILL
 62
4
 10
4486.281
 20
-9546.601
 30
-957.220
 70
    32
  0
VERTEX
  8
T62SSILL
 62
4
 10
4493.452
 20
-9536.211
 30
-957.190
 70
    32
  0
VERTEX
  8
T62SSILL
 62
4
 10
4494.089
 20
-9527.113
 30
-957.155
 70
    32
  0
VERTEX
  8
T62SSILL
 62
4
 10
4485.346
 20
-9503.121
 30
-957.049
 70
    32
  0
VERTEX
  8
T62SSILL
 62
4
 10
4483.922
 20
-9484.865
 30
-956.975
 70
    32
  0
VERTEX
  8
T62SSILL
 62
4
 10
4481.731
 20
-9478.457
 30
-956.947
 70
    32
  0
VERTEX
  8
T62SSILL
 62
4
 10
4467.847
 20
-9480.112
 30
-956.933
 70
    32
  0
VERTEX
  8
T62SSILL
 62
4
 10
4462.112
 20
-9487.871
 30
-956.955
 70
    32
  0
VERTEX
  8
T62SSILL
 62
4
 10
4461.319
 20
-9492.668
 30
-956.973
 70
    32
  0
VERTEX
  8
T62SSILL
 62
4
 10
4465.285
 20
-9507.125
 30
-957.035
 70
    32
  0
VERTEX
  8
T62SSILL
 62
4
 10
4463.111
 20
-9510.535
 30
-957.045
 70
    32
  0
VERTEX
  8
T62SSILL
 62
4
 10
4452.866
 20
-9514.080
 30
-957.044
 70
    32
  0
VERTEX
  8
T62SSILL
 62
4
 10
4418.804
 20
-9540.298
 30
-957.097
 70
    32
  0
VERTEX
  8
T62SSILL
 62
4
 10
4392.527
 20
-9531.190
 30
-957.023
 70
    32
  0
VERTEX
  8
T62SSILL
 62
4
 10
4391.245
 20
-9528.724
 30
-957.012
 70
    32
  0
VERTEX
  8
T62SSILL
 62
4
 10
4389.789
 20
-9506.625
 30
-956.923
 70
    32
  0
VERTEX
  8
T62SSILL
 62
4
 10
4389.965
 20
-9487.271
 30
-956.848
 70
    32
  0
VERTEX
  8
T62SSILL
 62
4
 10
4387.372
 20
-9472.439
 30
-956.786
 70
    32
  0
VERTEX
  8
T62SSILL
 62
4
 10
4381.747
 20
-9462.219
 30
-956.738
 70
    32
  0
VERTEX
  8
T62SSILL
 62
4
 10
4375.748
 20
-9441.124
 30
-956.646
 70
    32
  0
VERTEX
  8
T62SSILL
 62
4
 10
4362.922
 20
-9442.863
 30
-956.634
 70
    32
  0
VERTEX
  8
T62SSILL
 62
4
 10
4352.629
 20
-9452.631
 30
-956.658
 70
    32
  0
VERTEX
  8
T62SSILL
 62
4
 10
4355.511
 20
-9459.953
 30
-956.690
 70
    32
  0
VERTEX
  8
T62SSILL
 62
4
 10
4367.224
 20
-9472.090
 30
-956.755
 70
    32
  0
VERTEX
  8
T62SSILL
 62
4
 10
4365.701
 20
-9474.898
 30
-956.764
 70
    32
  0
VERTEX
  8
T62SSILL
 62
4
 10
4371.986
 20
-9492.131
 30
-956.840
 70
    32
  0
VERTEX
  8
T62SSILL
 62
4
 10
4373.750
 20
-9526.038
 30
-956.975
 70
    32
  0
VERTEX
  8
T62SSILL
 62
4
 10
4370.398
 20
-9525.257
 30
-956.968
 70
    32
  0
VERTEX
  8
T62SSILL
 62
4
 10
4062.940
 20
-9096.352
 30
-955.453
 70
    32
  0
VERTEX
  8
T62SSILL
 62
4
 10
4065.119
 20
-9089.734
 30
-955.433
 70
    32
  0
VERTEX
  8
T62SSILL
 62
4
 10
4074.555
 20
-9081.609
 30
-955.403
 70
    32
  0
VERTEX
  8
T62SSILL
 62
4
 10
4080.889
 20
-9078.589
 30
-955.390
 70
    32
  0
VERTEX
  8
T62SSILL
 62
4
 10
4079.385
 20
-9072.214
 30
-955.373
 70
    32
  0
VERTEX
  8
T62SSILL
 62
4
 10
4069.254
 20
-9073.132
 30
-955.383
 70
    32
  0
VERTEX
  8
T62SSILL
 62
4
 10
4060.390
 20
-9064.034
 30
-955.364
 70
    32
  0
VERTEX
  8
T62SSILL
 62
4
 10
4047.783
 20
-9058.316
 30
-955.358
 70
    32
  0
VERTEX
  8
T62SSILL
 62
4
 10
4038.219
 20
-9050.631
 30
-955.344
 70
    32
  0
VERTEX
  8
T62SSILL
 62
4
 10
4025.715
 20
-9034.231
 30
-955.307
 70
    32
  0
VERTEX
  8
T62SSILL
 62
4
 10
4019.946
 20
-9037.707
 30
-955.322
 70
    32
  0
VERTEX
  8
T62SSILL
 62
4
 10
3933.969
 20
-8913.562
 30
-955.039
 70
    32
  0
VERTEX
  8
T62SSILL
 62
4
 10
3930.821
 20
-8900.918
 30
-955.006
 70
    32
  0
VERTEX
  8
T62SSILL
 62
4
 10
3932.215
 20
-8882.299
 30
-954.952
 70
    32
  0
VERTEX
  8
T62SSILL
 62
4
 10
3937.389
 20
-8870.436
 30
-954.915
 70
    32
  0
VERTEX
  8
T62SSILL
 62
4
 10
3945.637
 20
-8860.447
 30
-954.880
 70
    32
  0
VERTEX
  8
T62SSILL
 62
4
 10
4164.935
 20
-8703.774
 30
-953.600
 70
    32
  0
VERTEX
  8
T62SSILL
 62
4
 10
4176.334
 20
-8697.369
 30
-953.588
 70
    32
  0
VERTEX
  8
T62SSILL
 62
4
 10
4193.686
 20
-8694.750
 30
-953.731
 70
    32
  0
VERTEX
  8
T62SSILL
 62
4
 10
4209.014
 20
-8697.638
 30
-953.815
 70
    32
  0
VERTEX
  8
T62SSILL
 62
4
 10
4217.949
 20
-8702.152
 30
-953.868
 70
    32
  0
VERTEX
  8
T62SSILL
 62
4
 10
4220.156
 20
-8707.996
 30
-953.888
 70
    32
  0
VERTEX
  8
T62SSILL
 62
4
 10
4231.467
 20
-8716.239
 30
-953.958
 70
    32
  0
VERTEX
  8
T62SSILL
 62
4
 10
4255.013
 20
-8749.150
 30
-954.113
 70
    32
  0
VERTEX
  8
T62SSILL
 62
4
 10
4250.972
 20
-8757.396
 30
-954.064
 70
    32
  0
VERTEX
  8
T62SSILL
 62
4
 10
4272.977
 20
-8788.267
 30
-954.215
 70
    32
  0
VERTEX
  8
T62SSILL
 62
4
 10
4285.652
 20
-8793.491
 30
-954.260
 70
    32
  0
VERTEX
  8
T62SSILL
 62
4
 10
4293.308
 20
-8804.938
 30
-954.314
 70
    32
  0
VERTEX
  8
T62SSILL
 62
4
 10
4300.341
 20
-8800.065
 30
-954.369
 70
    32
  0
VERTEX
  8
T62SSILL
 62
4
 10
4288.432
 20
-8782.553
 30
-954.312
 70
    32
  0
VERTEX
  8
T62SSILL
 62
4
 10
4301.079
 20
-8775.315
 30
-954.403
 70
    32
  0
VERTEX
  8
T62SSILL
 62
4
 10
4297.321
 20
-8764.788
 30
-954.367
 70
    32
  0
VERTEX
  8
T62SSILL
 62
4
 10
4290.957
 20
-8754.905
 30
-954.320
 70
    32
  0
VERTEX
  8
T62SSILL
 62
4
 10
4281.579
 20
-8744.981
 30
-954.256
 70
    32
  0
VERTEX
  8
T62SSILL
 62
4
 10
4259.147
 20
-8742.049
 30
-954.139
 70
    32
  0
VERTEX
  8
T62SSILL
 62
4
 10
4246.124
 20
-8723.501
 30
-954.044
 70
    32
  0
VERTEX
  8
T62SSILL
 62
4
 10
4247.271
 20
-8709.378
 30
-954.027
 70
    32
  0
VERTEX
  8
T62SSILL
 62
4
 10
4228.813
 20
-8694.163
 30
-953.910
 70
    32
  0
VERTEX
  8
T62SSILL
 62
4
 10
4222.035
 20
-8696.303
 30
-953.879
 70
    32
  0
VERTEX
  8
T62SSILL
 62
4
 10
4211.896
 20
-8690.488
 30
-953.818
 70
    32
  0
VERTEX
  8
T62SSILL
 62
4
 10
4194.910
 20
-8687.307
 30
-953.746
 70
    32
  0
VERTEX
  8
T62SSILL
 62
4
 10
4178.628
 20
-8688.565
 30
-953.711
 70
    32
  0
VERTEX
  8
T62SSILL
 62
4
 10
4163.565
 20
-8695.530
 30
-953.594
 70
    32
  0
VERTEX
  8
T62SSILL
 62
4
 10
4097.671
 20
-8741.794
 30
-954.283
 70
    32
  0
VERTEX
  8
T62SSILL
 62
4
 10
4096.152
 20
-8740.953
 30
-954.253
 70
    32
  0
VERTEX
  8
T62SSILL
 62
4
 10
4098.287
 20
-8713.405
 30
-953.388
 70
    32
  0
VERTEX
  8
T62SSILL
 62
4
 10
4113.839
 20
-8574.478
 30
-954.113
 70
    32
  0
VERTEX
  8
T62SSILL
 62
4
 10
4106.732
 20
-8573.552
 30
-954.093
 70
    32
  0
VERTEX
  8
T62SSILL
 62
4
 10
4095.234
 20
-8672.936
 30
-953.718
 70
    32
  0
VERTEX
  8
T62SSILL
 62
4
 10
4088.322
 20
-8672.415
 30
-953.721
 70
    32
  0
VERTEX
  8
T62SSILL
 62
4
 10
4086.896
 20
-8687.191
 30
-953.769
 70
    32
  0
VERTEX
  8
T62SSILL
 62
4
 10
4092.754
 20
-8693.921
 30
-953.782
 70
    32
  0
VERTEX
  8
T62SSILL
 62
4
 10
4087.175
 20
-8739.452
 30
-954.185
 70
    32
  0
VERTEX
  8
T62SSILL
 62
4
 10
4080.162
 20
-8754.584
 30
-954.478
 70
    32
  0
VERTEX
  8
T62SSILL
 62
4
 10
4061.051
 20
-8768.032
 30
-954.531
 70
    32
  0
VERTEX
  8
T62SSILL
 62
4
 10
4056.111
 20
-8761.934
 30
-954.517
 70
    32
  0
VERTEX
  8
T62SSILL
 62
4
 10
4048.025
 20
-8763.074
 30
-954.527
 70
    32
  0
VERTEX
  8
T62SSILL
 62
4
 10
4041.800
 20
-8767.116
 30
-954.543
 70
    32
  0
VERTEX
  8
T62SSILL
 62
4
 10
4038.068
 20
-8773.140
 30
-954.563
 70
    32
  0
VERTEX
  8
T62SSILL
 62
4
 10
4043.580
 20
-8781.457
 30
-954.582
 70
    32
  0
VERTEX
  8
T62SSILL
 62
4
 10
3938.872
 20
-8856.611
 30
-954.875
 70
    32
  0
VERTEX
  8
T62SSILL
 62
4
 10
3930.695
 20
-8866.547
 30
-954.909
 70
    32
  0
VERTEX
  8
T62SSILL
 62
4
 10
3925.128
 20
-8877.161
 30
-954.943
 70
    32
  0
VERTEX
  8
T62SSILL
 62
4
 10
3922.400
 20
-8887.729
 30
-954.975
 70
    32
  0
VERTEX
  8
T62SSILL
 62
4
 10
3921.898
 20
-8899.928
 30
-955.010
 70
    32
  0
VERTEX
  8
T62SSILL
 62
4
 10
3896.595
 20
-8863.816
 30
-954.928
 70
    32
  0
VERTEX
  8
T62SSILL
 62
4
 10
3890.724
 20
-8868.033
 30
-954.944
 70
    32
  0
VERTEX
  8
T62SSILL
 62
4
 10
3893.492
 20
-8873.011
 30
-954.956
 70
    32
  0
VERTEX
  8
T62SSILL
 62
4
 10
3647.619
 20
-8785.638
 30
-954.419
 70
    32
  0
VERTEX
  8
T62SSILL
 62
4
 10
3633.849
 20
-8783.061
 30
-954.395
 70
    32
  0
VERTEX
  8
T62SSILL
 62
4
 10
3632.064
 20
-8772.320
 30
-954.317
 70
    32
  0
VERTEX
  8
T62SSILL
 62
4
 10
3622.099
 20
-8769.571
 30
-954.327
 70
    32
  0
VERTEX
  8
T62SSILL
 62
4
 10
3618.284
 20
-8771.220
 30
-954.337
 70
    32
  0
VERTEX
  8
T62SSILL
 62
4
 10
3608.687
 20
-8769.403
 30
-954.349
 70
    32
  0
VERTEX
  8
T62SSILL
 62
4
 10
3601.040
 20
-8771.068
 30
-954.366
 70
    32
  0
VERTEX
  8
T62SSILL
 62
4
 10
3254.614
 20
-8649.819
 30
-954.170
 70
    32
  0
VERTEX
  8
T62SSILL
 62
4
 10
3242.655
 20
-8633.850
 30
-954.088
 70
    32
  0
VERTEX
  8
T62SSILL
 62
4
 10
3235.766
 20
-8631.542
 30
-954.084
 70
    32
  0
VERTEX
  8
T62SSILL
 62
4
 10
3230.525
 20
-8635.247
 30
-954.117
 70
    32
  0
VERTEX
  8
T62SSILL
 62
4
 10
3216.908
 20
-8628.207
 30
-954.094
 70
    32
  0
VERTEX
  8
T62SSILL
 62
4
 10
3202.092
 20
-8625.138
 30
-954.099
 70
    32
  0
VERTEX
  8
T62SSILL
 62
4
 10
3194.707
 20
-8628.472
 30
-954.125
 70
    32
  0
VERTEX
  8
T62SSILL
 62
4
 10
3170.543
 20
-8620.106
 30
-954.043
 70
    32
  0
VERTEX
  8
T62SSILL
 62
4
 10
3157.391
 20
-8606.667
 30
-953.996
 70
    32
  0
VERTEX
  8
T62SSILL
 62
4
 10
3147.118
 20
-8598.763
 30
-953.959
 70
    32
  0
VERTEX
  8
T62SSILL
 62
4
 10
3141.136
 20
-8587.709
 30
-953.936
 70
    32
  0
VERTEX
  8
T62SSILL
 62
4
 10
3130.674
 20
-8591.815
 30
-953.903
 70
    32
  0
VERTEX
  8
T62SSILL
 62
4
 10
3137.556
 20
-8603.404
 30
-953.930
 70
    32
  0
SEQEND
  8
T62SSILL
  0
POLYLINE
  8
T62SSILL
 62
4
 66
     1
 70
     8
  0
VERTEX
  8
T62SSILL
 62
4
 10
3010.085
 20
-8558.606
 30
-953.000
 70
    32
  0
VERTEX
  8
T62SSILL
 62
4
 10
2996.468
 20
-8544.100
 30
-953.000
 70
    32
  0
VERTEX
  8
T62SSILL
 62
4
 10
2987.311
 20
-8527.009
 30
-953.000
 70
    32
  0
VERTEX
  8
T62SSILL
 62
4
 10
2941.866
 20
-8441.326
 30
-953.000
 70
    32
  0
VERTEX
  8
T62SSILL
 62
4
 10
2954.438
 20
-8424.497
 30
-953.000
 70
    32
  0
VERTEX
  8
T62SSILL
 62
4
 10
2966.085
 20
-8421.219
 30
-953.000
 70
    32
  0
VERTEX
  8
T62SSILL
 62
4
 10
2979.080
 20
-8418.312
 30
-953.000
 70
    32
  0
VERTEX
  8
T62SSILL
 62
4
 10
2986.116
 20
-8416.151
 30
-953.000
 70
    32
  0
VERTEX
  8
T62SSILL
 62
4
 10
2989.728
 20
-8408.384
 30
-953.000
 70
    32
  0
VERTEX
  8
T62SSILL
 62
4
 10
2994.164
 20
-8404.759
 30
-953.000
 70
    32
  0
VERTEX
  8
T62SSILL
 62
4
 10
2996.498
 20
-8397.207
 30
-953.000
 70
    32
  0
VERTEX
  8
T62SSILL
 62
4
 10
3013.680
 20
-8392.795
 30
-953.000
 70
    32
  0
VERTEX
  8
T62SSILL
 62
4
 10
3014.953
 20
-8385.915
 30
-953.000
 70
    32
  0
VERTEX
  8
T62SSILL
 62
4
 10
3021.303
 20
-8382.725
 30
-953.000
 70
    32
  0
VERTEX
  8
T62SSILL
 62
4
 10
3021.754
 20
-8373.228
 30
-953.000
 70
    32
  0
VERTEX
  8
T62SSILL
 62
4
 10
3015.859
 20
-8373.634
 30
-953.000
 70
    32
  0
VERTEX
  8
T62SSILL
 62
4
 10
3010.662
 20
-8370.958
 30
-953.000
 70
    32
  0
VERTEX
  8
T62SSILL
 62
4
 10
3005.802
 20
-8366.196
 30
-953.000
 70
    32
  0
VERTEX
  8
T62SSILL
 62
4
 10
2983.816
 20
-8377.697
 30
-953.000
 70
    32
  0
VERTEX
  8
T62SSILL
 62
4
 10
2980.691
 20
-8379.848
 30
-953.000
 70
    32
  0
VERTEX
  8
T62SSILL
 62
4
 10
2977.618
 20
-8378.185
 30
-953.000
 70
    32
  0
VERTEX
  8
T62SSILL
 62
4
 10
2972.426
 20
-8375.960
 30
-953.000
 70
    32
  0
VERTEX
  8
T62SSILL
 62
4
 10
2963.101
 20
-8377.780
 30
-953.000
 70
    32
  0
VERTEX
  8
T62SSILL
 62
4
 10
2960.658
 20
-8381.944
 30
-953.000
 70
    32
  0
VERTEX
  8
T62SSILL
 62
4
 10
2958.413
 20
-8392.905
 30
-953.000
 70
    32
  0
VERTEX
  8
T62SSILL
 62
4
 10
2955.502
 20
-8393.910
 30
-953.000
 70
    32
  0
VERTEX
  8
T62SSILL
 62
4
 10
2944.902
 20
-8397.572
 30
-953.000
 70
    32
  0
VERTEX
  8
T62SSILL
 62
4
 10
2935.207
 20
-8400.160
 30
-953.000
 70
    32
  0
VERTEX
  8
T62SSILL
 62
4
 10
2934.659
 20
-8398.297
 30
-953.000
 70
    32
  0
VERTEX
  8
T62SSILL
 62
4
 10
2934.346
 20
-8397.234
 30
-953.000
 70
    32
  0
VERTEX
  8
T62SSILL
 62
4
 10
2930.369
 20
-8391.341
 30
-953.000
 70
    32
  0
VERTEX
  8
T62SSILL
 62
4
 10
2915.721
 20
-8379.521
 30
-953.000
 70
    32
  0
VERTEX
  8
T62SSILL
 62
4
 10
2909.479
 20
-8376.405
 30
-953.000
 70
    32
  0
VERTEX
  8
T62SSILL
 62
4
 10
2903.177
 20
-8365.103
 30
-953.000
 70
    32
  0
VERTEX
  8
T62SSILL
 62
4
 10
2908.490
 20
-8375.911
 30
-953.000
 70
    32
  0
VERTEX
  8
T62SSILL
 62
4
 10
2909.479
 20
-8376.405
 30
-953.000
 70
    32
  0
VERTEX
  8
T62SSILL
 62
4
 10
2903.322
 20
-8364.185
 30
-953.000
 70
    32
  0
VERTEX
  8
T62SSILL
 62
4
 10
2903.472
 20
-8363.234
 30
-953.000
 70
    32
  0
VERTEX
  8
T62SSILL
 62
4
 10
2902.807
 20
-8356.541
 30
-953.000
 70
    32
  0
VERTEX
  8
T62SSILL
 62
4
 10
2904.438
 20
-8340.984
 30
-953.000
 70
    32
  0
VERTEX
  8
T62SSILL
 62
4
 10
2915.751
 20
-8328.378
 30
-953.000
 70
    32
  0
VERTEX
  8
T62SSILL
 62
4
 10
2920.804
 20
-8317.874
 30
-953.000
 70
    32
  0
VERTEX
  8
T62SSILL
 62
4
 10
2928.201
 20
-8303.953
 30
-953.000
 70
    32
  0
VERTEX
  8
T62SSILL
 62
4
 10
2931.240
 20
-8301.771
 30
-953.000
 70
    32
  0
VERTEX
  8
T62SSILL
 62
4
 10
2962.278
 20
-8279.337
 30
-953.000
 70
    32
  0
VERTEX
  8
T62SSILL
 62
4
 10
2978.660
 20
-8270.738
 30
-953.000
 70
    32
  0
VERTEX
  8
T62SSILL
 62
4
 10
2987.792
 20
-8270.848
 30
-953.000
 70
    32
  0
VERTEX
  8
T62SSILL
 62
4
 10
2995.182
 20
-8265.020
 30
-953.000
 70
    32
  0
VERTEX
  8
T62SSILL
 62
4
 10
3000.479
 20
-8264.564
 30
-953.000
 70
    32
  0
VERTEX
  8
T62SSILL
 62
4
 10
3005.045
 20
-8263.091
 30
-953.000
 70
    32
  0
VERTEX
  8
T62SSILL
 62
4
 10
3011.694
 20
-8271.932
 30
-953.000
 70
    32
  0
VERTEX
  8
T62SSILL
 62
4
 10
3019.285
 20
-8269.443
 30
-953.000
 70
    32
  0
VERTEX
  8
T62SSILL
 62
4
 10
3030.891
 20
-8255.982
 30
-953.000
 70
    32
  0
VERTEX
  8
T62SSILL
 62
4
 10
3041.817
 20
-8251.671
 30
-953.000
 70
    32
  0
VERTEX
  8
T62SSILL
 62
4
 10
3106.666
 20
-8232.478
 30
-953.000
 70
    32
  0
VERTEX
  8
T62SSILL
 62
4
 10
3104.150
 20
-8221.513
 30
-953.000
 70
    32
  0
VERTEX
  8
T62SSILL
 62
4
 10
3029.798
 20
-8246.060
 30
-953.000
 70
    32
  0
VERTEX
  8
T62SSILL
 62
4
 10
3022.109
 20
-8236.536
 30
-953.000
 70
    32
  0
VERTEX
  8
T62SSILL
 62
4
 10
3016.991
 20
-8227.903
 30
-953.000
 70
    32
  0
VERTEX
  8
T62SSILL
 62
4
 10
2962.374
 20
-8266.929
 30
-953.000
 70
    32
  0
VERTEX
  8
T62SSILL
 62
4
 10
2962.171
 20
-8267.075
 30
-953.000
 70
    32
  0
VERTEX
  8
T62SSILL
 62
4
 10
2925.290
 20
-8293.216
 30
-953.000
 70
    32
  0
VERTEX
  8
T62SSILL
 62
4
 10
2912.824
 20
-8305.921
 30
-953.000
 70
    32
  0
VERTEX
  8
T62SSILL
 62
4
 10
2898.679
 20
-8328.208
 30
-953.000
 70
    32
  0
VERTEX
  8
T62SSILL
 62
4
 10
2895.325
 20
-8334.889
 30
-953.000
 70
    32
  0
VERTEX
  8
T62SSILL
 62
4
 10
2891.949
 20
-8341.614
 30
-953.107
 70
    32
  0
VERTEX
  8
T62SSILL
 62
4
 10
2639.752
 20
-7841.099
 30
-952.838
 70
    32
  0
VERTEX
  8
T62SSILL
 62
4
 10
2632.591
 20
-7844.851
 30
-952.818
 70
    32
  0
VERTEX
  8
T62SSILL
 62
4
 10
2670.066
 20
-7920.532
 30
-952.684
 70
    32
  0
VERTEX
  8
T62SSILL
 62
4
 10
2668.958
 20
-7924.948
 30
-952.672
 70
    32
  0
VERTEX
  8
T62SSILL
 62
4
 10
2675.527
 20
-7931.341
 30
-952.665
 70
    32
  0
VERTEX
  8
T62SSILL
 62
4
 10
2747.106
 20
-8071.769
 30
-952.772
 70
    32
  0
VERTEX
  8
T62SSILL
 62
4
 10
2745.054
 20
-8077.864
 30
-952.788
 70
    32
  0
VERTEX
  8
T62SSILL
 62
4
 10
2746.134
 20
-8081.104
 30
-952.794
 70
    32
  0
VERTEX
  8
T62SSILL
 62
4
 10
2753.058
 20
-8082.653
 30
-952.788
 70
    32
  0
VERTEX
  8
T62SSILL
 62
4
 10
2792.048
 20
-8166.308
 30
-952.887
 70
    32
  0
VERTEX
  8
T62SSILL
 62
4
 10
2788.706
 20
-8169.171
 30
-952.894
 70
    32
  0
VERTEX
  8
T62SSILL
 62
4
 10
2796.154
 20
-8174.248
 30
-952.896
 70
    32
  0
VERTEX
  8
T62SSILL
 62
4
 10
2825.624
 20
-8231.236
 30
-952.958
 70
    32
  0
VERTEX
  8
T62SSILL
 62
4
 10
2820.571
 20
-8242.377
 30
-952.978
 70
    32
  0
VERTEX
  8
T62SSILL
 62
4
 10
2834.457
 20
-8268.542
 30
-953.006
 70
    32
  0
VERTEX
  8
T62SSILL
 62
4
 10
2850.443
 20
-8283.143
 30
-953.015
 70
    32
  0
VERTEX
  8
T62SSILL
 62
4
 10
2869.453
 20
-8320.843
 30
-953.057
 70
    32
  0
VERTEX
  8
T62SSILL
 62
4
 10
2868.819
 20
-8322.636
 30
-953.060
 70
    32
  0
VERTEX
  8
T62SSILL
 62
4
 10
2872.683
 20
-8326.769
 30
-953.063
 70
    32
  0
VERTEX
  8
T62SSILL
 62
4
 10
2900.808
 20
-8382.220
 30
-953.124
 70
    32
  0
VERTEX
  8
T62SSILL
 62
4
 10
2896.678
 20
-8386.621
 30
-953.110
 70
    32
  0
VERTEX
  8
T62SSILL
 62
4
 10
2888.935
 20
-8385.078
 30
-953.091
 70
    32
  0
VERTEX
  8
T62SSILL
 62
4
 10
2823.039
 20
-8346.313
 30
-952.977
 70
    32
  0
VERTEX
  8
T62SSILL
 62
4
 10
2819.049
 20
-8354.463
 30
-952.952
 70
    32
  0
VERTEX
  8
T62SSILL
 62
4
 10
2849.103
 20
-8377.242
 30
-952.996
 70
    32
  0
VERTEX
  8
T62SSILL
 62
4
 10
2866.442
 20
-8384.563
 30
-953.031
 70
    32
  0
VERTEX
  8
T62SSILL
 62
4
 10
2869.016
 20
-8389.279
 30
-953.030
 70
    32
  0
VERTEX
  8
T62SSILL
 62
4
 10
2891.980
 20
-8399.070
 30
-953.076
 70
    32
  0
VERTEX
  8
T62SSILL
 62
4
 10
2902.027
 20
-8418.197
 30
-953.071
 70
    32
  0
VERTEX
  8
T62SSILL
 62
4
 10
2912.077
 20
-8430.764
 30
-953.077
 70
    32
  0
VERTEX
  8
T62SSILL
 62
4
 10
2916.836
 20
-8430.556
 30
-953.090
 70
    32
  0
VERTEX
  8
T62SSILL
 62
4
 10
2926.816
 20
-8436.440
 30
-953.149
 70
    32
  0
VERTEX
  8
T62SSILL
 62
4
 10
2960.484
 20
-8501.484
 30
-953.281
 70
    32
  0
VERTEX
  8
T62SSILL
 62
4
 10
2961.585
 20
-8510.432
 30
-953.272
 70
    32
  0
VERTEX
  8
T62SSILL
 62
4
 10
2966.311
 20
-8514.249
 30
-953.301
 70
    32
  0
VERTEX
  8
T62SSILL
 62
4
 10
2969.260
 20
-8520.386
 30
-953.312
 70
    32
  0
VERTEX
  8
T62SSILL
 62
4
 10
2964.669
 20
-8524.373
 30
-953.269
 70
    32
  0
VERTEX
  8
T62SSILL
 62
4
 10
2962.226
 20
-8523.457
 30
-953.252
 70
    32
  0
VERTEX
  8
T62SSILL
 62
4
 10
2950.360
 20
-8525.207
 30
-953.156
 70
    32
  0
VERTEX
  8
T62SSILL
 62
4
 10
2946.134
 20
-8535.838
 30
-953.103
 70
    32
  0
VERTEX
  8
T62SSILL
 62
4
 10
2951.245
 20
-8541.783
 30
-953.131
 70
    32
  0
VERTEX
  8
T62SSILL
 62
4
 10
2969.952
 20
-8535.679
 30
-953.287
 70
    32
  0
VERTEX
  8
T62SSILL
 62
4
 10
2979.634
 20
-8539.958
 30
-953.354
 70
    32
  0
VERTEX
  8
T62SSILL
 62
4
 10
2986.797
 20
-8553.040
 30
-953.384
 70
    32
  0
VERTEX
  8
T62SSILL
 62
4
 10
2989.304
 20
-8561.814
 30
-953.386
 70
    32
  0
VERTEX
  8
T62SSILL
 62
4
 10
2996.785
 20
-8573.121
 30
-953.420
 70
    32
  0
VERTEX
  8
T62SSILL
 62
4
 10
3002.361
 20
-8587.812
 30
-953.369
 70
    32
  0
VERTEX
  8
T62SSILL
 62
4
 10
3001.696
 20
-8597.374
 30
-953.343
 70
    32
  0
VERTEX
  8
T62SSILL
 62
4
 10
2984.968
 20
-8616.619
 30
-953.245
 70
    32
  0
VERTEX
  8
T62SSILL
 62
4
 10
2990.049
 20
-8625.781
 30
-953.266
 70
    32
  0
VERTEX
  8
T62SSILL
 62
4
 10
2998.970
 20
-8632.300
 30
-953.247
 70
    32
  0
VERTEX
  8
T62SSILL
 62
4
 10
3002.010
 20
-8636.929
 30
-953.229
 70
    32
  0
VERTEX
  8
T62SSILL
 62
4
 10
3005.697
 20
-8632.406
 30
-953.236
 70
    32
  0
VERTEX
  8
T62SSILL
 62
4
 10
3018.258
 20
-8626.939
 30
-953.231
 70
    32
  0
VERTEX
  8
T62SSILL
 62
4
 10
3020.575
 20
-8627.967
 30
-953.224
 70
    32
  0
VERTEX
  8
T62SSILL
 62
4
 10
3022.282
 20
-8626.885
 30
-953.224
 70
    32
  0
VERTEX
  8
T62SSILL
 62
4
 10
3026.853
 20
-8632.626
 30
-953.200
 70
    32
  0
VERTEX
  8
T62SSILL
 62
4
 10
3033.817
 20
-8653.654
 30
-953.128
 70
    32
  0
VERTEX
  8
T62SSILL
 62
4
 10
3036.504
 20
-8657.241
 30
-953.114
 70
    32
  0
VERTEX
  8
T62SSILL
 62
4
 10
3040.458
 20
-8658.562
 30
-953.103
 70
    32
  0
VERTEX
  8
T62SSILL
 62
4
 10
3040.560
 20
-8663.537
 30
-953.089
 70
    32
  0
VERTEX
  8
T62SSILL
 62
4
 10
3046.089
 20
-8674.879
 30
-953.047
 70
    32
  0
VERTEX
  8
T62SSILL
 62
4
 10
3050.006
 20
-8679.082
 30
-953.029
 70
    32
  0
VERTEX
  8
T62SSILL
 62
4
 10
3062.136
 20
-8702.171
 30
-952.943
 70
    32
  0
VERTEX
  8
T62SSILL
 62
4
 10
3058.191
 20
-8713.470
 30
-952.917
 70
    32
  0
VERTEX
  8
T62SSILL
 62
4
 10
3054.761
 20
-8715.929
 30
-952.916
 70
    32
  0
VERTEX
  8
T62SSILL
 62
4
 10
3055.338
 20
-8721.097
 30
-952.900
 70
    32
  0
VERTEX
  8
T62SSILL
 62
4
 10
3053.575
 20
-8727.248
 30
-952.885
 70
    32
  0
VERTEX
  8
T62SSILL
 62
4
 10
3054.506
 20
-8729.077
 30
-952.878
 70
    32
  0
VERTEX
  8
T62SSILL
 62
4
 10
3061.360
 20
-8730.312
 30
-952.863
 70
    32
  0
VERTEX
  8
T62SSILL
 62
4
 10
3063.295
 20
-8729.083
 30
-952.864
 70
    32
  0
VERTEX
  8
T62SSILL
 62
4
 10
3065.003
 20
-8724.180
 30
-952.875
 70
    32
  0
VERTEX
  8
T62SSILL
 62
4
 10
3073.738
 20
-8726.313
 30
-952.854
 70
    32
  0
VERTEX
  8
T62SSILL
 62
4
 10
3092.308
 20
-8764.892
 30
-952.713
 70
    32
  0
VERTEX
  8
T62SSILL
 62
4
 10
3090.229
 20
-8771.500
 30
-952.698
 70
    32
  0
VERTEX
  8
T62SSILL
 62
4
 10
3095.257
 20
-8770.589
 30
-952.692
 70
    32
  0
VERTEX
  8
T62SSILL
 62
4
 10
3129.151
 20
-8839.307
 30
-952.426
 70
    32
  0
VERTEX
  8
T62SSILL
 62
4
 10
3133.500
 20
-8854.497
 30
-952.335
 70
    32
  0
VERTEX
  8
T62SSILL
 62
4
 10
3135.050
 20
-8874.748
 30
-952.232
 70
    32
  0
VERTEX
  8
T62SSILL
 62
4
 10
3208.985
 20
-9160.434
 30
-952.763
 70
    32
  0
VERTEX
  8
T62SSILL
 62
4
 10
3217.504
 20
-9158.321
 30
-952.791
 70
    32
  0
VERTEX
  8
T62SSILL
 62
4
 10
3222.269
 20
-9150.867
 30
-952.817
 70
    32
  0
VERTEX
  8
T62SSILL
 62
4
 10
3213.741
 20
-9143.372
 30
-952.802
 70
    32
  0
VERTEX
  8
T62SSILL
 62
4
 10
3185.652
 20
-9031.753
 30
-952.667
 70
    32
  0
VERTEX
  8
T62SSILL
 62
4
 10
3188.606
 20
-9030.419
 30
-952.671
 70
    32
  0
VERTEX
  8
T62SSILL
 62
4
 10
3182.109
 20
-9020.571
 30
-952.621
 70
    32
  0
VERTEX
  8
T62SSILL
 62
4
 10
3165.439
 20
-8954.766
 30
-952.358
 70
    32
  0
VERTEX
  8
T62SSILL
 62
4
 10
3166.426
 20
-8950.513
 30
-952.347
 70
    32
  0
VERTEX
  8
T62SSILL
 62
4
 10
3163.563
 20
-8947.276
 30
-952.328
 70
    32
  0
VERTEX
  8
T62SSILL
 62
4
 10
3145.315
 20
-8875.845
 30
-952.213
 70
    32
  0
VERTEX
  8
T62SSILL
 62
4
 10
3147.344
 20
-8865.651
 30
-952.289
 70
    32
  0
VERTEX
  8
T62SSILL
 62
4
 10
3143.313
 20
-8848.686
 30
-952.390
 70
    32
  0
SEQEND
  8
T62SSILL
  0
POLYLINE
  8
T62SSILL
 62
4
 66
     1
 70
     9
  0
VERTEX
  8
T62SSILL
 62
4
 10
3081.123
 20
-8581.057
 30
-963.000
 70
    32
  0
VERTEX
  8
T62SSILL
 62
4
 10
3069.436
 20
-8581.399
 30
-963.000
 70
    32
  0
VERTEX
  8
T62SSILL
 62
4
 10
3069.322
 20
-8573.696
 30
-963.000
 70
    32
  0
VERTEX
  8
T62SSILL
 62
4
 10
3081.881
 20
-8570.810
 30
-963.000
 70
    32
  0
SEQEND
  8
T62SSILL
  0
TEXT
  8
T62SSILL
 62
4
 10
1513.954
 20
-7773.338
 30
-921.830
 40
8.202
  1
U
 41
 1.0 
  0
TEXT
  8
T62SSILL
 62
4
 10
1637.785
 20
-6323.847
 30
-934.843
 40
4.101
  1
6200
 41
 1.0 
  0
TEXT
  8
T62SSILL
 62
4
 10
6586.421
 20
-9710.052
 30
-951.755
 40
4.101
  1
6200
 41
 1.0 
  0
POLYLINE
  8
T62SSILL
 62
13
 66
     1
 70
     9
  0
VERTEX
  8
T62SSILL
 62
13
 10
820.845
 20
-5708.126
 30
-933.628
 70
    32
  0
VERTEX
  8
T62SSILL
 62
13
 10
824.708
 20
-5713.676
 30
-933.249
 70
    32
  0
VERTEX
  8
T62SSILL
 62
13
 10
830.382
 20
-5719.955
 30
-932.263
 70
    32
  0
VERTEX
  8
T62SSILL
 62
13
 10
833.196
 20
-5722.409
 30
-931.302
 70
    32
  0
VERTEX
  8
T62SSILL
 62
13
 10
853.010
 20
-5743.039
 30
-932.374
 70
    32
  0
VERTEX
  8
T62SSILL
 62
13
 10
851.528
 20
-5762.118
 30
-933.791
 70
    32
  0
VERTEX
  8
T62SSILL
 62
13
 10
850.750
 20
-5762.020
 30
-929.910
 70
    32
  0
VERTEX
  8
T62SSILL
 62
13
 10
850.390
 20
-5767.900
 30
-930.140
 70
    32
  0
VERTEX
  8
T62SSILL
 62
13
 10
851.380
 20
-5779.320
 30
-929.950
 70
    32
  0
VERTEX
  8
T62SSILL
 62
13
 10
853.340
 20
-5784.530
 30
-930.110
 70
    32
  0
VERTEX
  8
T62SSILL
 62
13
 10
867.740
 20
-5804.450
 30
-928.440
 70
    32
  0
VERTEX
  8
T62SSILL
 62
13
 10
880.568
 20
-5820.143
 30
-931.750
 70
    32
  0
VERTEX
  8
T62SSILL
 62
13
 10
890.709
 20
-5817.202
 30
-931.750
 70
    32
  0
VERTEX
  8
T62SSILL
 62
13
 10
893.343
 20
-5816.438
 30
-931.000
 70
    32
  0
VERTEX
  8
T62SSILL
 62
13
 10
895.058
 20
-5814.926
 30
-931.705
 70
    32
  0
VERTEX
  8
T62SSILL
 62
13
 10
898.425
 20
-5808.644
 30
-931.694
 70
    32
  0
VERTEX
  8
T62SSILL
 62
13
 10
902.399
 20
-5791.459
 30
-931.668
 70
    32
  0
VERTEX
  8
T62SSILL
 62
13
 10
897.158
 20
-5761.699
 30
-931.628
 70
    32
  0
VERTEX
  8
T62SSILL
 62
13
 10
889.939
 20
-5766.895
 30
-931.640
 70
    32
  0
VERTEX
  8
T62SSILL
 62
13
 10
885.893
 20
-5761.343
 30
-931.634
 70
    32
  0
VERTEX
  8
T62SSILL
 62
13
 10
895.971
 20
-5754.709
 30
-931.619
 70
    32
  0
VERTEX
  8
T62SSILL
 62
13
 10
880.181
 20
-5661.301
 30
-931.495
 70
    32
  0
VERTEX
  8
T62SSILL
 62
13
 10
818.727
 20
-5705.083
 30
-931.592
 70
    32
  0
SEQEND
  8
T62SSILL
  0
TEXT
  8
T62SSILL
 62
13
 10
1433.769
 20
-7785.860
 30
-931.872
 40
8.202
  1
D
 41
 1.0 
  0
POLYLINE
  8
T62SSILL
 62
1
 66
     1
 70
     9
  0
VERTEX
  8
T62SSILL
 62
1
 10
887.800
 20
-6016.606
 30
-920.620
 70
    32
  0
VERTEX
  8
T62SSILL
 62
1
 10
885.523
 20
-5996.142
 30
-917.603
 70
    32
  0
VERTEX
  8
T62SSILL
 62
1
 10
884.244
 20
-5994.869
 30
-924.851
 70
    32
  0
VERTEX
  8
T62SSILL
 62
1
 10
884.580
 20
-5984.402
 30
-924.573
 70
    32
  0
VERTEX
  8
T62SSILL
 62
1
 10
882.935
 20
-5974.990
 30
-923.587
 70
    32
  0
VERTEX
  8
T62SSILL
 62
1
 10
878.211
 20
-5968.154
 30
-925.705
 70
    32
  0
VERTEX
  8
T62SSILL
 62
1
 10
877.145
 20
-5962.345
 30
-926.419
 70
    32
  0
VERTEX
  8
T62SSILL
 62
1
 10
891.208
 20
-5960.835
 30
-926.124
 70
    32
  0
VERTEX
  8
T62SSILL
 62
1
 10
893.163
 20
-5976.781
 30
-924.371
 70
    32
  0
VERTEX
  8
T62SSILL
 62
1
 10
893.340
 20
-5985.419
 30
-924.488
 70
    32
  0
VERTEX
  8
T62SSILL
 62
1
 10
891.207
 20
-5993.890
 30
-924.535
 70
    32
  0
VERTEX
  8
T62SSILL
 62
1
 10
889.885
 20
-5996.117
 30
-917.681
 70
    32
  0
VERTEX
  8
T62SSILL
 62
1
 10
896.065
 20
-6012.865
 30
-920.536
 70
    32
  0
SEQEND
  8
T62SSILL
  0
POLYLINE
  8
T62SSILL
 62
13
 66
     1
 70
     9
  0
VERTEX
  8
T62SSILL
 62
13
 10
862.379
 20
-5850.508
 30
-926.827
 70
    32
  0
VERTEX
  8
T62SSILL
 62
13
 10
864.013
 20
-5851.310
 30
-926.112
 70
    32
  0
VERTEX
  8
T62SSILL
 62
13
 10
864.851
 20
-5858.278
 30
-929.612
 70
    32
  0
VERTEX
  8
T62SSILL
 62
13
 10
859.262
 20
-5866.990
 30
-929.476
 70
    32
  0
VERTEX
  8
T62SSILL
 62
13
 10
849.034
 20
-5860.314
 30
-925.416
 70
    32
  0
SEQEND
  8
T62SSILL
  0
POLYLINE
  8
T62SSILL
 62
13
 66
     1
 70
     8
  0
VERTEX
  8
T62SSILL
 62
13
 10
883.611
 20
-5835.441
 30
-931.750
 70
    32
  0
VERTEX
  8
T62SSILL
 62
13
 10
891.874
 20
-5829.533
 30
-931.750
 70
    32
  0
VERTEX
  8
T62SSILL
 62
13
 10
893.365
 20
-5827.795
 30
-931.750
 70
    32
  0
VERTEX
  8
T62SSILL
 62
13
 10
895.944
 20
-5824.789
 30
-931.750
 70
    32
  0
VERTEX
  8
T62SSILL
 62
13
 10
901.775
 20
-5817.993
 30
-931.706
 70
    32
  0
VERTEX
  8
T62SSILL
 62
13
 10
906.093
 20
-5808.594
 30
-931.690
 70
    32
  0
VERTEX
  8
T62SSILL
 62
13
 10
924.652
 20
-5916.244
 30
-932.045
 70
    32
  0
VERTEX
  8
T62SSILL
 62
13
 10
914.184
 20
-5961.201
 30
-932.028
 70
    32
  0
VERTEX
  8
T62SSILL
 62
13
 10
913.988
 20
-5962.554
 30
-932.000
 70
    32
  0
VERTEX
  8
T62SSILL
 62
13
 10
910.328
 20
-5964.211
 30
-932.000
 70
    32
  0
VERTEX
  8
T62SSILL
 62
13
 10
911.026
 20
-5968.562
 30
-932.000
 70
    32
  0
VERTEX
  8
T62SSILL
 62
13
 10
909.522
 20
-5974.747
 30
-932.000
 70
    32
  0
VERTEX
  8
T62SSILL
 62
13
 10
907.370
 20
-5985.035
 30
-932.000
 70
    32
  0
VERTEX
  8
T62SSILL
 62
13
 10
905.996
 20
-5990.611
 30
-932.000
 70
    32
  0
VERTEX
  8
T62SSILL
 62
13
 10
899.598
 20
-5991.321
 30
-932.000
 70
    32
  0
VERTEX
  8
T62SSILL
 62
13
 10
899.598
 20
-5991.321
 30
-930.158
 70
    32
  0
VERTEX
  8
T62SSILL
 62
13
 10
898.202
 20
-5967.847
 30
-930.043
 70
    32
  0
VERTEX
  8
T62SSILL
 62
13
 10
894.820
 20
-5958.141
 30
-930.043
 70
    32
  0
VERTEX
  8
T62SSILL
 62
13
 10
896.294
 20
-5954.539
 30
-930.043
 70
    32
  0
VERTEX
  8
T62SSILL
 62
13
 10
888.855
 20
-5949.394
 30
-930.043
 70
    32
  0
VERTEX
  8
T62SSILL
 62
13
 10
880.645
 20
-5949.065
 30
-930.043
 70
    32
  0
VERTEX
  8
T62SSILL
 62
13
 10
875.912
 20
-5939.269
 30
-930.191
 70
    32
  0
VERTEX
  8
T62SSILL
 62
13
 10
872.841
 20
-5932.721
 30
-930.484
 70
    32
  0
VERTEX
  8
T62SSILL
 62
13
 10
864.424
 20
-5904.978
 30
-931.131
 70
    32
  0
VERTEX
  8
T62SSILL
 62
13
 10
852.955
 20
-5894.895
 30
-929.280
 70
    32
  0
VERTEX
  8
T62SSILL
 62
13
 10
854.088
 20
-5886.647
 30
-928.032
 70
    32
  0
VERTEX
  8
T62SSILL
 62
13
 10
862.899
 20
-5878.338
 30
-927.945
 70
    32
  0
VERTEX
  8
T62SSILL
 62
13
 10
871.221
 20
-5874.697
 30
-928.736
 70
    32
  0
VERTEX
  8
T62SSILL
 62
13
 10
872.893
 20
-5867.451
 30
-928.325
 70
    32
  0
VERTEX
  8
T62SSILL
 62
13
 10
881.598
 20
-5848.489
 30
-927.118
 70
    32
  0
VERTEX
  8
T62SSILL
 62
13
 10
884.468
 20
-5839.253
 30
-926.468
 70
    32
  0
VERTEX
  8
T62SSILL
 62
13
 10
883.611
 20
-5835.441
 30
-926.644
 70
    32
  0
SEQEND
  8
T62SSILL
  0
POLYLINE
  8
T62SSILL
 62
13
 66
     1
 70
     8
  0
VERTEX
  8
T62SSILL
 62
13
 10
1491.187
 20
-8041.539
 30
-934.439
 70
    32
  0
VERTEX
  8
T62SSILL
 62
13
 10
1491.541
 20
-8045.349
 30
-934.439
 70
    32
  0
VERTEX
  8
T62SSILL
 62
13
 10
1507.068
 20
-8053.440
 30
-934.488
 70
    32
  0
VERTEX
  8
T62SSILL
 62
13
 10
1506.767
 20
-8063.026
 30
-934.484
 70
    32
  0
VERTEX
  8
T62SSILL
 62
13
 10
1512.125
 20
-8071.213
 30
-934.499
 70
    32
  0
VERTEX
  8
T62SSILL
 62
13
 10
1521.531
 20
-8075.793
 30
-934.529
 70
    32
  0
VERTEX
  8
T62SSILL
 62
13
 10
1523.656
 20
-8083.302
 30
-934.534
 70
    32
  0
VERTEX
  8
T62SSILL
 62
13
 10
1532.550
 20
-8100.917
 30
-934.558
 70
    32
  0
VERTEX
  8
T62SSILL
 62
13
 10
1533.067
 20
-8103.870
 30
-934.558
 70
    32
  0
VERTEX
  8
T62SSILL
 62
13
 10
1530.252
 20
-8108.663
 30
-934.548
 70
    32
  0
VERTEX
  8
T62SSILL
 62
13
 10
1530.975
 20
-8117.873
 30
-934.547
 70
    32
  0
VERTEX
  8
T62SSILL
 62
13
 10
1526.888
 20
-8117.349
 30
-934.534
 70
    32
  0
VERTEX
  8
T62SSILL
 62
13
 10
1500.270
 20
-8104.865
 30
-934.450
 70
    32
  0
VERTEX
  8
T62SSILL
 62
13
 10
1492.540
 20
-8088.804
 30
-934.430
 70
    32
  0
VERTEX
  8
T62SSILL
 62
13
 10
1477.711
 20
-8074.375
 30
-934.385
 70
    32
  0
VERTEX
  8
T62SSILL
 62
13
 10
1480.558
 20
-8060.072
 30
-934.399
 70
    32
  0
VERTEX
  8
T62SSILL
 62
13
 10
1480.365
 20
-8056.127
 30
-934.399
 70
    32
  0
VERTEX
  8
T62SSILL
 62
13
 10
1477.031
 20
-8051.283
 30
-934.390
 70
    32
  0
VERTEX
  8
T62SSILL
 62
13
 10
1419.533
 20
-8092.747
 30
-934.187
 70
    32
  0
VERTEX
  8
T62SSILL
 62
13
 10
1415.782
 20
-8086.451
 30
-934.177
 70
    32
  0
VERTEX
  8
T62SSILL
 62
13
 10
1475.751
 20
-8042.981
 30
-934.388
 70
    32
  0
VERTEX
  8
T62SSILL
 62
13
 10
1471.320
 20
-8034.589
 30
-934.376
 70
    32
  0
VERTEX
  8
T62SSILL
 62
13
 10
1475.777
 20
-8030.171
 30
-934.392
 70
    32
  0
VERTEX
  8
T62SSILL
 62
13
 10
1489.671
 20
-8034.752
 30
-934.436
 70
    32
  0
VERTEX
  8
T62SSILL
 62
13
 10
1550.964
 20
-7990.624
 30
-934.501
 70
    32
  0
VERTEX
  8
T62SSILL
 62
13
 10
1525.524
 20
-7976.065
 30
-934.548
 70
    32
  0
VERTEX
  8
T62SSILL
 62
13
 10
1518.216
 20
-7968.459
 30
-934.550
 70
    32
  0
VERTEX
  8
T62SSILL
 62
13
 10
1514.566
 20
-7957.297
 30
-934.541
 70
    32
  0
VERTEX
  8
T62SSILL
 62
13
 10
1516.912
 20
-7954.635
 30
-934.544
 70
    32
  0
VERTEX
  8
T62SSILL
 62
13
 10
1528.967
 20
-7954.960
 30
-934.514
 70
    32
  0
VERTEX
  8
T62SSILL
 62
13
 10
1539.427
 20
-7965.006
 30
-934.499
 70
    32
  0
VERTEX
  8
T62SSILL
 62
13
 10
1556.127
 20
-7986.907
 30
-934.483
 70
    32
  0
VERTEX
  8
T62SSILL
 62
13
 10
1603.569
 20
-7952.751
 30
-934.320
 70
    32
  0
VERTEX
  8
T62SSILL
 62
13
 10
1604.134
 20
-7937.119
 30
-934.299
 70
    32
  0
VERTEX
  8
T62SSILL
 62
13
 10
1567.907
 20
-7887.634
 30
-934.332
 70
    32
  0
VERTEX
  8
T62SSILL
 62
13
 10
1562.617
 20
-7884.091
 30
-934.342
 70
    32
  0
VERTEX
  8
T62SSILL
 62
13
 10
1548.675
 20
-7880.678
 30
-934.373
 70
    32
  0
VERTEX
  8
T62SSILL
 62
13
 10
1518.715
 20
-7899.786
 30
-934.473
 70
    32
  0
VERTEX
  8
T62SSILL
 62
13
 10
1512.500
 20
-7891.435
 30
-934.479
 70
    32
  0
VERTEX
  8
T62SSILL
 62
13
 10
1546.211
 20
-7868.283
 30
-934.365
 70
    32
  0
VERTEX
  8
T62SSILL
 62
13
 10
1546.038
 20
-7855.182
 30
-934.349
 70
    32
  0
VERTEX
  8
T62SSILL
 62
13
 10
1518.035
 20
-7827.122
 30
-934.387
 70
    32
  0
VERTEX
  8
T62SSILL
 62
13
 10
1512.048
 20
-7824.627
 30
-934.399
 70
    32
  0
VERTEX
  8
T62SSILL
 62
13
 10
1481.690
 20
-7819.325
 30
-934.471
 70
    32
  0
VERTEX
  8
T62SSILL
 62
13
 10
1484.236
 20
-7810.037
 30
-934.453
 70
    32
  0
VERTEX
  8
T62SSILL
 62
13
 10
1507.209
 20
-7813.892
 30
-934.399
 70
    32
  0
VERTEX
  8
T62SSILL
 62
13
 10
1507.845
 20
-7810.333
 30
-934.393
 70
    32
  0
VERTEX
  8
T62SSILL
 62
13
 10
1502.290
 20
-7796.504
 30
-934.390
 70
    32
  0
VERTEX
  8
T62SSILL
 62
13
 10
1495.695
 20
-7787.349
 30
-934.396
 70
    32
  0
VERTEX
  8
T62SSILL
 62
13
 10
1509.978
 20
-7790.077
 30
-934.363
 70
    32
  0
VERTEX
  8
T62SSILL
 62
13
 10
1516.165
 20
-7794.064
 30
-934.352
 70
    32
  0
VERTEX
  8
T62SSILL
 62
13
 10
1523.616
 20
-7802.141
 30
-934.342
 70
    32
  0
VERTEX
  8
T62SSILL
 62
13
 10
1525.962
 20
-7807.361
 30
-934.343
 70
    32
  0
VERTEX
  8
T62SSILL
 62
13
 10
1530.468
 20
-7807.110
 30
-934.331
 70
    32
  0
VERTEX
  8
T62SSILL
 62
13
 10
1535.631
 20
-7801.069
 30
-934.310
 70
    32
  0
VERTEX
  8
T62SSILL
 62
13
 10
1540.814
 20
-7780.927
 30
-934.272
 70
    32
  0
VERTEX
  8
T62SSILL
 62
13
 10
1538.492
 20
-7773.743
 30
-934.270
 70
    32
  0
VERTEX
  8
T62SSILL
 62
13
 10
1532.054
 20
-7764.810
 30
-934.275
 70
    32
  0
VERTEX
  8
T62SSILL
 62
13
 10
1530.233
 20
-7759.423
 30
-934.273
 70
    32
  0
VERTEX
  8
T62SSILL
 62
13
 10
1530.751
 20
-7747.684
 30
-934.258
 70
    32
  0
VERTEX
  8
T62SSILL
 62
13
 10
1528.265
 20
-7739.648
 30
-934.255
 70
    32
  0
VERTEX
  8
T62SSILL
 62
13
 10
1510.795
 20
-7733.678
 30
-934.292
 70
    32
  0
VERTEX
  8
T62SSILL
 62
13
 10
1499.669
 20
-7727.260
 30
-934.313
 70
    32
  0
VERTEX
  8
T62SSILL
 62
13
 10
1502.162
 20
-7722.517
 30
-934.301
 70
    32
  0
VERTEX
  8
T62SSILL
 62
13
 10
1509.535
 20
-7719.850
 30
-934.279
 70
    32
  0
VERTEX
  8
T62SSILL
 62
13
 10
1534.284
 20
-7729.336
 30
-934.227
 70
    32
  0
VERTEX
  8
T62SSILL
 62
13
 10
1543.225
 20
-7725.684
 30
-934.199
 70
    32
  0
VERTEX
  8
T62SSILL
 62
13
 10
1549.025
 20
-7720.141
 30
-934.178
 70
    32
  0
VERTEX
  8
T62SSILL
 62
13
 10
1551.682
 20
-7712.707
 30
-934.162
 70
    32
  0
VERTEX
  8
T62SSILL
 62
13
 10
1552.291
 20
-7701.000
 30
-934.146
 70
    32
  0
VERTEX
  8
T62SSILL
 62
13
 10
1471.523
 20
-7563.149
 30
-934.186
 70
    32
  0
VERTEX
  8
T62SSILL
 62
13
 10
1460.986
 20
-7570.852
 30
-934.222
 70
    32
  0
VERTEX
  8
T62SSILL
 62
13
 10
1456.891
 20
-7564.364
 30
-934.225
 70
    32
  0
VERTEX
  8
T62SSILL
 62
13
 10
1467.189
 20
-7557.250
 30
-934.190
 70
    32
  0
VERTEX
  8
T62SSILL
 62
13
 10
1410.562
 20
-7460.712
 30
-934.218
 70
    32
  0
VERTEX
  8
T62SSILL
 62
13
 10
1379.516
 20
-7391.116
 30
-934.213
 70
    32
  0
VERTEX
  8
T62SSILL
 62
13
 10
1370.603
 20
-7397.287
 30
-934.235
 70
    32
  0
VERTEX
  8
T62SSILL
 62
13
 10
1365.112
 20
-7390.470
 30
-934.219
 70
    32
  0
VERTEX
  8
T62SSILL
 62
13
 10
1375.426
 20
-7382.599
 30
-934.214
 70
    32
  0
VERTEX
  8
T62SSILL
 62
13
 10
1310.669
 20
-7238.077
 30
-934.161
 70
    32
  0
VERTEX
  8
T62SSILL
 62
13
 10
1308.690
 20
-7238.145
 30
-934.147
 70
    32
  0
VERTEX
  8
T62SSILL
 62
13
 10
1306.645
 20
-7233.886
 30
-934.145
 70
    32
  0
VERTEX
  8
T62SSILL
 62
13
 10
1308.394
 20
-7232.696
 30
-934.161
 70
    32
  0
VERTEX
  8
T62SSILL
 62
13
 10
1293.626
 20
-7197.758
 30
-934.163
 70
    32
  0
VERTEX
  8
T62SSILL
 62
13
 10
1254.756
 20
-7113.007
 30
-934.066
 70
    32
  0
VERTEX
  8
T62SSILL
 62
13
 10
1211.390
 20
-7012.907
 30
-933.712
 70
    32
  0
VERTEX
  8
T62SSILL
 62
13
 10
1202.636
 20
-7019.243
 30
-933.705
 70
    32
  0
VERTEX
  8
T62SSILL
 62
13
 10
1198.997
 20
-7012.865
 30
-933.691
 70
    32
  0
VERTEX
  8
T62SSILL
 62
13
 10
1208.463
 20
-7005.907
 30
-933.701
 70
    32
  0
VERTEX
  8
T62SSILL
 62
13
 10
1184.398
 20
-6949.808
 30
-933.608
 70
    32
  0
VERTEX
  8
T62SSILL
 62
13
 10
1179.916
 20
-6946.104
 30
-933.598
 70
    32
  0
VERTEX
  8
T62SSILL
 62
13
 10
1180.874
 20
-6941.857
 30
-933.590
 70
    32
  0
VERTEX
  8
T62SSILL
 62
13
 10
1057.374
 20
-6667.718
 30
-932.986
 70
    32
  0
VERTEX
  8
T62SSILL
 62
13
 10
1051.223
 20
-6627.677
 30
-932.874
 70
    32
  0
VERTEX
  8
T62SSILL
 62
13
 10
1044.645
 20
-6633.064
 30
-932.884
 70
    32
  0
VERTEX
  8
T62SSILL
 62
13
 10
1040.410
 20
-6627.521
 30
-932.866
 70
    32
  0
VERTEX
  8
T62SSILL
 62
13
 10
1050.040
 20
-6620.773
 30
-932.854
 70
    32
  0
VERTEX
  8
T62SSILL
 62
13
 10
1020.668
 20
-6449.484
 30
-932.240
 70
    32
  0
VERTEX
  8
T62SSILL
 62
13
 10
1014.251
 20
-6422.521
 30
-932.207
 70
    32
  0
VERTEX
  8
T62SSILL
 62
13
 10
1007.897
 20
-6427.014
 30
-932.223
 70
    32
  0
VERTEX
  8
T62SSILL
 62
13
 10
1003.558
 20
-6420.984
 30
-932.220
 70
    32
  0
VERTEX
  8
T62SSILL
 62
13
 10
1012.363
 20
-6414.587
 30
-932.198
 70
    32
  0
VERTEX
  8
T62SSILL
 62
13
 10
995.731
 20
-6317.981
 30
-932.072
 70
    32
  0
VERTEX
  8
T62SSILL
 62
13
 10
990.069
 20
-6312.258
 30
-932.071
 70
    32
  0
VERTEX
  8
T62SSILL
 62
13
 10
983.721
 20
-6301.360
 30
-932.064
 70
    32
  0
VERTEX
  8
T62SSILL
 62
13
 10
982.613
 20
-6296.054
 30
-932.057
 70
    32
  0
VERTEX
  8
T62SSILL
 62
13
 10
979.320
 20
-6293.308
 30
-932.057
 70
    32
  0
VERTEX
  8
T62SSILL
 62
13
 10
975.045
 20
-6293.126
 30
-932.063
 70
    32
  0
VERTEX
  8
T62SSILL
 62
13
 10
919.448
 20
-6313.672
 30
-932.173
 70
    32
  0
VERTEX
  8
T62SSILL
 62
13
 10
917.444
 20
-6308.032
 30
-932.167
 70
    32
  0
VERTEX
  8
T62SSILL
 62
13
 10
928.040
 20
-6302.775
 30
-932.144
 70
    32
  0
VERTEX
  8
T62SSILL
 62
13
 10
962.270
 20
-6290.689
 30
-932.077
 70
    32
  0
VERTEX
  8
T62SSILL
 62
13
 10
964.773
 20
-6286.155
 30
-932.067
 70
    32
  0
VERTEX
  8
T62SSILL
 62
13
 10
950.262
 20
-6279.956
 30
-932.077
 70
    32
  0
VERTEX
  8
T62SSILL
 62
13
 10
950.821
 20
-6278.680
 30
-932.075
 70
    32
  0
VERTEX
  8
T62SSILL
 62
13
 10
970.636
 20
-6281.591
 30
-932.051
 70
    32
  0
VERTEX
  8
T62SSILL
 62
13
 10
972.932
 20
-6280.695
 30
-932.047
 70
    32
  0
VERTEX
  8
T62SSILL
 62
13
 10
980.671
 20
-6282.954
 30
-932.040
 70
    32
  0
VERTEX
  8
T62SSILL
 62
13
 10
985.273
 20
-6282.682
 30
-932.033
 70
    32
  0
VERTEX
  8
T62SSILL
 62
13
 10
990.726
 20
-6279.340
 30
-932.020
 70
    32
  0
VERTEX
  8
T62SSILL
 62
13
 10
977.326
 20
-6204.467
 30
-931.984
 70
    32
  0
VERTEX
  8
T62SSILL
 62
13
 10
970.865
 20
-6209.675
 30
-931.980
 70
    32
  0
VERTEX
  8
T62SSILL
 62
13
 10
966.329
 20
-6204.033
 30
-931.980
 70
    32
  0
VERTEX
  8
T62SSILL
 62
13
 10
975.989
 20
-6197.259
 30
-931.986
 70
    32
  0
VERTEX
  8
T62SSILL
 62
13
 10
958.827
 20
-6102.017
 30
-932.006
 70
    32
  0
VERTEX
  8
T62SSILL
 62
13
 10
955.892
 20
-6098.694
 30
-932.006
 70
    32
  0
VERTEX
  8
T62SSILL
 62
13
 10
957.122
 20
-6091.640
 30
-932.008
 70
    32
  0
VERTEX
  8
T62SSILL
 62
13
 10
937.732
 20
-5988.521
 30
-932.030
 70
    32
  0
VERTEX
  8
T62SSILL
 62
13
 10
930.793
 20
-5992.882
 30
-932.026
 70
    32
  0
VERTEX
  8
T62SSILL
 62
13
 10
927.125
 20
-5988.032
 30
-932.025
 70
    32
  0
VERTEX
  8
T62SSILL
 62
13
 10
936.608
 20
-5980.846
 30
-932.032
 70
    32
  0
VERTEX
  8
T62SSILL
 62
13
 10
928.092
 20
-5935.801
 30
-932.041
 70
    32
  0
VERTEX
  8
T62SSILL
 62
13
 10
920.636
 20
-5962.233
 30
-932.030
 70
    32
  0
VERTEX
  8
T62SSILL
 62
13
 10
921.667
 20
-5963.471
 30
-931.000
 70
    32
  0
VERTEX
  8
T62SSILL
 62
13
 10
923.466
 20
-5966.593
 30
-931.000
 70
    32
  0
VERTEX
  8
T62SSILL
 62
13
 10
919.739
 20
-5980.384
 30
-931.000
 70
    32
  0
VERTEX
  8
T62SSILL
 62
13
 10
916.019
 20
-5993.178
 30
-931.000
 70
    32
  0
VERTEX
  8
T62SSILL
 62
13
 10
913.458
 20
-6000.354
 30
-931.000
 70
    32
  0
VERTEX
  8
T62SSILL
 62
13
 10
911.917
 20
-6008.392
 30
-931.000
 70
    32
  0
VERTEX
  8
T62SSILL
 62
13
 10
907.730
 20
-6011.093
 30
-931.000
 70
    32
  0
VERTEX
  8
T62SSILL
 62
13
 10
906.688
 20
-6011.553
 30
-932.009
 70
    32
  0
VERTEX
  8
T62SSILL
 62
13
 10
880.399
 20
-6106.184
 30
-931.970
 70
    32
  0
VERTEX
  8
T62SSILL
 62
13
 10
888.029
 20
-6105.305
 30
-931.974
 70
    32
  0
VERTEX
  8
T62SSILL
 62
13
 10
889.047
 20
-6113.910
 30
-931.972
 70
    32
  0
VERTEX
  8
T62SSILL
 62
13
 10
877.445
 20
-6115.391
 30
-931.966
 70
    32
  0
VERTEX
  8
T62SSILL
 62
13
 10
863.412
 20
-6161.556
 30
-932.017
 70
    32
  0
VERTEX
  8
T62SSILL
 62
13
 10
856.810
 20
-6159.586
 30
-932.023
 70
    32
  0
VERTEX
  8
T62SSILL
 62
13
 10
869.246
 20
-6117.305
 30
-931.962
 70
    32
  0
VERTEX
  8
T62SSILL
 62
13
 10
865.114
 20
-6117.054
 30
-931.960
 70
    32
  0
VERTEX
  8
T62SSILL
 62
13
 10
864.391
 20
-6108.567
 30
-931.963
 70
    32
  0
VERTEX
  8
T62SSILL
 62
13
 10
872.262
 20
-6107.414
 30
-931.966
 70
    32
  0
VERTEX
  8
T62SSILL
 62
13
 10
898.987
 20
-6018.256
 30
-932.004
 70
    32
  0
VERTEX
  8
T62SSILL
 62
13
 10
883.216
 20
-6030.746
 30
-931.994
 70
    32
  0
VERTEX
  8
T62SSILL
 62
13
 10
878.853
 20
-6040.390
 30
-931.989
 70
    32
  0
VERTEX
  8
T62SSILL
 62
13
 10
878.982
 20
-6046.933
 30
-931.987
 70
    32
  0
VERTEX
  8
T62SSILL
 62
13
 10
873.911
 20
-6053.535
 30
-931.983
 70
    32
  0
VERTEX
  8
T62SSILL
 62
13
 10
867.126
 20
-6055.330
 30
-931.979
 70
    32
  0
VERTEX
  8
T62SSILL
 62
13
 10
861.592
 20
-6054.442
 30
-931.977
 70
    32
  0
VERTEX
  8
T62SSILL
 62
13
 10
847.216
 20
-6056.553
 30
-931.970
 70
    32
  0
VERTEX
  8
T62SSILL
 62
13
 10
771.599
 20
-6110.987
 30
-932.068
 70
    32
  0
VERTEX
  8
T62SSILL
 62
13
 10
767.436
 20
-6105.730
 30
-932.065
 70
    32
  0
VERTEX
  8
T62SSILL
 62
13
 10
873.270
 20
-6028.731
 30
-932.013
 70
    32
  0
VERTEX
  8
T62SSILL
 62
13
 10
874.347
 20
-6028.478
 30
-931.987
 70
    32
  0
VERTEX
  8
T62SSILL
 62
13
 10
874.194
 20
-6028.453
 30
-932.000
 70
    32
  0
VERTEX
  8
T62SSILL
 62
13
 10
864.691
 20
-6026.917
 30
-933.500
 70
    32
  0
VERTEX
  8
T62SSILL
 62
13
 10
855.341
 20
-6029.990
 30
-935.000
 70
    32
  0
VERTEX
  8
T62SSILL
 62
13
 10
850.130
 20
-6030.297
 30
-935.750
 70
    32
  0
VERTEX
  8
T62SSILL
 62
13
 10
845.685
 20
-6020.617
 30
-935.750
 70
    32
  0
VERTEX
  8
T62SSILL
 62
13
 10
852.735
 20
-6017.698
 30
-935.000
 70
    32
  0
VERTEX
  8
T62SSILL
 62
13
 10
861.932
 20
-6015.855
 30
-933.500
 70
    32
  0
VERTEX
  8
T62SSILL
 62
13
 10
872.028
 20
-6016.114
 30
-932.233
 70
    32
  0
VERTEX
  8
T62SSILL
 62
13
 10
872.028
 20
-6016.114
 30
-931.737
 70
    32
  0
VERTEX
  8
T62SSILL
 62
13
 10
874.867
 20
-6002.705
 30
-930.872
 70
    32
  0
VERTEX
  8
T62SSILL
 62
13
 10
880.173
 20
-5997.525
 30
-930.595
 70
    32
  0
VERTEX
  8
T62SSILL
 62
13
 10
881.158
 20
-5990.814
 30
-930.319
 70
    32
  0
VERTEX
  8
T62SSILL
 62
13
 10
879.267
 20
-5980.004
 30
-930.043
 70
    32
  0
VERTEX
  8
T62SSILL
 62
13
 10
875.778
 20
-5973.200
 30
-930.043
 70
    32
  0
VERTEX
  8
T62SSILL
 62
13
 10
873.879
 20
-5970.621
 30
-930.043
 70
    32
  0
VERTEX
  8
T62SSILL
 62
13
 10
870.203
 20
-5967.716
 30
-930.043
 70
    32
  0
VERTEX
  8
T62SSILL
 62
13
 10
871.205
 20
-5954.256
 30
-930.043
 70
    32
  0
VERTEX
  8
T62SSILL
 62
13
 10
861.075
 20
-5939.109
 30
-930.542
 70
    32
  0
VERTEX
  8
T62SSILL
 62
13
 10
857.211
 20
-5935.771
 30
-930.405
 70
    32
  0
VERTEX
  8
T62SSILL
 62
13
 10
855.693
 20
-5929.279
 30
-931.344
 70
    32
  0
VERTEX
  8
T62SSILL
 62
13
 10
852.847
 20
-5920.142
 30
-931.765
 70
    32
  0
VERTEX
  8
T62SSILL
 62
13
 10
846.888
 20
-5905.568
 30
-930.793
 70
    32
  0
VERTEX
  8
T62SSILL
 62
13
 10
842.203
 20
-5895.752
 30
-929.173
 70
    32
  0
VERTEX
  8
T62SSILL
 62
13
 10
838.178
 20
-5889.062
 30
-928.050
 70
    32
  0
VERTEX
  8
T62SSILL
 62
13
 10
839.411
 20
-5885.651
 30
-927.551
 70
    32
  0
VERTEX
  8
T62SSILL
 62
13
 10
834.399
 20
-5871.241
 30
-923.795
 70
    32
  0
VERTEX
  8
T62SSILL
 62
13
 10
834.399
 20
-5871.241
 30
-931.794
 70
    32
  0
VERTEX
  8
T62SSILL
 62
13
 10
807.861
 20
-5890.458
 30
-931.824
 70
    32
  0
VERTEX
  8
T62SSILL
 62
13
 10
806.025
 20
-5895.697
 30
-931.830
 70
    32
  0
VERTEX
  8
T62SSILL
 62
13
 10
802.108
 20
-5899.030
 30
-931.835
 70
    32
  0
VERTEX
  8
T62SSILL
 62
13
 10
796.969
 20
-5901.714
 30
-931.840
 70
    32
  0
VERTEX
  8
T62SSILL
 62
13
 10
793.889
 20
-5900.577
 30
-931.840
 70
    32
  0
VERTEX
  8
T62SSILL
 62
13
 10
768.982
 20
-5918.614
 30
-931.868
 70
    32
  0
VERTEX
  8
T62SSILL
 62
13
 10
765.158
 20
-5926.652
 30
-931.883
 70
    32
  0
VERTEX
  8
T62SSILL
 62
13
 10
756.615
 20
-5932.629
 30
-931.902
 70
    32
  0
VERTEX
  8
T62SSILL
 62
13
 10
750.999
 20
-5931.637
 30
-931.888
 70
    32
  0
VERTEX
  8
T62SSILL
 62
13
 10
709.267
 20
-5962.001
 30
-931.937
 70
    32
  0
VERTEX
  8
T62SSILL
 62
13
 10
704.375
 20
-5956.524
 30
-931.937
 70
    32
  0
VERTEX
  8
T62SSILL
 62
13
 10
740.190
 20
-5930.152
 30
-931.890
 70
    32
  0
VERTEX
  8
T62SSILL
 62
13
 10
740.231
 20
-5920.602
 30
-931.879
 70
    32
  0
VERTEX
  8
T62SSILL
 62
13
 10
737.618
 20
-5914.489
 30
-931.873
 70
    32
  0
VERTEX
  8
T62SSILL
 62
13
 10
761.496
 20
-5906.461
 30
-931.856
 70
    32
  0
VERTEX
  8
T62SSILL
 62
13
 10
767.493
 20
-5910.346
 30
-931.859
 70
    32
  0
VERTEX
  8
T62SSILL
 62
13
 10
790.310
 20
-5893.957
 30
-931.833
 70
    32
  0
VERTEX
  8
T62SSILL
 62
13
 10
787.209
 20
-5889.464
 30
-931.829
 70
    32
  0
VERTEX
  8
T62SSILL
 62
13
 10
796.919
 20
-5882.763
 30
-931.818
 70
    32
  0
VERTEX
  8
T62SSILL
 62
13
 10
799.059
 20
-5885.244
 30
-931.820
 70
    32
  0
VERTEX
  8
T62SSILL
 62
13
 10
802.646
 20
-5885.016
 30
-931.819
 70
    32
  0
VERTEX
  8
T62SSILL
 62
13
 10
828.438
 20
-5866.894
 30
-931.790
 70
    32
  0
VERTEX
  8
T62SSILL
 62
13
 10
823.827
 20
-5859.593
 30
-931.783
 70
    32
  0
VERTEX
  8
T62SSILL
 62
13
 10
835.084
 20
-5851.919
 30
-931.750
 70
    32
  0
VERTEX
  8
T62SSILL
 62
13
 10
836.486
 20
-5850.963
 30
-931.750
 70
    32
  0
VERTEX
  8
T62SSILL
 62
13
 10
842.029
 20
-5856.980
 30
-931.750
 70
    32
  0
VERTEX
  8
T62SSILL
 62
13
 10
846.979
 20
-5853.405
 30
-931.750
 70
    32
  0
VERTEX
  8
T62SSILL
 62
13
 10
848.437
 20
-5852.574
 30
-931.750
 70
    32
  0
VERTEX
  8
T62SSILL
 62
13
 10
847.354
 20
-5845.099
 30
-931.750
 70
    32
  0
VERTEX
  8
T62SSILL
 62
13
 10
842.409
 20
-5838.650
 30
-931.750
 70
    32
  0
VERTEX
  8
T62SSILL
 62
13
 10
837.475
 20
-5830.448
 30
-931.750
 70
    32
  0
VERTEX
  8
T62SSILL
 62
13
 10
840.041
 20
-5826.068
 30
-931.750
 70
    32
  0
VERTEX
  8
T62SSILL
 62
13
 10
848.689
 20
-5821.766
 30
-931.750
 70
    32
  0
VERTEX
  8
T62SSILL
 62
13
 10
856.810
 20
-5826.520
 30
-928.310
 70
    32
  0
VERTEX
  8
T62SSILL
 62
13
 10
861.260
 20
-5828.210
 30
-927.120
 70
    32
  0
VERTEX
  8
T62SSILL
 62
13
 10
863.760
 20
-5835.990
 30
-925.850
 70
    32
  0
VERTEX
  8
T62SSILL
 62
13
 10
869.380
 20
-5835.960
 30
-928.850
 70
    32
  0
VERTEX
  8
T62SSILL
 62
13
 10
870.780
 20
-5831.390
 30
-930.350
 70
    32
  0
VERTEX
  8
T62SSILL
 62
13
 10
868.970
 20
-5824.790
 30
-930.350
 70
    32
  0
VERTEX
  8
T62SSILL
 62
13
 10
869.020
 20
-5824.820
 30
-929.830
 70
    32
  0
VERTEX
  8
T62SSILL
 62
13
 10
866.480
 20
-5821.160
 30
-929.630
 70
    32
  0
VERTEX
  8
T62SSILL
 62
13
 10
846.270
 20
-5789.790
 30
-930.780
 70
    32
  0
VERTEX
  8
T62SSILL
 62
13
 10
840.560
 20
-5786.230
 30
-929.520
 70
    32
  0
VERTEX
  8
T62SSILL
 62
13
 10
839.160
 20
-5782.220
 30
-929.260
 70
    32
  0
VERTEX
  8
T62SSILL
 62
13
 10
841.060
 20
-5777.850
 30
-929.370
 70
    32
  0
VERTEX
  8
T62SSILL
 62
13
 10
839.260
 20
-5769.350
 30
-930.260
 70
    32
  0
VERTEX
  8
T62SSILL
 62
13
 10
841.460
 20
-5760.850
 30
-929.960
 70
    32
  0
VERTEX
  8
T62SSILL
 62
13
 10
841.185
 20
-5760.815
 30
-934.370
 70
    32
  0
VERTEX
  8
T62SSILL
 62
13
 10
841.283
 20
-5756.846
 30
-934.309
 70
    32
  0
VERTEX
  8
T62SSILL
 62
13
 10
840.724
 20
-5750.716
 30
-933.938
 70
    32
  0
VERTEX
  8
T62SSILL
 62
13
 10
834.679
 20
-5741.497
 30
-933.167
 70
    32
  0
VERTEX
  8
T62SSILL
 62
13
 10
828.007
 20
-5733.256
 30
-933.103
 70
    32
  0
VERTEX
  8
T62SSILL
 62
13
 10
815.627
 20
-5719.728
 30
-933.627
 70
    32
  0
VERTEX
  8
T62SSILL
 62
13
 10
812.861
 20
-5717.389
 30
-933.618
 70
    32
  0
VERTEX
  8
T62SSILL
 62
13
 10
807.555
 20
-5715.785
 30
-934.117
 70
    32
  0
VERTEX
  8
T62SSILL
 62
13
 10
804.852
 20
-5714.968
 30
-931.614
 70
    32
  0
VERTEX
  8
T62SSILL
 62
13
 10
798.567
 20
-5719.445
 30
-931.624
 70
    32
  0
VERTEX
  8
T62SSILL
 62
13
 10
809.752
 20
-5736.117
 30
-931.642
 70
    32
  0
VERTEX
  8
T62SSILL
 62
13
 10
816.699
 20
-5741.378
 30
-931.645
 70
    32
  0
VERTEX
  8
T62SSILL
 62
13
 10
815.583
 20
-5743.326
 30
-931.648
 70
    32
  0
VERTEX
  8
T62SSILL
 62
13
 10
807.222
 20
-5748.882
 30
-931.661
 70
    32
  0
VERTEX
  8
T62SSILL
 62
13
 10
798.880
 20
-5737.415
 30
-931.650
 70
    32
  0
VERTEX
  8
T62SSILL
 62
13
 10
793.525
 20
-5732.446
 30
-931.646
 70
    32
  0
VERTEX
  8
T62SSILL
 62
13
 10
786.581
 20
-5728.894
 30
-931.644
 70
    32
  0
VERTEX
  8
T62SSILL
 62
13
 10
772.912
 20
-5738.541
 30
-931.666
 70
    32
  0
VERTEX
  8
T62SSILL
 62
13
 10
768.801
 20
-5747.155
 30
-931.680
 70
    32
  0
VERTEX
  8
T62SSILL
 62
13
 10
763.508
 20
-5749.097
 30
-931.686
 70
    32
  0
VERTEX
  8
T62SSILL
 62
13
 10
759.199
 20
-5748.433
 30
-931.688
 70
    32
  0
VERTEX
  8
T62SSILL
 62
13
 10
699.704
 20
-5790.884
 30
-931.744
 70
    32
  0
VERTEX
  8
T62SSILL
 62
13
 10
686.409
 20
-5804.018
 30
-931.749
 70
    32
  0
VERTEX
  8
T62SSILL
 62
13
 10
672.916
 20
-5812.368
 30
-931.751
 70
    32
  0
VERTEX
  8
T62SSILL
 62
13
 10
629.269
 20
-5877.473
 30
-931.783
 70
    32
  0
VERTEX
  8
T62SSILL
 62
13
 10
637.513
 20
-5882.908
 30
-931.789
 70
    32
  0
VERTEX
  8
T62SSILL
 62
13
 10
632.235
 20
-5890.296
 30
-931.792
 70
    32
  0
VERTEX
  8
T62SSILL
 62
13
 10
626.209
 20
-5890.710
 30
-931.791
 70
    32
  0
VERTEX
  8
T62SSILL
 62
13
 10
621.334
 20
-5888.297
 30
-931.789
 70
    32
  0
VERTEX
  8
T62SSILL
 62
13
 10
586.911
 20
-5940.725
 30
-931.814
 70
    32
  0
VERTEX
  8
T62SSILL
 62
13
 10
580.843
 20
-5935.498
 30
-931.810
 70
    32
  0
VERTEX
  8
T62SSILL
 62
13
 10
669.743
 20
-5803.431
 30
-931.745
 70
    32
  0
VERTEX
  8
T62SSILL
 62
13
 10
676.054
 20
-5779.713
 30
-931.731
 70
    32
  0
VERTEX
  8
T62SSILL
 62
13
 10
684.476
 20
-5777.965
 30
-931.732
 70
    32
  0
VERTEX
  8
T62SSILL
 62
13
 10
695.703
 20
-5785.087
 30
-931.739
 70
    32
  0
VERTEX
  8
T62SSILL
 62
13
 10
718.992
 20
-5769.229
 30
-931.723
 70
    32
  0
VERTEX
  8
T62SSILL
 62
13
 10
714.051
 20
-5762.689
 30
-931.719
 70
    32
  0
VERTEX
  8
T62SSILL
 62
13
 10
734.063
 20
-5748.129
 30
-931.702
 70
    32
  0
VERTEX
  8
T62SSILL
 62
13
 10
738.537
 20
-5754.456
 30
-931.707
 70
    32
  0
VERTEX
  8
T62SSILL
 62
13
 10
747.662
 20
-5747.837
 30
-931.693
 70
    32
  0
VERTEX
  8
T62SSILL
 62
13
 10
745.862
 20
-5745.228
 30
-931.691
 70
    32
  0
VERTEX
  8
T62SSILL
 62
13
 10
748.020
 20
-5735.180
 30
-931.675
 70
    32
  0
VERTEX
  8
T62SSILL
 62
13
 10
761.713
 20
-5731.614
 30
-931.662
 70
    32
  0
VERTEX
  8
T62SSILL
 62
13
 10
762.561
 20
-5734.238
 30
-931.666
 70
    32
  0
VERTEX
  8
T62SSILL
 62
13
 10
765.878
 20
-5735.479
 30
-931.666
 70
    32
  0
VERTEX
  8
T62SSILL
 62
13
 10
802.547
 20
-5708.782
 30
-931.607
 70
    32
  0
VERTEX
  8
T62SSILL
 62
13
 10
799.597
 20
-5706.242
 30
-931.605
 70
    32
  0
VERTEX
  8
T62SSILL
 62
13
 10
798.299
 20
-5704.167
 30
-934.539
 70
    32
  0
VERTEX
  8
T62SSILL
 62
13
 10
796.121
 20
-5703.133
 30
-935.434
 70
    32
  0
VERTEX
  8
T62SSILL
 62
13
 10
785.567
 20
-5699.542
 30
-930.968
 70
    32
  0
VERTEX
  8
T62SSILL
 62
13
 10
759.431
 20
-5690.185
 30
-931.013
 70
    32
  0
VERTEX
  8
T62SSILL
 62
13
 10
754.829
 20
-5690.481
 30
-930.275
 70
    32
  0
VERTEX
  8
T62SSILL
 62
13
 10
749.859
 20
-5686.219
 30
-930.782
 70
    32
  0
VERTEX
  8
T62SSILL
 62
13
 10
743.840
 20
-5684.267
 30
-930.119
 70
    32
  0
VERTEX
  8
T62SSILL
 62
13
 10
735.704
 20
-5679.365
 30
-929.343
 70
    32
  0
VERTEX
  8
T62SSILL
 62
13
 10
731.019
 20
-5668.769
 30
-929.866
 70
    32
  0
VERTEX
  8
T62SSILL
 62
13
 10
717.994
 20
-5657.700
 30
-933.493
 70
    32
  0
VERTEX
  8
T62SSILL
 62
13
 10
718.021
 20
-5657.678
 30
-928.493
 70
    32
  0
VERTEX
  8
T62SSILL
 62
13
 10
701.394
 20
-5640.535
 30
-927.448
 70
    32
  0
VERTEX
  8
T62SSILL
 62
13
 10
699.113
 20
-5635.161
 30
-926.300
 70
    32
  0
VERTEX
  8
T62SSILL
 62
13
 10
693.562
 20
-5628.099
 30
-925.743
 70
    32
  0
VERTEX
  8
T62SSILL
 62
13
 10
695.503
 20
-5620.018
 30
-924.662
 70
    32
  0
VERTEX
  8
T62SSILL
 62
13
 10
690.697
 20
-5612.342
 30
-924.663
 70
    32
  0
VERTEX
  8
T62SSILL
 62
13
 10
692.779
 20
-5610.167
 30
-924.627
 70
    32
  0
VERTEX
  8
T62SSILL
 62
13
 10
692.791
 20
-5610.183
 30
-931.871
 70
    32
  0
VERTEX
  8
T62SSILL
 62
13
 10
658.601
 20
-5565.248
 30
-931.854
 70
    32
  0
VERTEX
  8
T62SSILL
 62
13
 10
665.848
 20
-5560.247
 30
-931.842
 70
    32
  0
VERTEX
  8
T62SSILL
 62
13
 10
698.848
 20
-5603.891
 30
-931.858
 70
    32
  0
VERTEX
  8
T62SSILL
 62
13
 10
698.848
 20
-5603.891
 30
-924.524
 70
    32
  0
VERTEX
  8
T62SSILL
 62
13
 10
699.138
 20
-5603.637
 30
-924.519
 70
    32
  0
VERTEX
  8
T62SSILL
 62
13
 10
700.316
 20
-5599.730
 30
-924.624
 70
    32
  0
VERTEX
  8
T62SSILL
 62
13
 10
699.642
 20
-5594.408
 30
-923.147
 70
    32
  0
VERTEX
  8
T62SSILL
 62
13
 10
708.863
 20
-5590.412
 30
-923.243
 70
    32
  0
VERTEX
  8
T62SSILL
 62
13
 10
717.000
 20
-5601.426
 30
-923.239
 70
    32
  0
VERTEX
  8
T62SSILL
 62
13
 10
716.265
 20
-5613.848
 30
-923.183
 70
    32
  0
VERTEX
  8
T62SSILL
 62
13
 10
720.059
 20
-5621.417
 30
-924.623
 70
    32
  0
VERTEX
  8
T62SSILL
 62
13
 10
720.059
 20
-5621.417
 30
-932.717
 70
    32
  0
VERTEX
  8
T62SSILL
 62
13
 10
727.900
 20
-5627.576
 30
-933.342
 70
    32
  0
VERTEX
  8
T62SSILL
 62
13
 10
733.772
 20
-5641.454
 30
-932.952
 70
    32
  0
VERTEX
  8
T62SSILL
 62
13
 10
741.854
 20
-5651.075
 30
-933.548
 70
    32
  0
VERTEX
  8
T62SSILL
 62
13
 10
743.353
 20
-5661.512
 30
-934.591
 70
    32
  0
VERTEX
  8
T62SSILL
 62
13
 10
745.996
 20
-5666.999
 30
-934.490
 70
    32
  0
VERTEX
  8
T62SSILL
 62
13
 10
749.535
 20
-5670.491
 30
-934.638
 70
    32
  0
VERTEX
  8
T62SSILL
 62
13
 10
754.545
 20
-5676.987
 30
-934.904
 70
    32
  0
VERTEX
  8
T62SSILL
 62
13
 10
754.545
 20
-5676.987
 30
-928.995
 70
    32
  0
VERTEX
  8
T62SSILL
 62
13
 10
759.008
 20
-5681.168
 30
-929.840
 70
    32
  0
VERTEX
  8
T62SSILL
 62
13
 10
779.718
 20
-5688.496
 30
-929.477
 70
    32
  0
VERTEX
  8
T62SSILL
 62
13
 10
810.606
 20
-5696.213
 30
-931.584
 70
    32
  0
VERTEX
  8
T62SSILL
 62
13
 10
820.798
 20
-5695.544
 30
-931.578
 70
    32
  0
VERTEX
  8
T62SSILL
 62
13
 10
878.767
 20
-5653.826
 30
-931.485
 70
    32
  0
VERTEX
  8
T62SSILL
 62
13
 10
878.271
 20
-5650.317
 30
-931.481
 70
    32
  0
VERTEX
  8
T62SSILL
 62
13
 10
869.510
 20
-5640.102
 30
-931.471
 70
    32
  0
VERTEX
  8
T62SSILL
 62
13
 10
855.896
 20
-5634.948
 30
-931.472
 70
    32
  0
VERTEX
  8
T62SSILL
 62
13
 10
858.310
 20
-5625.580
 30
-931.457
 70
    32
  0
VERTEX
  8
T62SSILL
 62
13
 10
866.479
 20
-5629.356
 30
-931.458
 70
    32
  0
VERTEX
  8
T62SSILL
 62
13
 10
874.240
 20
-5630.526
 30
-931.455
 70
    32
  0
VERTEX
  8
T62SSILL
 62
13
 10
820.665
 20
-5333.404
 30
-931.168
 70
    32
  0
VERTEX
  8
T62SSILL
 62
13
 10
827.713
 20
-5331.214
 30
-931.159
 70
    32
  0
VERTEX
  8
T62SSILL
 62
13
 10
884.894
 20
-5649.062
 30
-931.475
 70
    32
  0
VERTEX
  8
T62SSILL
 62
13
 10
1142.272
 20
-5462.875
 30
-931.027
 70
    32
  0
VERTEX
  8
T62SSILL
 62
13
 10
1145.906
 20
-5456.516
 30
-931.016
 70
    32
  0
VERTEX
  8
T62SSILL
 62
13
 10
1148.326
 20
-5458.162
 30
-931.016
 70
    32
  0
VERTEX
  8
T62SSILL
 62
13
 10
1257.976
 20
-5378.637
 30
-930.821
 70
    32
  0
VERTEX
  8
T62SSILL
 62
13
 10
1249.562
 20
-5367.220
 30
-930.812
 70
    32
  0
VERTEX
  8
T62SSILL
 62
13
 10
1260.499
 20
-5359.351
 30
-930.792
 70
    32
  0
VERTEX
  8
T62SSILL
 62
13
 10
1272.952
 20
-5347.012
 30
-930.766
 70
    32
  0
VERTEX
  8
T62SSILL
 62
13
 10
1266.506
 20
-5330.386
 30
-930.756
 70
    32
  0
VERTEX
  8
T62SSILL
 62
13
 10
1271.693
 20
-5327.983
 30
-930.748
 70
    32
  0
VERTEX
  8
T62SSILL
 62
13
 10
1280.731
 20
-5350.844
 30
-930.765
 70
    32
  0
VERTEX
  8
T62SSILL
 62
13
 10
1271.714
 20
-5359.634
 30
-930.784
 70
    32
  0
VERTEX
  8
T62SSILL
 62
13
 10
1276.255
 20
-5365.594
 30
-930.789
 70
    32
  0
VERTEX
  8
T62SSILL
 62
13
 10
1306.685
 20
-5343.832
 30
-930.736
 70
    32
  0
VERTEX
  8
T62SSILL
 62
13
 10
1307.773
 20
-5339.028
 30
-930.728
 70
    32
  0
VERTEX
  8
T62SSILL
 62
13
 10
1313.202
 20
-5339.124
 30
-930.724
 70
    32
  0
VERTEX
  8
T62SSILL
 62
13
 10
1393.140
 20
-5281.383
 30
-930.584
 70
    32
  0
VERTEX
  8
T62SSILL
 62
13
 10
1387.570
 20
-5274.157
 30
-930.583
 70
    32
  0
VERTEX
  8
T62SSILL
 62
13
 10
1406.117
 20
-5260.090
 30
-930.544
 70
    32
  0
VERTEX
  8
T62SSILL
 62
13
 10
1412.107
 20
-5268.505
 30
-930.547
 70
    32
  0
VERTEX
  8
T62SSILL
 62
13
 10
1584.252
 20
-5146.034
 30
-930.190
 70
    32
  0
VERTEX
  8
T62SSILL
 62
13
 10
1570.006
 20
-5123.153
 30
-930.182
 70
    32
  0
VERTEX
  8
T62SSILL
 62
13
 10
1576.983
 20
-5118.356
 30
-930.168
 70
    32
  0
VERTEX
  8
T62SSILL
 62
13
 10
1594.331
 20
-5138.713
 30
-930.169
 70
    32
  0
VERTEX
  8
T62SSILL
 62
13
 10
1602.821
 20
-5132.677
 30
-930.152
 70
    32
  0
VERTEX
  8
T62SSILL
 62
13
 10
1601.789
 20
-5127.626
 30
-930.147
 70
    32
  0
VERTEX
  8
T62SSILL
 62
13
 10
1605.606
 20
-5125.594
 30
-930.140
 70
    32
  0
VERTEX
  8
T62SSILL
 62
13
 10
1609.222
 20
-5127.613
 30
-930.137
 70
    32
  0
VERTEX
  8
T62SSILL
 62
13
 10
1614.443
 20
-5123.996
 30
-930.125
 70
    32
  0
VERTEX
  8
T62SSILL
 62
13
 10
1607.543
 20
-5109.215
 30
-930.119
 70
    32
  0
VERTEX
  8
T62SSILL
 62
13
 10
1613.978
 20
-5104.544
 30
-930.106
 70
    32
  0
VERTEX
  8
T62SSILL
 62
13
 10
1624.638
 20
-5116.190
 30
-930.101
 70
    32
  0
VERTEX
  8
T62SSILL
 62
13
 10
1735.960
 20
-5035.896
 30
-929.841
 70
    32
  0
VERTEX
  8
T62SSILL
 62
13
 10
1737.608
 20
-5033.025
 30
-929.836
 70
    32
  0
VERTEX
  8
T62SSILL
 62
13
 10
1741.418
 20
-5031.824
 30
-929.828
 70
    32
  0
VERTEX
  8
T62SSILL
 62
13
 10
1845.976
 20
-4957.851
 30
-929.597
 70
    32
  0
VERTEX
  8
T62SSILL
 62
13
 10
1847.414
 20
-4952.112
 30
-929.590
 70
    32
  0
VERTEX
  8
T62SSILL
 62
13
 10
1856.038
 20
-4945.787
 30
-929.571
 70
    32
  0
VERTEX
  8
T62SSILL
 62
13
 10
1862.414
 20
-4945.905
 30
-929.561
 70
    32
  0
VERTEX
  8
T62SSILL
 62
13
 10
2006.785
 20
-4842.336
 30
-929.285
 70
    32
  0
VERTEX
  8
T62SSILL
 62
13
 10
1999.890
 20
-4828.068
 30
-929.283
 70
    32
  0
VERTEX
  8
T62SSILL
 62
13
 10
2007.335
 20
-4823.190
 30
-929.270
 70
    32
  0
VERTEX
  8
T62SSILL
 62
13
 10
2017.735
 20
-4834.583
 30
-929.266
 70
    32
  0
VERTEX
  8
T62SSILL
 62
13
 10
2114.461
 20
-4766.036
 30
-929.113
 70
    32
  0
VERTEX
  8
T62SSILL
 62
13
 10
2129.806
 20
-4724.688
 30
-929.127
 70
    32
  0
VERTEX
  8
T62SSILL
 62
13
 10
2139.815
 20
-4727.021
 30
-929.114
 70
    32
  0
VERTEX
  8
T62SSILL
 62
13
 10
2131.809
 20
-4746.814
 30
-929.108
 70
    32
  0
VERTEX
  8
T62SSILL
 62
13
 10
2134.340
 20
-4752.288
 30
-929.101
 70
    32
  0
VERTEX
  8
T62SSILL
 62
13
 10
2157.276
 20
-4735.942
 30
-929.088
 70
    32
  0
VERTEX
  8
T62SSILL
 62
13
 10
2160.499
 20
-4742.541
 30
-929.080
 70
    32
  0
VERTEX
  8
T62SSILL
 62
13
 10
2161.539
 20
-4749.963
 30
-929.073
 70
    32
  0
VERTEX
  8
T62SSILL
 62
13
 10
2154.479
 20
-4756.982
 30
-929.076
 70
    32
  0
VERTEX
  8
T62SSILL
 62
13
 10
2144.118
 20
-4763.339
 30
-929.082
 70
    32
  0
VERTEX
  8
T62SSILL
 62
13
 10
2136.176
 20
-4760.669
 30
-929.093
 70
    32
  0
VERTEX
  8
T62SSILL
 62
13
 10
2113.131
 20
-4776.669
 30
-929.106
 70
    32
  0
VERTEX
  8
T62SSILL
 62
13
 10
2114.218
 20
-4779.619
 30
-929.103
 70
    32
  0
VERTEX
  8
T62SSILL
 62
13
 10
2134.326
 20
-4785.779
 30
-929.083
 70
    32
  0
VERTEX
  8
T62SSILL
 62
13
 10
2139.149
 20
-4781.683
 30
-929.074
 70
    32
  0
VERTEX
  8
T62SSILL
 62
13
 10
2142.019
 20
-4775.581
 30
-929.076
 70
    32
  0
VERTEX
  8
T62SSILL
 62
13
 10
2152.628
 20
-4777.546
 30
-929.062
 70
    32
  0
VERTEX
  8
T62SSILL
 62
13
 10
2161.768
 20
-4782.168
 30
-929.053
 70
    32
  0
VERTEX
  8
T62SSILL
 62
13
 10
2153.219
 20
-4811.182
 30
-929.099
 70
    32
  0
VERTEX
  8
T62SSILL
 62
13
 10
2121.718
 20
-4803.126
 30
-929.112
 70
    32
  0
VERTEX
  8
T62SSILL
 62
13
 10
2100.648
 20
-4791.356
 30
-929.129
 70
    32
  0
VERTEX
  8
T62SSILL
 62
13
 10
2005.095
 20
-4859.287
 30
-929.300
 70
    32
  0
VERTEX
  8
T62SSILL
 62
13
 10
1989.340
 20
-4865.441
 30
-929.325
 70
    32
  0
VERTEX
  8
T62SSILL
 62
13
 10
1866.075
 20
-4952.546
 30
-929.560
 70
    32
  0
VERTEX
  8
T62SSILL
 62
13
 10
1858.818
 20
-4959.582
 30
-929.578
 70
    32
  0
VERTEX
  8
T62SSILL
 62
13
 10
1853.894
 20
-4961.156
 30
-929.587
 70
    32
  0
VERTEX
  8
T62SSILL
 62
13
 10
1286.213
 20
-5367.661
 30
-930.785
 70
    32
  0
VERTEX
  8
T62SSILL
 62
13
 10
1050.836
 20
-5539.031
 30
-931.204
 70
    32
  0
VERTEX
  8
T62SSILL
 62
13
 10
1039.703
 20
-5551.421
 30
-931.229
 70
    32
  0
VERTEX
  8
T62SSILL
 62
13
 10
1037.440
 20
-5556.513
 30
-931.238
 70
    32
  0
VERTEX
  8
T62SSILL
 62
13
 10
1034.199
 20
-5572.123
 30
-931.263
 70
    32
  0
VERTEX
  8
T62SSILL
 62
13
 10
1035.592
 20
-5582.822
 30
-931.277
 70
    32
  0
VERTEX
  8
T62SSILL
 62
13
 10
1085.876
 20
-5769.459
 30
-931.597
 70
    32
  0
VERTEX
  8
T62SSILL
 62
13
 10
1077.664
 20
-5772.131
 30
-931.618
 70
    32
  0
VERTEX
  8
T62SSILL
 62
13
 10
1027.957
 20
-5590.980
 30
-931.294
 70
    32
  0
VERTEX
  8
T62SSILL
 62
13
 10
1026.453
 20
-5579.501
 30
-931.279
 70
    32
  0
VERTEX
  8
T62SSILL
 62
13
 10
1029.497
 20
-5554.614
 30
-931.242
 70
    32
  0
VERTEX
  8
T62SSILL
 62
13
 10
935.809
 20
-5621.305
 30
-931.406
 70
    32
  0
VERTEX
  8
T62SSILL
 62
13
 10
921.741
 20
-5633.474
 30
-931.432
 70
    32
  0
VERTEX
  8
T62SSILL
 62
13
 10
911.503
 20
-5646.852
 30
-931.457
 70
    32
  0
VERTEX
  8
T62SSILL
 62
13
 10
904.892
 20
-5659.438
 30
-931.479
 70
    32
  0
VERTEX
  8
T62SSILL
 62
13
 10
899.835
 20
-5671.486
 30
-931.499
 70
    32
  0
VERTEX
  8
T62SSILL
 62
13
 10
896.915
 20
-5684.307
 30
-931.518
 70
    32
  0
VERTEX
  8
T62SSILL
 62
13
 10
895.879
 20
-5703.422
 30
-931.546
 70
    32
  0
VERTEX
  8
T62SSILL
 62
13
 10
902.489
 20
-5748.498
 30
-931.606
 70
    32
  0
VERTEX
  8
T62SSILL
 62
13
 10
911.340
 20
-5743.032
 30
-931.594
 70
    32
  0
VERTEX
  8
T62SSILL
 62
13
 10
915.196
 20
-5748.929
 30
-931.600
 70
    32
  0
VERTEX
  8
T62SSILL
 62
13
 10
904.054
 20
-5756.190
 30
-931.616
 70
    32
  0
VERTEX
  8
T62SSILL
 62
13
 10
943.509
 20
-5975.655
 30
-932.036
 70
    32
  0
VERTEX
  8
T62SSILL
 62
13
 10
950.566
 20
-5970.999
 30
-932.041
 70
    32
  0
VERTEX
  8
T62SSILL
 62
13
 10
954.317
 20
-5976.434
 30
-932.041
 70
    32
  0
VERTEX
  8
T62SSILL
 62
13
 10
944.874
 20
-5983.058
 30
-932.035
 70
    32
  0
VERTEX
  8
T62SSILL
 62
13
 10
961.459
 20
-6072.814
 30
-932.016
 70
    32
  0
VERTEX
  8
T62SSILL
 62
13
 10
968.164
 20
-6084.234
 30
-932.015
 70
    32
  0
VERTEX
  8
T62SSILL
 62
13
 10
976.149
 20
-6091.774
 30
-932.017
 70
    32
  0
VERTEX
  8
T62SSILL
 62
13
 10
1000.552
 20
-6090.551
 30
-932.028
 70
    32
  0
VERTEX
  8
T62SSILL
 62
13
 10
1004.323
 20
-6094.154
 30
-932.028
 70
    32
  0
VERTEX
  8
T62SSILL
 62
13
 10
1005.455
 20
-6100.754
 30
-932.027
 70
    32
  0
VERTEX
  8
T62SSILL
 62
13
 10
1007.959
 20
-6101.593
 30
-932.028
 70
    32
  0
VERTEX
  8
T62SSILL
 62
13
 10
1044.205
 20
-6094.123
 30
-931.880
 70
    32
  0
VERTEX
  8
T62SSILL
 62
13
 10
1042.970
 20
-6085.668
 30
-931.878
 70
    32
  0
VERTEX
  8
T62SSILL
 62
13
 10
1055.577
 20
-6082.724
 30
-931.846
 70
    32
  0
VERTEX
  8
T62SSILL
 62
13
 10
1038.774
 20
-6054.471
 30
-931.870
 70
    32
  0
VERTEX
  8
T62SSILL
 62
13
 10
1032.162
 20
-6036.509
 30
-931.876
 70
    32
  0
VERTEX
  8
T62SSILL
 62
13
 10
1032.766
 20
-6021.976
 30
-931.866
 70
    32
  0
VERTEX
  8
T62SSILL
 62
13
 10
1037.873
 20
-6020.617
 30
-931.853
 70
    32
  0
VERTEX
  8
T62SSILL
 62
13
 10
1044.629
 20
-6022.639
 30
-931.838
 70
    32
  0
VERTEX
  8
T62SSILL
 62
13
 10
1053.048
 20
-6040.398
 30
-931.828
 70
    32
  0
VERTEX
  8
T62SSILL
 62
13
 10
1062.826
 20
-6056.105
 30
-931.814
 70
    32
  0
VERTEX
  8
T62SSILL
 62
13
 10
1070.454
 20
-6074.428
 30
-931.806
 70
    32
  0
VERTEX
  8
T62SSILL
 62
13
 10
1083.218
 20
-6086.543
 30
-931.783
 70
    32
  0
VERTEX
  8
T62SSILL
 62
13
 10
1176.005
 20
-6067.972
 30
-931.552
 70
    32
  0
VERTEX
  8
T62SSILL
 62
13
 10
1161.072
 20
-6049.792
 30
-931.577
 70
    32
  0
VERTEX
  8
T62SSILL
 62
13
 10
1149.663
 20
-6041.382
 30
-931.600
 70
    32
  0
VERTEX
  8
T62SSILL
 62
13
 10
1143.866
 20
-6033.151
 30
-931.609
 70
    32
  0
VERTEX
  8
T62SSILL
 62
13
 10
1154.702
 20
-6022.607
 30
-931.577
 70
    32
  0
VERTEX
  8
T62SSILL
 62
13
 10
1159.941
 20
-6028.884
 30
-931.568
 70
    32
  0
VERTEX
  8
T62SSILL
 62
13
 10
1169.547
 20
-6034.872
 30
-931.549
 70
    32
  0
VERTEX
  8
T62SSILL
 62
13
 10
1176.469
 20
-6033.873
 30
-931.532
 70
    32
  0
VERTEX
  8
T62SSILL
 62
13
 10
1185.070
 20
-6046.847
 30
-931.519
 70
    32
  0
VERTEX
  8
T62SSILL
 62
13
 10
1190.913
 20
-6060.602
 30
-931.513
 70
    32
  0
VERTEX
  8
T62SSILL
 62
13
 10
1196.700
 20
-6063.830
 30
-931.501
 70
    32
  0
VERTEX
  8
T62SSILL
 62
13
 10
1234.120
 20
-6056.340
 30
-931.408
 70
    32
  0
VERTEX
  8
T62SSILL
 62
13
 10
1235.857
 20
-6064.127
 30
-931.408
 70
    32
  0
VERTEX
  8
T62SSILL
 62
13
 10
1198.871
 20
-6070.975
 30
-931.500
 70
    32
  0
VERTEX
  8
T62SSILL
 62
13
 10
1196.397
 20
-6074.112
 30
-931.507
 70
    32
  0
VERTEX
  8
T62SSILL
 62
13
 10
1201.023
 20
-6088.130
 30
-931.504
 70
    32
  0
VERTEX
  8
T62SSILL
 62
13
 10
1232.300
 20
-6126.401
 30
-931.452
 70
    32
  0
VERTEX
  8
T62SSILL
 62
13
 10
1216.854
 20
-6137.621
 30
-931.495
 70
    32
  0
VERTEX
  8
T62SSILL
 62
13
 10
1206.092
 20
-6124.804
 30
-931.513
 70
    32
  0
VERTEX
  8
T62SSILL
 62
13
 10
1197.907
 20
-6110.478
 30
-931.524
 70
    32
  0
VERTEX
  8
T62SSILL
 62
13
 10
1195.830
 20
-6101.585
 30
-931.524
 70
    32
  0
VERTEX
  8
T62SSILL
 62
13
 10
1189.518
 20
-6096.484
 30
-931.536
 70
    32
  0
VERTEX
  8
T62SSILL
 62
13
 10
1188.006
 20
-6088.012
 30
-931.535
 70
    32
  0
VERTEX
  8
T62SSILL
 62
13
 10
1181.559
 20
-6075.927
 30
-931.544
 70
    32
  0
VERTEX
  8
T62SSILL
 62
13
 10
1178.270
 20
-6074.790
 30
-931.551
 70
    32
  0
VERTEX
  8
T62SSILL
 62
13
 10
1083.576
 20
-6094.053
 30
-931.786
 70
    32
  0
VERTEX
  8
T62SSILL
 62
13
 10
1088.720
 20
-6118.802
 30
-931.788
 70
    32
  0
VERTEX
  8
T62SSILL
 62
13
 10
1087.885
 20
-6121.132
 30
-931.791
 70
    32
  0
VERTEX
  8
T62SSILL
 62
13
 10
1082.878
 20
-6124.916
 30
-931.805
 70
    32
  0
VERTEX
  8
T62SSILL
 62
13
 10
1078.800
 20
-6124.674
 30
-931.815
 70
    32
  0
VERTEX
  8
T62SSILL
 62
13
 10
1073.660
 20
-6120.959
 30
-931.825
 70
    32
  0
VERTEX
  8
T62SSILL
 62
13
 10
1068.950
 20
-6109.018
 30
-931.830
 70
    32
  0
VERTEX
  8
T62SSILL
 62
13
 10
1061.736
 20
-6098.480
 30
-931.841
 70
    32
  0
VERTEX
  8
T62SSILL
 62
13
 10
1013.050
 20
-6108.350
 30
-932.028
 70
    32
  0
VERTEX
  8
T62SSILL
 62
13
 10
1002.158
 20
-6108.378
 30
-932.023
 70
    32
  0
VERTEX
  8
T62SSILL
 62
13
 10
987.973
 20
-6105.651
 30
-932.018
 70
    32
  0
VERTEX
  8
T62SSILL
 62
13
 10
980.499
 20
-6102.572
 30
-932.015
 70
    32
  0
VERTEX
  8
T62SSILL
 62
13
 10
976.455
 20
-6103.223
 30
-932.013
 70
    32
  0
VERTEX
  8
T62SSILL
 62
13
 10
974.362
 20
-6099.105
 30
-932.014
 70
    32
  0
VERTEX
  8
T62SSILL
 62
13
 10
964.764
 20
-6090.003
 30
-932.012
 70
    32
  0
VERTEX
  8
T62SSILL
 62
13
 10
982.628
 20
-6192.463
 30
-931.990
 70
    32
  0
VERTEX
  8
T62SSILL
 62
13
 10
987.294
 20
-6189.457
 30
-931.993
 70
    32
  0
VERTEX
  8
T62SSILL
 62
13
 10
990.739
 20
-6194.140
 30
-931.993
 70
    32
  0
VERTEX
  8
T62SSILL
 62
13
 10
983.876
 20
-6200.161
 30
-931.988
 70
    32
  0
VERTEX
  8
T62SSILL
 62
13
 10
1001.494
 20
-6299.474
 30
-932.036
 70
    32
  0
VERTEX
  8
T62SSILL
 62
13
 10
1011.622
 20
-6373.318
 30
-932.135
 70
    32
  0
VERTEX
  8
T62SSILL
 62
13
 10
1015.303
 20
-6378.181
 30
-932.138
 70
    32
  0
VERTEX
  8
T62SSILL
 62
13
 10
1019.918
 20
-6383.898
 30
-932.140
 70
    32
  0
VERTEX
  8
T62SSILL
 62
13
 10
1060.338
 20
-6412.165
 30
-932.127
 70
    32
  0
VERTEX
  8
T62SSILL
 62
13
 10
1072.354
 20
-6413.043
 30
-932.111
 70
    32
  0
VERTEX
  8
T62SSILL
 62
13
 10
1222.518
 20
-6403.492
 30
-931.632
 70
    32
  0
VERTEX
  8
T62SSILL
 62
13
 10
1234.748
 20
-6397.058
 30
-931.600
 70
    32
  0
VERTEX
  8
T62SSILL
 62
13
 10
1357.664
 20
-6292.146
 30
-931.450
 70
    32
  0
VERTEX
  8
T62SSILL
 62
13
 10
1361.909
 20
-6297.801
 30
-931.474
 70
    32
  0
VERTEX
  8
T62SSILL
 62
13
 10
1245.092
 20
-6396.198
 30
-931.578
 70
    32
  0
VERTEX
  8
T62SSILL
 62
13
 10
1248.107
 20
-6401.452
 30
-931.576
 70
    32
  0
VERTEX
  8
T62SSILL
 62
13
 10
1259.246
 20
-6404.303
 30
-931.560
 70
    32
  0
VERTEX
  8
T62SSILL
 62
13
 10
1250.849
 20
-6414.318
 30
-931.579
 70
    32
  0
VERTEX
  8
T62SSILL
 62
13
 10
1223.803
 20
-6410.170
 30
-931.633
 70
    32
  0
VERTEX
  8
T62SSILL
 62
13
 10
1217.999
 20
-6411.158
 30
-931.647
 70
    32
  0
VERTEX
  8
T62SSILL
 62
13
 10
1214.521
 20
-6423.941
 30
-931.663
 70
    32
  0
VERTEX
  8
T62SSILL
 62
13
 10
1209.124
 20
-6426.365
 30
-931.696
 70
    32
  0
VERTEX
  8
T62SSILL
 62
13
 10
1204.648
 20
-6424.597
 30
-931.717
 70
    32
  0
VERTEX
  8
T62SSILL
 62
13
 10
1196.695
 20
-6412.774
 30
-931.735
 70
    32
  0
VERTEX
  8
T62SSILL
 62
13
 10
1172.597
 20
-6414.427
 30
-931.878
 70
    32
  0
VERTEX
  8
T62SSILL
 62
13
 10
1237.344
 20
-6454.763
 30
-931.640
 70
    32
  0
VERTEX
  8
T62SSILL
 62
13
 10
1245.475
 20
-6464.808
 30
-931.684
 70
    32
  0
VERTEX
  8
T62SSILL
 62
13
 10
1248.091
 20
-6475.637
 30
-931.718
 70
    32
  0
VERTEX
  8
T62SSILL
 62
13
 10
1325.207
 20
-6497.399
 30
-931.933
 70
    32
  0
VERTEX
  8
T62SSILL
 62
13
 10
1337.255
 20
-6499.424
 30
-931.963
 70
    32
  0
VERTEX
  8
T62SSILL
 62
13
 10
1333.283
 20
-6511.173
 30
-931.986
 70
    32
  0
VERTEX
  8
T62SSILL
 62
13
 10
1321.959
 20
-6507.307
 30
-931.953
 70
    32
  0
VERTEX
  8
T62SSILL
 62
13
 10
1250.706
 20
-6486.466
 30
-931.752
 70
    32
  0
VERTEX
  8
T62SSILL
 62
13
 10
1257.388
 20
-6513.056
 30
-931.837
 70
    32
  0
VERTEX
  8
T62SSILL
 62
13
 10
1349.258
 20
-6539.388
 30
-932.094
 70
    32
  0
VERTEX
  8
T62SSILL
 62
13
 10
1347.541
 20
-6548.855
 30
-932.116
 70
    32
  0
VERTEX
  8
T62SSILL
 62
13
 10
1260.342
 20
-6524.512
 30
-931.874
 70
    32
  0
VERTEX
  8
T62SSILL
 62
13
 10
1267.118
 20
-6550.168
 30
-931.956
 70
    32
  0
VERTEX
  8
T62SSILL
 62
13
 10
1279.178
 20
-6556.438
 30
-931.997
 70
    32
  0
VERTEX
  8
T62SSILL
 62
13
 10
1341.357
 20
-6573.220
 30
-932.168
 70
    32
  0
VERTEX
  8
T62SSILL
 62
13
 10
1338.107
 20
-6584.647
 30
-932.192
 70
    32
  0
VERTEX
  8
T62SSILL
 62
13
 10
1327.134
 20
-6579.446
 30
-932.156
 70
    32
  0
VERTEX
  8
T62SSILL
 62
13
 10
1270.890
 20
-6563.535
 30
-931.999
 70
    32
  0
VERTEX
  8
T62SSILL
 62
13
 10
1276.504
 20
-6582.533
 30
-932.061
 70
    32
  0
VERTEX
  8
T62SSILL
 62
13
 10
1289.144
 20
-6593.273
 30
-932.116
 70
    32
  0
VERTEX
  8
T62SSILL
 62
13
 10
1313.147
 20
-6601.233
 30
-932.186
 70
    32
  0
VERTEX
  8
T62SSILL
 62
13
 10
1322.012
 20
-6600.885
 30
-932.203
 70
    32
  0
VERTEX
  8
T62SSILL
 62
13
 10
1317.589
 20
-6613.256
 30
-932.227
 70
    32
  0
VERTEX
  8
T62SSILL
 62
13
 10
1309.737
 20
-6609.086
 30
-932.200
 70
    32
  0
VERTEX
  8
T62SSILL
 62
13
 10
1280.271
 20
-6600.461
 30
-932.117
 70
    32
  0
VERTEX
  8
T62SSILL
 62
13
 10
1285.332
 20
-6618.226
 30
-932.175
 70
    32
  0
VERTEX
  8
T62SSILL
 62
13
 10
1291.579
 20
-6624.407
 30
-932.204
 70
    32
  0
VERTEX
  8
T62SSILL
 62
13
 10
1300.667
 20
-6627.157
 30
-932.230
 70
    32
  0
VERTEX
  8
T62SSILL
 62
13
 10
1347.627
 20
-6608.673
 30
-932.276
 70
    32
  0
VERTEX
  8
T62SSILL
 62
13
 10
1347.702
 20
-6598.423
 30
-932.249
 70
    32
  0
VERTEX
  8
T62SSILL
 62
13
 10
1349.041
 20
-6595.734
 30
-932.244
 70
    32
  0
VERTEX
  8
T62SSILL
 62
13
 10
1368.485
 20
-6587.090
 30
-932.261
 70
    32
  0
VERTEX
  8
T62SSILL
 62
13
 10
1375.923
 20
-6593.725
 30
-932.293
 70
    32
  0
VERTEX
  8
T62SSILL
 62
13
 10
1376.495
 20
-6596.355
 30
-932.302
 70
    32
  0
VERTEX
  8
T62SSILL
 62
13
 10
1390.696
 20
-6591.012
 30
-932.316
 70
    32
  0
VERTEX
  8
T62SSILL
 62
13
 10
1393.493
 20
-6596.613
 30
-932.337
 70
    32
  0
VERTEX
  8
T62SSILL
 62
13
 10
1334.083
 20
-6621.792
 30
-932.283
 70
    32
  0
VERTEX
  8
T62SSILL
 62
13
 10
1336.131
 20
-6626.951
 30
-932.301
 70
    32
  0
VERTEX
  8
T62SSILL
 62
13
 10
1324.683
 20
-6631.743
 30
-932.291
 70
    32
  0
VERTEX
  8
T62SSILL
 62
13
 10
1322.328
 20
-6626.152
 30
-932.271
 70
    32
  0
VERTEX
  8
T62SSILL
 62
13
 10
1309.225
 20
-6632.123
 30
-932.260
 70
    32
  0
VERTEX
  8
T62SSILL
 62
13
 10
1310.729
 20
-6636.367
 30
-932.275
 70
    32
  0
VERTEX
  8
T62SSILL
 62
13
 10
1314.436
 20
-6636.546
 30
-932.283
 70
    32
  0
VERTEX
  8
T62SSILL
 62
13
 10
1315.418
 20
-6639.752
 30
-932.293
 70
    32
  0
VERTEX
  8
T62SSILL
 62
13
 10
1350.650
 20
-6649.817
 30
-932.392
 70
    32
  0
VERTEX
  8
T62SSILL
 62
13
 10
1347.470
 20
-6658.251
 30
-932.408
 70
    32
  0
VERTEX
  8
T62SSILL
 62
13
 10
1297.408
 20
-6644.012
 30
-932.268
 70
    32
  0
VERTEX
  8
T62SSILL
 62
13
 10
1300.299
 20
-6655.837
 30
-932.306
 70
    32
  0
VERTEX
  8
T62SSILL
 62
13
 10
1309.815
 20
-6675.745
 30
-932.378
 70
    32
  0
VERTEX
  8
T62SSILL
 62
13
 10
1313.425
 20
-6679.899
 30
-932.397
 70
    32
  0
VERTEX
  8
T62SSILL
 62
13
 10
1333.746
 20
-6683.756
 30
-932.448
 70
    32
  0
VERTEX
  8
T62SSILL
 62
13
 10
1335.253
 20
-6685.720
 30
-932.457
 70
    32
  0
VERTEX
  8
T62SSILL
 62
13
 10
1365.649
 20
-6682.401
 30
-932.509
 70
    32
  0
VERTEX
  8
T62SSILL
 62
13
 10
1366.437
 20
-6692.796
 30
-932.539
 70
    32
  0
VERTEX
  8
T62SSILL
 62
13
 10
1336.493
 20
-6695.685
 30
-932.486
 70
    32
  0
VERTEX
  8
T62SSILL
 62
13
 10
1334.692
 20
-6698.486
 30
-932.490
 70
    32
  0
VERTEX
  8
T62SSILL
 62
13
 10
1337.482
 20
-6701.489
 30
-932.503
 70
    32
  0
VERTEX
  8
T62SSILL
 62
13
 10
1333.779
 20
-6705.428
 30
-932.506
 70
    32
  0
VERTEX
  8
T62SSILL
 62
13
 10
1328.043
 20
-6701.487
 30
-932.484
 70
    32
  0
VERTEX
  8
T62SSILL
 62
13
 10
1330.910
 20
-6715.716
 30
-932.528
 70
    32
  0
VERTEX
  8
T62SSILL
 62
13
 10
1334.588
 20
-6722.859
 30
-932.554
 70
    32
  0
VERTEX
  8
T62SSILL
 62
13
 10
1340.219
 20
-6728.936
 30
-932.582
 70
    32
  0
VERTEX
  8
T62SSILL
 62
13
 10
1348.861
 20
-6734.449
 30
-932.614
 70
    32
  0
VERTEX
  8
T62SSILL
 62
13
 10
1343.846
 20
-6744.669
 30
-932.632
 70
    32
  0
VERTEX
  8
T62SSILL
 62
13
 10
1330.126
 20
-6734.716
 30
-932.577
 70
    32
  0
VERTEX
  8
T62SSILL
 62
13
 10
1297.258
 20
-6719.185
 30
-932.469
 70
    32
  0
VERTEX
  8
T62SSILL
 62
13
 10
1287.885
 20
-6723.692
 30
-932.462
 70
    32
  0
VERTEX
  8
T62SSILL
 62
13
 10
1271.832
 20
-6746.842
 30
-932.500
 70
    32
  0
VERTEX
  8
T62SSILL
 62
13
 10
1262.749
 20
-6741.705
 30
-932.563
 70
    32
  0
VERTEX
  8
T62SSILL
 62
13
 10
1279.328
 20
-6717.312
 30
-932.427
 70
    32
  0
VERTEX
  8
T62SSILL
 62
13
 10
1278.512
 20
-6712.361
 30
-932.412
 70
    32
  0
VERTEX
  8
T62SSILL
 62
13
 10
1262.676
 20
-6703.682
 30
-932.402
 70
    32
  0
VERTEX
  8
T62SSILL
 62
13
 10
1262.681
 20
-6699.881
 30
-932.385
 70
    32
  0
VERTEX
  8
T62SSILL
 62
13
 10
1252.761
 20
-6694.433
 30
-932.455
 70
    32
  0
VERTEX
  8
T62SSILL
 62
13
 10
1237.444
 20
-6702.530
 30
-932.531
 70
    32
  0
VERTEX
  8
T62SSILL
 62
13
 10
1231.013
 20
-6697.500
 30
-932.509
 70
    32
  0
VERTEX
  8
T62SSILL
 62
13
 10
1229.028
 20
-6691.896
 30
-932.498
 70
    32
  0
VERTEX
  8
T62SSILL
 62
13
 10
1229.652
 20
-6684.680
 30
-932.469
 70
    32
  0
VERTEX
  8
T62SSILL
 62
13
 10
1227.732
 20
-6681.088
 30
-932.465
 70
    32
  0
VERTEX
  8
T62SSILL
 62
13
 10
1213.155
 20
-6677.151
 30
-932.517
 70
    32
  0
VERTEX
  8
T62SSILL
 62
13
 10
1195.345
 20
-6679.412
 30
-932.580
 70
    32
  0
VERTEX
  8
T62SSILL
 62
13
 10
1130.537
 20
-6705.762
 30
-932.965
 70
    32
  0
VERTEX
  8
T62SSILL
 62
13
 10
1121.116
 20
-6708.285
 30
-933.006
 70
    32
  0
VERTEX
  8
T62SSILL
 62
13
 10
1113.543
 20
-6709.165
 30
-933.034
 70
    32
  0
VERTEX
  8
T62SSILL
 62
13
 10
1096.690
 20
-6706.423
 30
-933.078
 70
    32
  0
VERTEX
  8
T62SSILL
 62
13
 10
1079.244
 20
-6697.415
 30
-933.082
 70
    32
  0
VERTEX
  8
T62SSILL
 62
13
 10
1214.851
 20
-7000.413
 30
-933.677
 70
    32
  0
VERTEX
  8
T62SSILL
 62
13
 10
1223.714
 20
-6995.410
 30
-933.618
 70
    32
  0
VERTEX
  8
T62SSILL
 62
13
 10
1227.626
 20
-7001.265
 30
-933.620
 70
    32
  0
VERTEX
  8
T62SSILL
 62
13
 10
1217.906
 20
-7007.420
 30
-933.688
 70
    32
  0
VERTEX
  8
T62SSILL
 62
13
 10
1271.358
 20
-7127.982
 30
-934.121
 70
    32
  0
VERTEX
  8
T62SSILL
 62
13
 10
1278.731
 20
-7135.267
 30
-934.090
 70
    32
  0
VERTEX
  8
T62SSILL
 62
13
 10
1291.796
 20
-7143.101
 30
-934.001
 70
    32
  0
VERTEX
  8
T62SSILL
 62
13
 10
1304.765
 20
-7145.470
 30
-933.890
 70
    32
  0
VERTEX
  8
T62SSILL
 62
13
 10
1318.972
 20
-7143.485
 30
-933.749
 70
    32
  0
VERTEX
  8
T62SSILL
 62
13
 10
1358.056
 20
-7125.408
 30
-933.678
 70
    32
  0
VERTEX
  8
T62SSILL
 62
13
 10
1357.312
 20
-7113.246
 30
-933.644
 70
    32
  0
VERTEX
  8
T62SSILL
 62
13
 10
1372.216
 20
-7104.474
 30
-933.651
 70
    32
  0
VERTEX
  8
T62SSILL
 62
13
 10
1380.313
 20
-7102.286
 30
-933.661
 70
    32
  0
VERTEX
  8
T62SSILL
 62
13
 10
1388.939
 20
-7110.894
 30
-933.702
 70
    32
  0
VERTEX
  8
T62SSILL
 62
13
 10
1422.774
 20
-7095.637
 30
-933.730
 70
    32
  0
VERTEX
  8
T62SSILL
 62
13
 10
1425.132
 20
-7101.850
 30
-933.746
 70
    32
  0
VERTEX
  8
T62SSILL
 62
13
 10
1400.553
 20
-7113.036
 30
-933.731
 70
    32
  0
VERTEX
  8
T62SSILL
 62
13
 10
1398.610
 20
-7118.420
 30
-933.742
 70
    32
  0
VERTEX
  8
T62SSILL
 62
13
 10
1390.409
 20
-7117.983
 30
-933.724
 70
    32
  0
VERTEX
  8
T62SSILL
 62
13
 10
1360.287
 20
-7131.738
 30
-933.699
 70
    32
  0
VERTEX
  8
T62SSILL
 62
13
 10
1362.324
 20
-7137.338
 30
-933.718
 70
    32
  0
VERTEX
  8
T62SSILL
 62
13
 10
1350.556
 20
-7142.900
 30
-933.709
 70
    32
  0
VERTEX
  8
T62SSILL
 62
13
 10
1347.790
 20
-7137.494
 30
-933.689
 70
    32
  0
VERTEX
  8
T62SSILL
 62
13
 10
1317.341
 20
-7150.180
 30
-933.793
 70
    32
  0
VERTEX
  8
T62SSILL
 62
13
 10
1298.924
 20
-7150.823
 30
-933.968
 70
    32
  0
VERTEX
  8
T62SSILL
 62
13
 10
1280.886
 20
-7144.689
 30
-934.110
 70
    32
  0
VERTEX
  8
T62SSILL
 62
13
 10
1274.956
 20
-7140.018
 30
-934.145
 70
    32
  0
VERTEX
  8
T62SSILL
 62
13
 10
1297.207
 20
-7191.967
 30
-934.159
 70
    32
  0
VERTEX
  8
T62SSILL
 62
13
 10
1334.027
 20
-7270.369
 30
-934.149
 70
    32
  0
VERTEX
  8
T62SSILL
 62
13
 10
1345.648
 20
-7281.651
 30
-934.089
 70
    32
  0
VERTEX
  8
T62SSILL
 62
13
 10
1365.580
 20
-7290.262
 30
-934.127
 70
    32
  0
VERTEX
  8
T62SSILL
 62
13
 10
1371.262
 20
-7291.406
 30
-934.114
 70
    32
  0
VERTEX
  8
T62SSILL
 62
13
 10
1388.030
 20
-7288.632
 30
-934.067
 70
    32
  0
VERTEX
  8
T62SSILL
 62
13
 10
1474.784
 20
-7249.430
 30
-933.797
 70
    32
  0
VERTEX
  8
T62SSILL
 62
13
 10
1473.201
 20
-7239.740
 30
-933.789
 70
    32
  0
VERTEX
  8
T62SSILL
 62
13
 10
1498.081
 20
-7234.004
 30
-933.719
 70
    32
  0
VERTEX
  8
T62SSILL
 62
13
 10
1499.368
 20
-7238.245
 30
-933.721
 70
    32
  0
VERTEX
  8
T62SSILL
 62
13
 10
1531.257
 20
-7224.009
 30
-933.621
 70
    32
  0
VERTEX
  8
T62SSILL
 62
13
 10
1601.170
 20
-7208.312
 30
-933.423
 70
    32
  0
VERTEX
  8
T62SSILL
 62
13
 10
1602.428
 20
-7204.365
 30
-933.415
 70
    32
  0
VERTEX
  8
T62SSILL
 62
13
 10
1601.521
 20
-7201.464
 30
-933.414
 70
    32
  0
VERTEX
  8
T62SSILL
 62
13
 10
1605.724
 20
-7198.711
 30
-933.400
 70
    32
  0
VERTEX
  8
T62SSILL
 62
13
 10
1610.604
 20
-7200.400
 30
-933.389
 70
    32
  0
VERTEX
  8
T62SSILL
 62
13
 10
1614.781
 20
-7205.128
 30
-933.384
 70
    32
  0
VERTEX
  8
T62SSILL
 62
13
 10
1686.201
 20
-7188.512
 30
-933.181
 70
    32
  0
VERTEX
  8
T62SSILL
 62
13
 10
1687.727
 20
-7194.829
 30
-933.185
 70
    32
  0
VERTEX
  8
T62SSILL
 62
13
 10
1615.473
 20
-7211.159
 30
-933.390
 70
    32
  0
VERTEX
  8
T62SSILL
 62
13
 10
1614.988
 20
-7216.713
 30
-933.398
 70
    32
  0
VERTEX
  8
T62SSILL
 62
13
 10
1617.031
 20
-7223.318
 30
-933.400
 70
    32
  0
VERTEX
  8
T62SSILL
 62
13
 10
1648.542
 20
-7298.142
 30
-933.410
 70
    32
  0
VERTEX
  8
T62SSILL
 62
13
 10
1651.441
 20
-7302.246
 30
-933.408
 70
    32
  0
VERTEX
  8
T62SSILL
 62
13
 10
1661.956
 20
-7331.017
 30
-933.416
 70
    32
  0
VERTEX
  8
T62SSILL
 62
13
 10
1670.356
 20
-7345.556
 30
-933.412
 70
    32
  0
VERTEX
  8
T62SSILL
 62
13
 10
1678.004
 20
-7349.383
 30
-933.397
 70
    32
  0
VERTEX
  8
T62SSILL
 62
13
 10
1676.354
 20
-7356.719
 30
-933.410
 70
    32
  0
VERTEX
  8
T62SSILL
 62
13
 10
1679.102
 20
-7362.951
 30
-933.411
 70
    32
  0
VERTEX
  8
T62SSILL
 62
13
 10
1679.534
 20
-7375.024
 30
-933.424
 70
    32
  0
VERTEX
  8
T62SSILL
 62
13
 10
1676.634
 20
-7378.596
 30
-933.436
 70
    32
  0
VERTEX
  8
T62SSILL
 62
13
 10
1672.469
 20
-7380.151
 30
-933.448
 70
    32
  0
VERTEX
  8
T62SSILL
 62
13
 10
1667.530
 20
-7369.759
 30
-933.449
 70
    32
  0
VERTEX
  8
T62SSILL
 62
13
 10
1646.829
 20
-7380.540
 30
-933.515
 70
    32
  0
VERTEX
  8
T62SSILL
 62
13
 10
1655.618
 20
-7400.038
 30
-933.516
 70
    32
  0
VERTEX
  8
T62SSILL
 62
13
 10
1647.317
 20
-7403.661
 30
-933.542
 70
    32
  0
VERTEX
  8
T62SSILL
 62
13
 10
1581.798
 20
-7256.141
 30
-933.531
 70
    32
  0
VERTEX
  8
T62SSILL
 62
13
 10
1573.602
 20
-7245.193
 30
-933.538
 70
    32
  0
VERTEX
  8
T62SSILL
 62
13
 10
1565.869
 20
-7239.155
 30
-933.551
 70
    32
  0
VERTEX
  8
T62SSILL
 62
13
 10
1549.369
 20
-7231.513
 30
-933.584
 70
    32
  0
VERTEX
  8
T62SSILL
 62
13
 10
1531.128
 20
-7231.026
 30
-933.630
 70
    32
  0
VERTEX
  8
T62SSILL
 62
13
 10
1389.242
 20
-7295.269
 30
-934.072
 70
    32
  0
VERTEX
  8
T62SSILL
 62
13
 10
1376.818
 20
-7297.221
 30
-934.107
 70
    32
  0
VERTEX
  8
T62SSILL
 62
13
 10
1360.252
 20
-7295.593
 30
-934.137
 70
    32
  0
VERTEX
  8
T62SSILL
 62
13
 10
1353.404
 20
-7313.259
 30
-934.170
 70
    32
  0
VERTEX
  8
T62SSILL
 62
13
 10
1382.507
 20
-7379.060
 30
-934.191
 70
    32
  0
VERTEX
  8
T62SSILL
 62
13
 10
1390.998
 20
-7372.520
 30
-934.161
 70
    32
  0
VERTEX
  8
T62SSILL
 62
13
 10
1397.774
 20
-7377.840
 30
-934.151
 70
    32
  0
VERTEX
  8
T62SSILL
 62
13
 10
1385.710
 20
-7386.901
 30
-934.192
 70
    32
  0
VERTEX
  8
T62SSILL
 62
13
 10
1416.753
 20
-7456.180
 30
-934.197
 70
    32
  0
VERTEX
  8
T62SSILL
 62
13
 10
1474.613
 20
-7553.904
 30
-934.167
 70
    32
  0
VERTEX
  8
T62SSILL
 62
13
 10
1486.680
 20
-7547.825
 30
-934.129
 70
    32
  0
VERTEX
  8
T62SSILL
 62
13
 10
1483.720
 20
-7542.377
 30
-934.130
 70
    32
  0
VERTEX
  8
T62SSILL
 62
13
 10
1505.184
 20
-7529.584
 30
-934.059
 70
    32
  0
VERTEX
  8
T62SSILL
 62
13
 10
1508.562
 20
-7535.175
 30
-934.057
 70
    32
  0
VERTEX
  8
T62SSILL
 62
13
 10
1525.167
 20
-7525.581
 30
-934.003
 70
    32
  0
VERTEX
  8
T62SSILL
 62
13
 10
1528.761
 20
-7533.370
 30
-934.003
 70
    32
  0
VERTEX
  8
T62SSILL
 62
13
 10
1480.014
 20
-7561.529
 30
-934.162
 70
    32
  0
VERTEX
  8
T62SSILL
 62
13
 10
1502.489
 20
-7601.138
 30
-934.153
 70
    32
  0
VERTEX
  8
T62SSILL
 62
13
 10
1517.324
 20
-7598.186
 30
-934.111
 70
    32
  0
VERTEX
  8
T62SSILL
 62
13
 10
1523.636
 20
-7609.029
 30
-934.108
 70
    32
  0
VERTEX
  8
T62SSILL
 62
13
 10
1518.906
 20
-7617.213
 30
-934.130
 70
    32
  0
VERTEX
  8
T62SSILL
 62
13
 10
1520.704
 20
-7626.946
 30
-934.137
 70
    32
  0
VERTEX
  8
T62SSILL
 62
13
 10
1528.487
 20
-7634.728
 30
-934.127
 70
    32
  0
VERTEX
  8
T62SSILL
 62
13
 10
1533.609
 20
-7631.911
 30
-934.110
 70
    32
  0
VERTEX
  8
T62SSILL
 62
13
 10
1525.148
 20
-7620.845
 30
-934.118
 70
    32
  0
VERTEX
  8
T62SSILL
 62
13
 10
1526.575
 20
-7615.342
 30
-934.108
 70
    32
  0
VERTEX
  8
T62SSILL
 62
13
 10
1543.565
 20
-7622.935
 30
-934.074
 70
    32
  0
VERTEX
  8
T62SSILL
 62
13
 10
1547.318
 20
-7622.467
 30
-934.064
 70
    32
  0
VERTEX
  8
T62SSILL
 62
13
 10
1551.309
 20
-7625.269
 30
-934.057
 70
    32
  0
VERTEX
  8
T62SSILL
 62
13
 10
1588.043
 20
-7626.289
 30
-933.964
 70
    32
  0
VERTEX
  8
T62SSILL
 62
13
 10
1588.902
 20
-7631.781
 30
-933.968
 70
    32
  0
VERTEX
  8
T62SSILL
 62
13
 10
1580.310
 20
-7640.932
 30
-934.001
 70
    32
  0
VERTEX
  8
T62SSILL
 62
13
 10
1578.374
 20
-7650.777
 30
-934.018
 70
    32
  0
VERTEX
  8
T62SSILL
 62
13
 10
1574.624
 20
-7654.822
 30
-934.033
 70
    32
  0
VERTEX
  8
T62SSILL
 62
13
 10
1575.378
 20
-7662.198
 30
-934.040
 70
    32
  0
VERTEX
  8
T62SSILL
 62
13
 10
1573.986
 20
-7667.516
 30
-934.050
 70
    32
  0
VERTEX
  8
T62SSILL
 62
13
 10
1564.536
 20
-7673.839
 30
-934.082
 70
    32
  0
VERTEX
  8
T62SSILL
 62
13
 10
1563.111
 20
-7704.018
 30
-934.122
 70
    32
  0
VERTEX
  8
T62SSILL
 62
13
 10
1574.988
 20
-7724.294
 30
-934.116
 70
    32
  0
VERTEX
  8
T62SSILL
 62
13
 10
1585.922
 20
-7717.174
 30
-934.079
 70
    32
  0
VERTEX
  8
T62SSILL
 62
13
 10
1606.569
 20
-7692.997
 30
-933.997
 70
    32
  0
VERTEX
  8
T62SSILL
 62
13
 10
1608.663
 20
-7694.664
 30
-933.994
 70
    32
  0
VERTEX
  8
T62SSILL
 62
13
 10
1613.125
 20
-7689.357
 30
-933.976
 70
    32
  0
VERTEX
  8
T62SSILL
 62
13
 10
1616.215
 20
-7690.288
 30
-933.969
 70
    32
  0
VERTEX
  8
T62SSILL
 62
13
 10
1611.174
 20
-7696.474
 30
-933.989
 70
    32
  0
VERTEX
  8
T62SSILL
 62
13
 10
1612.880
 20
-7698.511
 30
-933.988
 70
    32
  0
VERTEX
  8
T62SSILL
 62
13
 10
1592.227
 20
-7724.717
 30
-934.072
 70
    32
  0
VERTEX
  8
T62SSILL
 62
13
 10
1580.932
 20
-7732.402
 30
-934.111
 70
    32
  0
VERTEX
  8
T62SSILL
 62
13
 10
1640.706
 20
-7834.245
 30
-934.081
 70
    32
  0
VERTEX
  8
T62SSILL
 62
13
 10
1650.318
 20
-7837.838
 30
-934.060
 70
    32
  0
VERTEX
  8
T62SSILL
 62
13
 10
1672.623
 20
-7825.160
 30
-933.988
 70
    32
  0
VERTEX
  8
T62SSILL
 62
13
 10
1678.604
 20
-7835.432
 30
-933.985
 70
    32
  0
VERTEX
  8
T62SSILL
 62
13
 10
1657.880
 20
-7852.781
 30
-934.059
 70
    32
  0
VERTEX
  8
T62SSILL
 62
13
 10
1719.845
 20
-7960.681
 30
-934.031
 70
    32
  0
VERTEX
  8
T62SSILL
 62
13
 10
1742.285
 20
-7973.449
 30
-933.989
 70
    32
  0
VERTEX
  8
T62SSILL
 62
13
 10
1749.030
 20
-7981.012
 30
-933.981
 70
    32
  0
VERTEX
  8
T62SSILL
 62
13
 10
1732.690
 20
-7990.212
 30
-934.034
 70
    32
  0
VERTEX
  8
T62SSILL
 62
13
 10
1859.908
 20
-8204.594
 30
-933.896
 70
    32
  0
VERTEX
  8
T62SSILL
 62
13
 10
1852.386
 20
-8209.528
 30
-933.939
 70
    32
  0
VERTEX
  8
T62SSILL
 62
13
 10
1818.405
 20
-8150.962
 30
-934.092
 70
    32
  0
VERTEX
  8
T62SSILL
 62
13
 10
1815.963
 20
-8166.802
 30
-934.114
 70
    32
  0
VERTEX
  8
T62SSILL
 62
13
 10
1812.351
 20
-8175.123
 30
-934.137
 70
    32
  0
VERTEX
  8
T62SSILL
 62
13
 10
1799.381
 20
-8191.024
 30
-934.215
 70
    32
  0
VERTEX
  8
T62SSILL
 62
13
 10
1711.375
 20
-8254.177
 30
-934.409
 70
    32
  0
VERTEX
  8
T62SSILL
 62
13
 10
1699.261
 20
-8272.756
 30
-934.462
 70
    32
  0
VERTEX
  8
T62SSILL
 62
13
 10
1696.256
 20
-8293.563
 30
-934.495
 70
    32
  0
VERTEX
  8
T62SSILL
 62
13
 10
1699.959
 20
-8305.115
 30
-934.500
 70
    32
  0
VERTEX
  8
T62SSILL
 62
13
 10
1701.230
 20
-8315.444
 30
-934.509
 70
    32
  0
VERTEX
  8
T62SSILL
 62
13
 10
1700.501
 20
-8326.280
 30
-934.524
 70
    32
  0
VERTEX
  8
T62SSILL
 62
13
 10
1698.058
 20
-8334.126
 30
-934.540
 70
    32
  0
VERTEX
  8
T62SSILL
 62
13
 10
1691.616
 20
-8337.976
 30
-934.561
 70
    32
  0
VERTEX
  8
T62SSILL
 62
13
 10
1686.485
 20
-8384.631
 30
-934.631
 70
    32
  0
VERTEX
  8
T62SSILL
 62
13
 10
1689.501
 20
-8388.848
 30
-934.628
 70
    32
  0
VERTEX
  8
T62SSILL
 62
13
 10
1690.090
 20
-8393.328
 30
-934.632
 70
    32
  0
VERTEX
  8
T62SSILL
 62
13
 10
1693.890
 20
-8392.825
 30
-934.622
 70
    32
  0
VERTEX
  8
T62SSILL
 62
13
 10
1698.076
 20
-8398.432
 30
-934.618
 70
    32
  0
VERTEX
  8
T62SSILL
 62
13
 10
1689.836
 20
-8402.986
 30
-934.645
 70
    32
  0
VERTEX
  8
T62SSILL
 62
13
 10
1689.754
 20
-8409.804
 30
-934.653
 70
    32
  0
VERTEX
  8
T62SSILL
 62
13
 10
1742.730
 20
-8601.556
 30
-934.730
 70
    32
  0
VERTEX
  8
T62SSILL
 62
13
 10
1754.370
 20
-8625.950
 30
-934.680
 70
    32
  0
VERTEX
  8
T62SSILL
 62
13
 10
1745.957
 20
-8630.858
 30
-934.728
 70
    32
  0
VERTEX
  8
T62SSILL
 62
13
 10
1735.838
 20
-8612.051
 30
-934.773
 70
    32
  0
VERTEX
  8
T62SSILL
 62
13
 10
1676.525
 20
-8398.671
 30
-934.674
 70
    32
  0
VERTEX
  8
T62SSILL
 62
13
 10
1643.791
 20
-8446.732
 30
-934.816
 70
    32
  0
VERTEX
  8
T62SSILL
 62
13
 10
1631.556
 20
-8550.927
 30
-934.748
 70
    32
  0
VERTEX
  8
T62SSILL
 62
13
 10
1633.082
 20
-8561.714
 30
-934.750
 70
    32
  0
VERTEX
  8
T62SSILL
 62
13
 10
1675.150
 20
-8636.273
 30
-934.866
 70
    32
  0
VERTEX
  8
T62SSILL
 62
13
 10
1680.874
 20
-8637.527
 30
-934.885
 70
    32
  0
VERTEX
  8
T62SSILL
 62
13
 10
1684.141
 20
-8642.216
 30
-934.894
 70
    32
  0
VERTEX
  8
T62SSILL
 62
13
 10
1681.261
 20
-8646.974
 30
-934.883
 70
    32
  0
VERTEX
  8
T62SSILL
 62
13
 10
1743.548
 20
-8757.389
 30
-934.805
 70
    32
  0
VERTEX
  8
T62SSILL
 62
13
 10
1754.177
 20
-8763.735
 30
-934.751
 70
    32
  0
VERTEX
  8
T62SSILL
 62
13
 10
1770.313
 20
-8762.974
 30
-934.664
 70
    32
  0
VERTEX
  8
T62SSILL
 62
13
 10
1774.168
 20
-8769.870
 30
-934.647
 70
    32
  0
VERTEX
  8
T62SSILL
 62
13
 10
1770.971
 20
-8769.888
 30
-934.664
 70
    32
  0
VERTEX
  8
T62SSILL
 62
13
 10
1765.389
 20
-8793.773
 30
-934.706
 70
    32
  0
VERTEX
  8
T62SSILL
 62
13
 10
1767.415
 20
-8797.421
 30
-934.697
 70
    32
  0
VERTEX
  8
T62SSILL
 62
13
 10
1760.684
 20
-8801.924
 30
-934.736
 70
    32
  0
VERTEX
  8
T62SSILL
 62
13
 10
1757.418
 20
-8795.794
 30
-934.750
 70
    32
  0
VERTEX
  8
T62SSILL
 62
13
 10
1754.929
 20
-8794.716
 30
-934.763
 70
    32
  0
VERTEX
  8
T62SSILL
 62
13
 10
1749.094
 20
-8786.683
 30
-934.790
 70
    32
  0
VERTEX
  8
T62SSILL
 62
13
 10
1737.130
 20
-8764.752
 30
-934.844
 70
    32
  0
VERTEX
  8
T62SSILL
 62
13
 10
1737.326
 20
-8761.834
 30
-934.841
 70
    32
  0
VERTEX
  8
T62SSILL
 62
13
 10
1673.665
 20
-8649.483
 30
-934.857
 70
    32
  0
VERTEX
  8
T62SSILL
 62
13
 10
1670.239
 20
-8647.905
 30
-934.846
 70
    32
  0
VERTEX
  8
T62SSILL
 62
13
 10
1669.548
 20
-8642.678
 30
-934.846
 70
    32
  0
VERTEX
  8
T62SSILL
 62
13
 10
1627.378
 20
-8568.419
 30
-934.729
 70
    32
  0
VERTEX
  8
T62SSILL
 62
13
 10
1623.049
 20
-8564.655
 30
-934.715
 70
    32
  0
VERTEX
  8
T62SSILL
 62
13
 10
1617.551
 20
-8563.118
 30
-934.698
 70
    32
  0
VERTEX
  8
T62SSILL
 62
13
 10
1623.076
 20
-8553.008
 30
-934.719
 70
    32
  0
VERTEX
  8
T62SSILL
 62
13
 10
1634.899
 20
-8443.411
 30
-934.792
 70
    32
  0
VERTEX
  8
T62SSILL
 62
13
 10
1674.529
 20
-8384.463
 30
-934.661
 70
    32
  0
VERTEX
  8
T62SSILL
 62
13
 10
1675.336
 20
-8363.872
 30
-934.634
 70
    32
  0
VERTEX
  8
T62SSILL
 62
13
 10
1668.764
 20
-8359.070
 30
-934.645
 70
    32
  0
VERTEX
  8
T62SSILL
 62
13
 10
1662.552
 20
-8351.037
 30
-934.652
 70
    32
  0
VERTEX
  8
T62SSILL
 62
13
 10
1638.287
 20
-8370.212
 30
-934.737
 70
    32
  0
VERTEX
  8
T62SSILL
 62
13
 10
1646.303
 20
-8385.439
 30
-934.735
 70
    32
  0
VERTEX
  8
T62SSILL
 62
13
 10
1640.179
 20
-8389.287
 30
-934.755
 70
    32
  0
VERTEX
  8
T62SSILL
 62
13
 10
1630.197
 20
-8372.569
 30
-934.761
 70
    32
  0
VERTEX
  8
T62SSILL
 62
13
 10
1628.192
 20
-8372.694
 30
-934.766
 70
    32
  0
VERTEX
  8
T62SSILL
 62
13
 10
1623.556
 20
-8376.192
 30
-934.774
 70
    32
  0
VERTEX
  8
T62SSILL
 62
13
 10
1616.567
 20
-8387.952
 30
-934.748
 70
    32
  0
VERTEX
  8
T62SSILL
 62
13
 10
1611.488
 20
-8390.249
 30
-934.731
 70
    32
  0
VERTEX
  8
T62SSILL
 62
13
 10
1603.448
 20
-8398.634
 30
-934.702
 70
    32
  0
VERTEX
  8
T62SSILL
 62
13
 10
1586.556
 20
-8405.645
 30
-934.644
 70
    32
  0
VERTEX
  8
T62SSILL
 62
13
 10
1577.714
 20
-8406.224
 30
-934.615
 70
    32
  0
VERTEX
  8
T62SSILL
 62
13
 10
1577.536
 20
-8394.799
 30
-934.618
 70
    32
  0
VERTEX
  8
T62SSILL
 62
13
 10
1599.582
 20
-8389.470
 30
-934.692
 70
    32
  0
VERTEX
  8
T62SSILL
 62
13
 10
1611.824
 20
-8369.837
 30
-934.738
 70
    32
  0
VERTEX
  8
T62SSILL
 62
13
 10
1614.694
 20
-8363.924
 30
-934.749
 70
    32
  0
VERTEX
  8
T62SSILL
 62
13
 10
1616.710
 20
-8349.982
 30
-934.760
 70
    32
  0
VERTEX
  8
T62SSILL
 62
13
 10
1614.967
 20
-8347.063
 30
-934.755
 70
    32
  0
VERTEX
  8
T62SSILL
 62
13
 10
1621.363
 20
-8317.765
 30
-934.717
 70
    32
  0
VERTEX
  8
T62SSILL
 62
13
 10
1550.803
 20
-8367.557
 30
-934.537
 70
    32
  0
VERTEX
  8
T62SSILL
 62
13
 10
1545.387
 20
-8360.868
 30
-934.521
 70
    32
  0
VERTEX
  8
T62SSILL
 62
13
 10
1575.938
 20
-8340.466
 30
-934.629
 70
    32
  0
VERTEX
  8
T62SSILL
 62
13
 10
1577.007
 20
-8337.180
 30
-934.633
 70
    32
  0
VERTEX
  8
T62SSILL
 62
13
 10
1571.734
 20
-8332.879
 30
-934.617
 70
    32
  0
VERTEX
  8
T62SSILL
 62
13
 10
1559.508
 20
-8335.121
 30
-934.576
 70
    32
  0
VERTEX
  8
T62SSILL
 62
13
 10
1554.924
 20
-8331.204
 30
-934.562
 70
    32
  0
VERTEX
  8
T62SSILL
 62
13
 10
1532.958
 20
-8321.952
 30
-934.492
 70
    32
  0
VERTEX
  8
T62SSILL
 62
13
 10
1540.488
 20
-8304.035
 30
-934.523
 70
    32
  0
VERTEX
  8
T62SSILL
 62
13
 10
1549.223
 20
-8304.808
 30
-934.552
 70
    32
  0
VERTEX
  8
T62SSILL
 62
13
 10
1562.432
 20
-8313.410
 30
-934.592
 70
    32
  0
VERTEX
  8
T62SSILL
 62
13
 10
1587.730
 20
-8320.822
 30
-934.673
 70
    32
  0
VERTEX
  8
T62SSILL
 62
13
 10
1602.280
 20
-8321.368
 30
-934.721
 70
    32
  0
VERTEX
  8
T62SSILL
 62
13
 10
1609.765
 20
-8315.967
 30
-934.744
 70
    32
  0
VERTEX
  8
T62SSILL
 62
13
 10
1560.387
 20
-8267.476
 30
-934.599
 70
    32
  0
VERTEX
  8
T62SSILL
 62
13
 10
1567.274
 20
-8259.584
 30
-934.624
 70
    32
  0
VERTEX
  8
T62SSILL
 62
13
 10
1606.543
 20
-8286.630
 30
-934.717
 70
    32
  0
VERTEX
  8
T62SSILL
 62
13
 10
1601.277
 20
-8279.942
 30
-934.723
 70
    32
  0
VERTEX
  8
T62SSILL
 62
13
 10
1583.089
 20
-8264.494
 30
-934.675
 70
    32
  0
VERTEX
  8
T62SSILL
 62
13
 10
1578.819
 20
-8265.268
 30
-934.661
 70
    32
  0
VERTEX
  8
T62SSILL
 62
13
 10
1569.282
 20
-8252.035
 30
-934.633
 70
    32
  0
VERTEX
  8
T62SSILL
 62
13
 10
1546.163
 20
-8250.176
 30
-934.558
 70
    32
  0
VERTEX
  8
T62SSILL
 62
13
 10
1543.732
 20
-8251.617
 30
-934.549
 70
    32
  0
VERTEX
  8
T62SSILL
 62
13
 10
1542.886
 20
-8250.061
 30
-934.547
 70
    32
  0
VERTEX
  8
T62SSILL
 62
13
 10
1512.962
 20
-8247.288
 30
-934.449
 70
    32
  0
VERTEX
  8
T62SSILL
 62
13
 10
1513.505
 20
-8240.096
 30
-934.453
 70
    32
  0
VERTEX
  8
T62SSILL
 62
13
 10
1537.082
 20
-8241.217
 30
-934.531
 70
    32
  0
VERTEX
  8
T62SSILL
 62
13
 10
1543.266
 20
-8236.050
 30
-934.552
 70
    32
  0
VERTEX
  8
T62SSILL
 62
13
 10
1548.100
 20
-8227.643
 30
-934.571
 70
    32
  0
VERTEX
  8
T62SSILL
 62
13
 10
1548.614
 20
-8219.938
 30
-934.575
 70
    32
  0
VERTEX
  8
T62SSILL
 62
13
 10
1545.858
 20
-8205.077
 30
-934.570
 70
    32
  0
VERTEX
  8
T62SSILL
 62
13
 10
1547.083
 20
-8197.633
 30
-934.576
 70
    32
  0
VERTEX
  8
T62SSILL
 62
13
 10
1536.602
 20
-8157.006
 30
-934.554
 70
    32
  0
VERTEX
  8
T62SSILL
 62
13
 10
1511.618
 20
-8128.592
 30
-934.481
 70
    32
  0
VERTEX
  8
T62SSILL
 62
13
 10
1516.885
 20
-8123.105
 30
-934.499
 70
    32
  0
VERTEX
  8
T62SSILL
 62
13
 10
1538.426
 20
-8145.744
 30
-934.563
 70
    32
  0
VERTEX
  8
T62SSILL
 62
13
 10
1544.199
 20
-8138.404
 30
-934.585
 70
    32
  0
VERTEX
  8
T62SSILL
 62
13
 10
1557.683
 20
-8132.214
 30
-934.631
 70
    32
  0
VERTEX
  8
T62SSILL
 62
13
 10
1563.075
 20
-8136.221
 30
-934.646
 70
    32
  0
VERTEX
  8
T62SSILL
 62
13
 10
1569.121
 20
-8134.452
 30
-934.629
 70
    32
  0
VERTEX
  8
T62SSILL
 62
13
 10
1571.343
 20
-8136.778
 30
-934.626
 70
    32
  0
VERTEX
  8
T62SSILL
 62
13
 10
1571.107
 20
-8145.361
 30
-934.637
 70
    32
  0
VERTEX
  8
T62SSILL
 62
13
 10
1579.497
 20
-8166.622
 30
-934.641
 70
    32
  0
VERTEX
  8
T62SSILL
 62
13
 10
1583.262
 20
-8169.178
 30
-934.634
 70
    32
  0
VERTEX
  8
T62SSILL
 62
13
 10
1622.832
 20
-8170.930
 30
-934.535
 70
    32
  0
VERTEX
  8
T62SSILL
 62
13
 10
1635.557
 20
-8169.734
 30
-934.501
 70
    32
  0
VERTEX
  8
T62SSILL
 62
13
 10
1645.424
 20
-8166.218
 30
-934.471
 70
    32
  0
VERTEX
  8
T62SSILL
 62
13
 10
1653.439
 20
-8160.764
 30
-934.444
 70
    32
  0
VERTEX
  8
T62SSILL
 62
13
 10
1666.332
 20
-8146.341
 30
-934.394
 70
    32
  0
VERTEX
  8
T62SSILL
 62
13
 10
1672.900
 20
-8135.156
 30
-934.363
 70
    32
  0
VERTEX
  8
T62SSILL
 62
13
 10
1680.658
 20
-8115.379
 30
-934.319
 70
    32
  0
VERTEX
  8
T62SSILL
 62
13
 10
1696.243
 20
-8088.463
 30
-934.247
 70
    32
  0
VERTEX
  8
T62SSILL
 62
13
 10
1697.016
 20
-8069.388
 30
-934.222
 70
    32
  0
VERTEX
  8
T62SSILL
 62
13
 10
1676.979
 20
-8039.314
 30
-934.236
 70
    32
  0
VERTEX
  8
T62SSILL
 62
13
 10
1668.597
 20
-8039.687
 30
-934.258
 70
    32
  0
VERTEX
  8
T62SSILL
 62
13
 10
1637.002
 20
-8094.751
 30
-934.406
 70
    32
  0
VERTEX
  8
T62SSILL
 62
13
 10
1626.958
 20
-8088.922
 30
-934.425
 70
    32
  0
VERTEX
  8
T62SSILL
 62
13
 10
1659.680
 20
-8032.535
 30
-934.273
 70
    32
  0
VERTEX
  8
T62SSILL
 62
13
 10
1657.638
 20
-8028.594
 30
-934.273
 70
    32
  0
VERTEX
  8
T62SSILL
 62
13
 10
1662.037
 20
-8018.139
 30
-934.249
 70
    32
  0
VERTEX
  8
T62SSILL
 62
13
 10
1653.585
 20
-8005.874
 30
-934.256
 70
    32
  0
VERTEX
  8
T62SSILL
 62
13
 10
1644.930
 20
-8005.687
 30
-934.278
 70
    32
  0
VERTEX
  8
T62SSILL
 62
13
 10
1642.088
 20
-8007.620
 30
-934.288
 70
    32
  0
VERTEX
  8
T62SSILL
 62
13
 10
1613.769
 20
-8058.125
 30
-934.421
 70
    32
  0
VERTEX
  8
T62SSILL
 62
13
 10
1604.331
 20
-8052.714
 30
-934.439
 70
    32
  0
VERTEX
  8
T62SSILL
 62
13
 10
1632.344
 20
-8003.484
 30
-934.308
 70
    32
  0
VERTEX
  8
T62SSILL
 62
13
 10
1632.278
 20
-7999.157
 30
-934.302
 70
    32
  0
VERTEX
  8
T62SSILL
 62
13
 10
1636.225
 20
-7987.410
 30
-934.278
 70
    32
  0
VERTEX
  8
T62SSILL
 62
13
 10
1636.401
 20
-7982.813
 30
-934.272
 70
    32
  0
VERTEX
  8
T62SSILL
 62
13
 10
1616.002
 20
-7954.521
 30
-934.290
 70
    32
  0
VERTEX
  8
T62SSILL
 62
13
 10
1612.334
 20
-7954.160
 30
-934.299
 70
    32
  0
VERTEX
  8
T62SSILL
 62
13
 10
1604.762
 20
-7961.474
 30
-934.327
 70
    32
  0
VERTEX
  8
T62SSILL
 62
13
 10
1560.187
 20
-7993.059
 30
-934.480
 70
    32
  0
VERTEX
  8
T62SSILL
 62
13
 10
1572.433
 20
-7995.819
 30
-934.452
 70
    32
  0
VERTEX
  8
T62SSILL
 62
13
 10
1552.399
 20
-8007.068
 30
-934.517
 70
    32
  0
VERTEX
  8
T62SSILL
 62
13
 10
1554.084
 20
-7997.384
 30
-934.501
 70
    32
  0
VERTEX
  8
T62SSILL
 62
13
 10
1505.802
 20
-8031.595
 30
-934.490
 70
    32
  0
VERTEX
  8
T62SSILL
 62
13
 10
1508.079
 20
-8042.568
 30
-934.495
 70
    32
  0
VERTEX
  8
T62SSILL
 62
13
 10
1504.023
 20
-8046.145
 30
-934.480
 70
    32
  0
VERTEX
  8
T62SSILL
 62
13
 10
1501.696
 20
-8047.443
 30
-934.472
 70
    32
  0
SEQEND
  8
T62SSILL
  0
ENDSEC
  0
EOF
