999
********************************
999
*   DXF File - Entities Only   *
999
*        3D Data Format        *
999
*     Output from ENVISAGE     *
999
*     24-Dec-2007 12:26:03     *
999
********************************
  0
SECTION 
  2
HEADER
  9
$ACADVER
  1
AC1009
  9
$EXTMIN
 10
-290000.000
 20
-250000.000
 30
-4000.000
  9
$EXTMAX
 10
5000000.000
 20
600000.000
 30
6000.000
  0
ENDSEC
  0
SECTION
  2
ENTITIES
  0
TEXT
  8
T63SSILL
 62
7
 10
6123.320
 20
-9536.458
 30
-1096.917
 40
4.101
  1
6350
 50
12.942
 41
 1.0 
  0
TEXT
  8
T63SSILL
 62
3
 10
7161.511
 20
-8477.658
 30
-1109.813
 40
8.202
  1
U
 41
 1.0 
  0
TEXT
  8
T63SSILL
 62
3
 10
7184.348
 20
-8398.325
 30
-1117.192
 40
8.202
  1
D
 41
 1.0 
  0
TEXT
  8
T63SSILL
 62
3
 10
1496.806
 20
-7765.689
 30
-1085.282
 40
8.202
  1
U
 41
 1.0 
  0
TEXT
  8
T63SSILL
 62
3
 10
1546.955
 20
-7719.063
 30
-1090.143
 40
8.202
  1
D
 41
 1.0 
  0
TEXT
  8
T63SSILL
 62
7
 10
286.019
 20
-7311.515
 30
-1080.325
 40
4.101
  1
6350
 50
12.942
 41
 1.0 
  0
TEXT
  8
T63SSILL
 62
3
 10
1826.647
 20
-8182.656
 30
-1085.282
 40
8.202
  1
U
 41
 1.0 
  0
TEXT
  8
T63SSILL
 62
3
 10
1714.688
 20
-7883.726
 30
-1085.282
 40
8.202
  1
U
 41
 1.0 
  0
TEXT
  8
T63SSILL
 62
3
 10
1914.693
 20
-9401.991
 30
-1090.143
 40
8.202
  1
D
 41
 1.0 
  0
LINE
  8
T63SSILL
 62
3
 10
1843.282
 20
-8189.788
 30
-1083.958
 11
1846.999
 21
-8175.230
 31
-1083.804
  0
POLYLINE
  8
T63SSILL
 62
3
 66
     1
 70
     8
  0
VERTEX
  8
T63SSILL
 62
3
 10
1665.368
 20
-7849.041
 30
-1082.670
 70
    32
  0
VERTEX
  8
T63SSILL
 62
3
 10
1702.241
 20
-7896.294
 30
-1083.510
 70
    32
  0
VERTEX
  8
T63SSILL
 62
3
 10
1710.000
 20
-7889.986
 30
-1083.612
 70
    32
  0
VERTEX
  8
T63SSILL
 62
3
 10
1660.890
 20
-7820.135
 30
-1082.649
 70
    32
  0
SEQEND
  8
T63SSILL
  0
POLYLINE
  8
T63SSILL
 62
3
 66
     1
 70
     9
  0
VERTEX
  8
T63SSILL
 62
3
 10
1926.713
 20
-9395.400
 30
-1085.000
 70
    32
  0
VERTEX
  8
T63SSILL
 62
3
 10
1918.140
 20
-9389.612
 30
-1085.000
 70
    32
  0
SEQEND
  8
T63SSILL
  0
LINE
  8
T63SSILL
 62
3
 10
1931.063
 20
-9374.367
 30
-1080.080
 11
1918.140
 21
-9389.612
 31
-1085.000
  0
POLYLINE
  8
T63SSILL
 62
3
 66
     1
 70
     9
  0
VERTEX
  8
T63SSILL
 62
3
 10
1508.598
 20
-7750.538
 30
-1083.813
 70
    32
  0
VERTEX
  8
T63SSILL
 62
3
 10
1507.466
 20
-7760.173
 30
-1083.820
 70
    32
  0
VERTEX
  8
T63SSILL
 62
3
 10
1487.997
 20
-7758.428
 30
-1080.228
 70
    32
  0
VERTEX
  8
T63SSILL
 62
3
 10
1489.135
 20
-7748.774
 30
-1078.817
 70
    32
  0
SEQEND
  8
T63SSILL
  0
POLYLINE
  8
T63SSILL
 62
3
 66
     1
 70
     9
  0
VERTEX
  8
T63SSILL
 62
3
 10
1521.020
 20
-7740.697
 30
-1083.763
 70
    32
  0
VERTEX
  8
T63SSILL
 62
3
 10
1524.432
 20
-7695.450
 30
-1094.342
 70
    32
  0
VERTEX
  8
T63SSILL
 62
3
 10
1534.931
 20
-7694.453
 30
-1094.586
 70
    32
  0
VERTEX
  8
T63SSILL
 62
3
 10
1531.341
 20
-7742.534
 30
-1083.778
 70
    32
  0
SEQEND
  8
T63SSILL
  0
POLYLINE
  8
T63SSILL
 62
3
 66
     1
 70
     9
  0
VERTEX
  8
T63SSILL
 62
3
 10
7170.793
 20
-8470.502
 30
-1110.825
 70
    32
  0
VERTEX
  8
T63SSILL
 62
3
 10
7177.826
 20
-8475.429
 30
-1110.882
 70
    32
  0
VERTEX
  8
T63SSILL
 62
3
 10
7181.228
 20
-8490.556
 30
-1109.652
 70
    32
  0
VERTEX
  8
T63SSILL
 62
3
 10
7168.398
 20
-8484.208
 30
-1109.813
 70
    32
  0
SEQEND
  8
T63SSILL
  0
POLYLINE
  8
T63SSILL
 62
3
 66
     1
 70
     9
  0
VERTEX
  8
T63SSILL
 62
3
 10
7159.460
 20
-8406.334
 30
-1110.467
 70
    32
  0
VERTEX
  8
T63SSILL
 62
3
 10
7176.956
 20
-8415.973
 30
-1112.716
 70
    32
  0
VERTEX
  8
T63SSILL
 62
3
 10
7182.333
 20
-8417.064
 30
-1113.452
 70
    32
  0
VERTEX
  8
T63SSILL
 62
3
 10
7203.801
 20
-8412.561
 30
-1116.856
 70
    32
  0
VERTEX
  8
T63SSILL
 62
3
 10
7209.339
 20
-8419.896
 30
-1117.192
 70
    32
  0
VERTEX
  8
T63SSILL
 62
3
 10
7198.442
 20
-8426.545
 30
-1115.492
 70
    32
  0
VERTEX
  8
T63SSILL
 62
3
 10
7191.568
 20
-8427.096
 30
-1114.467
 70
    32
  0
VERTEX
  8
T63SSILL
 62
3
 10
7183.454
 20
-8431.462
 30
-1113.218
 70
    32
  0
VERTEX
  8
T63SSILL
 62
3
 10
7175.468
 20
-8437.386
 30
-1111.858
 70
    32
  0
VERTEX
  8
T63SSILL
 62
3
 10
7171.852
 20
-8444.747
 30
-1110.720
 70
    32
  0
SEQEND
  8
T63SSILL
  0
POLYLINE
  8
T63SSILL
 62
7
 66
     1
 70
     9
  0
VERTEX
  8
T63SSILL
 62
7
 10
972.687
 20
-6042.435
 30
-1081.104
 70
    32
  0
VERTEX
  8
T63SSILL
 62
7
 10
966.865
 20
-6040.927
 30
-1081.097
 70
    32
  0
VERTEX
  8
T63SSILL
 62
7
 10
961.618
 20
-6037.174
 30
-1081.082
 70
    32
  0
VERTEX
  8
T63SSILL
 62
7
 10
962.291
 20
-6032.159
 30
-1081.064
 70
    32
  0
VERTEX
  8
T63SSILL
 62
7
 10
989.018
 20
-6034.030
 30
-1081.079
 70
    32
  0
VERTEX
  8
T63SSILL
 62
7
 10
984.483
 20
-6043.829
 30
-1081.113
 70
    32
  0
SEQEND
  8
T63SSILL
  0
POLYLINE
  8
T63SSILL
 62
7
 66
     1
 70
     9
  0
VERTEX
  8
T63SSILL
 62
7
 10
1528.654
 20
-7773.826
 30
-1083.807
 70
    32
  0
VERTEX
  8
T63SSILL
 62
7
 10
1538.648
 20
-7767.810
 30
-1083.825
 70
    32
  0
VERTEX
  8
T63SSILL
 62
7
 10
1546.639
 20
-7769.422
 30
-1083.851
 70
    32
  0
VERTEX
  8
T63SSILL
 62
7
 10
1557.409
 20
-7778.974
 30
-1083.893
 70
    32
  0
VERTEX
  8
T63SSILL
 62
7
 10
1565.507
 20
-7789.804
 30
-1083.928
 70
    32
  0
VERTEX
  8
T63SSILL
 62
7
 10
1564.105
 20
-7805.275
 30
-1083.939
 70
    32
  0
VERTEX
  8
T63SSILL
 62
7
 10
1531.856
 20
-7829.161
 30
-1083.875
 70
    32
  0
VERTEX
  8
T63SSILL
 62
7
 10
1528.906
 20
-7829.213
 30
-1083.873
 70
    32
  0
VERTEX
  8
T63SSILL
 62
7
 10
1526.177
 20
-7827.102
 30
-1083.868
 70
    32
  0
SEQEND
  8
T63SSILL
  0
POLYLINE
  8
T63SSILL
 62
7
 66
     1
 70
     9
  0
VERTEX
  8
T63SSILL
 62
7
 10
1609.000
 20
-7962.000
 30
-1083.510
 70
    32
  0
VERTEX
  8
T63SSILL
 62
7
 10
1559.000
 20
-7944.000
 30
-1084.055
 70
    32
  0
VERTEX
  8
T63SSILL
 62
7
 10
1549.000
 20
-7931.000
 30
-1084.012
 70
    32
  0
VERTEX
  8
T63SSILL
 62
7
 10
1546.000
 20
-7899.000
 30
-1083.973
 70
    32
  0
VERTEX
  8
T63SSILL
 62
7
 10
1547.242
 20
-7895.703
 30
-1083.973
 70
    32
  0
VERTEX
  8
T63SSILL
 62
7
 10
1593.988
 20
-7914.919
 30
-1083.508
 70
    32
  0
VERTEX
  8
T63SSILL
 62
7
 10
1593.660
 20
-7918.543
 30
-1083.520
 70
    32
  0
VERTEX
  8
T63SSILL
 62
7
 10
1603.677
 20
-7923.689
 30
-1083.434
 70
    32
  0
VERTEX
  8
T63SSILL
 62
7
 10
1607.980
 20
-7954.658
 30
-1083.462
 70
    32
  0
SEQEND
  8
T63SSILL
  0
POLYLINE
  8
T63SSILL
 62
7
 66
     1
 70
     9
  0
VERTEX
  8
T63SSILL
 62
7
 10
1617.254
 20
-8018.847
 30
-1083.879
 70
    32
  0
VERTEX
  8
T63SSILL
 62
7
 10
1558.165
 20
-7994.924
 30
-1084.035
 70
    32
  0
VERTEX
  8
T63SSILL
 62
7
 10
1552.477
 20
-7955.646
 30
-1084.047
 70
    32
  0
VERTEX
  8
T63SSILL
 62
7
 10
1556.472
 20
-7953.355
 30
-1084.057
 70
    32
  0
VERTEX
  8
T63SSILL
 62
7
 10
1602.291
 20
-7971.091
 30
-1083.614
 70
    32
  0
VERTEX
  8
T63SSILL
 62
7
 10
1603.329
 20
-7974.657
 30
-1083.634
 70
    32
  0
VERTEX
  8
T63SSILL
 62
7
 10
1612.361
 20
-7979.298
 30
-1083.617
 70
    32
  0
VERTEX
  8
T63SSILL
 62
7
 10
1614.475
 20
-7995.589
 30
-1083.725
 70
    32
  0
VERTEX
  8
T63SSILL
 62
7
 10
1607.503
 20
-8001.508
 30
-1083.807
 70
    32
  0
VERTEX
  8
T63SSILL
 62
7
 10
1609.795
 20
-8008.172
 30
-1083.843
 70
    32
  0
VERTEX
  8
T63SSILL
 62
7
 10
1616.969
 20
-8013.223
 30
-1083.840
 70
    32
  0
SEQEND
  8
T63SSILL
  0
POLYLINE
  8
T63SSILL
 62
7
 66
     1
 70
     9
  0
VERTEX
  8
T63SSILL
 62
7
 10
1594.050
 20
-8062.569
 30
-1084.060
 70
    32
  0
VERTEX
  8
T63SSILL
 62
7
 10
1582.535
 20
-8056.947
 30
-1084.033
 70
    32
  0
VERTEX
  8
T63SSILL
 62
7
 10
1571.429
 20
-8042.824
 30
-1084.032
 70
    32
  0
VERTEX
  8
T63SSILL
 62
7
 10
1562.039
 20
-8026.358
 30
-1084.044
 70
    32
  0
VERTEX
  8
T63SSILL
 62
7
 10
1559.769
 20
-8006.542
 30
-1084.092
 70
    32
  0
VERTEX
  8
T63SSILL
 62
7
 10
1619.099
 20
-8031.105
 30
-1083.959
 70
    32
  0
VERTEX
  8
T63SSILL
 62
7
 10
1621.469
 20
-8035.687
 30
-1083.979
 70
    32
  0
VERTEX
  8
T63SSILL
 62
7
 10
1624.782
 20
-8057.036
 30
-1084.117
 70
    32
  0
VERTEX
  8
T63SSILL
 62
7
 10
1623.321
 20
-8063.050
 30
-1084.166
 70
    32
  0
VERTEX
  8
T63SSILL
 62
7
 10
1607.095
 20
-8066.829
 30
-1084.096
 70
    32
  0
SEQEND
  8
T63SSILL
  0
POLYLINE
  8
T63SSILL
 62
7
 66
     1
 70
     9
  0
VERTEX
  8
T63SSILL
 62
7
 10
1571.000
 20
-8100.000
 30
-1083.824
 70
    32
  0
VERTEX
  8
T63SSILL
 62
7
 10
1569.000
 20
-8073.000
 30
-1083.924
 70
    32
  0
VERTEX
  8
T63SSILL
 62
7
 10
1577.000
 20
-8068.000
 30
-1083.981
 70
    32
  0
VERTEX
  8
T63SSILL
 62
7
 10
1623.000
 20
-8085.000
 30
-1084.103
 70
    32
  0
VERTEX
  8
T63SSILL
 62
7
 10
1625.000
 20
-8089.000
 30
-1084.099
 70
    32
  0
VERTEX
  8
T63SSILL
 62
7
 10
1624.000
 20
-8103.000
 30
-1084.056
 70
    32
  0
VERTEX
  8
T63SSILL
 62
7
 10
1617.000
 20
-8107.000
 30
-1084.019
 70
    32
  0
VERTEX
  8
T63SSILL
 62
7
 10
1614.082
 20
-8113.980
 30
-1083.988
 70
    32
  0
VERTEX
  8
T63SSILL
 62
7
 10
1614.550
 20
-8124.102
 30
-1083.961
 70
    32
  0
VERTEX
  8
T63SSILL
 62
7
 10
1575.809
 20
-8109.372
 30
-1083.838
 70
    32
  0
VERTEX
  8
T63SSILL
 62
7
 10
1573.120
 20
-8104.133
 30
-1083.840
 70
    32
  0
SEQEND
  8
T63SSILL
  0
POLYLINE
  8
T63SSILL
 62
7
 66
     1
 70
     9
  0
VERTEX
  8
T63SSILL
 62
7
 10
1644.092
 20
-8112.250
 30
-1084.104
 70
    32
  0
VERTEX
  8
T63SSILL
 62
7
 10
1642.593
 20
-8100.709
 30
-1084.131
 70
    32
  0
VERTEX
  8
T63SSILL
 62
7
 10
1648.238
 20
-8095.015
 30
-1084.163
 70
    32
  0
VERTEX
  8
T63SSILL
 62
7
 10
1721.014
 20
-8122.853
 30
-1084.203
 70
    32
  0
VERTEX
  8
T63SSILL
 62
7
 10
1719.815
 20
-8132.049
 30
-1084.158
 70
    32
  0
VERTEX
  8
T63SSILL
 62
7
 10
1676.360
 20
-8165.758
 30
-1084.019
 70
    32
  0
VERTEX
  8
T63SSILL
 62
7
 10
1644.113
 20
-8182.499
 30
-1083.905
 70
    32
  0
VERTEX
  8
T63SSILL
 62
7
 10
1640.906
 20
-8173.530
 30
-1083.918
 70
    32
  0
VERTEX
  8
T63SSILL
 62
7
 10
1642.984
 20
-8159.003
 30
-1083.967
 70
    32
  0
VERTEX
  8
T63SSILL
 62
7
 10
1644.376
 20
-8124.125
 30
-1084.071
 70
    32
  0
SEQEND
  8
T63SSILL
  0
POLYLINE
  8
T63SSILL
 62
7
 66
     1
 70
     9
  0
VERTEX
  8
T63SSILL
 62
7
 10
1803.000
 20
-7962.000
 30
-1084.000
 70
    32
  0
VERTEX
  8
T63SSILL
 62
7
 10
1813.000
 20
-7967.000
 30
-1083.937
 70
    32
  0
VERTEX
  8
T63SSILL
 62
7
 10
1822.000
 20
-7974.000
 30
-1083.882
 70
    32
  0
VERTEX
  8
T63SSILL
 62
7
 10
1827.000
 20
-7982.000
 30
-1083.851
 70
    32
  0
VERTEX
  8
T63SSILL
 62
7
 10
1838.000
 20
-8006.000
 30
-1083.783
 70
    32
  0
VERTEX
  8
T63SSILL
 62
7
 10
1840.000
 20
-8015.000
 30
-1083.770
 70
    32
  0
VERTEX
  8
T63SSILL
 62
7
 10
1838.000
 20
-8031.000
 30
-1083.780
 70
    32
  0
VERTEX
  8
T63SSILL
 62
7
 10
1830.000
 20
-8047.000
 30
-1083.827
 70
    32
  0
VERTEX
  8
T63SSILL
 62
7
 10
1823.000
 20
-8054.000
 30
-1083.895
 70
    32
  0
VERTEX
  8
T63SSILL
 62
7
 10
1785.000
 20
-8083.000
 30
-1084.323
 70
    32
  0
VERTEX
  8
T63SSILL
 62
7
 10
1773.000
 20
-8083.000
 30
-1084.448
 70
    32
  0
VERTEX
  8
T63SSILL
 62
7
 10
1732.000
 20
-7990.000
 30
-1084.771
 70
    32
  0
VERTEX
  8
T63SSILL
 62
7
 10
1739.000
 20
-7979.000
 30
-1084.686
 70
    32
  0
VERTEX
  8
T63SSILL
 62
7
 10
1738.000
 20
-7976.000
 30
-1084.693
 70
    32
  0
VERTEX
  8
T63SSILL
 62
7
 10
1772.000
 20
-7961.000
 30
-1084.322
 70
    32
  0
VERTEX
  8
T63SSILL
 62
7
 10
1792.000
 20
-7958.000
 30
-1084.111
 70
    32
  0
SEQEND
  8
T63SSILL
  0
POLYLINE
  8
T63SSILL
 62
7
 66
     1
 70
     9
  0
VERTEX
  8
T63SSILL
 62
7
 10
1800.131
 20
-7920.852
 30
-1084.019
 70
    32
  0
VERTEX
  8
T63SSILL
 62
7
 10
1818.033
 20
-7959.892
 30
-1083.908
 70
    32
  0
VERTEX
  8
T63SSILL
 62
7
 10
1803.793
 20
-7954.199
 30
-1083.994
 70
    32
  0
VERTEX
  8
T63SSILL
 62
7
 10
1784.720
 20
-7951.135
 30
-1084.179
 70
    32
  0
VERTEX
  8
T63SSILL
 62
7
 10
1796.000
 20
-7934.561
 30
-1084.043
 70
    32
  0
SEQEND
  8
T63SSILL
  0
POLYLINE
  8
T63SSILL
 62
7
 66
     1
 70
     9
  0
VERTEX
  8
T63SSILL
 62
7
 10
949.000
 20
-5852.000
 30
-1080.751
 70
    32
  0
VERTEX
  8
T63SSILL
 62
7
 10
945.000
 20
-5845.000
 30
-1080.721
 70
    32
  0
VERTEX
  8
T63SSILL
 62
7
 10
936.000
 20
-5847.000
 30
-1080.673
 70
    32
  0
VERTEX
  8
T63SSILL
 62
7
 10
933.000
 20
-5845.000
 30
-1080.654
 70
    32
  0
VERTEX
  8
T63SSILL
 62
7
 10
928.000
 20
-5845.000
 30
-1080.626
 70
    32
  0
VERTEX
  8
T63SSILL
 62
7
 10
919.000
 20
-5848.000
 30
-1080.579
 70
    32
  0
VERTEX
  8
T63SSILL
 62
7
 10
912.719
 20
-5854.281
 30
-1080.550
 70
    32
  0
VERTEX
  8
T63SSILL
 62
7
 10
873.000
 20
-5881.000
 30
-1080.427
 70
    32
  0
VERTEX
  8
T63SSILL
 62
7
 10
862.000
 20
-5868.000
 30
-1080.371
 70
    32
  0
VERTEX
  8
T63SSILL
 62
7
 10
862.000
 20
-5863.000
 30
-1080.340
 70
    32
  0
VERTEX
  8
T63SSILL
 62
7
 10
870.000
 20
-5853.000
 30
-1080.259
 70
    32
  0
VERTEX
  8
T63SSILL
 62
7
 10
893.000
 20
-5838.000
 30
-1080.402
 70
    32
  0
VERTEX
  8
T63SSILL
 62
7
 10
895.062
 20
-5833.959
 30
-1080.430
 70
    32
  0
VERTEX
  8
T63SSILL
 62
7
 10
928.000
 20
-5812.000
 30
-1080.590
 70
    32
  0
VERTEX
  8
T63SSILL
 62
7
 10
929.000
 20
-5807.000
 30
-1080.591
 70
    32
  0
VERTEX
  8
T63SSILL
 62
7
 10
920.000
 20
-5792.000
 30
-1080.524
 70
    32
  0
VERTEX
  8
T63SSILL
 62
7
 10
915.000
 20
-5788.000
 30
-1080.492
 70
    32
  0
VERTEX
  8
T63SSILL
 62
7
 10
909.000
 20
-5787.000
 30
-1080.457
 70
    32
  0
VERTEX
  8
T63SSILL
 62
7
 10
874.698
 20
-5810.519
 30
-1080.291
 70
    32
  0
VERTEX
  8
T63SSILL
 62
7
 10
871.000
 20
-5815.000
 30
-1080.247
 70
    32
  0
VERTEX
  8
T63SSILL
 62
7
 10
854.000
 20
-5828.000
 30
-1080.140
 70
    32
  0
VERTEX
  8
T63SSILL
 62
7
 10
849.000
 20
-5831.000
 30
-1080.171
 70
    32
  0
VERTEX
  8
T63SSILL
 62
7
 10
841.000
 20
-5829.000
 30
-1080.177
 70
    32
  0
VERTEX
  8
T63SSILL
 62
7
 10
825.086
 20
-5793.729
 30
-1079.994
 70
    32
  0
VERTEX
  8
T63SSILL
 62
7
 10
875.500
 20
-5761.101
 30
-1080.242
 70
    32
  0
VERTEX
  8
T63SSILL
 62
7
 10
954.000
 20
-5807.000
 30
-1080.730
 70
    32
  0
VERTEX
  8
T63SSILL
 62
7
 10
975.000
 20
-5822.000
 30
-1080.864
 70
    32
  0
VERTEX
  8
T63SSILL
 62
7
 10
987.000
 20
-5851.000
 30
-1080.962
 70
    32
  0
VERTEX
  8
T63SSILL
 62
7
 10
988.000
 20
-5865.000
 30
-1080.982
 70
    32
  0
VERTEX
  8
T63SSILL
 62
7
 10
976.000
 20
-5858.000
 30
-1080.908
 70
    32
  0
VERTEX
  8
T63SSILL
 62
7
 10
955.000
 20
-5852.000
 30
-1080.784
 70
    32
  0
SEQEND
  8
T63SSILL
  0
POLYLINE
  8
T63SSILL
 62
7
 66
     1
 70
     9
  0
VERTEX
  8
T63SSILL
 62
7
 10
929.287
 20
-5961.465
 30
-1080.797
 70
    32
  0
VERTEX
  8
T63SSILL
 62
7
 10
948.007
 20
-5949.323
 30
-1080.677
 70
    32
  0
VERTEX
  8
T63SSILL
 62
7
 10
959.646
 20
-5939.217
 30
-1080.806
 70
    32
  0
VERTEX
  8
T63SSILL
 62
7
 10
972.196
 20
-5955.754
 30
-1080.887
 70
    32
  0
VERTEX
  8
T63SSILL
 62
7
 10
973.092
 20
-5967.121
 30
-1080.871
 70
    32
  0
VERTEX
  8
T63SSILL
 62
7
 10
947.211
 20
-5986.490
 30
-1080.893
 70
    32
  0
VERTEX
  8
T63SSILL
 62
7
 10
945.639
 20
-5990.844
 30
-1080.909
 70
    32
  0
VERTEX
  8
T63SSILL
 62
7
 10
904.079
 20
-6009.291
 30
-1080.925
 70
    32
  0
VERTEX
  8
T63SSILL
 62
7
 10
894.340
 20
-6016.929
 30
-1080.909
 70
    32
  0
VERTEX
  8
T63SSILL
 62
7
 10
890.377
 20
-6025.243
 30
-1080.902
 70
    32
  0
VERTEX
  8
T63SSILL
 62
7
 10
891.261
 20
-6037.051
 30
-1080.872
 70
    32
  0
VERTEX
  8
T63SSILL
 62
7
 10
987.026
 20
-6020.194
 30
-1081.028
 70
    32
  0
VERTEX
  8
T63SSILL
 62
7
 10
998.949
 20
-6010.905
 30
-1081.018
 70
    32
  0
VERTEX
  8
T63SSILL
 62
7
 10
1009.642
 20
-5985.187
 30
-1081.171
 70
    32
  0
VERTEX
  8
T63SSILL
 62
7
 10
1012.139
 20
-5972.504
 30
-1081.221
 70
    32
  0
VERTEX
  8
T63SSILL
 62
7
 10
1005.192
 20
-5934.061
 30
-1081.153
 70
    32
  0
VERTEX
  8
T63SSILL
 62
7
 10
998.888
 20
-5928.353
 30
-1081.111
 70
    32
  0
VERTEX
  8
T63SSILL
 62
7
 10
998.512
 20
-5921.700
 30
-1081.102
 70
    32
  0
VERTEX
  8
T63SSILL
 62
7
 10
1001.636
 20
-5916.790
 30
-1081.114
 70
    32
  0
VERTEX
  8
T63SSILL
 62
7
 10
998.781
 20
-5899.132
 30
-1081.079
 70
    32
  0
VERTEX
  8
T63SSILL
 62
7
 10
993.030
 20
-5887.627
 30
-1081.035
 70
    32
  0
VERTEX
  8
T63SSILL
 62
7
 10
979.430
 20
-5893.778
 30
-1080.966
 70
    32
  0
VERTEX
  8
T63SSILL
 62
7
 10
976.954
 20
-5888.284
 30
-1080.946
 70
    32
  0
VERTEX
  8
T63SSILL
 62
7
 10
978.477
 20
-5879.424
 30
-1080.945
 70
    32
  0
VERTEX
  8
T63SSILL
 62
7
 10
969.662
 20
-5865.112
 30
-1080.880
 70
    32
  0
VERTEX
  8
T63SSILL
 62
7
 10
962.740
 20
-5861.895
 30
-1080.838
 70
    32
  0
VERTEX
  8
T63SSILL
 62
7
 10
947.575
 20
-5860.935
 30
-1080.752
 70
    32
  0
VERTEX
  8
T63SSILL
 62
7
 10
946.847
 20
-5864.801
 30
-1080.752
 70
    32
  0
VERTEX
  8
T63SSILL
 62
7
 10
939.077
 20
-5870.940
 30
-1080.716
 70
    32
  0
VERTEX
  8
T63SSILL
 62
7
 10
936.411
 20
-5876.499
 30
-1080.707
 70
    32
  0
VERTEX
  8
T63SSILL
 62
7
 10
892.557
 20
-5907.918
 30
-1080.549
 70
    32
  0
VERTEX
  8
T63SSILL
 62
7
 10
888.230
 20
-5909.138
 30
-1080.567
 70
    32
  0
VERTEX
  8
T63SSILL
 62
7
 10
882.496
 20
-5914.487
 30
-1080.612
 70
    32
  0
VERTEX
  8
T63SSILL
 62
7
 10
886.086
 20
-5924.923
 30
-1080.651
 70
    32
  0
VERTEX
  8
T63SSILL
 62
7
 10
891.527
 20
-5926.809
 30
-1080.659
 70
    32
  0
VERTEX
  8
T63SSILL
 62
7
 10
894.623
 20
-5925.377
 30
-1080.653
 70
    32
  0
VERTEX
  8
T63SSILL
 62
7
 10
909.080
 20
-5908.352
 30
-1080.512
 70
    32
  0
VERTEX
  8
T63SSILL
 62
7
 10
923.312
 20
-5901.107
 30
-1080.550
 70
    32
  0
VERTEX
  8
T63SSILL
 62
7
 10
931.531
 20
-5893.461
 30
-1080.642
 70
    32
  0
VERTEX
  8
T63SSILL
 62
7
 10
938.140
 20
-5889.656
 30
-1080.711
 70
    32
  0
VERTEX
  8
T63SSILL
 62
7
 10
946.392
 20
-5889.555
 30
-1080.776
 70
    32
  0
VERTEX
  8
T63SSILL
 62
7
 10
952.026
 20
-5887.736
 30
-1080.806
 70
    32
  0
VERTEX
  8
T63SSILL
 62
7
 10
959.793
 20
-5900.410
 30
-1080.863
 70
    32
  0
VERTEX
  8
T63SSILL
 62
7
 10
956.732
 20
-5914.897
 30
-1080.830
 70
    32
  0
VERTEX
  8
T63SSILL
 62
7
 10
947.528
 20
-5922.374
 30
-1080.729
 70
    32
  0
VERTEX
  8
T63SSILL
 62
7
 10
936.202
 20
-5927.458
 30
-1080.614
 70
    32
  0
VERTEX
  8
T63SSILL
 62
7
 10
933.586
 20
-5933.090
 30
-1080.609
 70
    32
  0
VERTEX
  8
T63SSILL
 62
7
 10
923.633
 20
-5942.718
 30
-1080.693
 70
    32
  0
VERTEX
  8
T63SSILL
 62
7
 10
897.245
 20
-5960.606
 30
-1080.784
 70
    32
  0
VERTEX
  8
T63SSILL
 62
7
 10
890.250
 20
-5963.711
 30
-1080.793
 70
    32
  0
VERTEX
  8
T63SSILL
 62
7
 10
888.822
 20
-5967.963
 30
-1080.808
 70
    32
  0
VERTEX
  8
T63SSILL
 62
7
 10
892.353
 20
-5978.009
 30
-1080.846
 70
    32
  0
VERTEX
  8
T63SSILL
 62
7
 10
898.104
 20
-5981.405
 30
-1080.860
 70
    32
  0
VERTEX
  8
T63SSILL
 62
7
 10
903.284
 20
-5980.015
 30
-1080.856
 70
    32
  0
SEQEND
  8
T63SSILL
  0
POLYLINE
  8
T63SSILL
 62
7
 66
     1
 70
     9
  0
VERTEX
  8
T63SSILL
 62
7
 10
1398.965
 20
-6565.517
 30
-1082.486
 70
    32
  0
VERTEX
  8
T63SSILL
 62
7
 10
1394.382
 20
-6569.880
 30
-1082.490
 70
    32
  0
VERTEX
  8
T63SSILL
 62
7
 10
1397.163
 20
-6633.857
 30
-1082.504
 70
    32
  0
VERTEX
  8
T63SSILL
 62
7
 10
1439.807
 20
-6602.606
 30
-1082.467
 70
    32
  0
VERTEX
  8
T63SSILL
 62
7
 10
1446.542
 20
-6591.389
 30
-1082.460
 70
    32
  0
VERTEX
  8
T63SSILL
 62
7
 10
1442.333
 20
-6585.502
 30
-1082.462
 70
    32
  0
SEQEND
  8
T63SSILL
  0
POLYLINE
  8
T63SSILL
 62
7
 66
     1
 70
     9
  0
VERTEX
  8
T63SSILL
 62
7
 10
939.698
 20
-5711.063
 30
-1080.547
 70
    32
  0
VERTEX
  8
T63SSILL
 62
7
 10
957.699
 20
-5683.334
 30
-1080.618
 70
    32
  0
VERTEX
  8
T63SSILL
 62
7
 10
950.009
 20
-5637.860
 30
-1080.505
 70
    32
  0
VERTEX
  8
T63SSILL
 62
7
 10
942.897
 20
-5632.592
 30
-1080.457
 70
    32
  0
VERTEX
  8
T63SSILL
 62
7
 10
938.210
 20
-5634.378
 30
-1080.435
 70
    32
  0
VERTEX
  8
T63SSILL
 62
7
 10
933.086
 20
-5642.582
 30
-1080.421
 70
    32
  0
VERTEX
  8
T63SSILL
 62
7
 10
927.361
 20
-5646.977
 30
-1080.397
 70
    32
  0
VERTEX
  8
T63SSILL
 62
7
 10
924.933
 20
-5658.878
 30
-1080.405
 70
    32
  0
VERTEX
  8
T63SSILL
 62
7
 10
920.849
 20
-5665.670
 30
-1080.393
 70
    32
  0
VERTEX
  8
T63SSILL
 62
7
 10
928.433
 20
-5663.078
 30
-1080.432
 70
    32
  0
VERTEX
  8
T63SSILL
 62
7
 10
940.970
 20
-5662.644
 30
-1080.499
 70
    32
  0
VERTEX
  8
T63SSILL
 62
7
 10
938.782
 20
-5683.084
 30
-1080.512
 70
    32
  0
VERTEX
  8
T63SSILL
 62
7
 10
943.392
 20
-5693.881
 30
-1080.549
 70
    32
  0
VERTEX
  8
T63SSILL
 62
7
 10
925.469
 20
-5691.709
 30
-1080.447
 70
    32
  0
VERTEX
  8
T63SSILL
 62
7
 10
927.992
 20
-5704.572
 30
-1080.475
 70
    32
  0
SEQEND
  8
T63SSILL
  0
POLYLINE
  8
T63SSILL
 62
7
 66
     1
 70
     9
  0
VERTEX
  8
T63SSILL
 62
7
 10
1118.026
 20
-6067.739
 30
-1081.167
 70
    32
  0
VERTEX
  8
T63SSILL
 62
7
 10
1128.098
 20
-6083.217
 30
-1081.996
 70
    32
  0
VERTEX
  8
T63SSILL
 62
7
 10
1130.047
 20
-6095.461
 30
-1082.588
 70
    32
  0
VERTEX
  8
T63SSILL
 62
7
 10
1136.608
 20
-6107.041
 30
-1083.638
 70
    32
  0
VERTEX
  8
T63SSILL
 62
7
 10
1137.238
 20
-6108.744
 30
-1082.096
 70
    32
  0
VERTEX
  8
T63SSILL
 62
7
 10
1121.130
 20
-6109.005
 30
-1082.096
 70
    32
  0
VERTEX
  8
T63SSILL
 62
7
 10
1069.168
 20
-6068.207
 30
-1081.196
 70
    32
  0
SEQEND
  8
T63SSILL
  0
POLYLINE
  8
T63SSILL
 62
7
 66
     1
 70
     9
  0
VERTEX
  8
T63SSILL
 62
7
 10
1556.000
 20
-7351.000
 30
-1083.457
 70
    32
  0
VERTEX
  8
T63SSILL
 62
7
 10
1531.000
 20
-7295.000
 30
-1083.328
 70
    32
  0
VERTEX
  8
T63SSILL
 62
7
 10
1557.000
 20
-7233.000
 30
-1083.028
 70
    32
  0
VERTEX
  8
T63SSILL
 62
7
 10
1571.000
 20
-7234.000
 30
-1083.000
 70
    32
  0
VERTEX
  8
T63SSILL
 62
7
 10
1600.000
 20
-7231.000
 30
-1082.930
 70
    32
  0
VERTEX
  8
T63SSILL
 62
7
 10
1612.000
 20
-7335.000
 30
-1083.163
 70
    32
  0
VERTEX
  8
T63SSILL
 62
7
 10
1585.230
 20
-7338.149
 30
-1083.273
 70
    32
  0
VERTEX
  8
T63SSILL
 62
7
 10
1586.829
 20
-7346.146
 30
-1083.300
 70
    32
  0
VERTEX
  8
T63SSILL
 62
7
 10
1612.000
 20
-7343.000
 30
-1083.183
 70
    32
  0
VERTEX
  8
T63SSILL
 62
7
 10
1619.785
 20
-7390.900
 30
-1083.346
 70
    32
  0
VERTEX
  8
T63SSILL
 62
7
 10
1625.895
 20
-7442.527
 30
-1083.539
 70
    32
  0
VERTEX
  8
T63SSILL
 62
7
 10
1609.035
 20
-7443.825
 30
-1083.619
 70
    32
  0
VERTEX
  8
T63SSILL
 62
7
 10
1611.105
 20
-7452.456
 30
-1083.647
 70
    32
  0
VERTEX
  8
T63SSILL
 62
7
 10
1626.912
 20
-7451.025
 30
-1083.571
 70
    32
  0
VERTEX
  8
T63SSILL
 62
7
 10
1631.128
 20
-7481.495
 30
-1083.683
 70
    32
  0
VERTEX
  8
T63SSILL
 62
7
 10
1627.000
 20
-7512.000
 30
-1083.831
 70
    32
  0
VERTEX
  8
T63SSILL
 62
7
 10
1566.000
 20
-7373.000
 30
-1083.507
 70
    32
  0
VERTEX
  8
T63SSILL
 62
7
 10
1568.000
 20
-7359.000
 30
-1083.438
 70
    32
  0
SEQEND
  8
T63SSILL
  0
POLYLINE
  8
T63SSILL
 62
7
 66
     1
 70
     9
  0
VERTEX
  8
T63SSILL
 62
7
 10
1548.000
 20
-7221.000
 30
-1083.018
 70
    32
  0
VERTEX
  8
T63SSILL
 62
7
 10
1542.000
 20
-7198.000
 30
-1082.960
 70
    32
  0
VERTEX
  8
T63SSILL
 62
7
 10
1534.000
 20
-7141.000
 30
-1082.701
 70
    32
  0
VERTEX
  8
T63SSILL
 62
7
 10
1501.000
 20
-7140.000
 30
-1082.804
 70
    32
  0
VERTEX
  8
T63SSILL
 62
7
 10
1504.000
 20
-7161.000
 30
-1082.899
 70
    32
  0
VERTEX
  8
T63SSILL
 62
7
 10
1511.000
 20
-7179.000
 30
-1082.966
 70
    32
  0
VERTEX
  8
T63SSILL
 62
7
 10
1512.000
 20
-7188.000
 30
-1083.008
 70
    32
  0
VERTEX
  8
T63SSILL
 62
7
 10
1511.000
 20
-7193.000
 30
-1083.028
 70
    32
  0
VERTEX
  8
T63SSILL
 62
7
 10
1513.000
 20
-7198.000
 30
-1083.037
 70
    32
  0
VERTEX
  8
T63SSILL
 62
7
 10
1512.000
 20
-7200.000
 30
-1083.044
 70
    32
  0
VERTEX
  8
T63SSILL
 62
7
 10
1517.000
 20
-7218.000
 30
-1083.078
 70
    32
  0
VERTEX
  8
T63SSILL
 62
7
 10
1516.000
 20
-7224.000
 30
-1083.095
 70
    32
  0
VERTEX
  8
T63SSILL
 62
7
 10
1530.000
 20
-7256.000
 30
-1083.166
 70
    32
  0
VERTEX
  8
T63SSILL
 62
7
 10
1528.000
 20
-7272.000
 30
-1083.243
 70
    32
  0
VERTEX
  8
T63SSILL
 62
7
 10
1526.000
 20
-7274.000
 30
-1083.260
 70
    32
  0
VERTEX
  8
T63SSILL
 62
7
 10
1520.000
 20
-7270.000
 30
-1083.270
 70
    32
  0
VERTEX
  8
T63SSILL
 62
7
 10
1484.000
 20
-7188.000
 30
-1083.079
 70
    32
  0
VERTEX
  8
T63SSILL
 62
7
 10
1487.000
 20
-7185.000
 30
-1083.061
 70
    32
  0
VERTEX
  8
T63SSILL
 62
7
 10
1487.000
 20
-7181.000
 30
-1083.051
 70
    32
  0
VERTEX
  8
T63SSILL
 62
7
 10
1479.000
 20
-7175.000
 30
-1083.051
 70
    32
  0
VERTEX
  8
T63SSILL
 62
7
 10
1443.000
 20
-7095.000
 30
-1082.920
 70
    32
  0
VERTEX
  8
T63SSILL
 62
7
 10
1446.000
 20
-7090.000
 30
-1082.883
 70
    32
  0
VERTEX
  8
T63SSILL
 62
7
 10
1444.000
 20
-7087.000
 30
-1082.882
 70
    32
  0
VERTEX
  8
T63SSILL
 62
7
 10
1444.903
 20
-7075.553
 30
-1082.831
 70
    32
  0
VERTEX
  8
T63SSILL
 62
7
 10
1443.486
 20
-7073.810
 30
-1082.831
 70
    32
  0
VERTEX
  8
T63SSILL
 62
7
 10
1440.435
 20
-7074.355
 30
-1082.851
 70
    32
  0
VERTEX
  8
T63SSILL
 62
7
 10
1436.000
 20
-7081.000
 30
-1082.903
 70
    32
  0
VERTEX
  8
T63SSILL
 62
7
 10
1401.000
 20
-7003.000
 30
-1082.786
 70
    32
  0
VERTEX
  8
T63SSILL
 62
7
 10
1404.000
 20
-7001.000
 30
-1082.761
 70
    32
  0
VERTEX
  8
T63SSILL
 62
7
 10
1403.000
 20
-6995.000
 30
-1082.743
 70
    32
  0
VERTEX
  8
T63SSILL
 62
7
 10
1396.000
 20
-6992.000
 30
-1082.770
 70
    32
  0
VERTEX
  8
T63SSILL
 62
7
 10
1387.000
 20
-6969.000
 30
-1082.785
 70
    32
  0
VERTEX
  8
T63SSILL
 62
7
 10
1392.000
 20
-6967.000
 30
-1082.764
 70
    32
  0
VERTEX
  8
T63SSILL
 62
7
 10
1513.000
 20
-7035.000
 30
-1082.299
 70
    32
  0
VERTEX
  8
T63SSILL
 62
7
 10
1592.000
 20
-7193.000
 30
-1082.800
 70
    32
  0
VERTEX
  8
T63SSILL
 62
7
 10
1597.000
 20
-7208.000
 30
-1082.847
 70
    32
  0
VERTEX
  8
T63SSILL
 62
7
 10
1597.000
 20
-7222.000
 30
-1082.899
 70
    32
  0
VERTEX
  8
T63SSILL
 62
7
 10
1570.000
 20
-7225.000
 30
-1082.980
 70
    32
  0
SEQEND
  8
T63SSILL
  0
POLYLINE
  8
T63SSILL
 62
7
 66
     1
 70
     9
  0
VERTEX
  8
T63SSILL
 62
7
 10
1271.626
 20
-6468.761
 30
-1082.460
 70
    32
  0
VERTEX
  8
T63SSILL
 62
7
 10
1274.642
 20
-6427.003
 30
-1082.432
 70
    32
  0
VERTEX
  8
T63SSILL
 62
7
 10
1282.773
 20
-6418.042
 30
-1082.426
 70
    32
  0
VERTEX
  8
T63SSILL
 62
7
 10
1281.682
 20
-6410.272
 30
-1082.421
 70
    32
  0
VERTEX
  8
T63SSILL
 62
7
 10
1275.663
 20
-6396.870
 30
-1082.412
 70
    32
  0
VERTEX
  8
T63SSILL
 62
7
 10
1275.035
 20
-6391.894
 30
-1082.409
 70
    32
  0
VERTEX
  8
T63SSILL
 62
7
 10
1225.763
 20
-6422.677
 30
-1082.428
 70
    32
  0
VERTEX
  8
T63SSILL
 62
7
 10
1211.016
 20
-6436.043
 30
-1082.437
 70
    32
  0
VERTEX
  8
T63SSILL
 62
7
 10
1209.477
 20
-6441.137
 30
-1082.440
 70
    32
  0
VERTEX
  8
T63SSILL
 62
7
 10
1209.498
 20
-6477.164
 30
-1082.464
 70
    32
  0
VERTEX
  8
T63SSILL
 62
7
 10
1220.394
 20
-6498.775
 30
-1082.479
 70
    32
  0
VERTEX
  8
T63SSILL
 62
7
 10
1226.725
 20
-6499.891
 30
-1082.480
 70
    32
  0
VERTEX
  8
T63SSILL
 62
7
 10
1235.197
 20
-6495.352
 30
-1082.477
 70
    32
  0
SEQEND
  8
T63SSILL
  0
POLYLINE
  8
T63SSILL
 62
7
 66
     1
 70
     9
  0
VERTEX
  8
T63SSILL
 62
7
 10
1301.265
 20
-6447.242
 30
-1082.446
 70
    32
  0
VERTEX
  8
T63SSILL
 62
7
 10
1297.591
 20
-6443.468
 30
-1082.444
 70
    32
  0
VERTEX
  8
T63SSILL
 62
7
 10
1292.780
 20
-6424.449
 30
-1082.431
 70
    32
  0
VERTEX
  8
T63SSILL
 62
7
 10
1296.892
 20
-6399.701
 30
-1082.414
 70
    32
  0
VERTEX
  8
T63SSILL
 62
7
 10
1293.337
 20
-6389.874
 30
-1082.408
 70
    32
  0
VERTEX
  8
T63SSILL
 62
7
 10
1286.460
 20
-6384.050
 30
-1082.404
 70
    32
  0
VERTEX
  8
T63SSILL
 62
7
 10
1369.657
 20
-6326.514
 30
-1082.385
 70
    32
  0
VERTEX
  8
T63SSILL
 62
7
 10
1371.402
 20
-6328.195
 30
-1082.385
 70
    32
  0
VERTEX
  8
T63SSILL
 62
7
 10
1373.581
 20
-6336.402
 30
-1082.385
 70
    32
  0
VERTEX
  8
T63SSILL
 62
7
 10
1377.379
 20
-6422.437
 30
-1082.431
 70
    32
  0
VERTEX
  8
T63SSILL
 62
7
 10
1372.835
 20
-6424.276
 30
-1082.432
 70
    32
  0
VERTEX
  8
T63SSILL
 62
7
 10
1371.411
 20
-6427.139
 30
-1082.434
 70
    32
  0
VERTEX
  8
T63SSILL
 62
7
 10
1354.626
 20
-6424.336
 30
-1082.432
 70
    32
  0
VERTEX
  8
T63SSILL
 62
7
 10
1343.062
 20
-6424.517
 30
-1082.432
 70
    32
  0
VERTEX
  8
T63SSILL
 62
7
 10
1330.895
 20
-6426.923
 30
-1082.433
 70
    32
  0
SEQEND
  8
T63SSILL
  0
POLYLINE
  8
T63SSILL
 62
7
 66
     1
 70
     9
  0
VERTEX
  8
T63SSILL
 62
7
 10
949.131
 20
-5711.152
 30
-1080.600
 70
    32
  0
VERTEX
  8
T63SSILL
 62
7
 10
959.502
 20
-5694.762
 30
-1080.640
 70
    32
  0
VERTEX
  8
T63SSILL
 62
7
 10
960.690
 20
-5702.064
 30
-1080.655
 70
    32
  0
VERTEX
  8
T63SSILL
 62
7
 10
957.459
 20
-5708.234
 30
-1080.643
 70
    32
  0
VERTEX
  8
T63SSILL
 62
7
 10
958.256
 20
-5713.208
 30
-1080.653
 70
    32
  0
SEQEND
  8
T63SSILL
  0
POLYLINE
  8
T63SSILL
 62
7
 66
     1
 70
     9
  0
VERTEX
  8
T63SSILL
 62
7
 10
1574.000
 20
-7467.000
 30
-1083.646
 70
    32
  0
VERTEX
  8
T63SSILL
 62
7
 10
1571.000
 20
-7461.000
 30
-1083.631
 70
    32
  0
VERTEX
  8
T63SSILL
 62
7
 10
1572.000
 20
-7439.000
 30
-1083.613
 70
    32
  0
VERTEX
  8
T63SSILL
 62
7
 10
1565.000
 20
-7415.000
 30
-1083.568
 70
    32
  0
VERTEX
  8
T63SSILL
 62
7
 10
1563.000
 20
-7402.000
 30
-1083.550
 70
    32
  0
VERTEX
  8
T63SSILL
 62
7
 10
1547.000
 20
-7378.000
 30
-1083.478
 70
    32
  0
VERTEX
  8
T63SSILL
 62
7
 10
1548.000
 20
-7377.000
 30
-1083.480
 70
    32
  0
VERTEX
  8
T63SSILL
 62
7
 10
1544.000
 20
-7369.000
 30
-1083.460
 70
    32
  0
VERTEX
  8
T63SSILL
 62
7
 10
1544.000
 20
-7358.000
 30
-1083.450
 70
    32
  0
VERTEX
  8
T63SSILL
 62
7
 10
1547.000
 20
-7356.000
 30
-1083.457
 70
    32
  0
VERTEX
  8
T63SSILL
 62
7
 10
1551.000
 20
-7367.000
 30
-1083.480
 70
    32
  0
VERTEX
  8
T63SSILL
 62
7
 10
1560.000
 20
-7376.000
 30
-1083.516
 70
    32
  0
VERTEX
  8
T63SSILL
 62
7
 10
1589.000
 20
-7441.000
 30
-1083.667
 70
    32
  0
VERTEX
  8
T63SSILL
 62
7
 10
1588.000
 20
-7448.000
 30
-1083.671
 70
    32
  0
VERTEX
  8
T63SSILL
 62
7
 10
1584.000
 20
-7451.000
 30
-1083.661
 70
    32
  0
VERTEX
  8
T63SSILL
 62
7
 10
1585.000
 20
-7454.000
 30
-1083.667
 70
    32
  0
SEQEND
  8
T63SSILL
  0
POLYLINE
  8
T63SSILL
 62
7
 66
     1
 70
     9
  0
VERTEX
  8
T63SSILL
 62
7
 10
1272.862
 20
-6478.076
 30
-1082.466
 70
    32
  0
VERTEX
  8
T63SSILL
 62
7
 10
1282.951
 20
-6506.449
 30
-1082.485
 70
    32
  0
VERTEX
  8
T63SSILL
 62
7
 10
1292.266
 20
-6505.973
 30
-1082.485
 70
    32
  0
VERTEX
  8
T63SSILL
 62
7
 10
1291.047
 20
-6488.183
 30
-1082.473
 70
    32
  0
VERTEX
  8
T63SSILL
 62
7
 10
1294.524
 20
-6466.492
 30
-1082.459
 70
    32
  0
VERTEX
  8
T63SSILL
 62
7
 10
1300.942
 20
-6457.563
 30
-1082.453
 70
    32
  0
VERTEX
  8
T63SSILL
 62
7
 10
1323.803
 20
-6440.675
 30
-1082.442
 70
    32
  0
VERTEX
  8
T63SSILL
 62
7
 10
1335.403
 20
-6435.201
 30
-1082.439
 70
    32
  0
VERTEX
  8
T63SSILL
 62
7
 10
1357.224
 20
-6432.184
 30
-1082.437
 70
    32
  0
VERTEX
  8
T63SSILL
 62
7
 10
1369.024
 20
-6435.789
 30
-1082.440
 70
    32
  0
VERTEX
  8
T63SSILL
 62
7
 10
1372.537
 20
-6443.585
 30
-1082.445
 70
    32
  0
VERTEX
  8
T63SSILL
 62
7
 10
1375.349
 20
-6445.697
 30
-1082.447
 70
    32
  0
VERTEX
  8
T63SSILL
 62
7
 10
1373.864
 20
-6450.448
 30
-1082.450
 70
    32
  0
VERTEX
  8
T63SSILL
 62
7
 10
1352.357
 20
-6465.284
 30
-1082.459
 70
    32
  0
VERTEX
  8
T63SSILL
 62
7
 10
1350.678
 20
-6472.343
 30
-1082.464
 70
    32
  0
VERTEX
  8
T63SSILL
 62
7
 10
1352.957
 20
-6475.379
 30
-1082.466
 70
    32
  0
VERTEX
  8
T63SSILL
 62
7
 10
1362.183
 20
-6479.632
 30
-1082.469
 70
    32
  0
VERTEX
  8
T63SSILL
 62
7
 10
1376.729
 20
-6475.849
 30
-1082.467
 70
    32
  0
VERTEX
  8
T63SSILL
 62
7
 10
1380.044
 20
-6477.602
 30
-1082.468
 70
    32
  0
VERTEX
  8
T63SSILL
 62
7
 10
1387.118
 20
-6612.071
 30
-1082.505
 70
    32
  0
VERTEX
  8
T63SSILL
 62
7
 10
1384.997
 20
-6617.602
 30
-1082.507
 70
    32
  0
VERTEX
  8
T63SSILL
 62
7
 10
1376.463
 20
-6621.751
 30
-1082.514
 70
    32
  0
VERTEX
  8
T63SSILL
 62
7
 10
1374.159
 20
-6650.848
 30
-1082.523
 70
    32
  0
VERTEX
  8
T63SSILL
 62
7
 10
1348.786
 20
-6668.774
 30
-1082.545
 70
    32
  0
VERTEX
  8
T63SSILL
 62
7
 10
1332.690
 20
-6671.604
 30
-1082.556
 70
    32
  0
VERTEX
  8
T63SSILL
 62
7
 10
1254.717
 20
-6650.867
 30
-1082.581
 70
    32
  0
VERTEX
  8
T63SSILL
 62
7
 10
1241.599
 20
-6638.439
 30
-1082.573
 70
    32
  0
VERTEX
  8
T63SSILL
 62
7
 10
1236.742
 20
-6629.218
 30
-1082.567
 70
    32
  0
VERTEX
  8
T63SSILL
 62
7
 10
1239.150
 20
-6623.482
 30
-1082.563
 70
    32
  0
VERTEX
  8
T63SSILL
 62
7
 10
1236.982
 20
-6617.871
 30
-1082.559
 70
    32
  0
VERTEX
  8
T63SSILL
 62
7
 10
1232.067
 20
-6615.852
 30
-1082.558
 70
    32
  0
VERTEX
  8
T63SSILL
 62
7
 10
1196.344
 20
-6536.912
 30
-1082.504
 70
    32
  0
VERTEX
  8
T63SSILL
 62
7
 10
1198.373
 20
-6531.556
 30
-1082.500
 70
    32
  0
VERTEX
  8
T63SSILL
 62
7
 10
1193.760
 20
-6518.580
 30
-1082.492
 70
    32
  0
VERTEX
  8
T63SSILL
 62
7
 10
1198.321
 20
-6509.785
 30
-1082.486
 70
    32
  0
VERTEX
  8
T63SSILL
 62
7
 10
1204.774
 20
-6509.402
 30
-1082.486
 70
    32
  0
VERTEX
  8
T63SSILL
 62
7
 10
1209.177
 20
-6512.221
 30
-1082.488
 70
    32
  0
VERTEX
  8
T63SSILL
 62
7
 10
1210.832
 20
-6518.633
 30
-1082.492
 70
    32
  0
VERTEX
  8
T63SSILL
 62
7
 10
1220.175
 20
-6531.699
 30
-1082.501
 70
    32
  0
VERTEX
  8
T63SSILL
 62
7
 10
1226.167
 20
-6532.947
 30
-1082.502
 70
    32
  0
VERTEX
  8
T63SSILL
 62
7
 10
1233.069
 20
-6527.578
 30
-1082.498
 70
    32
  0
VERTEX
  8
T63SSILL
 62
7
 10
1224.062
 20
-6509.823
 30
-1082.486
 70
    32
  0
VERTEX
  8
T63SSILL
 62
7
 10
1235.837
 20
-6503.682
 30
-1082.483
 70
    32
  0
SEQEND
  8
T63SSILL
  0
POLYLINE
  8
T63SSILL
 62
7
 66
     1
 70
     9
  0
VERTEX
  8
T63SSILL
 62
7
 10
1407.210
 20
-6392.536
 30
-1082.412
 70
    32
  0
VERTEX
  8
T63SSILL
 62
7
 10
1419.248
 20
-6401.179
 30
-1082.418
 70
    32
  0
VERTEX
  8
T63SSILL
 62
7
 10
1423.983
 20
-6410.379
 30
-1082.424
 70
    32
  0
VERTEX
  8
T63SSILL
 62
7
 10
1436.535
 20
-6419.740
 30
-1082.428
 70
    32
  0
VERTEX
  8
T63SSILL
 62
7
 10
1436.139
 20
-6448.016
 30
-1082.434
 70
    32
  0
VERTEX
  8
T63SSILL
 62
7
 10
1440.668
 20
-6457.688
 30
-1082.433
 70
    32
  0
VERTEX
  8
T63SSILL
 62
7
 10
1428.322
 20
-6449.374
 30
-1082.440
 70
    32
  0
VERTEX
  8
T63SSILL
 62
7
 10
1424.174
 20
-6443.877
 30
-1082.441
 70
    32
  0
VERTEX
  8
T63SSILL
 62
7
 10
1391.491
 20
-6431.551
 30
-1082.438
 70
    32
  0
VERTEX
  8
T63SSILL
 62
7
 10
1389.239
 20
-6421.877
 30
-1082.431
 70
    32
  0
VERTEX
  8
T63SSILL
 62
7
 10
1386.777
 20
-6421.468
 30
-1082.431
 70
    32
  0
VERTEX
  8
T63SSILL
 62
7
 10
1385.734
 20
-6388.905
 30
-1082.409
 70
    32
  0
VERTEX
  8
T63SSILL
 62
7
 10
1397.605
 20
-6389.422
 30
-1082.410
 70
    32
  0
SEQEND
  8
T63SSILL
  0
POLYLINE
  8
T63SSILL
 62
7
 66
     1
 70
     9
  0
VERTEX
  8
T63SSILL
 62
7
 10
924.693
 20
-5734.537
 30
-1080.489
 70
    32
  0
VERTEX
  8
T63SSILL
 62
7
 10
939.990
 20
-5736.991
 30
-1080.577
 70
    32
  0
VERTEX
  8
T63SSILL
 62
7
 10
952.807
 20
-5742.018
 30
-1080.654
 70
    32
  0
VERTEX
  8
T63SSILL
 62
7
 10
968.000
 20
-5756.000
 30
-1080.754
 70
    32
  0
VERTEX
  8
T63SSILL
 62
7
 10
971.000
 20
-5761.000
 30
-1080.776
 70
    32
  0
VERTEX
  8
T63SSILL
 62
7
 10
973.000
 20
-5776.000
 30
-1080.803
 70
    32
  0
VERTEX
  8
T63SSILL
 62
7
 10
967.000
 20
-5777.000
 30
-1080.771
 70
    32
  0
VERTEX
  8
T63SSILL
 62
7
 10
962.000
 20
-5775.000
 30
-1080.741
 70
    32
  0
VERTEX
  8
T63SSILL
 62
7
 10
961.000
 20
-5785.000
 30
-1080.746
 70
    32
  0
VERTEX
  8
T63SSILL
 62
7
 10
976.000
 20
-5800.000
 30
-1080.846
 70
    32
  0
VERTEX
  8
T63SSILL
 62
7
 10
974.000
 20
-5804.000
 30
-1080.839
 70
    32
  0
VERTEX
  8
T63SSILL
 62
7
 10
887.093
 20
-5753.598
 30
-1080.299
 70
    32
  0
VERTEX
  8
T63SSILL
 62
7
 10
910.667
 20
-5738.453
 30
-1080.414
 70
    32
  0
SEQEND
  8
T63SSILL
  0
POLYLINE
  8
T63SSILL
 62
7
 66
     1
 70
     9
  0
VERTEX
  8
T63SSILL
 62
7
 10
1421.094
 20
-6459.522
 30
-1082.447
 70
    32
  0
VERTEX
  8
T63SSILL
 62
7
 10
1421.687
 20
-6473.834
 30
-1082.450
 70
    32
  0
VERTEX
  8
T63SSILL
 62
7
 10
1419.450
 20
-6486.005
 30
-1082.454
 70
    32
  0
VERTEX
  8
T63SSILL
 62
7
 10
1424.559
 20
-6505.905
 30
-1082.455
 70
    32
  0
VERTEX
  8
T63SSILL
 62
7
 10
1408.206
 20
-6496.361
 30
-1082.464
 70
    32
  0
VERTEX
  8
T63SSILL
 62
7
 10
1402.857
 20
-6490.802
 30
-1082.466
 70
    32
  0
VERTEX
  8
T63SSILL
 62
7
 10
1391.911
 20
-6475.052
 30
-1082.467
 70
    32
  0
VERTEX
  8
T63SSILL
 62
7
 10
1389.592
 20
-6449.964
 30
-1082.450
 70
    32
  0
VERTEX
  8
T63SSILL
 62
7
 10
1393.744
 20
-6447.269
 30
-1082.448
 70
    32
  0
VERTEX
  8
T63SSILL
 62
7
 10
1415.841
 20
-6453.791
 30
-1082.449
 70
    32
  0
SEQEND
  8
T63SSILL
  0
POLYLINE
  8
T63SSILL
 62
7
 66
     1
 70
     9
  0
VERTEX
  8
T63SSILL
 62
7
 10
1425.452
 20
-6516.525
 30
-1082.457
 70
    32
  0
VERTEX
  8
T63SSILL
 62
7
 10
1426.400
 20
-6526.045
 30
-1082.459
 70
    32
  0
VERTEX
  8
T63SSILL
 62
7
 10
1429.932
 20
-6531.440
 30
-1082.458
 70
    32
  0
VERTEX
  8
T63SSILL
 62
7
 10
1433.616
 20
-6533.254
 30
-1082.455
 70
    32
  0
VERTEX
  8
T63SSILL
 62
7
 10
1440.501
 20
-6533.322
 30
-1082.451
 70
    32
  0
VERTEX
  8
T63SSILL
 62
7
 10
1454.904
 20
-6530.401
 30
-1082.441
 70
    32
  0
VERTEX
  8
T63SSILL
 62
7
 10
1451.308
 20
-6570.906
 30
-1082.452
 70
    32
  0
VERTEX
  8
T63SSILL
 62
7
 10
1447.027
 20
-6577.045
 30
-1082.457
 70
    32
  0
VERTEX
  8
T63SSILL
 62
7
 10
1404.183
 20
-6556.578
 30
-1082.481
 70
    32
  0
VERTEX
  8
T63SSILL
 62
7
 10
1392.509
 20
-6538.127
 30
-1082.484
 70
    32
  0
VERTEX
  8
T63SSILL
 62
7
 10
1391.314
 20
-6509.144
 30
-1082.478
 70
    32
  0
VERTEX
  8
T63SSILL
 62
7
 10
1395.506
 20
-6501.047
 30
-1082.474
 70
    32
  0
SEQEND
  8
T63SSILL
  0
POLYLINE
  8
T63SSILL
 62
7
 66
     1
 70
     9
  0
VERTEX
  8
T63SSILL
 62
7
 10
4471.300
 20
-9544.094
 30
-1106.374
 70
    32
  0
VERTEX
  8
T63SSILL
 62
7
 10
4449.447
 20
-9560.164
 30
-1106.192
 70
    32
  0
VERTEX
  8
T63SSILL
 62
7
 10
4448.554
 20
-9575.007
 30
-1106.102
 70
    32
  0
VERTEX
  8
T63SSILL
 62
7
 10
4455.298
 20
-9585.923
 30
-1106.065
 70
    32
  0
VERTEX
  8
T63SSILL
 62
7
 10
4465.236
 20
-9584.992
 30
-1106.110
 70
    32
  0
VERTEX
  8
T63SSILL
 62
7
 10
4470.641
 20
-9582.619
 30
-1106.146
 70
    32
  0
VERTEX
  8
T63SSILL
 62
7
 10
4472.371
 20
-9577.886
 30
-1106.181
 70
    32
  0
SEQEND
  8
T63SSILL
  0
POLYLINE
  8
T63SSILL
 62
7
 66
     1
 70
     9
  0
VERTEX
  8
T63SSILL
 62
7
 10
5551.491
 20
-9803.712
 30
-1107.269
 70
    32
  0
VERTEX
  8
T63SSILL
 62
7
 10
5533.995
 20
-9791.033
 30
-1107.278
 70
    32
  0
VERTEX
  8
T63SSILL
 62
7
 10
5531.606
 20
-9791.004
 30
-1107.276
 70
    32
  0
VERTEX
  8
T63SSILL
 62
7
 10
5527.723
 20
-9794.942
 30
-1107.266
 70
    32
  0
VERTEX
  8
T63SSILL
 62
7
 10
5631.725
 20
-9941.157
 30
-1107.089
 70
    32
  0
VERTEX
  8
T63SSILL
 62
7
 10
5635.331
 20
-9940.322
 30
-1107.094
 70
    32
  0
VERTEX
  8
T63SSILL
 62
7
 10
5637.425
 20
-9922.472
 30
-1107.126
 70
    32
  0
VERTEX
  8
T63SSILL
 62
7
 10
5631.576
 20
-9907.239
 30
-1107.149
 70
    32
  0
VERTEX
  8
T63SSILL
 62
7
 10
5574.776
 20
-9825.315
 30
-1107.249
 70
    32
  0
VERTEX
  8
T63SSILL
 62
7
 10
5561.459
 20
-9808.811
 30
-1107.267
 70
    32
  0
SEQEND
  8
T63SSILL
  0
POLYLINE
  8
T63SSILL
 62
7
 66
     1
 70
     9
  0
VERTEX
  8
T63SSILL
 62
7
 10
5517.999
 20
-9802.117
 30
-1107.246
 70
    32
  0
VERTEX
  8
T63SSILL
 62
7
 10
5521.961
 20
-9801.781
 30
-1107.250
 70
    32
  0
VERTEX
  8
T63SSILL
 62
7
 10
5568.652
 20
-9866.955
 30
-1107.171
 70
    32
  0
VERTEX
  8
T63SSILL
 62
7
 10
5551.678
 20
-9873.081
 30
-1107.148
 70
    32
  0
VERTEX
  8
T63SSILL
 62
7
 10
5546.742
 20
-9871.739
 30
-1107.146
 70
    32
  0
VERTEX
  8
T63SSILL
 62
7
 10
5539.512
 20
-9855.334
 30
-1107.170
 70
    32
  0
VERTEX
  8
T63SSILL
 62
7
 10
5536.098
 20
-9853.557
 30
-1107.170
 70
    32
  0
VERTEX
  8
T63SSILL
 62
7
 10
5518.144
 20
-9825.381
 30
-1107.206
 70
    32
  0
VERTEX
  8
T63SSILL
 62
7
 10
5515.981
 20
-9811.410
 30
-1107.228
 70
    32
  0
SEQEND
  8
T63SSILL
  0
POLYLINE
  8
T63SSILL
 62
7
 66
     1
 70
     9
  0
VERTEX
  8
T63SSILL
 62
7
 10
5501.215
 20
-9840.520
 30
-1107.167
 70
    32
  0
VERTEX
  8
T63SSILL
 62
7
 10
5508.723
 20
-9842.298
 30
-1107.169
 70
    32
  0
VERTEX
  8
T63SSILL
 62
7
 10
5515.333
 20
-9850.852
 30
-1107.159
 70
    32
  0
VERTEX
  8
T63SSILL
 62
7
 10
5506.599
 20
-9859.635
 30
-1107.137
 70
    32
  0
VERTEX
  8
T63SSILL
 62
7
 10
5498.461
 20
-9853.782
 30
-1107.141
 70
    32
  0
VERTEX
  8
T63SSILL
 62
7
 10
5491.349
 20
-9842.246
 30
-1107.156
 70
    32
  0
VERTEX
  8
T63SSILL
 62
7
 10
5498.000
 20
-9840.541
 30
-1107.164
 70
    32
  0
SEQEND
  8
T63SSILL
  0
POLYLINE
  8
T63SSILL
 62
7
 66
     1
 70
     9
  0
VERTEX
  8
T63SSILL
 62
7
 10
6447.725
 20
-11076.588
 30
-1106.666
 70
    32
  0
VERTEX
  8
T63SSILL
 62
7
 10
6456.371
 20
-11075.729
 30
-1106.655
 70
    32
  0
VERTEX
  8
T63SSILL
 62
7
 10
6475.051
 20
-11077.633
 30
-1106.638
 70
    32
  0
VERTEX
  8
T63SSILL
 62
7
 10
6475.335
 20
-11080.093
 30
-1106.641
 70
    32
  0
VERTEX
  8
T63SSILL
 62
7
 10
6483.591
 20
-11090.739
 30
-1106.647
 70
    32
  0
VERTEX
  8
T63SSILL
 62
7
 10
6486.114
 20
-11104.200
 30
-1106.663
 70
    32
  0
VERTEX
  8
T63SSILL
 62
7
 10
6493.043
 20
-11109.273
 30
-1106.663
 70
    32
  0
VERTEX
  8
T63SSILL
 62
7
 10
6492.840
 20
-11123.410
 30
-1106.683
 70
    32
  0
VERTEX
  8
T63SSILL
 62
7
 10
6461.123
 20
-11113.985
 30
-1106.704
 70
    32
  0
VERTEX
  8
T63SSILL
 62
7
 10
6454.581
 20
-11108.543
 30
-1106.704
 70
    32
  0
VERTEX
  8
T63SSILL
 62
7
 10
6444.238
 20
-11091.671
 30
-1106.691
 70
    32
  0
VERTEX
  8
T63SSILL
 62
7
 10
6442.281
 20
-11082.813
 30
-1106.681
 70
    32
  0
VERTEX
  8
T63SSILL
 62
7
 10
6445.297
 20
-11078.017
 30
-1106.670
 70
    32
  0
SEQEND
  8
T63SSILL
  0
POLYLINE
  8
T63SSILL
 62
7
 66
     1
 70
     9
  0
VERTEX
  8
T63SSILL
 62
7
 10
6569.836
 20
-10768.473
 30
-1106.148
 70
    32
  0
VERTEX
  8
T63SSILL
 62
7
 10
6568.933
 20
-10756.781
 30
-1106.146
 70
    32
  0
VERTEX
  8
T63SSILL
 62
7
 10
6570.963
 20
-10754.136
 30
-1106.151
 70
    32
  0
VERTEX
  8
T63SSILL
 62
7
 10
6575.461
 20
-10752.475
 30
-1106.159
 70
    32
  0
VERTEX
  8
T63SSILL
 62
7
 10
6578.124
 20
-10753.433
 30
-1106.161
 70
    32
  0
VERTEX
  8
T63SSILL
 62
7
 10
6584.450
 20
-10751.809
 30
-1106.170
 70
    32
  0
VERTEX
  8
T63SSILL
 62
7
 10
6585.467
 20
-10754.727
 30
-1106.168
 70
    32
  0
VERTEX
  8
T63SSILL
 62
7
 10
6607.646
 20
-10758.826
 30
-1106.191
 70
    32
  0
VERTEX
  8
T63SSILL
 62
7
 10
6613.300
 20
-10762.641
 30
-1106.194
 70
    32
  0
VERTEX
  8
T63SSILL
 62
7
 10
6600.888
 20
-10776.757
 30
-1106.183
 70
    32
  0
VERTEX
  8
T63SSILL
 62
7
 10
6582.101
 20
-10773.440
 30
-1106.165
 70
    32
  0
SEQEND
  8
T63SSILL
  0
POLYLINE
  8
T63SSILL
 62
7
 66
     1
 70
     9
  0
VERTEX
  8
T63SSILL
 62
7
 10
6513.852
 20
-10740.876
 30
-1106.133
 70
    32
  0
VERTEX
  8
T63SSILL
 62
7
 10
6513.696
 20
-10743.315
 30
-1106.128
 70
    32
  0
VERTEX
  8
T63SSILL
 62
7
 10
6538.475
 20
-10750.005
 30
-1106.124
 70
    32
  0
VERTEX
  8
T63SSILL
 62
7
 10
6555.822
 20
-10760.764
 30
-1106.126
 70
    32
  0
VERTEX
  8
T63SSILL
 62
7
 10
6558.312
 20
-10753.778
 30
-1106.136
 70
    32
  0
VERTEX
  8
T63SSILL
 62
7
 10
6556.227
 20
-10743.946
 30
-1106.144
 70
    32
  0
VERTEX
  8
T63SSILL
 62
7
 10
6547.580
 20
-10736.958
 30
-1106.152
 70
    32
  0
VERTEX
  8
T63SSILL
 62
7
 10
6548.321
 20
-10730.836
 30
-1106.164
 70
    32
  0
VERTEX
  8
T63SSILL
 62
7
 10
6554.414
 20
-10727.142
 30
-1106.173
 70
    32
  0
VERTEX
  8
T63SSILL
 62
7
 10
6543.256
 20
-10720.048
 30
-1106.183
 70
    32
  0
SEQEND
  8
T63SSILL
  0
POLYLINE
  8
T63SSILL
 62
7
 66
     1
 70
     9
  0
VERTEX
  8
T63SSILL
 62
7
 10
6476.688
 20
-11062.951
 30
-1106.615
 70
    32
  0
VERTEX
  8
T63SSILL
 62
7
 10
6477.062
 20
-11068.213
 30
-1106.622
 70
    32
  0
VERTEX
  8
T63SSILL
 62
7
 10
6445.545
 20
-11067.244
 30
-1106.655
 70
    32
  0
VERTEX
  8
T63SSILL
 62
7
 10
6429.069
 20
-11063.108
 30
-1106.667
 70
    32
  0
VERTEX
  8
T63SSILL
 62
7
 10
6420.885
 20
-11052.413
 30
-1106.660
 70
    32
  0
VERTEX
  8
T63SSILL
 62
7
 10
6424.977
 20
-11048.268
 30
-1106.650
 70
    32
  0
VERTEX
  8
T63SSILL
 62
7
 10
6436.601
 20
-11048.048
 30
-1106.637
 70
    32
  0
VERTEX
  8
T63SSILL
 62
7
 10
6439.871
 20
-11044.883
 30
-1106.629
 70
    32
  0
VERTEX
  8
T63SSILL
 62
7
 10
6468.293
 20
-11045.823
 30
-1106.600
 70
    32
  0
VERTEX
  8
T63SSILL
 62
7
 10
6475.044
 20
-11057.381
 30
-1106.609
 70
    32
  0
SEQEND
  8
T63SSILL
  0
POLYLINE
  8
T63SSILL
 62
7
 66
     1
 70
     9
  0
VERTEX
  8
T63SSILL
 62
7
 10
5923.757
 20
-8496.150
 30
-1110.209
 70
    32
  0
VERTEX
  8
T63SSILL
 62
7
 10
5926.647
 20
-8500.256
 30
-1110.205
 70
    32
  0
VERTEX
  8
T63SSILL
 62
7
 10
5905.301
 20
-8516.325
 30
-1110.218
 70
    32
  0
VERTEX
  8
T63SSILL
 62
7
 10
5902.833
 20
-8512.998
 30
-1110.221
 70
    32
  0
VERTEX
  8
T63SSILL
 62
7
 10
5906.017
 20
-8489.132
 30
-1110.226
 70
    32
  0
VERTEX
  8
T63SSILL
 62
7
 10
5923.218
 20
-8495.983
 30
-1110.210
 70
    32
  0
SEQEND
  8
T63SSILL
  0
POLYLINE
  8
T63SSILL
 62
7
 66
     1
 70
     9
  0
VERTEX
  8
T63SSILL
 62
7
 10
4470.015
 20
-9517.828
 30
-1106.453
 70
    32
  0
VERTEX
  8
T63SSILL
 62
7
 10
4478.774
 20
-9513.976
 30
-1106.461
 70
    32
  0
VERTEX
  8
T63SSILL
 62
7
 10
4480.128
 20
-9524.368
 30
-1106.465
 70
    32
  0
VERTEX
  8
T63SSILL
 62
7
 10
4522.592
 20
-9494.590
 30
-1106.502
 70
    32
  0
VERTEX
  8
T63SSILL
 62
7
 10
4518.899
 20
-9470.856
 30
-1106.527
 70
    32
  0
VERTEX
  8
T63SSILL
 62
7
 10
4512.617
 20
-9464.751
 30
-1106.523
 70
    32
  0
VERTEX
  8
T63SSILL
 62
7
 10
4456.513
 20
-9503.811
 30
-1106.437
 70
    32
  0
VERTEX
  8
T63SSILL
 62
7
 10
4451.300
 20
-9515.674
 30
-1106.434
 70
    32
  0
VERTEX
  8
T63SSILL
 62
7
 10
4450.586
 20
-9541.834
 30
-1106.304
 70
    32
  0
VERTEX
  8
T63SSILL
 62
7
 10
4453.976
 20
-9543.324
 30
-1106.309
 70
    32
  0
VERTEX
  8
T63SSILL
 62
7
 10
4470.619
 20
-9532.057
 30
-1106.442
 70
    32
  0
VERTEX
  8
T63SSILL
 62
7
 10
4470.512
 20
-9529.531
 30
-1106.456
 70
    32
  0
SEQEND
  8
T63SSILL
  0
POLYLINE
  8
T63SSILL
 62
7
 66
     1
 70
     9
  0
VERTEX
  8
T63SSILL
 62
7
 10
4526.870
 20
-9519.627
 30
-1106.512
 70
    32
  0
VERTEX
  8
T63SSILL
 62
7
 10
4523.667
 20
-9506.886
 30
-1106.506
 70
    32
  0
VERTEX
  8
T63SSILL
 62
7
 10
4492.116
 20
-9528.532
 30
-1106.478
 70
    32
  0
VERTEX
  8
T63SSILL
 62
7
 10
4490.010
 20
-9533.954
 30
-1106.477
 70
    32
  0
VERTEX
  8
T63SSILL
 62
7
 10
4480.539
 20
-9543.542
 30
-1106.415
 70
    32
  0
VERTEX
  8
T63SSILL
 62
7
 10
4482.898
 20
-9568.739
 30
-1106.277
 70
    32
  0
VERTEX
  8
T63SSILL
 62
7
 10
4485.834
 20
-9570.652
 30
-1106.277
 70
    32
  0
VERTEX
  8
T63SSILL
 62
7
 10
4501.894
 20
-9559.471
 30
-1106.407
 70
    32
  0
VERTEX
  8
T63SSILL
 62
7
 10
4502.159
 20
-9556.933
 30
-1106.423
 70
    32
  0
VERTEX
  8
T63SSILL
 62
7
 10
4506.815
 20
-9552.409
 30
-1106.468
 70
    32
  0
VERTEX
  8
T63SSILL
 62
7
 10
4510.711
 20
-9552.476
 30
-1106.483
 70
    32
  0
VERTEX
  8
T63SSILL
 62
7
 10
4524.943
 20
-9542.354
 30
-1106.514
 70
    32
  0
VERTEX
  8
T63SSILL
 62
7
 10
4527.887
 20
-9532.606
 30
-1106.515
 70
    32
  0
VERTEX
  8
T63SSILL
 62
7
 10
4525.685
 20
-9524.836
 30
-1106.511
 70
    32
  0
SEQEND
  8
T63SSILL
  0
POLYLINE
  8
T63SSILL
 62
3
 66
     1
 70
     8
  0
VERTEX
  8
T63SSILL
 62
3
 10
1875.534
 20
-8146.702
 30
-1084.035
 70
    32
  0
VERTEX
  8
T63SSILL
 62
3
 10
1867.760
 20
-8161.231
 30
-1083.981
 70
    32
  0
VERTEX
  8
T63SSILL
 62
3
 10
1861.037
 20
-8165.854
 30
-1083.923
 70
    32
  0
VERTEX
  8
T63SSILL
 62
3
 10
1853.549
 20
-8167.671
 30
-1083.854
 70
    32
  0
VERTEX
  8
T63SSILL
 62
3
 10
1846.899
 20
-8175.345
 30
-1083.806
 70
    32
  0
SEQEND
  8
T63SSILL
  0
POLYLINE
  8
T63SSILL
 62
3
 66
     1
 70
     8
  0
VERTEX
  8
T63SSILL
 62
3
 10
1842.902
 20
-8189.994
 30
-1083.894
 70
    32
  0
VERTEX
  8
T63SSILL
 62
3
 10
1853.539
 20
-8184.211
 30
-1083.947
 70
    32
  0
VERTEX
  8
T63SSILL
 62
3
 10
1854.832
 20
-8185.737
 30
-1083.971
 70
    32
  0
VERTEX
  8
T63SSILL
 62
3
 10
1853.727
 20
-8195.530
 30
-1084.121
 70
    32
  0
SEQEND
  8
T63SSILL
  0
LINE
  8
T63SSILL
 62
3
 10
1939.554
 20
-9380.656
 30
-1080.080
 11
1926.713
 21
-9395.400
 31
-1085.000
  0
POLYLINE
  8
T63SSILL
 62
7
 66
     1
 70
     9
  0
VERTEX
  8
T63SSILL
 62
7
 10
4725.980
 20
-9389.458
 30
-1106.670
 70
    32
  0
VERTEX
  8
T63SSILL
 62
7
 10
4745.988
 20
-9420.886
 30
-1106.670
 70
    32
  0
VERTEX
  8
T63SSILL
 62
7
 10
4748.676
 20
-9422.880
 30
-1106.670
 70
    32
  0
VERTEX
  8
T63SSILL
 62
7
 10
4777.439
 20
-9464.929
 30
-1106.670
 70
    32
  0
VERTEX
  8
T63SSILL
 62
7
 10
4792.465
 20
-9464.105
 30
-1106.670
 70
    32
  0
VERTEX
  8
T63SSILL
 62
7
 10
4809.513
 20
-9451.095
 30
-1106.670
 70
    32
  0
VERTEX
  8
T63SSILL
 62
7
 10
4812.983
 20
-9455.708
 30
-1106.670
 70
    32
  0
VERTEX
  8
T63SSILL
 62
7
 10
4813.226
 20
-9461.775
 30
-1106.670
 70
    32
  0
VERTEX
  8
T63SSILL
 62
7
 10
4799.934
 20
-9476.204
 30
-1106.670
 70
    32
  0
VERTEX
  8
T63SSILL
 62
7
 10
4796.294
 20
-9487.592
 30
-1106.670
 70
    32
  0
VERTEX
  8
T63SSILL
 62
7
 10
4818.741
 20
-9518.187
 30
-1106.670
 70
    32
  0
VERTEX
  8
T63SSILL
 62
7
 10
4826.200
 20
-9524.573
 30
-1106.670
 70
    32
  0
VERTEX
  8
T63SSILL
 62
7
 10
4847.137
 20
-9532.143
 30
-1106.670
 70
    32
  0
VERTEX
  8
T63SSILL
 62
7
 10
4979.432
 20
-9581.578
 30
-1107.357
 70
    32
  0
VERTEX
  8
T63SSILL
 62
7
 10
4984.925
 20
-9578.716
 30
-1107.368
 70
    32
  0
VERTEX
  8
T63SSILL
 62
7
 10
4980.074
 20
-9563.915
 30
-1107.405
 70
    32
  0
VERTEX
  8
T63SSILL
 62
7
 10
4979.446
 20
-9550.880
 30
-1107.423
 70
    32
  0
VERTEX
  8
T63SSILL
 62
7
 10
4963.835
 20
-9540.897
 30
-1107.404
 70
    32
  0
VERTEX
  8
T63SSILL
 62
7
 10
4959.679
 20
-9535.236
 30
-1107.404
 70
    32
  0
VERTEX
  8
T63SSILL
 62
7
 10
4958.966
 20
-9527.606
 30
-1107.414
 70
    32
  0
VERTEX
  8
T63SSILL
 62
7
 10
4955.318
 20
-9522.982
 30
-1107.413
 70
    32
  0
VERTEX
  8
T63SSILL
 62
7
 10
4960.506
 20
-9518.300
 30
-1107.432
 70
    32
  0
VERTEX
  8
T63SSILL
 62
7
 10
4970.416
 20
-9525.623
 30
-1107.442
 70
    32
  0
VERTEX
  8
T63SSILL
 62
7
 10
4979.258
 20
-9525.882
 30
-1107.462
 70
    32
  0
VERTEX
  8
T63SSILL
 62
7
 10
4986.273
 20
-9523.672
 30
-1107.481
 70
    32
  0
VERTEX
  8
T63SSILL
 62
7
 10
5026.032
 20
-9415.366
 30
-1107.736
 70
    32
  0
VERTEX
  8
T63SSILL
 62
7
 10
5034.318
 20
-9419.435
 30
-1107.748
 70
    32
  0
VERTEX
  8
T63SSILL
 62
7
 10
4997.280
 20
-9517.826
 30
-1107.514
 70
    32
  0
VERTEX
  8
T63SSILL
 62
7
 10
5009.372
 20
-9529.510
 30
-1107.522
 70
    32
  0
VERTEX
  8
T63SSILL
 62
7
 10
5008.796
 20
-9540.818
 30
-1107.490
 70
    32
  0
VERTEX
  8
T63SSILL
 62
7
 10
5004.983
 20
-9544.863
 30
-1107.476
 70
    32
  0
VERTEX
  8
T63SSILL
 62
7
 10
5000.551
 20
-9543.565
 30
-1107.477
 70
    32
  0
VERTEX
  8
T63SSILL
 62
7
 10
4995.512
 20
-9546.003
 30
-1107.467
 70
    32
  0
VERTEX
  8
T63SSILL
 62
7
 10
4990.503
 20
-9545.106
 30
-1107.457
 70
    32
  0
VERTEX
  8
T63SSILL
 62
7
 10
4987.595
 20
-9549.376
 30
-1107.444
 70
    32
  0
VERTEX
  8
T63SSILL
 62
7
 10
4990.007
 20
-9565.127
 30
-1107.409
 70
    32
  0
VERTEX
  8
T63SSILL
 62
7
 10
4995.893
 20
-9576.961
 30
-1107.379
 70
    32
  0
VERTEX
  8
T63SSILL
 62
7
 10
5000.852
 20
-9577.786
 30
-1107.380
 70
    32
  0
VERTEX
  8
T63SSILL
 62
7
 10
5006.117
 20
-9585.348
 30
-1107.361
 70
    32
  0
VERTEX
  8
T63SSILL
 62
7
 10
5011.111
 20
-9589.142
 30
-1107.354
 70
    32
  0
VERTEX
  8
T63SSILL
 62
7
 10
5023.170
 20
-9590.798
 30
-1107.356
 70
    32
  0
VERTEX
  8
T63SSILL
 62
7
 10
5044.796
 20
-9580.791
 30
-1107.397
 70
    32
  0
VERTEX
  8
T63SSILL
 62
7
 10
5595.671
 20
-9184.722
 30
-1108.845
 70
    32
  0
VERTEX
  8
T63SSILL
 62
7
 10
5596.365
 20
-9180.491
 30
-1108.858
 70
    32
  0
VERTEX
  8
T63SSILL
 62
7
 10
5610.096
 20
-9166.538
 30
-1108.905
 70
    32
  0
VERTEX
  8
T63SSILL
 62
7
 10
5614.094
 20
-9153.368
 30
-1108.945
 70
    32
  0
VERTEX
  8
T63SSILL
 62
7
 10
5622.307
 20
-9083.830
 30
-1109.148
 70
    32
  0
VERTEX
  8
T63SSILL
 62
7
 10
5620.965
 20
-9074.433
 30
-1109.174
 70
    32
  0
VERTEX
  8
T63SSILL
 62
7
 10
5640.772
 20
-8904.187
 30
-1109.669
 70
    32
  0
VERTEX
  8
T63SSILL
 62
7
 10
5647.254
 20
-8871.683
 30
-1109.765
 70
    32
  0
VERTEX
  8
T63SSILL
 62
7
 10
5656.393
 20
-8786.489
 30
-1110.013
 70
    32
  0
VERTEX
  8
T63SSILL
 62
7
 10
5662.275
 20
-8709.516
 30
-1110.235
 70
    32
  0
VERTEX
  8
T63SSILL
 62
7
 10
5664.051
 20
-8705.463
 30
-1110.245
 70
    32
  0
VERTEX
  8
T63SSILL
 62
7
 10
5665.326
 20
-8690.451
 30
-1110.271
 70
    32
  0
VERTEX
  8
T63SSILL
 62
7
 10
5666.939
 20
-8689.530
 30
-1110.276
 70
    32
  0
VERTEX
  8
T63SSILL
 62
7
 10
5690.799
 20
-8480.734
 30
-1110.323
 70
    32
  0
VERTEX
  8
T63SSILL
 62
7
 10
5694.291
 20
-8480.644
 30
-1110.322
 70
    32
  0
VERTEX
  8
T63SSILL
 62
7
 10
5713.202
 20
-8401.062
 30
-1110.303
 70
    32
  0
VERTEX
  8
T63SSILL
 62
7
 10
5724.620
 20
-8392.802
 30
-1110.297
 70
    32
  0
VERTEX
  8
T63SSILL
 62
7
 10
5703.450
 20
-8490.890
 30
-1110.319
 70
    32
  0
VERTEX
  8
T63SSILL
 62
7
 10
5694.018
 20
-8527.809
 30
-1110.328
 70
    32
  0
VERTEX
  8
T63SSILL
 62
7
 10
5677.005
 20
-8678.128
 30
-1110.314
 70
    32
  0
VERTEX
  8
T63SSILL
 62
7
 10
5816.512
 20
-8581.019
 30
-1110.272
 70
    32
  0
VERTEX
  8
T63SSILL
 62
7
 10
5821.134
 20
-8570.759
 30
-1110.272
 70
    32
  0
VERTEX
  8
T63SSILL
 62
7
 10
5861.357
 20
-8542.526
 30
-1110.247
 70
    32
  0
VERTEX
  8
T63SSILL
 62
7
 10
5860.981
 20
-8537.404
 30
-1110.250
 70
    32
  0
VERTEX
  8
T63SSILL
 62
7
 10
5857.734
 20
-8532.797
 30
-1110.254
 70
    32
  0
VERTEX
  8
T63SSILL
 62
7
 10
5865.163
 20
-8528.217
 30
-1110.250
 70
    32
  0
VERTEX
  8
T63SSILL
 62
7
 10
5868.032
 20
-8532.762
 30
-1110.245
 70
    32
  0
VERTEX
  8
T63SSILL
 62
7
 10
5871.509
 20
-8533.810
 30
-1110.241
 70
    32
  0
VERTEX
  8
T63SSILL
 62
7
 10
5884.604
 20
-8524.719
 30
-1110.233
 70
    32
  0
VERTEX
  8
T63SSILL
 62
7
 10
5890.854
 20
-8508.670
 30
-1110.234
 70
    32
  0
VERTEX
  8
T63SSILL
 62
7
 10
5888.424
 20
-8485.312
 30
-1110.234
 70
    32
  0
VERTEX
  8
T63SSILL
 62
7
 10
5885.457
 20
-8471.363
 30
-1110.233
 70
    32
  0
VERTEX
  8
T63SSILL
 62
7
 10
5867.718
 20
-8444.132
 30
-1110.238
 70
    32
  0
VERTEX
  8
T63SSILL
 62
7
 10
5890.673
 20
-8428.716
 30
-1110.225
 70
    32
  0
VERTEX
  8
T63SSILL
 62
7
 10
5900.217
 20
-8442.673
 30
-1110.222
 70
    32
  0
VERTEX
  8
T63SSILL
 62
7
 10
5884.361
 20
-8453.181
 30
-1110.231
 70
    32
  0
VERTEX
  8
T63SSILL
 62
7
 10
5898.126
 20
-8473.413
 30
-1110.227
 70
    32
  0
VERTEX
  8
T63SSILL
 62
7
 10
5904.303
 20
-8479.228
 30
-1110.225
 70
    32
  0
VERTEX
  8
T63SSILL
 62
7
 10
5942.039
 20
-8488.117
 30
-1110.195
 70
    32
  0
VERTEX
  8
T63SSILL
 62
7
 10
5952.221
 20
-8481.320
 30
-1110.189
 70
    32
  0
VERTEX
  8
T63SSILL
 62
7
 10
5952.457
 20
-8470.839
 30
-1110.193
 70
    32
  0
VERTEX
  8
T63SSILL
 62
7
 10
5955.428
 20
-8466.633
 30
-1110.192
 70
    32
  0
VERTEX
  8
T63SSILL
 62
7
 10
5963.709
 20
-8475.979
 30
-1110.181
 70
    32
  0
VERTEX
  8
T63SSILL
 62
7
 10
6199.913
 20
-8309.444
 30
-1110.032
 70
    32
  0
VERTEX
  8
T63SSILL
 62
7
 10
6256.314
 20
-8268.503
 30
-1109.998
 70
    32
  0
VERTEX
  8
T63SSILL
 62
7
 10
6255.731
 20
-8267.078
 30
-1109.999
 70
    32
  0
VERTEX
  8
T63SSILL
 62
7
 10
6269.997
 20
-8255.503
 30
-1109.990
 70
    32
  0
VERTEX
  8
T63SSILL
 62
7
 10
6291.210
 20
-8244.714
 30
-1109.975
 70
    32
  0
VERTEX
  8
T63SSILL
 62
7
 10
6303.684
 20
-8242.319
 30
-1109.965
 70
    32
  0
VERTEX
  8
T63SSILL
 62
7
 10
6314.618
 20
-8242.321
 30
-1109.955
 70
    32
  0
VERTEX
  8
T63SSILL
 62
7
 10
6329.280
 20
-8244.211
 30
-1109.946
 70
    32
  0
VERTEX
  8
T63SSILL
 62
7
 10
6345.371
 20
-8251.145
 30
-1109.932
 70
    32
  0
VERTEX
  8
T63SSILL
 62
7
 10
6349.165
 20
-8259.050
 30
-1109.922
 70
    32
  0
VERTEX
  8
T63SSILL
 62
7
 10
6499.757
 20
-8389.543
 30
-1109.723
 70
    32
  0
VERTEX
  8
T63SSILL
 62
7
 10
6510.933
 20
-8393.377
 30
-1109.715
 70
    32
  0
VERTEX
  8
T63SSILL
 62
7
 10
6529.397
 20
-8404.249
 30
-1109.696
 70
    32
  0
VERTEX
  8
T63SSILL
 62
7
 10
6538.499
 20
-8412.159
 30
-1109.684
 70
    32
  0
VERTEX
  8
T63SSILL
 62
7
 10
6536.996
 20
-8418.859
 30
-1109.677
 70
    32
  0
VERTEX
  8
T63SSILL
 62
7
 10
6540.618
 20
-8424.396
 30
-1109.670
 70
    32
  0
VERTEX
  8
T63SSILL
 62
7
 10
6570.943
 20
-8450.087
 30
-1109.631
 70
    32
  0
VERTEX
  8
T63SSILL
 62
7
 10
6569.743
 20
-8451.593
 30
-1109.630
 70
    32
  0
VERTEX
  8
T63SSILL
 62
7
 10
6645.843
 20
-8517.511
 30
-1109.532
 70
    32
  0
VERTEX
  8
T63SSILL
 62
7
 10
6648.384
 20
-8517.432
 30
-1109.529
 70
    32
  0
VERTEX
  8
T63SSILL
 62
7
 10
6691.580
 20
-8553.435
 30
-1109.474
 70
    32
  0
VERTEX
  8
T63SSILL
 62
7
 10
6693.217
 20
-8556.491
 30
-1109.471
 70
    32
  0
VERTEX
  8
T63SSILL
 62
7
 10
6714.483
 20
-8563.092
 30
-1109.453
 70
    32
  0
VERTEX
  8
T63SSILL
 62
7
 10
6737.765
 20
-8562.952
 30
-1109.445
 70
    32
  0
VERTEX
  8
T63SSILL
 62
7
 10
7070.496
 20
-8441.649
 30
-1109.446
 70
    32
  0
VERTEX
  8
T63SSILL
 62
7
 10
7135.761
 20
-8417.856
 30
-1110.708
 70
    32
  0
VERTEX
  8
T63SSILL
 62
7
 10
7138.493
 20
-8412.120
 30
-1110.711
 70
    32
  0
VERTEX
  8
T63SSILL
 62
7
 10
7136.796
 20
-8407.917
 30
-1110.628
 70
    32
  0
VERTEX
  8
T63SSILL
 62
7
 10
7138.741
 20
-8390.293
 30
-1110.489
 70
    32
  0
VERTEX
  8
T63SSILL
 62
7
 10
7141.484
 20
-8383.359
 30
-1110.480
 70
    32
  0
VERTEX
  8
T63SSILL
 62
7
 10
7132.497
 20
-8354.042
 30
-1109.965
 70
    32
  0
VERTEX
  8
T63SSILL
 62
7
 10
7123.832
 20
-8350.692
 30
-1109.729
 70
    32
  0
VERTEX
  8
T63SSILL
 62
7
 10
7126.568
 20
-8340.407
 30
-1109.685
 70
    32
  0
VERTEX
  8
T63SSILL
 62
7
 10
7122.171
 20
-8331.958
 30
-1109.544
 70
    32
  0
VERTEX
  8
T63SSILL
 62
7
 10
7120.957
 20
-8326.003
 30
-1109.551
 70
    32
  0
VERTEX
  8
T63SSILL
 62
7
 10
7111.976
 20
-8320.388
 30
-1109.559
 70
    32
  0
VERTEX
  8
T63SSILL
 62
7
 10
7108.406
 20
-8314.165
 30
-1109.563
 70
    32
  0
VERTEX
  8
T63SSILL
 62
7
 10
7110.962
 20
-8310.611
 30
-1109.563
 70
    32
  0
VERTEX
  8
T63SSILL
 62
7
 10
7036.639
 20
-8201.317
 30
-1109.632
 70
    32
  0
VERTEX
  8
T63SSILL
 62
7
 10
7044.904
 20
-8195.751
 30
-1109.630
 70
    32
  0
VERTEX
  8
T63SSILL
 62
7
 10
7117.539
 20
-8301.918
 30
-1109.562
 70
    32
  0
VERTEX
  8
T63SSILL
 62
7
 10
7126.967
 20
-8301.477
 30
-1109.557
 70
    32
  0
VERTEX
  8
T63SSILL
 62
7
 10
7130.635
 20
-8312.394
 30
-1109.552
 70
    32
  0
VERTEX
  8
T63SSILL
 62
7
 10
7140.439
 20
-8314.608
 30
-1109.586
 70
    32
  0
VERTEX
  8
T63SSILL
 62
7
 10
7146.744
 20
-8331.656
 30
-1109.696
 70
    32
  0
VERTEX
  8
T63SSILL
 62
7
 10
7146.940
 20
-8340.284
 30
-1109.840
 70
    32
  0
VERTEX
  8
T63SSILL
 62
7
 10
7144.754
 20
-8343.141
 30
-1109.885
 70
    32
  0
VERTEX
  8
T63SSILL
 62
7
 10
7139.528
 20
-8343.402
 30
-1109.884
 70
    32
  0
VERTEX
  8
T63SSILL
 62
7
 10
7174.603
 20
-8453.065
 30
-1110.867
 70
    32
  0
VERTEX
  8
T63SSILL
 62
7
 10
7192.149
 20
-8469.787
 30
-1110.823
 70
    32
  0
VERTEX
  8
T63SSILL
 62
7
 10
7202.360
 20
-8485.025
 30
-1110.784
 70
    32
  0
VERTEX
  8
T63SSILL
 62
7
 10
7208.002
 20
-8489.447
 30
-1110.772
 70
    32
  0
VERTEX
  8
T63SSILL
 62
7
 10
7200.762
 20
-8494.932
 30
-1110.760
 70
    32
  0
VERTEX
  8
T63SSILL
 62
7
 10
7187.848
 20
-8487.141
 30
-1110.781
 70
    32
  0
VERTEX
  8
T63SSILL
 62
7
 10
7177.941
 20
-8475.367
 30
-1110.812
 70
    32
  0
VERTEX
  8
T63SSILL
 62
7
 10
7170.793
 20
-8470.502
 30
-1110.825
 70
    32
  0
VERTEX
  8
T63SSILL
 62
7
 10
7153.172
 20
-8416.921
 30
-1110.958
 70
    32
  0
VERTEX
  8
T63SSILL
 62
7
 10
7148.252
 20
-8418.371
 30
-1110.942
 70
    32
  0
VERTEX
  8
T63SSILL
 62
7
 10
7146.803
 20
-8422.109
 30
-1110.928
 70
    32
  0
VERTEX
  8
T63SSILL
 62
7
 10
7141.234
 20
-8427.053
 30
-1110.890
 70
    32
  0
VERTEX
  8
T63SSILL
 62
7
 10
7141.549
 20
-8429.318
 30
-1110.887
 70
    32
  0
VERTEX
  8
T63SSILL
 62
7
 10
7063.307
 20
-8456.311
 30
-1109.433
 70
    32
  0
VERTEX
  8
T63SSILL
 62
7
 10
6720.589
 20
-8574.545
 30
-1109.439
 70
    32
  0
VERTEX
  8
T63SSILL
 62
7
 10
6719.417
 20
-8577.761
 30
-1109.438
 70
    32
  0
VERTEX
  8
T63SSILL
 62
7
 10
6721.964
 20
-8582.549
 30
-1109.434
 70
    32
  0
VERTEX
  8
T63SSILL
 62
7
 10
6749.413
 20
-8606.178
 30
-1109.398
 70
    32
  0
VERTEX
  8
T63SSILL
 62
7
 10
6790.071
 20
-8638.469
 30
-1109.347
 70
    32
  0
VERTEX
  8
T63SSILL
 62
7
 10
6807.875
 20
-8644.615
 30
-1109.329
 70
    32
  0
VERTEX
  8
T63SSILL
 62
7
 10
6808.642
 20
-8655.867
 30
-1109.322
 70
    32
  0
VERTEX
  8
T63SSILL
 62
7
 10
6844.117
 20
-8685.899
 30
-1109.277
 70
    32
  0
VERTEX
  8
T63SSILL
 62
7
 10
6891.937
 20
-8729.756
 30
-1109.214
 70
    32
  0
VERTEX
  8
T63SSILL
 62
7
 10
6913.614
 20
-8736.173
 30
-1109.191
 70
    32
  0
VERTEX
  8
T63SSILL
 62
7
 10
6914.775
 20
-8732.639
 30
-1109.193
 70
    32
  0
VERTEX
  8
T63SSILL
 62
7
 10
6904.911
 20
-8719.102
 30
-1109.212
 70
    32
  0
VERTEX
  8
T63SSILL
 62
7
 10
6910.664
 20
-8715.327
 30
-1109.213
 70
    32
  0
VERTEX
  8
T63SSILL
 62
7
 10
7049.925
 20
-8892.649
 30
-1109.530
 70
    32
  0
VERTEX
  8
T63SSILL
 62
7
 10
7080.292
 20
-8868.733
 30
-1109.730
 70
    32
  0
VERTEX
  8
T63SSILL
 62
7
 10
7085.778
 20
-8875.215
 30
-1109.740
 70
    32
  0
VERTEX
  8
T63SSILL
 62
7
 10
7055.277
 20
-8899.552
 30
-1109.544
 70
    32
  0
VERTEX
  8
T63SSILL
 62
7
 10
7091.472
 20
-8947.147
 30
-1109.558
 70
    32
  0
VERTEX
  8
T63SSILL
 62
7
 10
7087.746
 20
-8953.159
 30
-1109.546
 70
    32
  0
VERTEX
  8
T63SSILL
 62
7
 10
7082.546
 20
-8947.989
 30
-1109.554
 70
    32
  0
VERTEX
  8
T63SSILL
 62
7
 10
7080.136
 20
-8949.165
 30
-1109.551
 70
    32
  0
VERTEX
  8
T63SSILL
 62
7
 10
7076.217
 20
-8953.690
 30
-1109.542
 70
    32
  0
VERTEX
  8
T63SSILL
 62
7
 10
7076.783
 20
-8960.864
 30
-1109.529
 70
    32
  0
VERTEX
  8
T63SSILL
 62
7
 10
7066.700
 20
-8960.689
 30
-1109.526
 70
    32
  0
VERTEX
  8
T63SSILL
 62
7
 10
7064.605
 20
-8955.471
 30
-1109.535
 70
    32
  0
VERTEX
  8
T63SSILL
 62
7
 10
7065.254
 20
-8942.560
 30
-1109.542
 70
    32
  0
VERTEX
  8
T63SSILL
 62
7
 10
7073.172
 20
-8935.293
 30
-1109.566
 70
    32
  0
VERTEX
  8
T63SSILL
 62
7
 10
6931.190
 20
-8753.848
 30
-1109.201
 70
    32
  0
VERTEX
  8
T63SSILL
 62
7
 10
6892.161
 20
-8740.854
 30
-1109.208
 70
    32
  0
VERTEX
  8
T63SSILL
 62
7
 10
6885.464
 20
-8736.318
 30
-1109.217
 70
    32
  0
VERTEX
  8
T63SSILL
 62
7
 10
6873.887
 20
-8724.327
 30
-1109.233
 70
    32
  0
VERTEX
  8
T63SSILL
 62
7
 10
6820.645
 20
-8681.519
 30
-1109.301
 70
    32
  0
VERTEX
  8
T63SSILL
 62
7
 10
6743.687
 20
-8613.181
 30
-1109.401
 70
    32
  0
VERTEX
  8
T63SSILL
 62
7
 10
6641.899
 20
-8525.951
 30
-1109.532
 70
    32
  0
VERTEX
  8
T63SSILL
 62
7
 10
6640.857
 20
-8523.122
 30
-1109.534
 70
    32
  0
VERTEX
  8
T63SSILL
 62
7
 10
6545.927
 20
-8442.478
 30
-1109.656
 70
    32
  0
VERTEX
  8
T63SSILL
 62
7
 10
6546.032
 20
-8440.347
 30
-1109.657
 70
    32
  0
VERTEX
  8
T63SSILL
 62
7
 10
6340.654
 20
-8263.816
 30
-1109.921
 70
    32
  0
VERTEX
  8
T63SSILL
 62
7
 10
6328.529
 20
-8256.220
 30
-1109.936
 70
    32
  0
VERTEX
  8
T63SSILL
 62
7
 10
6321.225
 20
-8254.173
 30
-1109.944
 70
    32
  0
VERTEX
  8
T63SSILL
 62
7
 10
6310.723
 20
-8253.107
 30
-1109.954
 70
    32
  0
VERTEX
  8
T63SSILL
 62
7
 10
6288.942
 20
-8258.239
 30
-1109.972
 70
    32
  0
VERTEX
  8
T63SSILL
 62
7
 10
6260.641
 20
-8275.486
 30
-1109.991
 70
    32
  0
VERTEX
  8
T63SSILL
 62
7
 10
6130.876
 20
-8368.169
 30
-1110.071
 70
    32
  0
VERTEX
  8
T63SSILL
 62
7
 10
6149.648
 20
-8372.786
 30
-1110.052
 70
    32
  0
VERTEX
  8
T63SSILL
 62
7
 10
6169.831
 20
-8382.936
 30
-1110.029
 70
    32
  0
VERTEX
  8
T63SSILL
 62
7
 10
6162.448
 20
-8394.646
 30
-1110.031
 70
    32
  0
VERTEX
  8
T63SSILL
 62
7
 10
6134.903
 20
-8380.229
 30
-1110.063
 70
    32
  0
VERTEX
  8
T63SSILL
 62
7
 10
6127.746
 20
-8380.188
 30
-1110.069
 70
    32
  0
VERTEX
  8
T63SSILL
 62
7
 10
6113.945
 20
-8383.373
 30
-1110.081
 70
    32
  0
VERTEX
  8
T63SSILL
 62
7
 10
6101.509
 20
-8389.357
 30
-1110.090
 70
    32
  0
VERTEX
  8
T63SSILL
 62
7
 10
5957.555
 20
-8491.856
 30
-1110.180
 70
    32
  0
VERTEX
  8
T63SSILL
 62
7
 10
5892.290
 20
-8536.212
 30
-1110.221
 70
    32
  0
VERTEX
  8
T63SSILL
 62
7
 10
5905.689
 20
-8554.971
 30
-1110.201
 70
    32
  0
VERTEX
  8
T63SSILL
 62
7
 10
5894.893
 20
-8559.082
 30
-1110.209
 70
    32
  0
VERTEX
  8
T63SSILL
 62
7
 10
5883.255
 20
-8542.718
 30
-1110.227
 70
    32
  0
VERTEX
  8
T63SSILL
 62
7
 10
5856.986
 20
-8561.551
 30
-1110.243
 70
    32
  0
VERTEX
  8
T63SSILL
 62
7
 10
5851.150
 20
-8575.898
 30
-1110.242
 70
    32
  0
VERTEX
  8
T63SSILL
 62
7
 10
5855.692
 20
-8593.813
 30
-1110.231
 70
    32
  0
VERTEX
  8
T63SSILL
 62
7
 10
5882.392
 20
-8630.484
 30
-1110.190
 70
    32
  0
VERTEX
  8
T63SSILL
 62
7
 10
5875.211
 20
-8634.359
 30
-1110.195
 70
    32
  0
VERTEX
  8
T63SSILL
 62
7
 10
5873.998
 20
-8631.874
 30
-1110.198
 70
    32
  0
VERTEX
  8
T63SSILL
 62
7
 10
5862.340
 20
-8625.113
 30
-1110.211
 70
    32
  0
VERTEX
  8
T63SSILL
 62
7
 10
5857.874
 20
-8611.129
 30
-1110.221
 70
    32
  0
VERTEX
  8
T63SSILL
 62
7
 10
5847.881
 20
-8596.947
 30
-1110.237
 70
    32
  0
VERTEX
  8
T63SSILL
 62
7
 10
5844.053
 20
-8588.762
 30
-1110.244
 70
    32
  0
VERTEX
  8
T63SSILL
 62
7
 10
5841.828
 20
-8573.524
 30
-1110.252
 70
    32
  0
VERTEX
  8
T63SSILL
 62
7
 10
5720.861
 20
-8658.109
 30
-1110.328
 70
    32
  0
VERTEX
  8
T63SSILL
 62
7
 10
5718.733
 20
-8676.954
 30
-1110.321
 70
    32
  0
VERTEX
  8
T63SSILL
 62
7
 10
5752.348
 20
-8714.571
 30
-1110.219
 70
    32
  0
VERTEX
  8
T63SSILL
 62
7
 10
5766.522
 20
-8734.534
 30
-1110.169
 70
    32
  0
VERTEX
  8
T63SSILL
 62
7
 10
5757.061
 20
-8740.985
 30
-1110.164
 70
    32
  0
VERTEX
  8
T63SSILL
 62
7
 10
5733.969
 20
-8711.575
 30
-1110.241
 70
    32
  0
VERTEX
  8
T63SSILL
 62
7
 10
5720.778
 20
-8724.964
 30
-1110.225
 70
    32
  0
VERTEX
  8
T63SSILL
 62
7
 10
5711.513
 20
-8715.331
 30
-1110.247
 70
    32
  0
VERTEX
  8
T63SSILL
 62
7
 10
5723.464
 20
-8702.170
 30
-1110.268
 70
    32
  0
VERTEX
  8
T63SSILL
 62
7
 10
5715.872
 20
-8692.006
 30
-1110.294
 70
    32
  0
VERTEX
  8
T63SSILL
 62
7
 10
5708.339
 20
-8670.918
 30
-1110.334
 70
    32
  0
VERTEX
  8
T63SSILL
 62
7
 10
5705.306
 20
-8669.824
 30
-1110.338
 70
    32
  0
VERTEX
  8
T63SSILL
 62
7
 10
5687.629
 20
-8681.739
 30
-1110.329
 70
    32
  0
VERTEX
  8
T63SSILL
 62
7
 10
5677.549
 20
-8695.414
 30
-1110.284
 70
    32
  0
VERTEX
  8
T63SSILL
 62
7
 10
5673.117
 20
-8730.103
 30
-1110.183
 70
    32
  0
VERTEX
  8
T63SSILL
 62
7
 10
5671.247
 20
-8734.329
 30
-1110.170
 70
    32
  0
VERTEX
  8
T63SSILL
 62
7
 10
5670.897
 20
-8742.548
 30
-1110.146
 70
    32
  0
VERTEX
  8
T63SSILL
 62
7
 10
5668.624
 20
-8747.274
 30
-1110.131
 70
    32
  0
VERTEX
  8
T63SSILL
 62
7
 10
5655.269
 20
-8892.539
 30
-1109.711
 70
    32
  0
VERTEX
  8
T63SSILL
 62
7
 10
5650.938
 20
-8917.891
 30
-1109.636
 70
    32
  0
VERTEX
  8
T63SSILL
 62
7
 10
5633.699
 20
-9075.899
 30
-1109.177
 70
    32
  0
VERTEX
  8
T63SSILL
 62
7
 10
5636.631
 20
-9105.014
 30
-1109.096
 70
    32
  0
VERTEX
  8
T63SSILL
 62
7
 10
5634.596
 20
-9110.394
 30
-1109.079
 70
    32
  0
VERTEX
  8
T63SSILL
 62
7
 10
5634.137
 20
-9121.420
 30
-1109.048
 70
    32
  0
VERTEX
  8
T63SSILL
 62
7
 10
5626.012
 20
-9126.972
 30
-1109.027
 70
    32
  0
VERTEX
  8
T63SSILL
 62
7
 10
5619.409
 20
-9176.220
 30
-1108.883
 70
    32
  0
VERTEX
  8
T63SSILL
 62
7
 10
5612.327
 20
-9185.114
 30
-1108.854
 70
    32
  0
VERTEX
  8
T63SSILL
 62
7
 10
5607.573
 20
-9186.283
 30
-1108.848
 70
    32
  0
VERTEX
  8
T63SSILL
 62
7
 10
5303.163
 20
-9405.356
 30
-1108.047
 70
    32
  0
VERTEX
  8
T63SSILL
 62
7
 10
5289.929
 20
-9422.175
 30
-1107.991
 70
    32
  0
VERTEX
  8
T63SSILL
 62
7
 10
5286.209
 20
-9433.439
 30
-1107.957
 70
    32
  0
VERTEX
  8
T63SSILL
 62
7
 10
5285.900
 20
-9442.220
 30
-1107.932
 70
    32
  0
VERTEX
  8
T63SSILL
 62
7
 10
5288.563
 20
-9454.499
 30
-1107.899
 70
    32
  0
VERTEX
  8
T63SSILL
 62
7
 10
5294.880
 20
-9467.873
 30
-1107.864
 70
    32
  0
VERTEX
  8
T63SSILL
 62
7
 10
5384.753
 20
-9595.227
 30
-1107.555
 70
    32
  0
VERTEX
  8
T63SSILL
 62
7
 10
5388.473
 20
-9595.956
 30
-1107.555
 70
    32
  0
VERTEX
  8
T63SSILL
 62
7
 10
5388.234
 20
-9599.763
 30
-1107.544
 70
    32
  0
VERTEX
  8
T63SSILL
 62
7
 10
5416.419
 20
-9639.772
 30
-1107.453
 70
    32
  0
VERTEX
  8
T63SSILL
 62
7
 10
5418.715
 20
-9639.993
 30
-1107.454
 70
    32
  0
VERTEX
  8
T63SSILL
 62
7
 10
5436.139
 20
-9665.012
 30
-1107.423
 70
    32
  0
VERTEX
  8
T63SSILL
 62
7
 10
5435.215
 20
-9666.299
 30
-1107.421
 70
    32
  0
VERTEX
  8
T63SSILL
 62
7
 10
5509.983
 20
-9771.194
 30
-1107.294
 70
    32
  0
VERTEX
  8
T63SSILL
 62
7
 10
5519.243
 20
-9766.219
 30
-1107.310
 70
    32
  0
VERTEX
  8
T63SSILL
 62
7
 10
5506.006
 20
-9748.177
 30
-1107.331
 70
    32
  0
VERTEX
  8
T63SSILL
 62
7
 10
5515.391
 20
-9742.722
 30
-1107.348
 70
    32
  0
VERTEX
  8
T63SSILL
 62
7
 10
5521.011
 20
-9747.502
 30
-1107.344
 70
    32
  0
VERTEX
  8
T63SSILL
 62
7
 10
5522.187
 20
-9740.491
 30
-1107.357
 70
    32
  0
VERTEX
  8
T63SSILL
 62
7
 10
5517.223
 20
-9730.960
 30
-1107.370
 70
    32
  0
VERTEX
  8
T63SSILL
 62
7
 10
5520.214
 20
-9715.977
 30
-1107.398
 70
    32
  0
VERTEX
  8
T63SSILL
 62
7
 10
5510.380
 20
-9701.757
 30
-1107.415
 70
    32
  0
VERTEX
  8
T63SSILL
 62
7
 10
5519.553
 20
-9695.753
 30
-1107.433
 70
    32
  0
VERTEX
  8
T63SSILL
 62
7
 10
5535.311
 20
-9715.981
 30
-1107.409
 70
    32
  0
VERTEX
  8
T63SSILL
 62
7
 10
5565.784
 20
-9718.028
 30
-1107.429
 70
    32
  0
VERTEX
  8
T63SSILL
 62
7
 10
5565.227
 20
-9727.745
 30
-1107.411
 70
    32
  0
VERTEX
  8
T63SSILL
 62
7
 10
5540.002
 20
-9726.332
 30
-1107.395
 70
    32
  0
VERTEX
  8
T63SSILL
 62
7
 10
5540.335
 20
-9729.610
 30
-1107.389
 70
    32
  0
VERTEX
  8
T63SSILL
 62
7
 10
5532.001
 20
-9737.688
 30
-1107.369
 70
    32
  0
VERTEX
  8
T63SSILL
 62
7
 10
5534.218
 20
-9768.530
 30
-1107.317
 70
    32
  0
VERTEX
  8
T63SSILL
 62
7
 10
5544.161
 20
-9781.932
 30
-1107.301
 70
    32
  0
VERTEX
  8
T63SSILL
 62
7
 10
5559.454
 20
-9784.968
 30
-1107.307
 70
    32
  0
VERTEX
  8
T63SSILL
 62
7
 10
5574.132
 20
-9781.980
 30
-1107.324
 70
    32
  0
VERTEX
  8
T63SSILL
 62
7
 10
5577.280
 20
-9773.823
 30
-1107.340
 70
    32
  0
VERTEX
  8
T63SSILL
 62
7
 10
5580.082
 20
-9772.158
 30
-1107.345
 70
    32
  0
VERTEX
  8
T63SSILL
 62
7
 10
5610.534
 20
-9767.879
 30
-1107.376
 70
    32
  0
VERTEX
  8
T63SSILL
 62
7
 10
5615.797
 20
-9772.866
 30
-1107.371
 70
    32
  0
VERTEX
  8
T63SSILL
 62
7
 10
5620.062
 20
-9780.392
 30
-1107.361
 70
    32
  0
VERTEX
  8
T63SSILL
 62
7
 10
5617.741
 20
-9785.163
 30
-1107.351
 70
    32
  0
VERTEX
  8
T63SSILL
 62
7
 10
5617.683
 20
-9790.695
 30
-1107.341
 70
    32
  0
VERTEX
  8
T63SSILL
 62
7
 10
5569.536
 20
-9793.104
 30
-1107.301
 70
    32
  0
VERTEX
  8
T63SSILL
 62
7
 10
5565.560
 20
-9794.633
 30
-1107.295
 70
    32
  0
VERTEX
  8
T63SSILL
 62
7
 10
5564.163
 20
-9797.671
 30
-1107.289
 70
    32
  0
VERTEX
  8
T63SSILL
 62
7
 10
5569.095
 20
-9800.523
 30
-1107.287
 70
    32
  0
VERTEX
  8
T63SSILL
 62
7
 10
5583.347
 20
-9817.113
 30
-1107.269
 70
    32
  0
VERTEX
  8
T63SSILL
 62
7
 10
5643.613
 20
-9909.909
 30
-1107.153
 70
    32
  0
VERTEX
  8
T63SSILL
 62
7
 10
5646.077
 20
-9919.145
 30
-1107.139
 70
    32
  0
VERTEX
  8
T63SSILL
 62
7
 10
5644.994
 20
-9960.402
 30
-1107.066
 70
    32
  0
VERTEX
  8
T63SSILL
 62
7
 10
5655.028
 20
-9974.386
 30
-1107.049
 70
    32
  0
VERTEX
  8
T63SSILL
 62
7
 10
5659.440
 20
-9976.961
 30
-1107.048
 70
    32
  0
VERTEX
  8
T63SSILL
 62
7
 10
5661.407
 20
-9985.042
 30
-1107.035
 70
    32
  0
VERTEX
  8
T63SSILL
 62
7
 10
6042.234
 20
-10517.762
 30
-1106.392
 70
    32
  0
VERTEX
  8
T63SSILL
 62
7
 10
6275.816
 20
-10847.038
 30
-1106.651
 70
    32
  0
VERTEX
  8
T63SSILL
 62
7
 10
6291.946
 20
-10861.802
 30
-1106.634
 70
    32
  0
VERTEX
  8
T63SSILL
 62
7
 10
6307.917
 20
-10866.915
 30
-1106.597
 70
    32
  0
VERTEX
  8
T63SSILL
 62
7
 10
6315.715
 20
-10866.841
 30
-1106.575
 70
    32
  0
VERTEX
  8
T63SSILL
 62
7
 10
6320.729
 20
-10865.786
 30
-1106.558
 70
    32
  0
VERTEX
  8
T63SSILL
 62
7
 10
6333.422
 20
-10857.419
 30
-1106.504
 70
    32
  0
VERTEX
  8
T63SSILL
 62
7
 10
6341.084
 20
-10855.104
 30
-1106.479
 70
    32
  0
VERTEX
  8
T63SSILL
 62
7
 10
6522.780
 20
-10723.175
 30
-1106.170
 70
    32
  0
VERTEX
  8
T63SSILL
 62
7
 10
6530.315
 20
-10712.356
 30
-1106.193
 70
    32
  0
VERTEX
  8
T63SSILL
 62
7
 10
6532.744
 20
-10703.396
 30
-1106.211
 70
    32
  0
VERTEX
  8
T63SSILL
 62
7
 10
6533.841
 20
-10680.383
 30
-1106.256
 70
    32
  0
VERTEX
  8
T63SSILL
 62
7
 10
6528.039
 20
-10664.896
 30
-1106.284
 70
    32
  0
VERTEX
  8
T63SSILL
 62
7
 10
6506.329
 20
-10634.815
 30
-1106.334
 70
    32
  0
VERTEX
  8
T63SSILL
 62
7
 10
6515.596
 20
-10628.127
 30
-1106.350
 70
    32
  0
VERTEX
  8
T63SSILL
 62
7
 10
6520.020
 20
-10630.121
 30
-1106.348
 70
    32
  0
VERTEX
  8
T63SSILL
 62
7
 10
6529.880
 20
-10628.548
 30
-1106.354
 70
    32
  0
VERTEX
  8
T63SSILL
 62
7
 10
6538.946
 20
-10620.935
 30
-1106.372
 70
    32
  0
VERTEX
  8
T63SSILL
 62
7
 10
6543.055
 20
-10627.172
 30
-1106.361
 70
    32
  0
VERTEX
  8
T63SSILL
 62
7
 10
6530.259
 20
-10638.367
 30
-1106.335
 70
    32
  0
VERTEX
  8
T63SSILL
 62
7
 10
6528.261
 20
-10650.004
 30
-1106.312
 70
    32
  0
VERTEX
  8
T63SSILL
 62
7
 10
6534.463
 20
-10659.494
 30
-1106.296
 70
    32
  0
VERTEX
  8
T63SSILL
 62
7
 10
6545.536
 20
-10660.812
 30
-1106.298
 70
    32
  0
VERTEX
  8
T63SSILL
 62
7
 10
6552.845
 20
-10656.720
 30
-1106.308
 70
    32
  0
VERTEX
  8
T63SSILL
 62
7
 10
6557.036
 20
-10652.721
 30
-1106.317
 70
    32
  0
VERTEX
  8
T63SSILL
 62
7
 10
6552.626
 20
-10637.566
 30
-1106.345
 70
    32
  0
VERTEX
  8
T63SSILL
 62
7
 10
6553.013
 20
-10621.821
 30
-1106.375
 70
    32
  0
VERTEX
  8
T63SSILL
 62
7
 10
6554.637
 20
-10608.845
 30
-1106.401
 70
    32
  0
VERTEX
  8
T63SSILL
 62
7
 10
6559.110
 20
-10599.458
 30
-1106.423
 70
    32
  0
VERTEX
  8
T63SSILL
 62
7
 10
6559.164
 20
-10592.634
 30
-1106.438
 70
    32
  0
VERTEX
  8
T63SSILL
 62
7
 10
6563.306
 20
-10592.486
 30
-1106.440
 70
    32
  0
VERTEX
  8
T63SSILL
 62
7
 10
6574.091
 20
-10606.089
 30
-1106.415
 70
    32
  0
VERTEX
  8
T63SSILL
 62
7
 10
6573.382
 20
-10624.810
 30
-1106.377
 70
    32
  0
VERTEX
  8
T63SSILL
 62
7
 10
6574.518
 20
-10631.042
 30
-1106.365
 70
    32
  0
VERTEX
  8
T63SSILL
 62
7
 10
6577.714
 20
-10635.457
 30
-1106.358
 70
    32
  0
VERTEX
  8
T63SSILL
 62
7
 10
6577.707
 20
-10638.114
 30
-1106.353
 70
    32
  0
VERTEX
  8
T63SSILL
 62
7
 10
6590.505
 20
-10650.144
 30
-1106.334
 70
    32
  0
VERTEX
  8
T63SSILL
 62
7
 10
6589.329
 20
-10656.878
 30
-1106.321
 70
    32
  0
VERTEX
  8
T63SSILL
 62
7
 10
6584.600
 20
-10664.317
 30
-1106.305
 70
    32
  0
VERTEX
  8
T63SSILL
 62
7
 10
6574.074
 20
-10672.280
 30
-1106.286
 70
    32
  0
VERTEX
  8
T63SSILL
 62
7
 10
6561.881
 20
-10667.264
 30
-1106.291
 70
    32
  0
VERTEX
  8
T63SSILL
 62
7
 10
6545.860
 20
-10673.532
 30
-1106.273
 70
    32
  0
VERTEX
  8
T63SSILL
 62
7
 10
6542.479
 20
-10678.257
 30
-1106.263
 70
    32
  0
VERTEX
  8
T63SSILL
 62
7
 10
6543.478
 20
-10701.232
 30
-1106.219
 70
    32
  0
VERTEX
  8
T63SSILL
 62
7
 10
6557.747
 20
-10699.435
 30
-1106.228
 70
    32
  0
VERTEX
  8
T63SSILL
 62
7
 10
6766.056
 20
-10547.911
 30
-1106.673
 70
    32
  0
VERTEX
  8
T63SSILL
 62
7
 10
6781.543
 20
-10534.414
 30
-1106.716
 70
    32
  0
VERTEX
  8
T63SSILL
 62
7
 10
6790.769
 20
-10496.834
 30
-1106.801
 70
    32
  0
VERTEX
  8
T63SSILL
 62
7
 10
6790.088
 20
-10489.673
 30
-1106.815
 70
    32
  0
VERTEX
  8
T63SSILL
 62
7
 10
6767.762
 20
-10460.115
 30
-1106.851
 70
    32
  0
VERTEX
  8
T63SSILL
 62
7
 10
6765.854
 20
-10460.611
 30
-1106.848
 70
    32
  0
VERTEX
  8
T63SSILL
 62
7
 10
6704.457
 20
-10376.906
 30
-1106.965
 70
    32
  0
VERTEX
  8
T63SSILL
 62
7
 10
6712.323
 20
-10370.555
 30
-1106.982
 70
    32
  0
VERTEX
  8
T63SSILL
 62
7
 10
6739.031
 20
-10407.331
 30
-1106.927
 70
    32
  0
VERTEX
  8
T63SSILL
 62
7
 10
6741.102
 20
-10407.366
 30
-1106.929
 70
    32
  0
VERTEX
  8
T63SSILL
 62
7
 10
6815.591
 20
-10508.638
 30
-1106.804
 70
    32
  0
VERTEX
  8
T63SSILL
 62
7
 10
6823.300
 20
-10505.776
 30
-1106.817
 70
    32
  0
VERTEX
  8
T63SSILL
 62
7
 10
6827.580
 20
-10508.007
 30
-1106.817
 70
    32
  0
VERTEX
  8
T63SSILL
 62
7
 10
6831.226
 20
-10505.412
 30
-1106.826
 70
    32
  0
VERTEX
  8
T63SSILL
 62
7
 10
6833.913
 20
-10508.885
 30
-1106.822
 70
    32
  0
VERTEX
  8
T63SSILL
 62
7
 10
6828.322
 20
-10521.156
 30
-1106.792
 70
    32
  0
VERTEX
  8
T63SSILL
 62
7
 10
6838.319
 20
-10537.625
 30
-1106.769
 70
    32
  0
VERTEX
  8
T63SSILL
 62
7
 10
6848.529
 20
-10525.944
 30
-1106.803
 70
    32
  0
VERTEX
  8
T63SSILL
 62
7
 10
6853.338
 20
-10523.168
 30
-1106.814
 70
    32
  0
VERTEX
  8
T63SSILL
 62
7
 10
6855.949
 20
-10523.357
 30
-1106.816
 70
    32
  0
VERTEX
  8
T63SSILL
 62
7
 10
6860.623
 20
-10539.307
 30
-1106.789
 70
    32
  0
VERTEX
  8
T63SSILL
 62
7
 10
6860.994
 20
-10542.704
 30
-1106.782
 70
    32
  0
VERTEX
  8
T63SSILL
 62
7
 10
6857.813
 20
-10553.368
 30
-1106.758
 70
    32
  0
VERTEX
  8
T63SSILL
 62
7
 10
6860.666
 20
-10566.306
 30
-1106.735
 70
    32
  0
VERTEX
  8
T63SSILL
 62
7
 10
6892.331
 20
-10609.894
 30
-1106.680
 70
    32
  0
VERTEX
  8
T63SSILL
 62
7
 10
6901.913
 20
-10607.168
 30
-1106.696
 70
    32
  0
VERTEX
  8
T63SSILL
 62
7
 10
6906.124
 20
-10602.340
 30
-1106.710
 70
    32
  0
VERTEX
  8
T63SSILL
 62
7
 10
6913.809
 20
-10605.271
 30
-1106.712
 70
    32
  0
VERTEX
  8
T63SSILL
 62
7
 10
6909.975
 20
-10610.476
 30
-1106.697
 70
    32
  0
VERTEX
  8
T63SSILL
 62
7
 10
6911.475
 20
-10615.763
 30
-1106.688
 70
    32
  0
VERTEX
  8
T63SSILL
 62
7
 10
6925.910
 20
-10620.460
 30
-1106.694
 70
    32
  0
VERTEX
  8
T63SSILL
 62
7
 10
6926.749
 20
-10624.816
 30
-1106.686
 70
    32
  0
VERTEX
  8
T63SSILL
 62
7
 10
6921.040
 20
-10640.402
 30
-1106.649
 70
    32
  0
VERTEX
  8
T63SSILL
 62
7
 10
6928.189
 20
-10652.113
 30
-1106.633
 70
    32
  0
VERTEX
  8
T63SSILL
 62
7
 10
6928.770
 20
-10658.377
 30
-1106.621
 70
    32
  0
VERTEX
  8
T63SSILL
 62
7
 10
6948.093
 20
-10684.472
 30
-1106.600
 70
    32
  0
VERTEX
  8
T63SSILL
 62
7
 10
6941.360
 20
-10690.447
 30
-1106.590
 70
    32
  0
VERTEX
  8
T63SSILL
 62
7
 10
6926.025
 20
-10670.561
 30
-1106.593
 70
    32
  0
VERTEX
  8
T63SSILL
 62
7
 10
6913.815
 20
-10670.957
 30
-1106.581
 70
    32
  0
VERTEX
  8
T63SSILL
 62
7
 10
6912.053
 20
-10675.442
 30
-1106.576
 70
    32
  0
VERTEX
  8
T63SSILL
 62
7
 10
6914.510
 20
-10681.770
 30
-1106.574
 70
    32
  0
VERTEX
  8
T63SSILL
 62
7
 10
6911.417
 20
-10700.124
 30
-1106.557
 70
    32
  0
VERTEX
  8
T63SSILL
 62
7
 10
6908.963
 20
-10703.486
 30
-1106.553
 70
    32
  0
VERTEX
  8
T63SSILL
 62
7
 10
6908.264
 20
-10712.491
 30
-1106.545
 70
    32
  0
VERTEX
  8
T63SSILL
 62
7
 10
6906.304
 20
-10719.270
 30
-1106.539
 70
    32
  0
VERTEX
  8
T63SSILL
 62
7
 10
6900.132
 20
-10719.678
 30
-1106.533
 70
    32
  0
VERTEX
  8
T63SSILL
 62
7
 10
6896.600
 20
-10715.622
 30
-1106.533
 70
    32
  0
VERTEX
  8
T63SSILL
 62
7
 10
6890.214
 20
-10687.429
 30
-1106.549
 70
    32
  0
VERTEX
  8
T63SSILL
 62
7
 10
6885.337
 20
-10676.792
 30
-1106.553
 70
    32
  0
VERTEX
  8
T63SSILL
 62
7
 10
6881.660
 20
-10674.348
 30
-1106.552
 70
    32
  0
VERTEX
  8
T63SSILL
 62
7
 10
6871.357
 20
-10680.602
 30
-1106.538
 70
    32
  0
VERTEX
  8
T63SSILL
 62
7
 10
6869.768
 20
-10685.179
 30
-1106.534
 70
    32
  0
VERTEX
  8
T63SSILL
 62
7
 10
6872.007
 20
-10705.124
 30
-1106.520
 70
    32
  0
VERTEX
  8
T63SSILL
 62
7
 10
6878.222
 20
-10731.715
 30
-1106.506
 70
    32
  0
VERTEX
  8
T63SSILL
 62
7
 10
6887.447
 20
-10752.396
 30
-1106.498
 70
    32
  0
VERTEX
  8
T63SSILL
 62
7
 10
6886.266
 20
-10774.344
 30
-1106.480
 70
    32
  0
VERTEX
  8
T63SSILL
 62
7
 10
6891.411
 20
-10794.589
 30
-1106.456
 70
    32
  0
VERTEX
  8
T63SSILL
 62
7
 10
6882.691
 20
-10800.041
 30
-1106.443
 70
    32
  0
VERTEX
  8
T63SSILL
 62
7
 10
6873.881
 20
-10798.556
 30
-1106.442
 70
    32
  0
VERTEX
  8
T63SSILL
 62
7
 10
6863.609
 20
-10753.098
 30
-1106.477
 70
    32
  0
VERTEX
  8
T63SSILL
 62
7
 10
6855.652
 20
-10736.469
 30
-1106.483
 70
    32
  0
VERTEX
  8
T63SSILL
 62
7
 10
6856.374
 20
-10726.587
 30
-1106.491
 70
    32
  0
VERTEX
  8
T63SSILL
 62
7
 10
6855.040
 20
-10719.567
 30
-1106.495
 70
    32
  0
VERTEX
  8
T63SSILL
 62
7
 10
6849.412
 20
-10706.664
 30
-1106.500
 70
    32
  0
VERTEX
  8
T63SSILL
 62
7
 10
6846.134
 20
-10702.966
 30
-1106.500
 70
    32
  0
VERTEX
  8
T63SSILL
 62
7
 10
6845.745
 20
-10698.182
 30
-1106.503
 70
    32
  0
VERTEX
  8
T63SSILL
 62
7
 10
6856.733
 20
-10684.870
 30
-1106.523
 70
    32
  0
VERTEX
  8
T63SSILL
 62
7
 10
6855.427
 20
-10679.554
 30
-1106.526
 70
    32
  0
VERTEX
  8
T63SSILL
 62
7
 10
6875.771
 20
-10664.862
 30
-1106.554
 70
    32
  0
VERTEX
  8
T63SSILL
 62
7
 10
6878.438
 20
-10662.102
 30
-1106.561
 70
    32
  0
VERTEX
  8
T63SSILL
 62
7
 10
6880.662
 20
-10655.997
 30
-1106.575
 70
    32
  0
VERTEX
  8
T63SSILL
 62
7
 10
6890.136
 20
-10651.301
 30
-1106.594
 70
    32
  0
VERTEX
  8
T63SSILL
 62
7
 10
6891.564
 20
-10645.439
 30
-1106.608
 70
    32
  0
VERTEX
  8
T63SSILL
 62
7
 10
6880.405
 20
-10628.396
 30
-1106.630
 70
    32
  0
VERTEX
  8
T63SSILL
 62
7
 10
6876.541
 20
-10610.254
 30
-1106.663
 70
    32
  0
VERTEX
  8
T63SSILL
 62
7
 10
6879.145
 20
-10608.616
 30
-1106.669
 70
    32
  0
VERTEX
  8
T63SSILL
 62
7
 10
6867.168
 20
-10592.694
 30
-1106.688
 70
    32
  0
VERTEX
  8
T63SSILL
 62
7
 10
6874.721
 20
-10624.041
 30
-1106.633
 70
    32
  0
VERTEX
  8
T63SSILL
 62
7
 10
6871.408
 20
-10634.367
 30
-1106.609
 70
    32
  0
VERTEX
  8
T63SSILL
 62
7
 10
6871.790
 20
-10643.680
 30
-1106.591
 70
    32
  0
VERTEX
  8
T63SSILL
 62
7
 10
6869.593
 20
-10645.890
 30
-1106.584
 70
    32
  0
VERTEX
  8
T63SSILL
 62
7
 10
6861.874
 20
-10644.275
 30
-1106.579
 70
    32
  0
VERTEX
  8
T63SSILL
 62
7
 10
6857.936
 20
-10627.693
 30
-1106.608
 70
    32
  0
VERTEX
  8
T63SSILL
 62
7
 10
6842.549
 20
-10596.536
 30
-1106.655
 70
    32
  0
VERTEX
  8
T63SSILL
 62
7
 10
6847.742
 20
-10572.811
 30
-1106.708
 70
    32
  0
VERTEX
  8
T63SSILL
 62
7
 10
6845.952
 20
-10564.393
 30
-1106.723
 70
    32
  0
VERTEX
  8
T63SSILL
 62
7
 10
6801.835
 20
-10508.451
 30
-1106.790
 70
    32
  0
VERTEX
  8
T63SSILL
 62
7
 10
6799.582
 20
-10508.008
 30
-1106.788
 70
    32
  0
VERTEX
  8
T63SSILL
 62
7
 10
6795.207
 20
-10525.013
 30
-1106.749
 70
    32
  0
VERTEX
  8
T63SSILL
 62
7
 10
6787.797
 20
-10539.117
 30
-1106.713
 70
    32
  0
VERTEX
  8
T63SSILL
 62
7
 10
6785.076
 20
-10543.314
 30
-1106.702
 70
    32
  0
VERTEX
  8
T63SSILL
 62
7
 10
6774.401
 20
-10552.526
 30
-1106.672
 70
    32
  0
VERTEX
  8
T63SSILL
 62
7
 10
6555.498
 20
-10709.758
 30
-1106.207
 70
    32
  0
VERTEX
  8
T63SSILL
 62
7
 10
6559.125
 20
-10712.928
 30
-1106.202
 70
    32
  0
VERTEX
  8
T63SSILL
 62
7
 10
6586.709
 20
-10716.237
 30
-1106.212
 70
    32
  0
VERTEX
  8
T63SSILL
 62
7
 10
6599.124
 20
-10721.739
 30
-1106.222
 70
    32
  0
VERTEX
  8
T63SSILL
 62
7
 10
6606.056
 20
-10731.054
 30
-1106.220
 70
    32
  0
VERTEX
  8
T63SSILL
 62
7
 10
6590.406
 20
-10741.949
 30
-1106.189
 70
    32
  0
VERTEX
  8
T63SSILL
 62
7
 10
6594.374
 20
-10744.995
 30
-1106.190
 70
    32
  0
VERTEX
  8
T63SSILL
 62
7
 10
6595.146
 20
-10747.549
 30
-1106.188
 70
    32
  0
VERTEX
  8
T63SSILL
 62
7
 10
6609.353
 20
-10751.309
 30
-1106.202
 70
    32
  0
VERTEX
  8
T63SSILL
 62
7
 10
6615.971
 20
-10741.957
 30
-1106.220
 70
    32
  0
VERTEX
  8
T63SSILL
 62
7
 10
6622.806
 20
-10743.595
 30
-1106.227
 70
    32
  0
VERTEX
  8
T63SSILL
 62
7
 10
6625.295
 20
-10755.594
 30
-1106.217
 70
    32
  0
VERTEX
  8
T63SSILL
 62
7
 10
6624.396
 20
-10759.914
 30
-1106.211
 70
    32
  0
VERTEX
  8
T63SSILL
 62
7
 10
6613.009
 20
-10778.215
 30
-1106.194
 70
    32
  0
VERTEX
  8
T63SSILL
 62
7
 10
6613.173
 20
-10780.968
 30
-1106.199
 70
    32
  0
VERTEX
  8
T63SSILL
 62
7
 10
6606.934
 20
-10784.761
 30
-1106.201
 70
    32
  0
VERTEX
  8
T63SSILL
 62
7
 10
6606.749
 20
-10786.370
 30
-1106.203
 70
    32
  0
VERTEX
  8
T63SSILL
 62
7
 10
6631.872
 20
-10801.101
 30
-1106.244
 70
    32
  0
VERTEX
  8
T63SSILL
 62
7
 10
6627.125
 20
-10809.612
 30
-1106.255
 70
    32
  0
VERTEX
  8
T63SSILL
 62
7
 10
6532.038
 20
-10757.113
 30
-1106.121
 70
    32
  0
VERTEX
  8
T63SSILL
 62
7
 10
6519.711
 20
-10754.097
 30
-1106.133
 70
    32
  0
VERTEX
  8
T63SSILL
 62
7
 10
6488.716
 20
-10758.608
 30
-1106.186
 70
    32
  0
VERTEX
  8
T63SSILL
 62
7
 10
6348.794
 20
-10860.392
 30
-1106.465
 70
    32
  0
VERTEX
  8
T63SSILL
 62
7
 10
6341.190
 20
-10867.971
 30
-1106.503
 70
    32
  0
VERTEX
  8
T63SSILL
 62
7
 10
6326.773
 20
-10873.473
 30
-1106.556
 70
    32
  0
VERTEX
  8
T63SSILL
 62
7
 10
6302.460
 20
-10874.846
 30
-1106.629
 70
    32
  0
VERTEX
  8
T63SSILL
 62
7
 10
6304.715
 20
-10888.382
 30
-1106.649
 70
    32
  0
VERTEX
  8
T63SSILL
 62
7
 10
6397.750
 20
-11020.537
 30
-1106.642
 70
    32
  0
VERTEX
  8
T63SSILL
 62
7
 10
6400.841
 20
-11019.932
 30
-1106.636
 70
    32
  0
VERTEX
  8
T63SSILL
 62
7
 10
6405.299
 20
-11015.858
 30
-1106.625
 70
    32
  0
VERTEX
  8
T63SSILL
 62
7
 10
6408.259
 20
-11006.116
 30
-1106.608
 70
    32
  0
VERTEX
  8
T63SSILL
 62
7
 10
6417.289
 20
-11008.178
 30
-1106.601
 70
    32
  0
VERTEX
  8
T63SSILL
 62
7
 10
6413.762
 20
-11024.456
 30
-1106.628
 70
    32
  0
VERTEX
  8
T63SSILL
 62
7
 10
6414.248
 20
-11028.157
 30
-1106.633
 70
    32
  0
VERTEX
  8
T63SSILL
 62
7
 10
6416.565
 20
-11032.213
 30
-1106.636
 70
    32
  0
VERTEX
  8
T63SSILL
 62
7
 10
6420.871
 20
-11034.817
 30
-1106.635
 70
    32
  0
VERTEX
  8
T63SSILL
 62
7
 10
6429.391
 20
-11037.224
 30
-1106.630
 70
    32
  0
VERTEX
  8
T63SSILL
 62
7
 10
6438.228
 20
-11035.706
 30
-1106.618
 70
    32
  0
VERTEX
  8
T63SSILL
 62
7
 10
6466.704
 20
-11037.353
 30
-1106.589
 70
    32
  0
VERTEX
  8
T63SSILL
 62
7
 10
6474.817
 20
-11025.506
 30
-1106.563
 70
    32
  0
VERTEX
  8
T63SSILL
 62
7
 10
6482.762
 20
-11021.726
 30
-1106.549
 70
    32
  0
VERTEX
  8
T63SSILL
 62
7
 10
6485.277
 20
-11022.466
 30
-1106.548
 70
    32
  0
VERTEX
  8
T63SSILL
 62
7
 10
6491.286
 20
-11032.298
 30
-1106.555
 70
    32
  0
VERTEX
  8
T63SSILL
 62
7
 10
6495.735
 20
-11061.319
 30
-1106.592
 70
    32
  0
VERTEX
  8
T63SSILL
 62
7
 10
6506.024
 20
-11100.393
 30
-1106.636
 70
    32
  0
VERTEX
  8
T63SSILL
 62
7
 10
6505.139
 20
-11103.006
 30
-1106.641
 70
    32
  0
VERTEX
  8
T63SSILL
 62
7
 10
6502.759
 20
-11104.191
 30
-1106.645
 70
    32
  0
VERTEX
  8
T63SSILL
 62
7
 10
6504.539
 20
-11112.003
 30
-1106.654
 70
    32
  0
VERTEX
  8
T63SSILL
 62
7
 10
6511.146
 20
-11123.976
 30
-1106.675
 70
    32
  0
VERTEX
  8
T63SSILL
 62
7
 10
6522.803
 20
-11125.217
 30
-1106.685
 70
    32
  0
VERTEX
  8
T63SSILL
 62
7
 10
6526.551
 20
-11120.563
 30
-1106.681
 70
    32
  0
VERTEX
  8
T63SSILL
 62
7
 10
6529.989
 20
-11109.331
 30
-1106.665
 70
    32
  0
VERTEX
  8
T63SSILL
 62
7
 10
6537.447
 20
-11113.305
 30
-1106.677
 70
    32
  0
VERTEX
  8
T63SSILL
 62
7
 10
6534.562
 20
-11123.315
 30
-1106.691
 70
    32
  0
VERTEX
  8
T63SSILL
 62
7
 10
6538.195
 20
-11138.889
 30
-1106.718
 70
    32
  0
VERTEX
  8
T63SSILL
 62
7
 10
6540.175
 20
-11139.778
 30
-1106.721
 70
    32
  0
VERTEX
  8
T63SSILL
 62
7
 10
6537.301
 20
-11147.766
 30
-1106.732
 70
    32
  0
VERTEX
  8
T63SSILL
 62
7
 10
6537.666
 20
-11155.367
 30
-1106.744
 70
    32
  0
VERTEX
  8
T63SSILL
 62
7
 10
6529.951
 20
-11156.976
 30
-1106.741
 70
    32
  0
VERTEX
  8
T63SSILL
 62
7
 10
6523.413
 20
-11148.244
 30
-1106.723
 70
    32
  0
VERTEX
  8
T63SSILL
 62
7
 10
6519.428
 20
-11146.271
 30
-1106.717
 70
    32
  0
VERTEX
  8
T63SSILL
 62
7
 10
6517.361
 20
-11143.213
 30
-1106.710
 70
    32
  0
VERTEX
  8
T63SSILL
 62
7
 10
6511.987
 20
-11141.225
 30
-1106.703
 70
    32
  0
VERTEX
  8
T63SSILL
 62
7
 10
6515.564
 20
-11167.230
 30
-1106.748
 70
    32
  0
VERTEX
  8
T63SSILL
 62
7
 10
6510.533
 20
-11169.358
 30
-1106.747
 70
    32
  0
VERTEX
  8
T63SSILL
 62
7
 10
6505.273
 20
-11170.049
 30
-1106.745
 70
    32
  0
VERTEX
  8
T63SSILL
 62
7
 10
6504.185
 20
-11167.497
 30
-1106.740
 70
    32
  0
VERTEX
  8
T63SSILL
 62
7
 10
6496.943
 20
-11136.227
 30
-1106.697
 70
    32
  0
VERTEX
  8
T63SSILL
 62
7
 10
6460.485
 20
-11124.810
 30
-1106.721
 70
    32
  0
VERTEX
  8
T63SSILL
 62
7
 10
6453.091
 20
-11130.974
 30
-1106.737
 70
    32
  0
VERTEX
  8
T63SSILL
 62
7
 10
6487.736
 20
-11290.647
 30
-1106.927
 70
    32
  0
VERTEX
  8
T63SSILL
 62
7
 10
6490.472
 20
-11292.860
 30
-1106.931
 70
    32
  0
VERTEX
  8
T63SSILL
 62
7
 10
6491.748
 20
-11296.971
 30
-1106.938
 70
    32
  0
VERTEX
  8
T63SSILL
 62
7
 10
6495.696
 20
-11300.135
 30
-1106.939
 70
    32
  0
VERTEX
  8
T63SSILL
 62
7
 10
6558.333
 20
-11285.740
 30
-1106.865
 70
    32
  0
VERTEX
  8
T63SSILL
 62
7
 10
6569.806
 20
-11277.137
 30
-1106.849
 70
    32
  0
VERTEX
  8
T63SSILL
 62
7
 10
6572.706
 20
-11292.570
 30
-1106.852
 70
    32
  0
VERTEX
  8
T63SSILL
 62
7
 10
6567.246
 20
-11296.260
 30
-1106.859
 70
    32
  0
VERTEX
  8
T63SSILL
 62
7
 10
6561.731
 20
-11295.004
 30
-1106.865
 70
    32
  0
VERTEX
  8
T63SSILL
 62
7
 10
6495.719
 20
-11309.012
 30
-1106.942
 70
    32
  0
VERTEX
  8
T63SSILL
 62
7
 10
6494.708
 20
-11321.214
 30
-1106.948
 70
    32
  0
VERTEX
  8
T63SSILL
 62
7
 10
6506.688
 20
-11377.069
 30
-1106.945
 70
    32
  0
VERTEX
  8
T63SSILL
 62
7
 10
6498.439
 20
-11379.144
 30
-1106.936
 70
    32
  0
VERTEX
  8
T63SSILL
 62
7
 10
6486.518
 20
-11326.299
 30
-1106.942
 70
    32
  0
VERTEX
  8
T63SSILL
 62
7
 10
6480.218
 20
-11321.707
 30
-1106.937
 70
    32
  0
VERTEX
  8
T63SSILL
 62
7
 10
6465.995
 20
-11318.770
 30
-1106.923
 70
    32
  0
VERTEX
  8
T63SSILL
 62
7
 10
6461.486
 20
-11316.298
 30
-1106.919
 70
    32
  0
VERTEX
  8
T63SSILL
 62
7
 10
6420.612
 20
-11326.252
 30
-1106.873
 70
    32
  0
VERTEX
  8
T63SSILL
 62
7
 10
6419.967
 20
-11331.439
 30
-1106.870
 70
    32
  0
VERTEX
  8
T63SSILL
 62
7
 10
6426.150
 20
-11352.335
 30
-1106.869
 70
    32
  0
VERTEX
  8
T63SSILL
 62
7
 10
6407.982
 20
-11359.121
 30
-1106.848
 70
    32
  0
VERTEX
  8
T63SSILL
 62
7
 10
6399.139
 20
-11332.239
 30
-1106.848
 70
    32
  0
VERTEX
  8
T63SSILL
 62
7
 10
6384.641
 20
-11333.954
 30
-1106.832
 70
    32
  0
VERTEX
  8
T63SSILL
 62
7
 10
6381.709
 20
-11323.535
 30
-1106.833
 70
    32
  0
VERTEX
  8
T63SSILL
 62
7
 10
6396.646
 20
-11321.075
 30
-1106.849
 70
    32
  0
VERTEX
  8
T63SSILL
 62
7
 10
6395.308
 20
-11310.878
 30
-1106.851
 70
    32
  0
VERTEX
  8
T63SSILL
 62
7
 10
6392.504
 20
-11305.572
 30
-1106.850
 70
    32
  0
VERTEX
  8
T63SSILL
 62
7
 10
6412.861
 20
-11299.487
 30
-1106.874
 70
    32
  0
VERTEX
  8
T63SSILL
 62
7
 10
6419.907
 20
-11316.371
 30
-1106.875
 70
    32
  0
VERTEX
  8
T63SSILL
 62
7
 10
6461.340
 20
-11306.147
 30
-1106.923
 70
    32
  0
VERTEX
  8
T63SSILL
 62
7
 10
6471.004
 20
-11295.657
 30
-1106.936
 70
    32
  0
VERTEX
  8
T63SSILL
 62
7
 10
6478.795
 20
-11290.877
 30
-1106.939
 70
    32
  0
VERTEX
  8
T63SSILL
 62
7
 10
6450.696
 20
-11168.227
 30
-1106.793
 70
    32
  0
VERTEX
  8
T63SSILL
 62
7
 10
6446.247
 20
-11166.038
 30
-1106.795
 70
    32
  0
VERTEX
  8
T63SSILL
 62
7
 10
6442.731
 20
-11161.308
 30
-1106.792
 70
    32
  0
VERTEX
  8
T63SSILL
 62
7
 10
6433.603
 20
-11170.554
 30
-1106.836
 70
    32
  0
VERTEX
  8
T63SSILL
 62
7
 10
6427.445
 20
-11179.488
 30
-1106.868
 70
    32
  0
VERTEX
  8
T63SSILL
 62
7
 10
6424.118
 20
-11181.313
 30
-1106.867
 70
    32
  0
VERTEX
  8
T63SSILL
 62
7
 10
6416.541
 20
-11177.949
 30
-1106.862
 70
    32
  0
VERTEX
  8
T63SSILL
 62
7
 10
6413.939
 20
-11171.117
 30
-1106.858
 70
    32
  0
VERTEX
  8
T63SSILL
 62
7
 10
6413.694
 20
-11167.147
 30
-1106.856
 70
    32
  0
VERTEX
  8
T63SSILL
 62
7
 10
6415.901
 20
-11161.625
 30
-1106.855
 70
    32
  0
VERTEX
  8
T63SSILL
 62
7
 10
6414.968
 20
-11156.635
 30
-1106.853
 70
    32
  0
VERTEX
  8
T63SSILL
 62
7
 10
6380.996
 20
-11110.766
 30
-1106.816
 70
    32
  0
VERTEX
  8
T63SSILL
 62
7
 10
6387.931
 20
-11105.336
 30
-1106.818
 70
    32
  0
VERTEX
  8
T63SSILL
 62
7
 10
6390.031
 20
-11105.932
 30
-1106.819
 70
    32
  0
VERTEX
  8
T63SSILL
 62
7
 10
6400.401
 20
-11119.392
 30
-1106.830
 70
    32
  0
VERTEX
  8
T63SSILL
 62
7
 10
6413.728
 20
-11130.322
 30
-1106.814
 70
    32
  0
VERTEX
  8
T63SSILL
 62
7
 10
6416.535
 20
-11134.789
 30
-1106.815
 70
    32
  0
VERTEX
  8
T63SSILL
 62
7
 10
6430.925
 20
-11148.077
 30
-1106.799
 70
    32
  0
VERTEX
  8
T63SSILL
 62
7
 10
6436.068
 20
-11155.843
 30
-1106.800
 70
    32
  0
VERTEX
  8
T63SSILL
 62
7
 10
6442.200
 20
-11146.713
 30
-1106.772
 70
    32
  0
VERTEX
  8
T63SSILL
 62
7
 10
6444.303
 20
-11132.565
 30
-1106.749
 70
    32
  0
VERTEX
  8
T63SSILL
 62
7
 10
6434.546
 20
-11085.177
 30
-1106.692
 70
    32
  0
VERTEX
  8
T63SSILL
 62
7
 10
6342.084
 20
-10954.968
 30
-1106.673
 70
    32
  0
VERTEX
  8
T63SSILL
 62
7
 10
6332.145
 20
-10951.717
 30
-1106.696
 70
    32
  0
VERTEX
  8
T63SSILL
 62
7
 10
6330.001
 20
-10955.606
 30
-1106.710
 70
    32
  0
VERTEX
  8
T63SSILL
 62
7
 10
6319.663
 20
-11077.452
 30
-1106.769
 70
    32
  0
VERTEX
  8
T63SSILL
 62
7
 10
6324.473
 20
-11082.685
 30
-1106.774
 70
    32
  0
VERTEX
  8
T63SSILL
 62
7
 10
6328.171
 20
-11093.336
 30
-1106.780
 70
    32
  0
VERTEX
  8
T63SSILL
 62
7
 10
6332.741
 20
-11099.156
 30
-1106.784
 70
    32
  0
VERTEX
  8
T63SSILL
 62
7
 10
6340.409
 20
-11120.699
 30
-1106.797
 70
    32
  0
VERTEX
  8
T63SSILL
 62
7
 10
6342.411
 20
-11140.451
 30
-1106.805
 70
    32
  0
VERTEX
  8
T63SSILL
 62
7
 10
6347.191
 20
-11152.387
 30
-1106.813
 70
    32
  0
VERTEX
  8
T63SSILL
 62
7
 10
6346.060
 20
-11154.636
 30
-1106.813
 70
    32
  0
VERTEX
  8
T63SSILL
 62
7
 10
6342.026
 20
-11156.514
 30
-1106.811
 70
    32
  0
VERTEX
  8
T63SSILL
 62
7
 10
6338.983
 20
-11153.268
 30
-1106.808
 70
    32
  0
VERTEX
  8
T63SSILL
 62
7
 10
6329.616
 20
-11159.493
 30
-1106.805
 70
    32
  0
VERTEX
  8
T63SSILL
 62
7
 10
6327.582
 20
-11161.504
 30
-1106.805
 70
    32
  0
VERTEX
  8
T63SSILL
 62
7
 10
6326.038
 20
-11167.850
 30
-1106.806
 70
    32
  0
VERTEX
  8
T63SSILL
 62
7
 10
6309.072
 20
-11182.605
 30
-1106.802
 70
    32
  0
VERTEX
  8
T63SSILL
 62
7
 10
6308.880
 20
-11186.871
 30
-1106.804
 70
    32
  0
VERTEX
  8
T63SSILL
 62
7
 10
6299.246
 20
-11185.641
 30
-1106.795
 70
    32
  0
VERTEX
  8
T63SSILL
 62
7
 10
6307.173
 20
-11113.892
 30
-1106.775
 70
    32
  0
VERTEX
  8
T63SSILL
 62
7
 10
6296.526
 20
-11106.770
 30
-1106.767
 70
    32
  0
VERTEX
  8
T63SSILL
 62
7
 10
6297.414
 20
-11096.943
 30
-1106.764
 70
    32
  0
VERTEX
  8
T63SSILL
 62
7
 10
6295.328
 20
-11083.187
 30
-1106.757
 70
    32
  0
VERTEX
  8
T63SSILL
 62
7
 10
6287.421
 20
-11062.230
 30
-1106.745
 70
    32
  0
VERTEX
  8
T63SSILL
 62
7
 10
6288.318
 20
-11057.594
 30
-1106.744
 70
    32
  0
VERTEX
  8
T63SSILL
 62
7
 10
6298.958
 20
-11052.311
 30
-1106.748
 70
    32
  0
VERTEX
  8
T63SSILL
 62
7
 10
6306.592
 20
-11057.015
 30
-1106.754
 70
    32
  0
VERTEX
  8
T63SSILL
 62
7
 10
6309.345
 20
-11060.775
 30
-1106.757
 70
    32
  0
VERTEX
  8
T63SSILL
 62
7
 10
6311.364
 20
-11060.152
 30
-1106.758
 70
    32
  0
VERTEX
  8
T63SSILL
 62
7
 10
6321.823
 20
-10957.315
 30
-1106.725
 70
    32
  0
VERTEX
  8
T63SSILL
 62
7
 10
6320.360
 20
-10953.425
 30
-1106.723
 70
    32
  0
VERTEX
  8
T63SSILL
 62
7
 10
6321.265
 20
-10938.602
 30
-1106.701
 70
    32
  0
VERTEX
  8
T63SSILL
 62
7
 10
6316.197
 20
-10919.649
 30
-1106.678
 70
    32
  0
VERTEX
  8
T63SSILL
 62
7
 10
6082.845
 20
-10589.620
 30
-1106.445
 70
    32
  0
VERTEX
  8
T63SSILL
 62
7
 10
6073.666
 20
-10590.946
 30
-1106.440
 70
    32
  0
VERTEX
  8
T63SSILL
 62
7
 10
6070.093
 20
-10603.860
 30
-1106.444
 70
    32
  0
VERTEX
  8
T63SSILL
 62
7
 10
6060.982
 20
-10619.881
 30
-1106.445
 70
    32
  0
VERTEX
  8
T63SSILL
 62
7
 10
5949.469
 20
-10697.480
 30
-1106.416
 70
    32
  0
VERTEX
  8
T63SSILL
 62
7
 10
5944.830
 20
-10692.343
 30
-1106.411
 70
    32
  0
VERTEX
  8
T63SSILL
 62
7
 10
6052.382
 20
-10612.649
 30
-1106.438
 70
    32
  0
VERTEX
  8
T63SSILL
 62
7
 10
6064.811
 20
-10589.613
 30
-1106.435
 70
    32
  0
VERTEX
  8
T63SSILL
 62
7
 10
6064.656
 20
-10576.673
 30
-1106.429
 70
    32
  0
VERTEX
  8
T63SSILL
 62
7
 10
6058.232
 20
-10555.243
 30
-1106.417
 70
    32
  0
VERTEX
  8
T63SSILL
 62
7
 10
5850.100
 20
-10262.566
 30
-1106.694
 70
    32
  0
VERTEX
  8
T63SSILL
 62
7
 10
5843.994
 20
-10259.577
 30
-1106.694
 70
    32
  0
VERTEX
  8
T63SSILL
 62
7
 10
5844.537
 20
-10255.638
 30
-1106.702
 70
    32
  0
VERTEX
  8
T63SSILL
 62
7
 10
5802.926
 20
-10198.381
 30
-1106.770
 70
    32
  0
VERTEX
  8
T63SSILL
 62
7
 10
5797.362
 20
-10202.223
 30
-1106.759
 70
    32
  0
VERTEX
  8
T63SSILL
 62
7
 10
5792.230
 20
-10218.356
 30
-1106.727
 70
    32
  0
VERTEX
  8
T63SSILL
 62
7
 10
5782.132
 20
-10236.292
 30
-1106.688
 70
    32
  0
VERTEX
  8
T63SSILL
 62
7
 10
5773.301
 20
-10233.408
 30
-1106.687
 70
    32
  0
VERTEX
  8
T63SSILL
 62
7
 10
5777.334
 20
-10229.683
 30
-1106.696
 70
    32
  0
VERTEX
  8
T63SSILL
 62
7
 10
5784.392
 20
-10217.782
 30
-1106.722
 70
    32
  0
VERTEX
  8
T63SSILL
 62
7
 10
5788.457
 20
-10206.820
 30
-1106.745
 70
    32
  0
VERTEX
  8
T63SSILL
 62
7
 10
5790.160
 20
-10186.767
 30
-1106.781
 70
    32
  0
VERTEX
  8
T63SSILL
 62
7
 10
5787.138
 20
-10176.744
 30
-1106.796
 70
    32
  0
VERTEX
  8
T63SSILL
 62
7
 10
5608.364
 20
-9924.269
 30
-1107.101
 70
    32
  0
VERTEX
  8
T63SSILL
 62
7
 10
5602.212
 20
-9923.036
 30
-1107.099
 70
    32
  0
VERTEX
  8
T63SSILL
 62
7
 10
5600.075
 20
-9920.784
 30
-1107.101
 70
    32
  0
VERTEX
  8
T63SSILL
 62
7
 10
5592.283
 20
-9921.791
 30
-1107.094
 70
    32
  0
VERTEX
  8
T63SSILL
 62
7
 10
5590.580
 20
-9917.724
 30
-1107.099
 70
    32
  0
VERTEX
  8
T63SSILL
 62
7
 10
5575.388
 20
-9901.478
 30
-1107.116
 70
    32
  0
VERTEX
  8
T63SSILL
 62
7
 10
5572.159
 20
-9899.356
 30
-1107.117
 70
    32
  0
VERTEX
  8
T63SSILL
 62
7
 10
5557.275
 20
-9896.137
 30
-1107.112
 70
    32
  0
VERTEX
  8
T63SSILL
 62
7
 10
5550.024
 20
-9897.299
 30
-1107.104
 70
    32
  0
VERTEX
  8
T63SSILL
 62
7
 10
5541.434
 20
-9905.981
 30
-1107.083
 70
    32
  0
VERTEX
  8
T63SSILL
 62
7
 10
5540.877
 20
-9914.452
 30
-1107.068
 70
    32
  0
VERTEX
  8
T63SSILL
 62
7
 10
5538.718
 20
-9916.415
 30
-1107.062
 70
    32
  0
VERTEX
  8
T63SSILL
 62
7
 10
5544.543
 20
-9931.449
 30
-1107.041
 70
    32
  0
VERTEX
  8
T63SSILL
 62
7
 10
5544.249
 20
-9933.918
 30
-1107.036
 70
    32
  0
VERTEX
  8
T63SSILL
 62
7
 10
5540.196
 20
-9937.765
 30
-1107.026
 70
    32
  0
VERTEX
  8
T63SSILL
 62
7
 10
5516.556
 20
-9930.099
 30
-1107.022
 70
    32
  0
VERTEX
  8
T63SSILL
 62
7
 10
5508.515
 20
-9922.562
 30
-1107.029
 70
    32
  0
VERTEX
  8
T63SSILL
 62
7
 10
5508.907
 20
-9914.316
 30
-1107.044
 70
    32
  0
VERTEX
  8
T63SSILL
 62
7
 10
5501.594
 20
-9901.738
 30
-1107.060
 70
    32
  0
VERTEX
  8
T63SSILL
 62
7
 10
5503.306
 20
-9896.108
 30
-1107.071
 70
    32
  0
VERTEX
  8
T63SSILL
 62
7
 10
5497.727
 20
-9891.131
 30
-1107.076
 70
    32
  0
VERTEX
  8
T63SSILL
 62
7
 10
5494.736
 20
-9877.208
 30
-1107.098
 70
    32
  0
VERTEX
  8
T63SSILL
 62
7
 10
5483.607
 20
-9847.419
 30
-1107.141
 70
    32
  0
VERTEX
  8
T63SSILL
 62
7
 10
5437.099
 20
-9881.722
 30
-1107.046
 70
    32
  0
VERTEX
  8
T63SSILL
 62
7
 10
5435.723
 20
-9887.975
 30
-1107.034
 70
    32
  0
VERTEX
  8
T63SSILL
 62
7
 10
5427.343
 20
-9898.015
 30
-1107.011
 70
    32
  0
VERTEX
  8
T63SSILL
 62
7
 10
5413.474
 20
-9906.998
 30
-1106.984
 70
    32
  0
VERTEX
  8
T63SSILL
 62
7
 10
5405.737
 20
-9903.229
 30
-1106.985
 70
    32
  0
VERTEX
  8
T63SSILL
 62
7
 10
5363.644
 20
-9932.675
 30
-1106.902
 70
    32
  0
VERTEX
  8
T63SSILL
 62
7
 10
5358.896
 20
-9926.138
 30
-1106.910
 70
    32
  0
VERTEX
  8
T63SSILL
 62
7
 10
5387.255
 20
-9905.913
 30
-1106.967
 70
    32
  0
VERTEX
  8
T63SSILL
 62
7
 10
5382.251
 20
-9902.454
 30
-1106.969
 70
    32
  0
VERTEX
  8
T63SSILL
 62
7
 10
5374.868
 20
-9899.941
 30
-1106.968
 70
    32
  0
VERTEX
  8
T63SSILL
 62
7
 10
5270.451
 20
-9882.848
 30
-1106.919
 70
    32
  0
VERTEX
  8
T63SSILL
 62
7
 10
5269.691
 20
-9877.681
 30
-1106.927
 70
    32
  0
VERTEX
  8
T63SSILL
 62
7
 10
5254.617
 20
-9866.305
 30
-1106.936
 70
    32
  0
VERTEX
  8
T63SSILL
 62
7
 10
5240.096
 20
-9867.997
 30
-1106.922
 70
    32
  0
VERTEX
  8
T63SSILL
 62
7
 10
5235.894
 20
-9866.780
 30
-1106.921
 70
    32
  0
VERTEX
  8
T63SSILL
 62
7
 10
5212.547
 20
-9867.415
 30
-1106.902
 70
    32
  0
VERTEX
  8
T63SSILL
 62
7
 10
5201.594
 20
-9856.991
 30
-1106.912
 70
    32
  0
VERTEX
  8
T63SSILL
 62
7
 10
5200.200
 20
-9848.504
 30
-1106.926
 70
    32
  0
VERTEX
  8
T63SSILL
 62
7
 10
5195.032
 20
-9842.588
 30
-1106.932
 70
    32
  0
VERTEX
  8
T63SSILL
 62
7
 10
5199.739
 20
-9828.587
 30
-1106.960
 70
    32
  0
VERTEX
  8
T63SSILL
 62
7
 10
5208.579
 20
-9818.436
 30
-1106.984
 70
    32
  0
VERTEX
  8
T63SSILL
 62
7
 10
5213.552
 20
-9817.705
 30
-1106.989
 70
    32
  0
VERTEX
  8
T63SSILL
 62
7
 10
5217.717
 20
-9814.318
 30
-1106.998
 70
    32
  0
VERTEX
  8
T63SSILL
 62
7
 10
5220.809
 20
-9800.925
 30
-1107.024
 70
    32
  0
VERTEX
  8
T63SSILL
 62
7
 10
5227.381
 20
-9801.536
 30
-1107.028
 70
    32
  0
VERTEX
  8
T63SSILL
 62
7
 10
5240.902
 20
-9806.476
 30
-1107.030
 70
    32
  0
VERTEX
  8
T63SSILL
 62
7
 10
5239.304
 20
-9811.810
 30
-1107.019
 70
    32
  0
VERTEX
  8
T63SSILL
 62
7
 10
5241.631
 20
-9815.543
 30
-1107.014
 70
    32
  0
VERTEX
  8
T63SSILL
 62
7
 10
5241.042
 20
-9821.237
 30
-1107.004
 70
    32
  0
VERTEX
  8
T63SSILL
 62
7
 10
5244.875
 20
-9826.486
 30
-1106.998
 70
    32
  0
VERTEX
  8
T63SSILL
 62
7
 10
5246.925
 20
-9844.090
 30
-1106.969
 70
    32
  0
VERTEX
  8
T63SSILL
 62
7
 10
5254.094
 20
-9853.431
 30
-1106.958
 70
    32
  0
VERTEX
  8
T63SSILL
 62
7
 10
5278.725
 20
-9874.176
 30
-1106.940
 70
    32
  0
VERTEX
  8
T63SSILL
 62
7
 10
5377.799
 20
-9889.354
 30
-1106.988
 70
    32
  0
VERTEX
  8
T63SSILL
 62
7
 10
5388.090
 20
-9888.834
 30
-1106.997
 70
    32
  0
VERTEX
  8
T63SSILL
 62
7
 10
5398.119
 20
-9880.207
 30
-1107.020
 70
    32
  0
VERTEX
  8
T63SSILL
 62
7
 10
5398.477
 20
-9876.615
 30
-1107.026
 70
    32
  0
VERTEX
  8
T63SSILL
 62
7
 10
5401.131
 20
-9873.224
 30
-1107.034
 70
    32
  0
VERTEX
  8
T63SSILL
 62
7
 10
5388.894
 20
-9858.866
 30
-1107.050
 70
    32
  0
VERTEX
  8
T63SSILL
 62
7
 10
5389.390
 20
-9853.345
 30
-1107.060
 70
    32
  0
VERTEX
  8
T63SSILL
 62
7
 10
5364.805
 20
-9806.723
 30
-1107.123
 70
    32
  0
VERTEX
  8
T63SSILL
 62
7
 10
5365.965
 20
-9804.716
 30
-1107.127
 70
    32
  0
VERTEX
  8
T63SSILL
 62
7
 10
5374.121
 20
-9801.188
 30
-1107.139
 70
    32
  0
VERTEX
  8
T63SSILL
 62
7
 10
5391.992
 20
-9829.854
 30
-1107.103
 70
    32
  0
VERTEX
  8
T63SSILL
 62
7
 10
5394.253
 20
-9828.033
 30
-1107.108
 70
    32
  0
VERTEX
  8
T63SSILL
 62
7
 10
5400.791
 20
-9829.962
 30
-1107.109
 70
    32
  0
VERTEX
  8
T63SSILL
 62
7
 10
5403.253
 20
-9859.980
 30
-1107.059
 70
    32
  0
VERTEX
  8
T63SSILL
 62
7
 10
5414.106
 20
-9869.506
 30
-1107.050
 70
    32
  0
VERTEX
  8
T63SSILL
 62
7
 10
5417.401
 20
-9870.506
 30
-1107.051
 70
    32
  0
VERTEX
  8
T63SSILL
 62
7
 10
5419.232
 20
-9868.990
 30
-1107.055
 70
    32
  0
VERTEX
  8
T63SSILL
 62
7
 10
5429.085
 20
-9871.796
 30
-1107.058
 70
    32
  0
VERTEX
  8
T63SSILL
 62
7
 10
5433.608
 20
-9871.493
 30
-1107.062
 70
    32
  0
VERTEX
  8
T63SSILL
 62
7
 10
5438.526
 20
-9868.864
 30
-1107.070
 70
    32
  0
VERTEX
  8
T63SSILL
 62
7
 10
5433.573
 20
-9862.796
 30
-1107.077
 70
    32
  0
VERTEX
  8
T63SSILL
 62
7
 10
5440.242
 20
-9858.311
 30
-1107.090
 70
    32
  0
VERTEX
  8
T63SSILL
 62
7
 10
5444.387
 20
-9864.418
 30
-1107.082
 70
    32
  0
VERTEX
  8
T63SSILL
 62
7
 10
5476.575
 20
-9841.144
 30
-1107.147
 70
    32
  0
VERTEX
  8
T63SSILL
 62
7
 10
5473.376
 20
-9833.629
 30
-1107.158
 70
    32
  0
VERTEX
  8
T63SSILL
 62
7
 10
5481.134
 20
-9828.012
 30
-1107.173
 70
    32
  0
VERTEX
  8
T63SSILL
 62
7
 10
5486.593
 20
-9832.775
 30
-1107.169
 70
    32
  0
VERTEX
  8
T63SSILL
 62
7
 10
5496.795
 20
-9822.672
 30
-1107.194
 70
    32
  0
VERTEX
  8
T63SSILL
 62
7
 10
5486.374
 20
-9810.015
 30
-1107.209
 70
    32
  0
VERTEX
  8
T63SSILL
 62
7
 10
5454.504
 20
-9781.780
 30
-1107.234
 70
    32
  0
VERTEX
  8
T63SSILL
 62
7
 10
5450.345
 20
-9775.040
 30
-1107.242
 70
    32
  0
VERTEX
  8
T63SSILL
 62
7
 10
5446.128
 20
-9759.453
 30
-1107.266
 70
    32
  0
VERTEX
  8
T63SSILL
 62
7
 10
5443.039
 20
-9729.804
 30
-1107.316
 70
    32
  0
VERTEX
  8
T63SSILL
 62
7
 10
5449.496
 20
-9723.701
 30
-1107.331
 70
    32
  0
VERTEX
  8
T63SSILL
 62
7
 10
5454.741
 20
-9721.547
 30
-1107.339
 70
    32
  0
VERTEX
  8
T63SSILL
 62
7
 10
5457.768
 20
-9722.972
 30
-1107.339
 70
    32
  0
VERTEX
  8
T63SSILL
 62
7
 10
5462.287
 20
-9741.453
 30
-1107.310
 70
    32
  0
VERTEX
  8
T63SSILL
 62
7
 10
5474.645
 20
-9751.049
 30
-1107.302
 70
    32
  0
VERTEX
  8
T63SSILL
 62
7
 10
5474.013
 20
-9759.519
 30
-1107.287
 70
    32
  0
VERTEX
  8
T63SSILL
 62
7
 10
5478.410
 20
-9771.983
 30
-1107.269
 70
    32
  0
VERTEX
  8
T63SSILL
 62
7
 10
5481.376
 20
-9793.152
 30
-1107.234
 70
    32
  0
VERTEX
  8
T63SSILL
 62
7
 10
5489.656
 20
-9801.198
 30
-1107.226
 70
    32
  0
VERTEX
  8
T63SSILL
 62
7
 10
5495.753
 20
-9797.807
 30
-1107.237
 70
    32
  0
VERTEX
  8
T63SSILL
 62
7
 10
5502.908
 20
-9800.855
 30
-1107.237
 70
    32
  0
VERTEX
  8
T63SSILL
 62
7
 10
5507.304
 20
-9792.868
 30
-1107.254
 70
    32
  0
VERTEX
  8
T63SSILL
 62
7
 10
5506.312
 20
-9786.064
 30
-1107.265
 70
    32
  0
VERTEX
  8
T63SSILL
 62
7
 10
5499.825
 20
-9771.523
 30
-1107.286
 70
    32
  0
VERTEX
  8
T63SSILL
 62
7
 10
5429.724
 20
-9671.943
 30
-1107.407
 70
    32
  0
VERTEX
  8
T63SSILL
 62
7
 10
5428.024
 20
-9672.270
 30
-1107.405
 70
    32
  0
VERTEX
  8
T63SSILL
 62
7
 10
5418.800
 20
-9659.026
 30
-1107.421
 70
    32
  0
VERTEX
  8
T63SSILL
 62
7
 10
5394.694
 20
-9659.566
 30
-1107.402
 70
    32
  0
VERTEX
  8
T63SSILL
 62
7
 10
5393.288
 20
-9640.987
 30
-1107.433
 70
    32
  0
VERTEX
  8
T63SSILL
 62
7
 10
5378.596
 20
-9626.819
 30
-1107.462
 70
    32
  0
VERTEX
  8
T63SSILL
 62
7
 10
5372.887
 20
-9612.164
 30
-1107.500
 70
    32
  0
VERTEX
  8
T63SSILL
 62
7
 10
5364.469
 20
-9610.532
 30
-1107.500
 70
    32
  0
VERTEX
  8
T63SSILL
 62
7
 10
5362.061
 20
-9611.995
 30
-1107.494
 70
    32
  0
VERTEX
  8
T63SSILL
 62
7
 10
5357.149
 20
-9610.169
 30
-1107.496
 70
    32
  0
VERTEX
  8
T63SSILL
 62
7
 10
5357.637
 20
-9601.799
 30
-1107.520
 70
    32
  0
VERTEX
  8
T63SSILL
 62
7
 10
5366.798
 20
-9602.807
 30
-1107.523
 70
    32
  0
VERTEX
  8
T63SSILL
 62
7
 10
5377.439
 20
-9598.715
 30
-1107.541
 70
    32
  0
VERTEX
  8
T63SSILL
 62
7
 10
5287.707
 20
-9472.333
 30
-1107.848
 70
    32
  0
VERTEX
  8
T63SSILL
 62
7
 10
5279.388
 20
-9456.391
 30
-1107.888
 70
    32
  0
VERTEX
  8
T63SSILL
 62
7
 10
5276.605
 20
-9446.552
 30
-1107.914
 70
    32
  0
VERTEX
  8
T63SSILL
 62
7
 10
5278.758
 20
-9427.814
 30
-1107.969
 70
    32
  0
VERTEX
  8
T63SSILL
 62
7
 10
5276.226
 20
-9424.331
 30
-1107.977
 70
    32
  0
VERTEX
  8
T63SSILL
 62
7
 10
5125.665
 20
-9532.716
 30
-1107.581
 70
    32
  0
VERTEX
  8
T63SSILL
 62
7
 10
5124.801
 20
-9536.733
 30
-1107.569
 70
    32
  0
VERTEX
  8
T63SSILL
 62
7
 10
5119.417
 20
-9537.214
 30
-1107.565
 70
    32
  0
VERTEX
  8
T63SSILL
 62
7
 10
5015.706
 20
-9611.874
 30
-1107.292
 70
    32
  0
VERTEX
  8
T63SSILL
 62
7
 10
5004.433
 20
-9627.076
 30
-1107.242
 70
    32
  0
VERTEX
  8
T63SSILL
 62
7
 10
4982.566
 20
-9645.852
 30
-1107.176
 70
    32
  0
VERTEX
  8
T63SSILL
 62
7
 10
4972.657
 20
-9642.267
 30
-1107.180
 70
    32
  0
VERTEX
  8
T63SSILL
 62
7
 10
4691.961
 20
-9844.351
 30
-1106.150
 70
    32
  0
VERTEX
  8
T63SSILL
 62
7
 10
4683.397
 20
-9849.204
 30
-1106.117
 70
    32
  0
VERTEX
  8
T63SSILL
 62
7
 10
4674.623
 20
-9851.245
 30
-1106.094
 70
    32
  0
VERTEX
  8
T63SSILL
 62
7
 10
4650.344
 20
-9851.536
 30
-1105.920
 70
    32
  0
VERTEX
  8
T63SSILL
 62
7
 10
4644.154
 20
-9848.970
 30
-1105.795
 70
    32
  0
VERTEX
  8
T63SSILL
 62
7
 10
4643.862
 20
-9853.901
 30
-1105.864
 70
    32
  0
VERTEX
  8
T63SSILL
 62
7
 10
4650.511
 20
-9858.132
 30
-1106.019
 70
    32
  0
VERTEX
  8
T63SSILL
 62
7
 10
4664.069
 20
-9873.631
 30
-1105.997
 70
    32
  0
VERTEX
  8
T63SSILL
 62
7
 10
4662.017
 20
-9885.885
 30
-1105.951
 70
    32
  0
VERTEX
  8
T63SSILL
 62
7
 10
4651.159
 20
-9890.238
 30
-1105.915
 70
    32
  0
VERTEX
  8
T63SSILL
 62
7
 10
4650.197
 20
-9883.387
 30
-1105.937
 70
    32
  0
VERTEX
  8
T63SSILL
 62
7
 10
4644.026
 20
-9875.014
 30
-1105.954
 70
    32
  0
VERTEX
  8
T63SSILL
 62
7
 10
4639.914
 20
-9862.218
 30
-1105.931
 70
    32
  0
VERTEX
  8
T63SSILL
 62
7
 10
4616.243
 20
-9825.109
 30
-1105.341
 70
    32
  0
VERTEX
  8
T63SSILL
 62
7
 10
4609.340
 20
-9826.838
 30
-1105.349
 70
    32
  0
VERTEX
  8
T63SSILL
 62
7
 10
4609.489
 20
-9833.043
 30
-1105.338
 70
    32
  0
VERTEX
  8
T63SSILL
 62
7
 10
4599.836
 20
-9832.386
 30
-1105.356
 70
    32
  0
VERTEX
  8
T63SSILL
 62
7
 10
4600.741
 20
-9824.163
 30
-1105.369
 70
    32
  0
VERTEX
  8
T63SSILL
 62
7
 10
4593.050
 20
-9812.195
 30
-1105.403
 70
    32
  0
VERTEX
  8
T63SSILL
 62
7
 10
4583.545
 20
-9806.837
 30
-1105.428
 70
    32
  0
VERTEX
  8
T63SSILL
 62
7
 10
4579.256
 20
-9794.532
 30
-1105.457
 70
    32
  0
VERTEX
  8
T63SSILL
 62
7
 10
4572.826
 20
-9787.140
 30
-1105.481
 70
    32
  0
VERTEX
  8
T63SSILL
 62
7
 10
4572.575
 20
-9778.332
 30
-1105.497
 70
    32
  0
VERTEX
  8
T63SSILL
 62
7
 10
4550.929
 20
-9744.323
 30
-1105.593
 70
    32
  0
VERTEX
  8
T63SSILL
 62
7
 10
4519.809
 20
-9740.325
 30
-1105.653
 70
    32
  0
VERTEX
  8
T63SSILL
 62
7
 10
4507.187
 20
-9748.151
 30
-1105.660
 70
    32
  0
VERTEX
  8
T63SSILL
 62
7
 10
4495.785
 20
-9762.184
 30
-1105.655
 70
    32
  0
VERTEX
  8
T63SSILL
 62
7
 10
4489.628
 20
-9763.477
 30
-1105.663
 70
    32
  0
VERTEX
  8
T63SSILL
 62
7
 10
4483.943
 20
-9767.752
 30
-1105.665
 70
    32
  0
VERTEX
  8
T63SSILL
 62
7
 10
4476.587
 20
-9778.566
 30
-1105.658
 70
    32
  0
VERTEX
  8
T63SSILL
 62
7
 10
4467.225
 20
-9768.208
 30
-1105.692
 70
    32
  0
VERTEX
  8
T63SSILL
 62
7
 10
4474.815
 20
-9758.262
 30
-1105.697
 70
    32
  0
VERTEX
  8
T63SSILL
 62
7
 10
4472.651
 20
-9730.493
 30
-1105.750
 70
    32
  0
VERTEX
  8
T63SSILL
 62
7
 10
4477.418
 20
-9721.827
 30
-1105.757
 70
    32
  0
VERTEX
  8
T63SSILL
 62
7
 10
4507.883
 20
-9725.960
 30
-1105.698
 70
    32
  0
VERTEX
  8
T63SSILL
 62
7
 10
4518.839
 20
-9726.031
 30
-1105.680
 70
    32
  0
VERTEX
  8
T63SSILL
 62
7
 10
4537.307
 20
-9729.212
 30
-1105.643
 70
    32
  0
VERTEX
  8
T63SSILL
 62
7
 10
4543.426
 20
-9732.010
 30
-1105.628
 70
    32
  0
VERTEX
  8
T63SSILL
 62
7
 10
4545.304
 20
-9731.023
 30
-1105.626
 70
    32
  0
VERTEX
  8
T63SSILL
 62
7
 10
4545.346
 20
-9725.861
 30
-1105.635
 70
    32
  0
VERTEX
  8
T63SSILL
 62
7
 10
4464.018
 20
-9611.503
 30
-1105.974
 70
    32
  0
VERTEX
  8
T63SSILL
 62
7
 10
4453.881
 20
-9606.157
 30
-1106.001
 70
    32
  0
VERTEX
  8
T63SSILL
 62
7
 10
4445.571
 20
-9614.188
 30
-1106.000
 70
    32
  0
VERTEX
  8
T63SSILL
 62
7
 10
4447.429
 20
-9624.229
 30
-1105.979
 70
    32
  0
VERTEX
  8
T63SSILL
 62
7
 10
4438.178
 20
-9629.065
 30
-1105.987
 70
    32
  0
VERTEX
  8
T63SSILL
 62
7
 10
4433.421
 20
-9628.529
 30
-1105.995
 70
    32
  0
VERTEX
  8
T63SSILL
 62
7
 10
4428.540
 20
-9625.511
 30
-1106.009
 70
    32
  0
VERTEX
  8
T63SSILL
 62
7
 10
4427.705
 20
-9622.777
 30
-1106.015
 70
    32
  0
VERTEX
  8
T63SSILL
 62
7
 10
4422.191
 20
-9617.313
 30
-1106.034
 70
    32
  0
VERTEX
  8
T63SSILL
 62
7
 10
4420.305
 20
-9609.537
 30
-1106.051
 70
    32
  0
VERTEX
  8
T63SSILL
 62
7
 10
4424.212
 20
-9600.544
 30
-1106.060
 70
    32
  0
VERTEX
  8
T63SSILL
 62
7
 10
4433.844
 20
-9597.652
 30
-1106.049
 70
    32
  0
VERTEX
  8
T63SSILL
 62
7
 10
4444.785
 20
-9589.714
 30
-1106.045
 70
    32
  0
VERTEX
  8
T63SSILL
 62
7
 10
4443.586
 20
-9583.384
 30
-1106.058
 70
    32
  0
VERTEX
  8
T63SSILL
 62
7
 10
4407.924
 20
-9534.004
 30
-1106.205
 70
    32
  0
VERTEX
  8
T63SSILL
 62
7
 10
4404.133
 20
-9531.939
 30
-1106.215
 70
    32
  0
VERTEX
  8
T63SSILL
 62
7
 10
4376.914
 20
-9529.396
 30
-1106.259
 70
    32
  0
VERTEX
  8
T63SSILL
 62
7
 10
4245.672
 20
-9555.756
 30
-1106.333
 70
    32
  0
VERTEX
  8
T63SSILL
 62
7
 10
4240.938
 20
-9560.014
 30
-1106.330
 70
    32
  0
VERTEX
  8
T63SSILL
 62
7
 10
4243.976
 20
-9566.988
 30
-1106.314
 70
    32
  0
VERTEX
  8
T63SSILL
 62
7
 10
4239.746
 20
-9570.896
 30
-1106.310
 70
    32
  0
VERTEX
  8
T63SSILL
 62
7
 10
4233.038
 20
-9565.408
 30
-1106.327
 70
    32
  0
VERTEX
  8
T63SSILL
 62
7
 10
4230.266
 20
-9567.337
 30
-1106.326
 70
    32
  0
VERTEX
  8
T63SSILL
 62
7
 10
4228.343
 20
-9563.270
 30
-1106.336
 70
    32
  0
VERTEX
  8
T63SSILL
 62
7
 10
4238.687
 20
-9554.631
 30
-1106.342
 70
    32
  0
VERTEX
  8
T63SSILL
 62
7
 10
4237.639
 20
-9548.517
 30
-1106.349
 70
    32
  0
VERTEX
  8
T63SSILL
 62
7
 10
4342.351
 20
-9528.438
 30
-1106.294
 70
    32
  0
VERTEX
  8
T63SSILL
 62
7
 10
4348.126
 20
-9519.071
 30
-1106.306
 70
    32
  0
VERTEX
  8
T63SSILL
 62
7
 10
4370.333
 20
-9510.882
 30
-1106.301
 70
    32
  0
VERTEX
  8
T63SSILL
 62
7
 10
4380.911
 20
-9521.160
 30
-1106.271
 70
    32
  0
VERTEX
  8
T63SSILL
 62
7
 10
4394.030
 20
-9518.656
 30
-1106.256
 70
    32
  0
VERTEX
  8
T63SSILL
 62
7
 10
4393.975
 20
-9514.738
 30
-1106.263
 70
    32
  0
VERTEX
  8
T63SSILL
 62
7
 10
4370.820
 20
-9483.168
 30
-1106.349
 70
    32
  0
VERTEX
  8
T63SSILL
 62
7
 10
4359.740
 20
-9444.369
 30
-1106.329
 70
    32
  0
VERTEX
  8
T63SSILL
 62
7
 10
4356.876
 20
-9442.406
 30
-1106.327
 70
    32
  0
VERTEX
  8
T63SSILL
 62
7
 10
4357.431
 20
-9436.138
 30
-1106.325
 70
    32
  0
VERTEX
  8
T63SSILL
 62
7
 10
4322.963
 20
-9327.102
 30
-1106.388
 70
    32
  0
VERTEX
  8
T63SSILL
 62
7
 10
4333.885
 20
-9325.126
 30
-1106.406
 70
    32
  0
VERTEX
  8
T63SSILL
 62
7
 10
4351.819
 20
-9381.091
 30
-1106.304
 70
    32
  0
VERTEX
  8
T63SSILL
 62
7
 10
4359.364
 20
-9358.000
 30
-1106.347
 70
    32
  0
VERTEX
  8
T63SSILL
 62
7
 10
4366.487
 20
-9374.439
 30
-1106.338
 70
    32
  0
VERTEX
  8
T63SSILL
 62
7
 10
4360.842
 20
-9420.892
 30
-1106.322
 70
    32
  0
VERTEX
  8
T63SSILL
 62
7
 10
4363.850
 20
-9430.921
 30
-1106.327
 70
    32
  0
VERTEX
  8
T63SSILL
 62
7
 10
4367.860
 20
-9434.224
 30
-1106.332
 70
    32
  0
VERTEX
  8
T63SSILL
 62
7
 10
4366.149
 20
-9439.906
 30
-1106.331
 70
    32
  0
VERTEX
  8
T63SSILL
 62
7
 10
4377.448
 20
-9475.025
 30
-1106.350
 70
    32
  0
VERTEX
  8
T63SSILL
 62
7
 10
4438.880
 20
-9562.495
 30
-1106.136
 70
    32
  0
VERTEX
  8
T63SSILL
 62
7
 10
4444.770
 20
-9451.465
 30
-1106.414
 70
    32
  0
VERTEX
  8
T63SSILL
 62
7
 10
4450.941
 20
-9444.816
 30
-1106.418
 70
    32
  0
VERTEX
  8
T63SSILL
 62
7
 10
4455.444
 20
-9443.606
 30
-1106.429
 70
    32
  0
VERTEX
  8
T63SSILL
 62
7
 10
4476.134
 20
-9424.176
 30
-1106.504
 70
    32
  0
VERTEX
  8
T63SSILL
 62
7
 10
4475.099
 20
-9425.120
 30
-1106.000
 70
    32
  0
VERTEX
  8
T63SSILL
 62
7
 10
4477.016
 20
-9411.872
 30
-1106.000
 70
    32
  0
VERTEX
  8
T63SSILL
 62
7
 10
4484.606
 20
-9407.636
 30
-1106.000
 70
    32
  0
VERTEX
  8
T63SSILL
 62
7
 10
4486.519
 20
-9399.934
 30
-1106.000
 70
    32
  0
VERTEX
  8
T63SSILL
 62
7
 10
4483.143
 20
-9392.626
 30
-1106.000
 70
    32
  0
VERTEX
  8
T63SSILL
 62
7
 10
4508.234
 20
-9380.366
 30
-1106.000
 70
    32
  0
VERTEX
  8
T63SSILL
 62
7
 10
4507.573
 20
-9371.371
 30
-1106.000
 70
    32
  0
VERTEX
  8
T63SSILL
 62
7
 10
4502.310
 20
-9360.313
 30
-1106.000
 70
    32
  0
VERTEX
  8
T63SSILL
 62
7
 10
4499.842
 20
-9351.220
 30
-1106.000
 70
    32
  0
VERTEX
  8
T63SSILL
 62
7
 10
4501.642
 20
-9342.467
 30
-1106.000
 70
    32
  0
VERTEX
  8
T63SSILL
 62
7
 10
4501.731
 20
-9334.580
 30
-1106.000
 70
    32
  0
VERTEX
  8
T63SSILL
 62
7
 10
4508.493
 20
-9327.910
 30
-1106.000
 70
    32
  0
VERTEX
  8
T63SSILL
 62
7
 10
4509.132
 20
-9317.771
 30
-1106.000
 70
    32
  0
VERTEX
  8
T63SSILL
 62
7
 10
4507.371
 20
-9310.956
 30
-1106.000
 70
    32
  0
VERTEX
  8
T63SSILL
 62
7
 10
4529.270
 20
-9282.140
 30
-1106.000
 70
    32
  0
VERTEX
  8
T63SSILL
 62
7
 10
4535.556
 20
-9277.172
 30
-1106.000
 70
    32
  0
VERTEX
  8
T63SSILL
 62
7
 10
4546.320
 20
-9254.618
 30
-1106.000
 70
    32
  0
VERTEX
  8
T63SSILL
 62
7
 10
4552.519
 20
-9219.976
 30
-1106.000
 70
    32
  0
VERTEX
  8
T63SSILL
 62
7
 10
4563.027
 20
-9222.063
 30
-1106.000
 70
    32
  0
VERTEX
  8
T63SSILL
 62
7
 10
4568.115
 20
-9217.868
 30
-1106.000
 70
    32
  0
VERTEX
  8
T63SSILL
 62
7
 10
4576.641
 20
-9213.515
 30
-1106.000
 70
    32
  0
VERTEX
  8
T63SSILL
 62
7
 10
4579.034
 20
-9216.778
 30
-1106.000
 70
    32
  0
VERTEX
  8
T63SSILL
 62
7
 10
4586.877
 20
-9219.769
 30
-1106.000
 70
    32
  0
VERTEX
  8
T63SSILL
 62
7
 10
4595.497
 20
-9215.450
 30
-1106.000
 70
    32
  0
VERTEX
  8
T63SSILL
 62
7
 10
4615.288
 20
-9198.108
 30
-1106.000
 70
    32
  0
VERTEX
  8
T63SSILL
 62
7
 10
4622.633
 20
-9206.895
 30
-1106.000
 70
    32
  0
VERTEX
  8
T63SSILL
 62
7
 10
4603.681
 20
-9223.750
 30
-1106.000
 70
    32
  0
VERTEX
  8
T63SSILL
 62
7
 10
4601.510
 20
-9227.938
 30
-1106.000
 70
    32
  0
VERTEX
  8
T63SSILL
 62
7
 10
4612.229
 20
-9238.825
 30
-1106.000
 70
    32
  0
VERTEX
  8
T63SSILL
 62
7
 10
4604.734
 20
-9246.130
 30
-1106.000
 70
    32
  0
VERTEX
  8
T63SSILL
 62
7
 10
4608.640
 20
-9266.703
 30
-1106.000
 70
    32
  0
VERTEX
  8
T63SSILL
 62
7
 10
4584.567
 20
-9279.386
 30
-1106.000
 70
    32
  0
VERTEX
  8
T63SSILL
 62
7
 10
4577.260
 20
-9292.574
 30
-1106.000
 70
    32
  0
VERTEX
  8
T63SSILL
 62
7
 10
4548.726
 20
-9318.971
 30
-1106.000
 70
    32
  0
VERTEX
  8
T63SSILL
 62
7
 10
4540.760
 20
-9333.006
 30
-1106.000
 70
    32
  0
VERTEX
  8
T63SSILL
 62
7
 10
4544.866
 20
-9347.342
 30
-1106.000
 70
    32
  0
VERTEX
  8
T63SSILL
 62
7
 10
4551.028
 20
-9351.124
 30
-1106.000
 70
    32
  0
VERTEX
  8
T63SSILL
 62
7
 10
4556.239
 20
-9364.089
 30
-1106.000
 70
    32
  0
VERTEX
  8
T63SSILL
 62
7
 10
4554.478
 20
-9369.221
 30
-1106.000
 70
    32
  0
VERTEX
  8
T63SSILL
 62
7
 10
4555.082
 20
-9376.439
 30
-1106.000
 70
    32
  0
VERTEX
  8
T63SSILL
 62
7
 10
4550.466
 20
-9382.315
 30
-1106.000
 70
    32
  0
VERTEX
  8
T63SSILL
 62
7
 10
4543.764
 20
-9395.081
 30
-1106.000
 70
    32
  0
VERTEX
  8
T63SSILL
 62
7
 10
4548.913
 20
-9400.387
 30
-1106.000
 70
    32
  0
VERTEX
  8
T63SSILL
 62
7
 10
4564.157
 20
-9407.190
 30
-1106.000
 70
    32
  0
VERTEX
  8
T63SSILL
 62
7
 10
4571.349
 20
-9413.476
 30
-1106.000
 70
    32
  0
VERTEX
  8
T63SSILL
 62
7
 10
4579.720
 20
-9437.340
 30
-1106.000
 70
    32
  0
VERTEX
  8
T63SSILL
 62
7
 10
4571.358
 20
-9442.626
 30
-1106.000
 70
    32
  0
VERTEX
  8
T63SSILL
 62
7
 10
4559.431
 20
-9420.778
 30
-1106.000
 70
    32
  0
VERTEX
  8
T63SSILL
 62
7
 10
4548.497
 20
-9412.487
 30
-1106.000
 70
    32
  0
VERTEX
  8
T63SSILL
 62
7
 10
4545.144
 20
-9412.800
 30
-1106.000
 70
    32
  0
VERTEX
  8
T63SSILL
 62
7
 10
4541.321
 20
-9416.721
 30
-1106.000
 70
    32
  0
VERTEX
  8
T63SSILL
 62
7
 10
4535.615
 20
-9418.022
 30
-1106.000
 70
    32
  0
VERTEX
  8
T63SSILL
 62
7
 10
4533.040
 20
-9411.036
 30
-1106.000
 70
    32
  0
VERTEX
  8
T63SSILL
 62
7
 10
4524.581
 20
-9401.274
 30
-1106.000
 70
    32
  0
VERTEX
  8
T63SSILL
 62
7
 10
4517.896
 20
-9411.246
 30
-1106.000
 70
    32
  0
VERTEX
  8
T63SSILL
 62
7
 10
4521.787
 20
-9416.449
 30
-1106.000
 70
    32
  0
VERTEX
  8
T63SSILL
 62
7
 10
4519.393
 20
-9421.218
 30
-1106.000
 70
    32
  0
VERTEX
  8
T63SSILL
 62
7
 10
4502.032
 20
-9432.924
 30
-1106.000
 70
    32
  0
VERTEX
  8
T63SSILL
 62
7
 10
4496.246
 20
-9433.141
 30
-1106.000
 70
    32
  0
VERTEX
  8
T63SSILL
 62
7
 10
4490.159
 20
-9436.176
 30
-1106.000
 70
    32
  0
VERTEX
  8
T63SSILL
 62
7
 10
4479.864
 20
-9434.534
 30
-1106.000
 70
    32
  0
VERTEX
  8
T63SSILL
 62
7
 10
4481.499
 20
-9431.882
 30
-1106.504
 70
    32
  0
VERTEX
  8
T63SSILL
 62
7
 10
4470.261
 20
-9446.764
 30
-1106.457
 70
    32
  0
VERTEX
  8
T63SSILL
 62
7
 10
4455.023
 20
-9456.517
 30
-1106.425
 70
    32
  0
VERTEX
  8
T63SSILL
 62
7
 10
4453.674
 20
-9489.749
 30
-1106.431
 70
    32
  0
VERTEX
  8
T63SSILL
 62
7
 10
4455.961
 20
-9492.113
 30
-1106.434
 70
    32
  0
VERTEX
  8
T63SSILL
 62
7
 10
4502.839
 20
-9459.154
 30
-1106.510
 70
    32
  0
VERTEX
  8
T63SSILL
 62
7
 10
4503.549
 20
-9454.490
 30
-1106.518
 70
    32
  0
VERTEX
  8
T63SSILL
 62
7
 10
4509.142
 20
-9445.784
 30
-1106.544
 70
    32
  0
VERTEX
  8
T63SSILL
 62
7
 10
4513.267
 20
-9443.875
 30
-1106.556
 70
    32
  0
VERTEX
  8
T63SSILL
 62
7
 10
4521.237
 20
-9433.514
 30
-1106.590
 70
    32
  0
VERTEX
  8
T63SSILL
 62
7
 10
4534.609
 20
-9427.840
 30
-1106.628
 70
    32
  0
VERTEX
  8
T63SSILL
 62
7
 10
4540.571
 20
-9432.564
 30
-1106.634
 70
    32
  0
VERTEX
  8
T63SSILL
 62
7
 10
4548.764
 20
-9430.816
 30
-1106.655
 70
    32
  0
VERTEX
  8
T63SSILL
 62
7
 10
4559.803
 20
-9432.541
 30
-1106.677
 70
    32
  0
VERTEX
  8
T63SSILL
 62
7
 10
4566.361
 20
-9448.719
 30
-1106.666
 70
    32
  0
VERTEX
  8
T63SSILL
 62
7
 10
4563.299
 20
-9468.280
 30
-1106.629
 70
    32
  0
VERTEX
  8
T63SSILL
 62
7
 10
4558.081
 20
-9467.850
 30
-1106.618
 70
    32
  0
VERTEX
  8
T63SSILL
 62
7
 10
4561.203
 20
-9481.395
 30
-1106.604
 70
    32
  0
VERTEX
  8
T63SSILL
 62
7
 10
4559.351
 20
-9505.460
 30
-1106.563
 70
    32
  0
VERTEX
  8
T63SSILL
 62
7
 10
4563.977
 20
-9512.719
 30
-1106.562
 70
    32
  0
VERTEX
  8
T63SSILL
 62
7
 10
4564.320
 20
-9524.884
 30
-1106.551
 70
    32
  0
VERTEX
  8
T63SSILL
 62
7
 10
4562.665
 20
-9530.955
 30
-1106.550
 70
    32
  0
VERTEX
  8
T63SSILL
 62
7
 10
4567.077
 20
-9543.281
 30
-1106.558
 70
    32
  0
VERTEX
  8
T63SSILL
 62
7
 10
4565.897
 20
-9546.348
 30
-1106.557
 70
    32
  0
VERTEX
  8
T63SSILL
 62
7
 10
4566.888
 20
-9549.614
 30
-1106.559
 70
    32
  0
VERTEX
  8
T63SSILL
 62
7
 10
4573.145
 20
-9554.454
 30
-1106.566
 70
    32
  0
VERTEX
  8
T63SSILL
 62
7
 10
4573.152
 20
-9557.229
 30
-1106.567
 70
    32
  0
VERTEX
  8
T63SSILL
 62
7
 10
4569.424
 20
-9561.857
 30
-1106.564
 70
    32
  0
VERTEX
  8
T63SSILL
 62
7
 10
4560.054
 20
-9557.153
 30
-1106.553
 70
    32
  0
VERTEX
  8
T63SSILL
 62
7
 10
4549.974
 20
-9557.113
 30
-1106.543
 70
    32
  0
VERTEX
  8
T63SSILL
 62
7
 10
4535.966
 20
-9552.965
 30
-1106.528
 70
    32
  0
VERTEX
  8
T63SSILL
 62
7
 10
4531.554
 20
-9557.533
 30
-1106.524
 70
    32
  0
VERTEX
  8
T63SSILL
 62
7
 10
4528.915
 20
-9569.101
 30
-1106.459
 70
    32
  0
VERTEX
  8
T63SSILL
 62
7
 10
4526.364
 20
-9571.733
 30
-1106.434
 70
    32
  0
VERTEX
  8
T63SSILL
 62
7
 10
4533.628
 20
-9581.859
 30
-1106.403
 70
    32
  0
VERTEX
  8
T63SSILL
 62
7
 10
4525.815
 20
-9586.764
 30
-1106.343
 70
    32
  0
VERTEX
  8
T63SSILL
 62
7
 10
4519.275
 20
-9577.524
 30
-1106.371
 70
    32
  0
VERTEX
  8
T63SSILL
 62
7
 10
4516.011
 20
-9577.444
 30
-1106.359
 70
    32
  0
VERTEX
  8
T63SSILL
 62
7
 10
4508.646
 20
-9573.162
 30
-1106.354
 70
    32
  0
VERTEX
  8
T63SSILL
 62
7
 10
4495.040
 20
-9574.507
 30
-1106.292
 70
    32
  0
VERTEX
  8
T63SSILL
 62
7
 10
4469.715
 20
-9593.422
 30
-1106.079
 70
    32
  0
VERTEX
  8
T63SSILL
 62
7
 10
4470.729
 20
-9607.473
 30
-1106.001
 70
    32
  0
VERTEX
  8
T63SSILL
 62
7
 10
4476.717
 20
-9615.921
 30
-1105.975
 70
    32
  0
VERTEX
  8
T63SSILL
 62
7
 10
4496.502
 20
-9613.160
 30
-1106.071
 70
    32
  0
VERTEX
  8
T63SSILL
 62
7
 10
4543.531
 20
-9580.418
 30
-1106.452
 70
    32
  0
VERTEX
  8
T63SSILL
 62
7
 10
4549.588
 20
-9587.429
 30
-1106.435
 70
    32
  0
VERTEX
  8
T63SSILL
 62
7
 10
4511.552
 20
-9614.658
 30
-1106.123
 70
    32
  0
VERTEX
  8
T63SSILL
 62
7
 10
4485.288
 20
-9626.849
 30
-1105.946
 70
    32
  0
VERTEX
  8
T63SSILL
 62
7
 10
4551.308
 20
-9719.679
 30
-1105.667
 70
    32
  0
VERTEX
  8
T63SSILL
 62
7
 10
4558.506
 20
-9662.593
 30
-1106.031
 70
    32
  0
VERTEX
  8
T63SSILL
 62
7
 10
4529.676
 20
-9634.546
 30
-1106.079
 70
    32
  0
VERTEX
  8
T63SSILL
 62
7
 10
4530.155
 20
-9632.930
 30
-1106.090
 70
    32
  0
VERTEX
  8
T63SSILL
 62
7
 10
4536.982
 20
-9622.617
 30
-1106.178
 70
    32
  0
VERTEX
  8
T63SSILL
 62
7
 10
4539.175
 20
-9614.247
 30
-1106.236
 70
    32
  0
VERTEX
  8
T63SSILL
 62
7
 10
4548.608
 20
-9606.492
 30
-1106.319
 70
    32
  0
VERTEX
  8
T63SSILL
 62
7
 10
4557.981
 20
-9603.037
 30
-1106.377
 70
    32
  0
VERTEX
  8
T63SSILL
 62
7
 10
4562.059
 20
-9598.237
 30
-1106.422
 70
    32
  0
VERTEX
  8
T63SSILL
 62
7
 10
4589.391
 20
-9617.794
 30
-1106.417
 70
    32
  0
VERTEX
  8
T63SSILL
 62
7
 10
4577.780
 20
-9654.622
 30
-1106.155
 70
    32
  0
VERTEX
  8
T63SSILL
 62
7
 10
4584.306
 20
-9657.569
 30
-1106.164
 70
    32
  0
VERTEX
  8
T63SSILL
 62
7
 10
4597.438
 20
-9672.592
 30
-1106.128
 70
    32
  0
VERTEX
  8
T63SSILL
 62
7
 10
4598.197
 20
-9682.436
 30
-1106.074
 70
    32
  0
VERTEX
  8
T63SSILL
 62
7
 10
4612.088
 20
-9698.855
 30
-1106.033
 70
    32
  0
VERTEX
  8
T63SSILL
 62
7
 10
4612.345
 20
-9707.979
 30
-1105.981
 70
    32
  0
VERTEX
  8
T63SSILL
 62
7
 10
4614.528
 20
-9714.800
 30
-1105.950
 70
    32
  0
VERTEX
  8
T63SSILL
 62
7
 10
4604.621
 20
-9723.301
 30
-1105.860
 70
    32
  0
VERTEX
  8
T63SSILL
 62
7
 10
4594.010
 20
-9725.877
 30
-1105.803
 70
    32
  0
VERTEX
  8
T63SSILL
 62
7
 10
4591.679
 20
-9723.757
 30
-1105.806
 70
    32
  0
VERTEX
  8
T63SSILL
 62
7
 10
4581.371
 20
-9697.893
 30
-1105.916
 70
    32
  0
VERTEX
  8
T63SSILL
 62
7
 10
4578.560
 20
-9694.931
 30
-1105.922
 70
    32
  0
VERTEX
  8
T63SSILL
 62
7
 10
4575.325
 20
-9695.045
 30
-1105.908
 70
    32
  0
VERTEX
  8
T63SSILL
 62
7
 10
4567.196
 20
-9699.956
 30
-1105.847
 70
    32
  0
VERTEX
  8
T63SSILL
 62
7
 10
4563.838
 20
-9725.390
 30
-1105.684
 70
    32
  0
VERTEX
  8
T63SSILL
 62
7
 10
4574.769
 20
-9741.091
 30
-1105.636
 70
    32
  0
VERTEX
  8
T63SSILL
 62
7
 10
4580.901
 20
-9746.980
 30
-1105.626
 70
    32
  0
VERTEX
  8
T63SSILL
 62
7
 10
4596.127
 20
-9772.842
 30
-1105.536
 70
    32
  0
VERTEX
  8
T63SSILL
 62
7
 10
4599.842
 20
-9782.018
 30
-1105.497
 70
    32
  0
VERTEX
  8
T63SSILL
 62
7
 10
4600.409
 20
-9789.699
 30
-1105.455
 70
    32
  0
VERTEX
  8
T63SSILL
 62
7
 10
4633.807
 20
-9834.183
 30
-1105.432
 70
    32
  0
VERTEX
  8
T63SSILL
 62
7
 10
4642.485
 20
-9839.583
 30
-1105.634
 70
    32
  0
VERTEX
  8
T63SSILL
 62
7
 10
4653.678
 20
-9842.911
 30
-1105.840
 70
    32
  0
VERTEX
  8
T63SSILL
 62
7
 10
4663.597
 20
-9843.490
 30
-1105.987
 70
    32
  0
VERTEX
  8
T63SSILL
 62
7
 10
4681.665
 20
-9840.107
 30
-1106.145
 70
    32
  0
VERTEX
  8
T63SSILL
 62
7
 10
5012.757
 20
-9603.180
 30
-1107.315
 70
    32
  0
VERTEX
  8
T63SSILL
 62
7
 10
5011.566
 20
-9599.625
 30
-1107.324
 70
    32
  0
VERTEX
  8
T63SSILL
 62
7
 10
5002.084
 20
-9599.062
 30
-1107.320
 70
    32
  0
VERTEX
  8
T63SSILL
 62
7
 10
4844.163
 20
-9542.023
 30
-1106.670
 70
    32
  0
VERTEX
  8
T63SSILL
 62
7
 10
4809.770
 20
-9529.613
 30
-1106.670
 70
    32
  0
VERTEX
  8
T63SSILL
 62
7
 10
4807.982
 20
-9526.986
 30
-1106.670
 70
    32
  0
VERTEX
  8
T63SSILL
 62
7
 10
4752.644
 20
-9509.316
 30
-1106.670
 70
    32
  0
VERTEX
  8
T63SSILL
 62
7
 10
4755.298
 20
-9498.720
 30
-1106.670
 70
    32
  0
VERTEX
  8
T63SSILL
 62
7
 10
4794.322
 20
-9510.941
 30
-1106.670
 70
    32
  0
VERTEX
  8
T63SSILL
 62
7
 10
4797.093
 20
-9507.015
 30
-1106.670
 70
    32
  0
VERTEX
  8
T63SSILL
 62
7
 10
4738.293
 20
-9425.837
 30
-1106.670
 70
    32
  0
VERTEX
  8
T63SSILL
 62
7
 10
4733.020
 20
-9421.153
 30
-1106.670
 70
    32
  0
VERTEX
  8
T63SSILL
 62
7
 10
4727.272
 20
-9410.971
 30
-1106.670
 70
    32
  0
VERTEX
  8
T63SSILL
 62
7
 10
4716.578
 20
-9399.761
 30
-1106.670
 70
    32
  0
SEQEND
  8
T63SSILL
  0
POLYLINE
  8
T63SSILL
 62
7
 66
     1
 70
     9
  0
VERTEX
  8
T63SSILL
 62
7
 10
1663.473
 20
-7762.720
 30
-1085.290
 70
    32
  0
VERTEX
  8
T63SSILL
 62
7
 10
1663.563
 20
-7766.837
 30
-1085.290
 70
    32
  0
VERTEX
  8
T63SSILL
 62
7
 10
1665.546
 20
-7768.444
 30
-1085.290
 70
    32
  0
VERTEX
  8
T63SSILL
 62
7
 10
1673.779
 20
-7777.919
 30
-1085.290
 70
    32
  0
VERTEX
  8
T63SSILL
 62
7
 10
1675.532
 20
-7777.791
 30
-1085.290
 70
    32
  0
VERTEX
  8
T63SSILL
 62
7
 10
1735.623
 20
-7772.990
 30
-1085.290
 70
    32
  0
VERTEX
  8
T63SSILL
 62
7
 10
1720.281
 20
-7739.120
 30
-1085.290
 70
    32
  0
VERTEX
  8
T63SSILL
 62
7
 10
1717.258
 20
-7735.168
 30
-1085.290
 70
    32
  0
VERTEX
  8
T63SSILL
 62
7
 10
1709.058
 20
-7732.373
 30
-1085.290
 70
    32
  0
VERTEX
  8
T63SSILL
 62
7
 10
1692.652
 20
-7723.817
 30
-1085.290
 70
    32
  0
VERTEX
  8
T63SSILL
 62
7
 10
1688.025
 20
-7724.022
 30
-1085.290
 70
    32
  0
VERTEX
  8
T63SSILL
 62
7
 10
1685.080
 20
-7727.528
 30
-1085.290
 70
    32
  0
VERTEX
  8
T63SSILL
 62
7
 10
1679.567
 20
-7732.454
 30
-1085.290
 70
    32
  0
VERTEX
  8
T63SSILL
 62
7
 10
1675.851
 20
-7735.189
 30
-1085.290
 70
    32
  0
SEQEND
  8
T63SSILL
  0
LINE
  8
T63SSILL
 62
7
 10
1722.051
 20
-7742.044
 30
-1085.290
 11
1734.736
 21
-7736.196
 31
-1085.290
  0
LINE
  8
T63SSILL
 62
7
 10
1680.121
 20
-7731.325
 30
-1085.290
 11
1673.103
 21
-7722.692
 31
-1082.310
  0
POLYLINE
  8
T63SSILL
 62
7
 66
     1
 70
     9
  0
VERTEX
  8
T63SSILL
 62
7
 10
975.593
 20
-5743.990
 30
-1080.767
 70
    32
  0
VERTEX
  8
T63SSILL
 62
7
 10
982.932
 20
-5746.627
 30
-1080.768
 70
    32
  0
VERTEX
  8
T63SSILL
 62
7
 10
986.945
 20
-5743.104
 30
-1080.757
 70
    32
  0
VERTEX
  8
T63SSILL
 62
7
 10
991.313
 20
-5737.295
 30
-1080.740
 70
    32
  0
VERTEX
  8
T63SSILL
 62
7
 10
991.705
 20
-5728.215
 30
-1080.719
 70
    32
  0
VERTEX
  8
T63SSILL
 62
7
 10
990.399
 20
-5721.811
 30
-1080.706
 70
    32
  0
VERTEX
  8
T63SSILL
 62
7
 10
988.538
 20
-5720.518
 30
-1080.704
 70
    32
  0
VERTEX
  8
T63SSILL
 62
7
 10
980.308
 20
-5721.044
 30
-1080.711
 70
    32
  0
VERTEX
  8
T63SSILL
 62
7
 10
970.845
 20
-5718.231
 30
-1080.712
 70
    32
  0
VERTEX
  8
T63SSILL
 62
7
 10
969.385
 20
-5710.099
 30
-1080.694
 70
    32
  0
VERTEX
  8
T63SSILL
 62
7
 10
972.972
 20
-5703.669
 30
-1080.677
 70
    32
  0
VERTEX
  8
T63SSILL
 62
7
 10
970.033
 20
-5698.298
 30
-1080.667
 70
    32
  0
VERTEX
  8
T63SSILL
 62
7
 10
967.121
 20
-5697.591
 30
-1080.667
 70
    32
  0
VERTEX
  8
T63SSILL
 62
7
 10
966.742
 20
-5687.315
 30
-1080.644
 70
    32
  0
VERTEX
  8
T63SSILL
 62
7
 10
992.270
 20
-5620.032
 30
-1080.544
 70
    32
  0
VERTEX
  8
T63SSILL
 62
7
 10
1004.104
 20
-5616.071
 30
-1080.572
 70
    32
  0
VERTEX
  8
T63SSILL
 62
7
 10
1050.502
 20
-5630.028
 30
-1080.690
 70
    32
  0
VERTEX
  8
T63SSILL
 62
7
 10
1061.022
 20
-5634.178
 30
-1080.717
 70
    32
  0
VERTEX
  8
T63SSILL
 62
7
 10
1138.183
 20
-5786.902
 30
-1080.747
 70
    32
  0
VERTEX
  8
T63SSILL
 62
7
 10
1138.897
 20
-5799.694
 30
-1080.724
 70
    32
  0
VERTEX
  8
T63SSILL
 62
7
 10
1141.940
 20
-5808.895
 30
-1080.688
 70
    32
  0
VERTEX
  8
T63SSILL
 62
7
 10
1153.905
 20
-5817.414
 30
-1080.605
 70
    32
  0
VERTEX
  8
T63SSILL
 62
7
 10
1162.466
 20
-5833.202
 30
-1080.528
 70
    32
  0
VERTEX
  8
T63SSILL
 62
7
 10
1166.621
 20
-5853.618
 30
-1080.860
 70
    32
  0
VERTEX
  8
T63SSILL
 62
7
 10
1162.986
 20
-5874.024
 30
-1081.236
 70
    32
  0
VERTEX
  8
T63SSILL
 62
7
 10
1156.151
 20
-5883.935
 30
-1081.151
 70
    32
  0
VERTEX
  8
T63SSILL
 62
7
 10
1146.519
 20
-5890.957
 30
-1080.839
 70
    32
  0
VERTEX
  8
T63SSILL
 62
7
 10
1142.125
 20
-5887.035
 30
-1080.547
 70
    32
  0
VERTEX
  8
T63SSILL
 62
7
 10
1132.569
 20
-5893.247
 30
-1080.599
 70
    32
  0
VERTEX
  8
T63SSILL
 62
7
 10
1134.133
 20
-5900.357
 30
-1080.588
 70
    32
  0
VERTEX
  8
T63SSILL
 62
7
 10
1076.652
 20
-5941.406
 30
-1080.933
 70
    32
  0
VERTEX
  8
T63SSILL
 62
7
 10
1074.287
 20
-5938.212
 30
-1080.932
 70
    32
  0
VERTEX
  8
T63SSILL
 62
7
 10
1079.313
 20
-5916.715
 30
-1080.927
 70
    32
  0
VERTEX
  8
T63SSILL
 62
7
 10
1067.674
 20
-5914.777
 30
-1081.012
 70
    32
  0
VERTEX
  8
T63SSILL
 62
7
 10
1064.720
 20
-5932.323
 30
-1081.001
 70
    32
  0
VERTEX
  8
T63SSILL
 62
7
 10
1058.593
 20
-5948.437
 30
-1081.023
 70
    32
  0
VERTEX
  8
T63SSILL
 62
7
 10
1049.948
 20
-5954.869
 30
-1081.076
 70
    32
  0
VERTEX
  8
T63SSILL
 62
7
 10
1040.548
 20
-5968.646
 30
-1081.155
 70
    32
  0
VERTEX
  8
T63SSILL
 62
7
 10
1029.928
 20
-5978.096
 30
-1081.225
 70
    32
  0
VERTEX
  8
T63SSILL
 62
7
 10
1023.275
 20
-5978.473
 30
-1081.250
 70
    32
  0
VERTEX
  8
T63SSILL
 62
7
 10
1019.358
 20
-5949.673
 30
-1081.203
 70
    32
  0
VERTEX
  8
T63SSILL
 62
7
 10
1020.038
 20
-5933.193
 30
-1081.165
 70
    32
  0
VERTEX
  8
T63SSILL
 62
7
 10
1014.141
 20
-5918.116
 30
-1081.135
 70
    32
  0
VERTEX
  8
T63SSILL
 62
7
 10
1010.648
 20
-5896.801
 30
-1081.089
 70
    32
  0
VERTEX
  8
T63SSILL
 62
7
 10
1002.441
 20
-5877.843
 30
-1081.052
 70
    32
  0
VERTEX
  8
T63SSILL
 62
7
 10
992.674
 20
-5824.852
 30
-1080.938
 70
    32
  0
VERTEX
  8
T63SSILL
 62
7
 10
993.419
 20
-5811.677
 30
-1080.908
 70
    32
  0
VERTEX
  8
T63SSILL
 62
7
 10
988.477
 20
-5804.683
 30
-1080.896
 70
    32
  0
VERTEX
  8
T63SSILL
 62
7
 10
983.554
 20
-5787.444
 30
-1080.860
 70
    32
  0
SEQEND
  8
T63SSILL
  0
POLYLINE
  8
T63SSILL
 62
7
 66
     1
 70
     9
  0
VERTEX
  8
T63SSILL
 62
7
 10
1032.117
 20
-5540.164
 30
-1080.500
 70
    32
  0
VERTEX
  8
T63SSILL
 62
7
 10
1018.551
 20
-5549.853
 30
-1080.500
 70
    32
  0
VERTEX
  8
T63SSILL
 62
7
 10
1004.451
 20
-5587.262
 30
-1080.500
 70
    32
  0
VERTEX
  8
T63SSILL
 62
7
 10
1004.586
 20
-5587.314
 30
-1080.500
 70
    32
  0
VERTEX
  8
T63SSILL
 62
7
 10
1022.829
 20
-5596.933
 30
-1080.500
 70
    32
  0
VERTEX
  8
T63SSILL
 62
7
 10
1028.835
 20
-5596.145
 30
-1080.500
 70
    32
  0
VERTEX
  8
T63SSILL
 62
7
 10
1040.962
 20
-5603.913
 30
-1080.500
 70
    32
  0
VERTEX
  8
T63SSILL
 62
7
 10
1044.361
 20
-5601.192
 30
-1080.500
 70
    32
  0
VERTEX
  8
T63SSILL
 62
7
 10
1034.581
 20
-5581.835
 30
-1080.500
 70
    32
  0
VERTEX
  8
T63SSILL
 62
7
 10
1031.329
 20
-5569.430
 30
-1080.500
 70
    32
  0
VERTEX
  8
T63SSILL
 62
7
 10
1030.768
 20
-5558.692
 30
-1080.500
 70
    32
  0
VERTEX
  8
T63SSILL
 62
7
 10
1034.499
 20
-5543.623
 30
-1080.500
 70
    32
  0
VERTEX
  8
T63SSILL
 62
7
 10
1034.312
 20
-5543.489
 30
-1080.500
 70
    32
  0
VERTEX
  8
T63SSILL
 62
7
 10
1034.405
 20
-5543.556
 30
-1080.500
 70
    32
  0
SEQEND
  8
T63SSILL
  0
POLYLINE
  8
T63SSILL
 62
7
 66
     1
 70
     9
  0
VERTEX
  8
T63SSILL
 62
7
 10
1931.063
 20
-9374.367
 30
-1080.080
 70
    32
  0
VERTEX
  8
T63SSILL
 62
7
 10
1940.520
 20
-9361.331
 30
-1080.080
 70
    32
  0
VERTEX
  8
T63SSILL
 62
7
 10
1945.360
 20
-9341.603
 30
-1080.060
 70
    32
  0
VERTEX
  8
T63SSILL
 62
7
 10
1938.169
 20
-9318.508
 30
-1080.930
 70
    32
  0
VERTEX
  8
T63SSILL
 62
7
 10
1936.260
 20
-9319.102
 30
-1080.930
 70
    32
  0
VERTEX
  8
T63SSILL
 62
7
 10
1934.179
 20
-9312.419
 30
-1080.955
 70
    32
  0
VERTEX
  8
T63SSILL
 62
7
 10
1936.088
 20
-9311.824
 30
-1080.955
 70
    32
  0
VERTEX
  8
T63SSILL
 62
7
 10
1926.495
 20
-9281.013
 30
-1080.780
 70
    32
  0
VERTEX
  8
T63SSILL
 62
7
 10
1925.864
 20
-9278.986
 30
-1079.680
 70
    32
  0
VERTEX
  8
T63SSILL
 62
7
 10
1924.383
 20
-9274.229
 30
-1079.609
 70
    32
  0
VERTEX
  8
T63SSILL
 62
7
 10
1922.651
 20
-9268.668
 30
-1079.542
 70
    32
  0
VERTEX
  8
T63SSILL
 62
7
 10
1911.540
 20
-9232.982
 30
-1080.559
 70
    32
  0
VERTEX
  8
T63SSILL
 62
7
 10
1911.166
 20
-9231.780
 30
-1080.593
 70
    32
  0
VERTEX
  8
T63SSILL
 62
7
 10
1907.924
 20
-9231.512
 30
-1080.743
 70
    32
  0
VERTEX
  8
T63SSILL
 62
7
 10
1901.867
 20
-9231.010
 30
-1081.271
 70
    32
  0
VERTEX
  8
T63SSILL
 62
7
 10
1892.844
 20
-9239.732
 30
-1081.253
 70
    32
  0
VERTEX
  8
T63SSILL
 62
7
 10
1884.513
 20
-9236.327
 30
-1081.275
 70
    32
  0
VERTEX
  8
T63SSILL
 62
7
 10
1897.415
 20
-9191.405
 30
-1081.410
 70
    32
  0
VERTEX
  8
T63SSILL
 62
7
 10
1895.499
 20
-9181.461
 30
-1081.446
 70
    32
  0
VERTEX
  8
T63SSILL
 62
7
 10
1876.429
 20
-9120.209
 30
-1081.677
 70
    32
  0
VERTEX
  8
T63SSILL
 62
7
 10
1873.861
 20
-9122.054
 30
-1081.674
 70
    32
  0
VERTEX
  8
T63SSILL
 62
7
 10
1871.668
 20
-9115.010
 30
-1081.701
 70
    32
  0
VERTEX
  8
T63SSILL
 62
7
 10
1874.236
 20
-9113.165
 30
-1081.703
 70
    32
  0
VERTEX
  8
T63SSILL
 62
7
 10
1845.561
 20
-9021.070
 30
-1082.050
 70
    32
  0
VERTEX
  8
T63SSILL
 62
7
 10
1841.933
 20
-9018.996
 30
-1082.062
 70
    32
  0
VERTEX
  8
T63SSILL
 62
7
 10
1840.683
 20
-9016.083
 30
-1082.073
 70
    32
  0
VERTEX
  8
T63SSILL
 62
7
 10
1842.513
 20
-9011.279
 30
-1082.087
 70
    32
  0
VERTEX
  8
T63SSILL
 62
7
 10
1830.338
 20
-8972.174
 30
-1082.235
 70
    32
  0
VERTEX
  8
T63SSILL
 62
7
 10
1817.908
 20
-8948.633
 30
-1082.330
 70
    32
  0
VERTEX
  8
T63SSILL
 62
7
 10
1813.652
 20
-8931.569
 30
-1082.391
 70
    32
  0
VERTEX
  8
T63SSILL
 62
7
 10
1810.940
 20
-8906.812
 30
-1082.462
 70
    32
  0
VERTEX
  8
T63SSILL
 62
7
 10
1814.314
 20
-8881.899
 30
-1082.534
 70
    32
  0
VERTEX
  8
T63SSILL
 62
7
 10
1853.259
 20
-8789.523
 30
-1082.737
 70
    32
  0
VERTEX
  8
T63SSILL
 62
7
 10
1848.646
 20
-8774.390
 30
-1082.768
 70
    32
  0
VERTEX
  8
T63SSILL
 62
7
 10
1836.731
 20
-8776.732
 30
-1082.761
 70
    32
  0
VERTEX
  8
T63SSILL
 62
7
 10
1833.009
 20
-8772.265
 30
-1082.770
 70
    32
  0
VERTEX
  8
T63SSILL
 62
7
 10
1832.629
 20
-8768.348
 30
-1082.778
 70
    32
  0
VERTEX
  8
T63SSILL
 62
7
 10
1841.363
 20
-8766.931
 30
-1082.783
 70
    32
  0
VERTEX
  8
T63SSILL
 62
7
 10
1867.990
 20
-8752.844
 30
-1082.818
 70
    32
  0
VERTEX
  8
T63SSILL
 62
7
 10
1952.828
 20
-8551.788
 30
-1082.972
 70
    32
  0
VERTEX
  8
T63SSILL
 62
7
 10
1954.628
 20
-8541.038
 30
-1082.989
 70
    32
  0
VERTEX
  8
T63SSILL
 62
7
 10
1953.865
 20
-8526.717
 30
-1083.010
 70
    32
  0
VERTEX
  8
T63SSILL
 62
7
 10
1845.979
 20
-8257.253
 30
-1083.882
 70
    32
  0
VERTEX
  8
T63SSILL
 62
7
 10
1841.819
 20
-8241.383
 30
-1083.907
 70
    32
  0
VERTEX
  8
T63SSILL
 62
7
 10
1843.268
 20
-8219.891
 30
-1083.868
 70
    32
  0
VERTEX
  8
T63SSILL
 62
7
 10
1874.660
 20
-8149.631
 30
-1083.548
 70
    32
  0
VERTEX
  8
T63SSILL
 62
7
 10
1878.159
 20
-8137.903
 30
-1083.528
 70
    32
  0
VERTEX
  8
T63SSILL
 62
7
 10
1879.540
 20
-8110.756
 30
-1083.522
 70
    32
  0
VERTEX
  8
T63SSILL
 62
7
 10
1873.440
 20
-8087.241
 30
-1083.561
 70
    32
  0
VERTEX
  8
T63SSILL
 62
7
 10
1847.722
 20
-8027.738
 30
-1083.722
 70
    32
  0
VERTEX
  8
T63SSILL
 62
7
 10
1841.375
 20
-8047.086
 30
-1083.758
 70
    32
  0
VERTEX
  8
T63SSILL
 62
7
 10
1836.210
 20
-8053.810
 30
-1083.789
 70
    32
  0
VERTEX
  8
T63SSILL
 62
7
 10
1787.729
 20
-8092.332
 30
-1084.305
 70
    32
  0
VERTEX
  8
T63SSILL
 62
7
 10
1784.493
 20
-8104.851
 30
-1084.352
 70
    32
  0
VERTEX
  8
T63SSILL
 62
7
 10
1791.124
 20
-8120.288
 30
-1084.300
 70
    32
  0
VERTEX
  8
T63SSILL
 62
7
 10
1786.030
 20
-8124.764
 30
-1084.359
 70
    32
  0
VERTEX
  8
T63SSILL
 62
7
 10
1777.872
 20
-8106.411
 30
-1084.423
 70
    32
  0
VERTEX
  8
T63SSILL
 62
7
 10
1770.462
 20
-8105.600
 30
-1084.408
 70
    32
  0
VERTEX
  8
T63SSILL
 62
7
 10
1697.647
 20
-8163.171
 30
-1083.981
 70
    32
  0
VERTEX
  8
T63SSILL
 62
7
 10
1692.979
 20
-8187.387
 30
-1083.964
 70
    32
  0
VERTEX
  8
T63SSILL
 62
7
 10
1707.731
 20
-8335.097
 30
-1083.668
 70
    32
  0
VERTEX
  8
T63SSILL
 62
7
 10
1700.485
 20
-8335.435
 30
-1083.666
 70
    32
  0
VERTEX
  8
T63SSILL
 62
7
 10
1690.448
 20
-8237.068
 30
-1083.872
 70
    32
  0
VERTEX
  8
T63SSILL
 62
7
 10
1631.600
 20
-8243.467
 30
-1083.686
 70
    32
  0
VERTEX
  8
T63SSILL
 62
7
 10
1630.797
 20
-8233.654
 30
-1083.711
 70
    32
  0
VERTEX
  8
T63SSILL
 62
7
 10
1689.377
 20
-8226.573
 30
-1083.894
 70
    32
  0
VERTEX
  8
T63SSILL
 62
7
 10
1685.707
 20
-8187.530
 30
-1083.975
 70
    32
  0
VERTEX
  8
T63SSILL
 62
7
 10
1687.358
 20
-8173.163
 30
-1083.992
 70
    32
  0
VERTEX
  8
T63SSILL
 62
7
 10
1690.273
 20
-8165.519
 30
-1083.995
 70
    32
  0
VERTEX
  8
T63SSILL
 62
7
 10
1681.519
 20
-8172.116
 30
-1084.006
 70
    32
  0
VERTEX
  8
T63SSILL
 62
7
 10
1644.568
 20
-8193.309
 30
-1083.876
 70
    32
  0
VERTEX
  8
T63SSILL
 62
7
 10
1643.221
 20
-8198.392
 30
-1083.857
 70
    32
  0
VERTEX
  8
T63SSILL
 62
7
 10
1644.022
 20
-8210.556
 30
-1083.825
 70
    32
  0
VERTEX
  8
T63SSILL
 62
7
 10
1642.116
 20
-8213.562
 30
-1083.810
 70
    32
  0
VERTEX
  8
T63SSILL
 62
7
 10
1634.743
 20
-8218.579
 30
-1083.768
 70
    32
  0
VERTEX
  8
T63SSILL
 62
7
 10
1621.663
 20
-8223.528
 30
-1083.706
 70
    32
  0
VERTEX
  8
T63SSILL
 62
7
 10
1604.631
 20
-8217.175
 30
-1083.634
 70
    32
  0
VERTEX
  8
T63SSILL
 62
7
 10
1597.622
 20
-8211.585
 30
-1083.611
 70
    32
  0
VERTEX
  8
T63SSILL
 62
7
 10
1597.553
 20
-8204.263
 30
-1083.636
 70
    32
  0
VERTEX
  8
T63SSILL
 62
7
 10
1601.330
 20
-8197.100
 30
-1083.684
 70
    32
  0
VERTEX
  8
T63SSILL
 62
7
 10
1612.991
 20
-8187.242
 30
-1083.777
 70
    32
  0
VERTEX
  8
T63SSILL
 62
7
 10
1615.682
 20
-8181.779
 30
-1083.802
 70
    32
  0
VERTEX
  8
T63SSILL
 62
7
 10
1613.712
 20
-8167.740
 30
-1083.834
 70
    32
  0
VERTEX
  8
T63SSILL
 62
7
 10
1615.450
 20
-8152.246
 30
-1083.885
 70
    32
  0
VERTEX
  8
T63SSILL
 62
7
 10
1614.878
 20
-8134.349
 30
-1083.933
 70
    32
  0
VERTEX
  8
T63SSILL
 62
7
 10
1564.175
 20
-8114.406
 30
-1083.607
 70
    32
  0
VERTEX
  8
T63SSILL
 62
7
 10
1535.939
 20
-7900.895
 30
-1083.978
 70
    32
  0
VERTEX
  8
T63SSILL
 62
7
 10
1528.931
 20
-7895.305
 30
-1083.969
 70
    32
  0
VERTEX
  8
T63SSILL
 62
7
 10
1535.939
 20
-7900.895
 30
-1083.000
 70
    32
  0
VERTEX
  8
T63SSILL
 62
7
 10
1525.195
 20
-7892.324
 30
-1083.000
 70
    32
  0
VERTEX
  8
T63SSILL
 62
7
 10
1523.550
 20
-7889.985
 30
-1083.000
 70
    32
  0
VERTEX
  8
T63SSILL
 62
7
 10
1509.828
 20
-7894.946
 30
-1083.000
 70
    32
  0
VERTEX
  8
T63SSILL
 62
7
 10
1501.707
 20
-7902.025
 30
-1083.000
 70
    32
  0
VERTEX
  8
T63SSILL
 62
7
 10
1500.275
 20
-7902.719
 30
-1083.000
 70
    32
  0
VERTEX
  8
T63SSILL
 62
7
 10
1495.016
 20
-7895.258
 30
-1083.000
 70
    32
  0
VERTEX
  8
T63SSILL
 62
7
 10
1502.800
 20
-7890.911
 30
-1083.000
 70
    32
  0
VERTEX
  8
T63SSILL
 62
7
 10
1508.455
 20
-7881.350
 30
-1083.000
 70
    32
  0
VERTEX
  8
T63SSILL
 62
7
 10
1504.637
 20
-7880.840
 30
-1083.000
 70
    32
  0
VERTEX
  8
T63SSILL
 62
7
 10
1501.986
 20
-7878.889
 30
-1083.000
 70
    32
  0
VERTEX
  8
T63SSILL
 62
7
 10
1498.146
 20
-7877.267
 30
-1083.000
 70
    32
  0
VERTEX
  8
T63SSILL
 62
7
 10
1492.882
 20
-7875.310
 30
-1083.000
 70
    32
  0
VERTEX
  8
T63SSILL
 62
7
 10
1493.555
 20
-7872.740
 30
-1083.000
 70
    32
  0
VERTEX
  8
T63SSILL
 62
7
 10
1494.595
 20
-7864.630
 30
-1083.000
 70
    32
  0
VERTEX
  8
T63SSILL
 62
7
 10
1498.986
 20
-7860.181
 30
-1083.000
 70
    32
  0
VERTEX
  8
T63SSILL
 62
7
 10
1506.345
 20
-7850.971
 30
-1083.000
 70
    32
  0
VERTEX
  8
T63SSILL
 62
7
 10
1506.345
 20
-7850.971
 30
-1083.862
 70
    32
  0
VERTEX
  8
T63SSILL
 62
7
 10
1498.119
 20
-7838.412
 30
-1083.823
 70
    32
  0
VERTEX
  8
T63SSILL
 62
7
 10
1466.390
 20
-7818.887
 30
-1083.503
 70
    32
  0
VERTEX
  8
T63SSILL
 62
7
 10
1469.703
 20
-7812.245
 30
-1083.606
 70
    32
  0
VERTEX
  8
T63SSILL
 62
7
 10
1477.085
 20
-7805.136
 30
-1083.724
 70
    32
  0
VERTEX
  8
T63SSILL
 62
7
 10
1493.434
 20
-7814.167
 30
-1083.799
 70
    32
  0
VERTEX
  8
T63SSILL
 62
7
 10
1496.370
 20
-7817.558
 30
-1083.813
 70
    32
  0
VERTEX
  8
T63SSILL
 62
7
 10
1499.914
 20
-7826.351
 30
-1083.830
 70
    32
  0
VERTEX
  8
T63SSILL
 62
7
 10
1514.185
 20
-7836.425
 30
-1083.896
 70
    32
  0
VERTEX
  8
T63SSILL
 62
7
 10
1517.681
 20
-7775.971
 30
-1083.802
 70
    32
  0
VERTEX
  8
T63SSILL
 62
7
 10
1511.271
 20
-7768.905
 30
-1083.834
 70
    32
  0
VERTEX
  8
T63SSILL
 62
7
 10
1507.466
 20
-7760.174
 30
-1083.820
 70
    32
  0
VERTEX
  8
T63SSILL
 62
7
 10
1508.598
 20
-7750.538
 30
-1083.813
 70
    32
  0
VERTEX
  8
T63SSILL
 62
7
 10
1521.020
 20
-7740.697
 30
-1083.763
 70
    32
  0
VERTEX
  8
T63SSILL
 62
7
 10
1531.341
 20
-7742.534
 30
-1083.778
 70
    32
  0
VERTEX
  8
T63SSILL
 62
7
 10
1541.212
 20
-7752.555
 30
-1083.818
 70
    32
  0
VERTEX
  8
T63SSILL
 62
7
 10
1546.859
 20
-7753.420
 30
-1083.836
 70
    32
  0
VERTEX
  8
T63SSILL
 62
7
 10
1548.013
 20
-7757.516
 30
-1083.844
 70
    32
  0
VERTEX
  8
T63SSILL
 62
7
 10
1558.137
 20
-7755.275
 30
-1083.872
 70
    32
  0
VERTEX
  8
T63SSILL
 62
7
 10
1570.758
 20
-7766.949
 30
-1083.922
 70
    32
  0
VERTEX
  8
T63SSILL
 62
7
 10
1570.189
 20
-7777.018
 30
-1083.930
 70
    32
  0
VERTEX
  8
T63SSILL
 62
7
 10
1578.000
 20
-7788.000
 30
-1083.965
 70
    32
  0
VERTEX
  8
T63SSILL
 62
7
 10
1586.000
 20
-7790.000
 30
-1083.991
 70
    32
  0
VERTEX
  8
T63SSILL
 62
7
 10
1617.021
 20
-7766.259
 30
-1083.450
 70
    32
  0
VERTEX
  8
T63SSILL
 62
7
 10
1629.188
 20
-7747.726
 30
-1083.164
 70
    32
  0
VERTEX
  8
T63SSILL
 62
7
 10
1640.627
 20
-7735.029
 30
-1082.866
 70
    32
  0
VERTEX
  8
T63SSILL
 62
7
 10
1653.254
 20
-7739.146
 30
-1082.542
 70
    32
  0
VERTEX
  8
T63SSILL
 62
7
 10
1667.051
 20
-7729.535
 30
-1082.387
 70
    32
  0
VERTEX
  8
T63SSILL
 62
7
 10
1675.150
 20
-7720.377
 30
-1082.288
 70
    32
  0
VERTEX
  8
T63SSILL
 62
7
 10
1683.308
 20
-7709.081
 30
-1082.403
 70
    32
  0
VERTEX
  8
T63SSILL
 62
7
 10
1688.795
 20
-7696.499
 30
-1082.517
 70
    32
  0
VERTEX
  8
T63SSILL
 62
7
 10
1690.000
 20
-7670.000
 30
-1082.406
 70
    32
  0
VERTEX
  8
T63SSILL
 62
7
 10
1681.000
 20
-7650.000
 30
-1082.074
 70
    32
  0
VERTEX
  8
T63SSILL
 62
7
 10
1678.000
 20
-7647.000
 30
-1082.185
 70
    32
  0
VERTEX
  8
T63SSILL
 62
7
 10
1665.699
 20
-7652.467
 30
-1082.558
 70
    32
  0
VERTEX
  8
T63SSILL
 62
7
 10
1662.334
 20
-7646.428
 30
-1082.708
 70
    32
  0
VERTEX
  8
T63SSILL
 62
7
 10
1675.000
 20
-7641.000
 30
-1082.323
 70
    32
  0
VERTEX
  8
T63SSILL
 62
7
 10
1657.000
 20
-7596.000
 30
-1083.205
 70
    32
  0
VERTEX
  8
T63SSILL
 62
7
 10
1641.000
 20
-7603.000
 30
-1083.692
 70
    32
  0
VERTEX
  8
T63SSILL
 62
7
 10
1637.842
 20
-7597.043
 30
-1083.834
 70
    32
  0
VERTEX
  8
T63SSILL
 62
7
 10
1654.000
 20
-7589.000
 30
-1083.349
 70
    32
  0
VERTEX
  8
T63SSILL
 62
7
 10
1640.000
 20
-7555.000
 30
-1083.932
 70
    32
  0
VERTEX
  8
T63SSILL
 62
7
 10
1633.000
 20
-7557.000
 30
-1083.913
 70
    32
  0
VERTEX
  8
T63SSILL
 62
7
 10
1625.000
 20
-7565.000
 30
-1083.896
 70
    32
  0
VERTEX
  8
T63SSILL
 62
7
 10
1621.000
 20
-7558.000
 30
-1083.877
 70
    32
  0
VERTEX
  8
T63SSILL
 62
7
 10
1622.000
 20
-7554.000
 30
-1083.876
 70
    32
  0
VERTEX
  8
T63SSILL
 62
7
 10
1633.000
 20
-7544.000
 30
-1083.900
 70
    32
  0
VERTEX
  8
T63SSILL
 62
7
 10
1633.000
 20
-7542.000
 30
-1083.898
 70
    32
  0
VERTEX
  8
T63SSILL
 62
7
 10
1600.000
 20
-7467.000
 30
-1083.725
 70
    32
  0
VERTEX
  8
T63SSILL
 62
7
 10
1596.000
 20
-7465.000
 30
-1083.711
 70
    32
  0
VERTEX
  8
T63SSILL
 62
7
 10
1580.000
 20
-7473.000
 30
-1083.670
 70
    32
  0
VERTEX
  8
T63SSILL
 62
7
 10
1576.000
 20
-7478.000
 30
-1083.662
 70
    32
  0
VERTEX
  8
T63SSILL
 62
7
 10
1578.000
 20
-7500.000
 30
-1083.690
 70
    32
  0
VERTEX
  8
T63SSILL
 62
7
 10
1580.000
 20
-7503.000
 30
-1083.699
 70
    32
  0
VERTEX
  8
T63SSILL
 62
7
 10
1583.000
 20
-7518.000
 30
-1083.722
 70
    32
  0
VERTEX
  8
T63SSILL
 62
7
 10
1583.000
 20
-7534.000
 30
-1083.737
 70
    32
  0
VERTEX
  8
T63SSILL
 62
7
 10
1564.000
 20
-7534.000
 30
-1083.679
 70
    32
  0
VERTEX
  8
T63SSILL
 62
7
 10
1559.000
 20
-7531.000
 30
-1083.661
 70
    32
  0
VERTEX
  8
T63SSILL
 62
7
 10
1543.000
 20
-7467.000
 30
-1083.551
 70
    32
  0
VERTEX
  8
T63SSILL
 62
7
 10
1543.000
 20
-7457.000
 30
-1083.541
 70
    32
  0
VERTEX
  8
T63SSILL
 62
7
 10
1532.000
 20
-7404.000
 30
-1083.457
 70
    32
  0
VERTEX
  8
T63SSILL
 62
7
 10
1527.000
 20
-7392.000
 30
-1083.430
 70
    32
  0
VERTEX
  8
T63SSILL
 62
7
 10
1522.000
 20
-7352.000
 30
-1083.376
 70
    32
  0
VERTEX
  8
T63SSILL
 62
7
 10
1514.000
 20
-7334.000
 30
-1083.335
 70
    32
  0
VERTEX
  8
T63SSILL
 62
7
 10
1515.000
 20
-7330.000
 30
-1083.334
 70
    32
  0
VERTEX
  8
T63SSILL
 62
7
 10
1513.000
 20
-7329.000
 30
-1083.327
 70
    32
  0
VERTEX
  8
T63SSILL
 62
7
 10
1512.000
 20
-7323.000
 30
-1083.318
 70
    32
  0
VERTEX
  8
T63SSILL
 62
7
 10
1509.000
 20
-7318.000
 30
-1083.304
 70
    32
  0
VERTEX
  8
T63SSILL
 62
7
 10
1512.000
 20
-7313.000
 30
-1083.309
 70
    32
  0
VERTEX
  8
T63SSILL
 62
7
 10
1510.000
 20
-7304.000
 30
-1083.294
 70
    32
  0
VERTEX
  8
T63SSILL
 62
7
 10
1502.000
 20
-7305.000
 30
-1083.270
 70
    32
  0
VERTEX
  8
T63SSILL
 62
7
 10
1413.299
 20
-7346.739
 30
-1083.387
 70
    32
  0
VERTEX
  8
T63SSILL
 62
7
 10
1410.000
 20
-7340.000
 30
-1083.372
 70
    32
  0
VERTEX
  8
T63SSILL
 62
7
 10
1506.000
 20
-7297.000
 30
-1083.275
 70
    32
  0
VERTEX
  8
T63SSILL
 62
7
 10
1511.000
 20
-7297.000
 30
-1083.290
 70
    32
  0
VERTEX
  8
T63SSILL
 62
7
 10
1516.000
 20
-7294.000
 30
-1083.303
 70
    32
  0
VERTEX
  8
T63SSILL
 62
7
 10
1523.000
 20
-7294.000
 30
-1083.324
 70
    32
  0
VERTEX
  8
T63SSILL
 62
7
 10
1478.000
 20
-7192.000
 30
-1083.089
 70
    32
  0
VERTEX
  8
T63SSILL
 62
7
 10
1474.000
 20
-7193.000
 30
-1083.083
 70
    32
  0
VERTEX
  8
T63SSILL
 62
7
 10
1472.000
 20
-7187.000
 30
-1083.074
 70
    32
  0
VERTEX
  8
T63SSILL
 62
7
 10
1473.000
 20
-7179.000
 30
-1083.065
 70
    32
  0
VERTEX
  8
T63SSILL
 62
7
 10
1438.000
 20
-7099.000
 30
-1082.947
 70
    32
  0
VERTEX
  8
T63SSILL
 62
7
 10
1431.000
 20
-7098.000
 30
-1082.941
 70
    32
  0
VERTEX
  8
T63SSILL
 62
7
 10
1433.000
 20
-7088.000
 30
-1082.930
 70
    32
  0
VERTEX
  8
T63SSILL
 62
7
 10
1396.000
 20
-7005.000
 30
-1082.807
 70
    32
  0
VERTEX
  8
T63SSILL
 62
7
 10
1389.000
 20
-7006.000
 30
-1082.845
 70
    32
  0
VERTEX
  8
T63SSILL
 62
7
 10
1391.000
 20
-6995.000
 30
-1082.796
 70
    32
  0
VERTEX
  8
T63SSILL
 62
7
 10
1362.870
 20
-6929.731
 30
-1082.877
 70
    32
  0
VERTEX
  8
T63SSILL
 62
7
 10
1357.426
 20
-6917.566
 30
-1082.887
 70
    32
  0
VERTEX
  8
T63SSILL
 62
7
 10
1350.560
 20
-6912.819
 30
-1082.871
 70
    32
  0
VERTEX
  8
T63SSILL
 62
7
 10
1351.017
 20
-6902.836
 30
-1082.864
 70
    32
  0
VERTEX
  8
T63SSILL
 62
7
 10
1314.842
 20
-6822.809
 30
-1082.806
 70
    32
  0
VERTEX
  8
T63SSILL
 62
7
 10
1307.331
 20
-6820.042
 30
-1082.852
 70
    32
  0
VERTEX
  8
T63SSILL
 62
7
 10
1307.867
 20
-6805.012
 30
-1082.822
 70
    32
  0
VERTEX
  8
T63SSILL
 62
7
 10
1270.912
 20
-6722.830
 30
-1082.673
 70
    32
  0
VERTEX
  8
T63SSILL
 62
7
 10
1262.886
 20
-6717.068
 30
-1082.638
 70
    32
  0
VERTEX
  8
T63SSILL
 62
7
 10
1263.485
 20
-6704.705
 30
-1082.636
 70
    32
  0
VERTEX
  8
T63SSILL
 62
7
 10
1231.973
 20
-6633.171
 30
-1082.479
 70
    32
  0
VERTEX
  8
T63SSILL
 62
7
 10
1225.888
 20
-6631.337
 30
-1082.454
 70
    32
  0
VERTEX
  8
T63SSILL
 62
7
 10
1223.320
 20
-6625.470
 30
-1082.441
 70
    32
  0
VERTEX
  8
T63SSILL
 62
7
 10
1225.626
 20
-6620.349
 30
-1082.449
 70
    32
  0
VERTEX
  8
T63SSILL
 62
7
 10
1190.323
 20
-6539.265
 30
-1082.273
 70
    32
  0
VERTEX
  8
T63SSILL
 62
7
 10
1183.910
 20
-6537.883
 30
-1082.246
 70
    32
  0
VERTEX
  8
T63SSILL
 62
7
 10
1182.082
 20
-6533.657
 30
-1082.237
 70
    32
  0
VERTEX
  8
T63SSILL
 62
7
 10
1184.356
 20
-6526.064
 30
-1082.243
 70
    32
  0
VERTEX
  8
T63SSILL
 62
7
 10
1150.409
 20
-6449.000
 30
-1082.075
 70
    32
  0
VERTEX
  8
T63SSILL
 62
7
 10
1143.657
 20
-6446.993
 30
-1082.046
 70
    32
  0
VERTEX
  8
T63SSILL
 62
7
 10
1141.007
 20
-6440.859
 30
-1082.033
 70
    32
  0
VERTEX
  8
T63SSILL
 62
7
 10
1145.273
 20
-6437.266
 30
-1082.049
 70
    32
  0
VERTEX
  8
T63SSILL
 62
7
 10
1107.250
 20
-6352.376
 30
-1081.871
 70
    32
  0
VERTEX
  8
T63SSILL
 62
7
 10
1101.822
 20
-6351.158
 30
-1081.845
 70
    32
  0
VERTEX
  8
T63SSILL
 62
7
 10
1099.604
 20
-6346.994
 30
-1081.835
 70
    32
  0
VERTEX
  8
T63SSILL
 62
7
 10
1103.347
 20
-6343.124
 30
-1081.854
 70
    32
  0
VERTEX
  8
T63SSILL
 62
7
 10
1067.623
 20
-6261.906
 30
-1081.731
 70
    32
  0
VERTEX
  8
T63SSILL
 62
7
 10
1059.865
 20
-6257.581
 30
-1081.676
 70
    32
  0
VERTEX
  8
T63SSILL
 62
7
 10
1058.898
 20
-6252.739
 30
-1081.683
 70
    32
  0
VERTEX
  8
T63SSILL
 62
7
 10
1062.454
 20
-6246.181
 30
-1081.724
 70
    32
  0
VERTEX
  8
T63SSILL
 62
7
 10
1044.683
 20
-6151.670
 30
-1081.524
 70
    32
  0
VERTEX
  8
T63SSILL
 62
7
 10
1038.501
 20
-6149.528
 30
-1081.514
 70
    32
  0
VERTEX
  8
T63SSILL
 62
7
 10
1037.730
 20
-6146.421
 30
-1081.502
 70
    32
  0
VERTEX
  8
T63SSILL
 62
7
 10
1041.865
 20
-6140.797
 30
-1081.483
 70
    32
  0
VERTEX
  8
T63SSILL
 62
7
 10
1018.245
 20
-6008.838
 30
-1081.201
 70
    32
  0
VERTEX
  8
T63SSILL
 62
7
 10
1015.015
 20
-6006.256
 30
-1081.176
 70
    32
  0
VERTEX
  8
T63SSILL
 62
7
 10
1009.237
 20
-6008.176
 30
-1081.119
 70
    32
  0
VERTEX
  8
T63SSILL
 62
7
 10
986.454
 20
-6057.788
 30
-1081.164
 70
    32
  0
VERTEX
  8
T63SSILL
 62
7
 10
986.573
 20
-6076.622
 30
-1081.233
 70
    32
  0
VERTEX
  8
T63SSILL
 62
7
 10
991.453
 20
-6094.370
 30
-1081.299
 70
    32
  0
VERTEX
  8
T63SSILL
 62
7
 10
991.693
 20
-6109.113
 30
-1081.321
 70
    32
  0
VERTEX
  8
T63SSILL
 62
7
 10
984.539
 20
-6125.303
 30
-1081.324
 70
    32
  0
VERTEX
  8
T63SSILL
 62
7
 10
952.948
 20
-6131.085
 30
-1081.156
 70
    32
  0
VERTEX
  8
T63SSILL
 62
7
 10
936.239
 20
-6170.769
 30
-1081.091
 70
    32
  0
VERTEX
  8
T63SSILL
 62
7
 10
929.383
 20
-6169.032
 30
-1081.063
 70
    32
  0
VERTEX
  8
T63SSILL
 62
7
 10
949.918
 20
-6121.442
 30
-1081.143
 70
    32
  0
VERTEX
  8
T63SSILL
 62
7
 10
946.390
 20
-6108.799
 30
-1081.136
 70
    32
  0
VERTEX
  8
T63SSILL
 62
7
 10
950.841
 20
-6089.547
 30
-1081.176
 70
    32
  0
VERTEX
  8
T63SSILL
 62
7
 10
968.854
 20
-6067.305
 30
-1081.194
 70
    32
  0
VERTEX
  8
T63SSILL
 62
7
 10
970.112
 20
-6062.200
 30
-1081.175
 70
    32
  0
VERTEX
  8
T63SSILL
 62
7
 10
969.160
 20
-6057.792
 30
-1081.159
 70
    32
  0
VERTEX
  8
T63SSILL
 62
7
 10
966.821
 20
-6055.552
 30
-1081.150
 70
    32
  0
VERTEX
  8
T63SSILL
 62
7
 10
941.622
 20
-6047.736
 30
-1081.089
 70
    32
  0
VERTEX
  8
T63SSILL
 62
7
 10
941.879
 20
-6035.554
 30
-1081.070
 70
    32
  0
VERTEX
  8
T63SSILL
 62
7
 10
881.863
 20
-6046.394
 30
-1080.824
 70
    32
  0
VERTEX
  8
T63SSILL
 62
7
 10
881.478
 20
-6039.423
 30
-1080.823
 70
    32
  0
VERTEX
  8
T63SSILL
 62
7
 10
876.781
 20
-6030.634
 30
-1080.801
 70
    32
  0
VERTEX
  8
T63SSILL
 62
7
 10
871.905
 20
-6028.782
 30
-1080.778
 70
    32
  0
VERTEX
  8
T63SSILL
 62
7
 10
864.420
 20
-6019.260
 30
-1080.743
 70
    32
  0
VERTEX
  8
T63SSILL
 62
7
 10
861.761
 20
-6013.355
 30
-1080.731
 70
    32
  0
VERTEX
  8
T63SSILL
 62
7
 10
860.104
 20
-5973.985
 30
-1080.748
 70
    32
  0
VERTEX
  8
T63SSILL
 62
7
 10
852.804
 20
-5942.386
 30
-1080.681
 70
    32
  0
VERTEX
  8
T63SSILL
 62
7
 10
854.938
 20
-5924.446
 30
-1080.639
 70
    32
  0
VERTEX
  8
T63SSILL
 62
7
 10
837.559
 20
-5888.834
 30
-1080.505
 70
    32
  0
VERTEX
  8
T63SSILL
 62
7
 10
823.781
 20
-5869.488
 30
-1080.430
 70
    32
  0
VERTEX
  8
T63SSILL
 62
7
 10
813.726
 20
-5844.701
 30
-1080.337
 70
    32
  0
VERTEX
  8
T63SSILL
 62
7
 10
804.021
 20
-5833.721
 30
-1080.294
 70
    32
  0
VERTEX
  8
T63SSILL
 62
7
 10
791.652
 20
-5806.879
 30
-1080.155
 70
    32
  0
VERTEX
  8
T63SSILL
 62
7
 10
805.832
 20
-5797.949
 30
-1080.066
 70
    32
  0
VERTEX
  8
T63SSILL
 62
7
 10
803.395
 20
-5786.548
 30
-1080.000
 70
    32
  0
VERTEX
  8
T63SSILL
 62
7
 10
801.736
 20
-5784.273
 30
-1079.990
 70
    32
  0
VERTEX
  8
T63SSILL
 62
7
 10
798.695
 20
-5783.987
 30
-1079.995
 70
    32
  0
VERTEX
  8
T63SSILL
 62
7
 10
748.253
 20
-5788.003
 30
-1080.111
 70
    32
  0
VERTEX
  8
T63SSILL
 62
7
 10
747.881
 20
-5781.522
 30
-1080.087
 70
    32
  0
VERTEX
  8
T63SSILL
 62
7
 10
797.835
 20
-5775.791
 30
-1079.946
 70
    32
  0
VERTEX
  8
T63SSILL
 62
7
 10
819.123
 20
-5770.319
 30
-1079.862
 70
    32
  0
VERTEX
  8
T63SSILL
 62
7
 10
825.867
 20
-5772.113
 30
-1079.920
 70
    32
  0
VERTEX
  8
T63SSILL
 62
7
 10
845.519
 20
-5771.281
 30
-1080.086
 70
    32
  0
VERTEX
  8
T63SSILL
 62
7
 10
868.923
 20
-5756.928
 30
-1080.201
 70
    32
  0
VERTEX
  8
T63SSILL
 62
7
 10
849.855
 20
-5746.768
 30
-1080.084
 70
    32
  0
VERTEX
  8
T63SSILL
 62
7
 10
804.772
 20
-5718.120
 30
-1079.801
 70
    32
  0
VERTEX
  8
T63SSILL
 62
7
 10
796.231
 20
-5717.162
 30
-1079.752
 70
    32
  0
VERTEX
  8
T63SSILL
 62
7
 10
787.027
 20
-5718.884
 30
-1079.673
 70
    32
  0
VERTEX
  8
T63SSILL
 62
7
 10
781.756
 20
-5716.645
 30
-1079.629
 70
    32
  0
VERTEX
  8
T63SSILL
 62
7
 10
777.782
 20
-5713.522
 30
-1079.604
 70
    32
  0
VERTEX
  8
T63SSILL
 62
7
 10
778.234
 20
-5708.618
 30
-1079.614
 70
    32
  0
VERTEX
  8
T63SSILL
 62
7
 10
776.499
 20
-5704.093
 30
-1079.607
 70
    32
  0
VERTEX
  8
T63SSILL
 62
7
 10
770.996
 20
-5699.698
 30
-1079.565
 70
    32
  0
VERTEX
  8
T63SSILL
 62
7
 10
761.672
 20
-5700.397
 30
-1079.560
 70
    32
  0
VERTEX
  8
T63SSILL
 62
7
 10
747.767
 20
-5707.703
 30
-1079.639
 70
    32
  0
VERTEX
  8
T63SSILL
 62
7
 10
735.569
 20
-5720.593
 30
-1079.748
 70
    32
  0
VERTEX
  8
T63SSILL
 62
7
 10
731.734
 20
-5727.640
 30
-1079.801
 70
    32
  0
VERTEX
  8
T63SSILL
 62
7
 10
714.167
 20
-5742.085
 30
-1079.933
 70
    32
  0
VERTEX
  8
T63SSILL
 62
7
 10
708.405
 20
-5739.601
 30
-1079.923
 70
    32
  0
VERTEX
  8
T63SSILL
 62
7
 10
703.234
 20
-5733.244
 30
-1079.898
 70
    32
  0
VERTEX
  8
T63SSILL
 62
7
 10
709.908
 20
-5721.694
 30
-1079.815
 70
    32
  0
VERTEX
  8
T63SSILL
 62
7
 10
718.540
 20
-5713.500
 30
-1079.744
 70
    32
  0
VERTEX
  8
T63SSILL
 62
7
 10
726.769
 20
-5713.688
 30
-1079.726
 70
    32
  0
VERTEX
  8
T63SSILL
 62
7
 10
751.862
 20
-5692.376
 30
-1079.533
 70
    32
  0
VERTEX
  8
T63SSILL
 62
7
 10
752.830
 20
-5688.125
 30
-1079.504
 70
    32
  0
VERTEX
  8
T63SSILL
 62
7
 10
728.656
 20
-5672.466
 30
-1079.464
 70
    32
  0
VERTEX
  8
T63SSILL
 62
7
 10
721.539
 20
-5663.607
 30
-1079.425
 70
    32
  0
VERTEX
  8
T63SSILL
 62
7
 10
714.868
 20
-5650.284
 30
-1079.357
 70
    32
  0
VERTEX
  8
T63SSILL
 62
7
 10
712.572
 20
-5629.042
 30
-1079.230
 70
    32
  0
VERTEX
  8
T63SSILL
 62
7
 10
704.080
 20
-5452.618
 30
-1079.368
 70
    32
  0
VERTEX
  8
T63SSILL
 62
7
 10
712.521
 20
-5451.796
 30
-1079.410
 70
    32
  0
VERTEX
  8
T63SSILL
 62
7
 10
722.341
 20
-5633.504
 30
-1079.250
 70
    32
  0
VERTEX
  8
T63SSILL
 62
7
 10
724.042
 20
-5645.987
 30
-1079.309
 70
    32
  0
VERTEX
  8
T63SSILL
 62
7
 10
729.049
 20
-5658.672
 30
-1079.376
 70
    32
  0
VERTEX
  8
T63SSILL
 62
7
 10
734.683
 20
-5666.543
 30
-1079.412
 70
    32
  0
VERTEX
  8
T63SSILL
 62
7
 10
802.266
 20
-5707.967
 30
-1079.776
 70
    32
  0
VERTEX
  8
T63SSILL
 62
7
 10
804.785
 20
-5705.149
 30
-1079.787
 70
    32
  0
VERTEX
  8
T63SSILL
 62
7
 10
803.428
 20
-5693.286
 30
-1079.767
 70
    32
  0
VERTEX
  8
T63SSILL
 62
7
 10
813.150
 20
-5692.728
 30
-1079.821
 70
    32
  0
VERTEX
  8
T63SSILL
 62
7
 10
818.839
 20
-5707.094
 30
-1079.868
 70
    32
  0
VERTEX
  8
T63SSILL
 62
7
 10
827.233
 20
-5717.853
 30
-1079.926
 70
    32
  0
VERTEX
  8
T63SSILL
 62
7
 10
868.684
 20
-5744.359
 30
-1080.186
 70
    32
  0
VERTEX
  8
T63SSILL
 62
7
 10
886.206
 20
-5746.279
 30
-1080.286
 70
    32
  0
VERTEX
  8
T63SSILL
 62
7
 10
913.138
 20
-5729.897
 30
-1080.419
 70
    32
  0
VERTEX
  8
T63SSILL
 62
7
 10
908.680
 20
-5716.920
 30
-1080.380
 70
    32
  0
VERTEX
  8
T63SSILL
 62
7
 10
900.188
 20
-5705.579
 30
-1080.321
 70
    32
  0
VERTEX
  8
T63SSILL
 62
7
 10
898.693
 20
-5692.183
 30
-1080.298
 70
    32
  0
VERTEX
  8
T63SSILL
 62
7
 10
900.409
 20
-5688.862
 30
-1080.304
 70
    32
  0
VERTEX
  8
T63SSILL
 62
7
 10
899.861
 20
-5686.320
 30
-1080.298
 70
    32
  0
VERTEX
  8
T63SSILL
 62
7
 10
889.915
 20
-5679.853
 30
-1080.236
 70
    32
  0
VERTEX
  8
T63SSILL
 62
7
 10
890.291
 20
-5676.637
 30
-1080.234
 70
    32
  0
VERTEX
  8
T63SSILL
 62
7
 10
892.678
 20
-5671.846
 30
-1080.242
 70
    32
  0
VERTEX
  8
T63SSILL
 62
7
 10
901.474
 20
-5674.796
 30
-1080.295
 70
    32
  0
VERTEX
  8
T63SSILL
 62
7
 10
907.702
 20
-5648.249
 30
-1080.292
 70
    32
  0
VERTEX
  8
T63SSILL
 62
7
 10
913.810
 20
-5640.199
 30
-1080.311
 70
    32
  0
VERTEX
  8
T63SSILL
 62
7
 10
907.496
 20
-5627.813
 30
-1080.255
 70
    32
  0
VERTEX
  8
T63SSILL
 62
7
 10
913.491
 20
-5621.697
 30
-1080.277
 70
    32
  0
VERTEX
  8
T63SSILL
 62
7
 10
925.268
 20
-5624.105
 30
-1080.346
 70
    32
  0
VERTEX
  8
T63SSILL
 62
7
 10
936.553
 20
-5621.209
 30
-1080.402
 70
    32
  0
VERTEX
  8
T63SSILL
 62
7
 10
944.960
 20
-5614.966
 30
-1080.437
 70
    32
  0
VERTEX
  8
T63SSILL
 62
7
 10
940.400
 20
-5585.725
 30
-1080.366
 70
    32
  0
VERTEX
  8
T63SSILL
 62
7
 10
946.595
 20
-5584.364
 30
-1080.375
 70
    32
  0
VERTEX
  8
T63SSILL
 62
7
 10
952.458
 20
-5610.911
 30
-1080.468
 70
    32
  0
VERTEX
  8
T63SSILL
 62
7
 10
962.574
 20
-5613.878
 30
-1080.523
 70
    32
  0
VERTEX
  8
T63SSILL
 62
7
 10
964.103
 20
-5623.437
 30
-1080.548
 70
    32
  0
VERTEX
  8
T63SSILL
 62
7
 10
955.550
 20
-5627.390
 30
-1080.514
 70
    32
  0
VERTEX
  8
T63SSILL
 62
7
 10
958.722
 20
-5649.802
 30
-1080.572
 70
    32
  0
VERTEX
  8
T63SSILL
 62
7
 10
963.559
 20
-5650.254
 30
-1080.596
 70
    32
  0
VERTEX
  8
T63SSILL
 62
7
 10
965.532
 20
-5654.034
 30
-1080.612
 70
    32
  0
VERTEX
  8
T63SSILL
 62
7
 10
960.344
 20
-5657.549
 30
-1080.594
 70
    32
  0
VERTEX
  8
T63SSILL
 62
7
 10
963.548
 20
-5675.941
 30
-1080.621
 70
    32
  0
VERTEX
  8
T63SSILL
 62
7
 10
1012.635
 20
-5545.700
 30
-1080.390
 70
    32
  0
VERTEX
  8
T63SSILL
 62
7
 10
1048.562
 20
-5519.813
 30
-1080.381
 70
    32
  0
VERTEX
  8
T63SSILL
 62
7
 10
1066.315
 20
-5495.056
 30
-1080.257
 70
    32
  0
VERTEX
  8
T63SSILL
 62
7
 10
1092.489
 20
-5476.051
 30
-1080.174
 70
    32
  0
VERTEX
  8
T63SSILL
 62
7
 10
1103.190
 20
-5480.302
 30
-1080.218
 70
    32
  0
VERTEX
  8
T63SSILL
 62
7
 10
1327.125
 20
-5320.695
 30
-1079.815
 70
    32
  0
VERTEX
  8
T63SSILL
 62
7
 10
1329.654
 20
-5325.062
 30
-1079.811
 70
    32
  0
VERTEX
  8
T63SSILL
 62
7
 10
1349.524
 20
-5317.540
 30
-1079.764
 70
    32
  0
VERTEX
  8
T63SSILL
 62
7
 10
1445.084
 20
-5267.480
 30
-1079.819
 70
    32
  0
VERTEX
  8
T63SSILL
 62
7
 10
1449.852
 20
-5258.921
 30
-1079.802
 70
    32
  0
VERTEX
  8
T63SSILL
 62
7
 10
1446.543
 20
-5247.543
 30
-1079.853
 70
    32
  0
VERTEX
  8
T63SSILL
 62
7
 10
1456.928
 20
-5241.900
 30
-1079.855
 70
    32
  0
VERTEX
  8
T63SSILL
 62
7
 10
1460.189
 20
-5244.613
 30
-1079.853
 70
    32
  0
VERTEX
  8
T63SSILL
 62
7
 10
1472.171
 20
-5243.270
 30
-1079.860
 70
    32
  0
VERTEX
  8
T63SSILL
 62
7
 10
1476.291
 20
-5250.180
 30
-1080.083
 70
    32
  0
VERTEX
  8
T63SSILL
 62
7
 10
1540.564
 20
-5214.837
 30
-1080.342
 70
    32
  0
VERTEX
  8
T63SSILL
 62
7
 10
1619.596
 20
-5152.813
 30
-1080.226
 70
    32
  0
VERTEX
  8
T63SSILL
 62
7
 10
1609.836
 20
-5136.396
 30
-1080.138
 70
    32
  0
VERTEX
  8
T63SSILL
 62
7
 10
1620.651
 20
-5128.115
 30
-1080.160
 70
    32
  0
VERTEX
  8
T63SSILL
 62
7
 10
1633.618
 20
-5141.778
 30
-1080.248
 70
    32
  0
VERTEX
  8
T63SSILL
 62
7
 10
1649.673
 20
-5129.208
 30
-1080.280
 70
    32
  0
VERTEX
  8
T63SSILL
 62
7
 10
1643.997
 20
-5119.508
 30
-1080.232
 70
    32
  0
VERTEX
  8
T63SSILL
 62
7
 10
1653.689
 20
-5111.635
 30
-1080.251
 70
    32
  0
VERTEX
  8
T63SSILL
 62
7
 10
1661.506
 20
-5120.378
 30
-1080.296
 70
    32
  0
VERTEX
  8
T63SSILL
 62
7
 10
1680.154
 20
-5105.408
 30
-1080.314
 70
    32
  0
VERTEX
  8
T63SSILL
 62
7
 10
1681.106
 20
-5101.274
 30
-1080.309
 70
    32
  0
VERTEX
  8
T63SSILL
 62
7
 10
1684.221
 20
-5102.335
 30
-1080.318
 70
    32
  0
VERTEX
  8
T63SSILL
 62
7
 10
1836.643
 20
-4983.651
 30
-1080.200
 70
    32
  0
VERTEX
  8
T63SSILL
 62
7
 10
1839.632
 20
-4978.860
 30
-1080.194
 70
    32
  0
VERTEX
  8
T63SSILL
 62
7
 10
1842.569
 20
-4979.394
 30
-1080.191
 70
    32
  0
VERTEX
  8
T63SSILL
 62
7
 10
2029.132
 20
-4833.153
 30
-1080.844
 70
    32
  0
VERTEX
  8
T63SSILL
 62
7
 10
2018.400
 20
-4820.114
 30
-1080.833
 70
    32
  0
VERTEX
  8
T63SSILL
 62
7
 10
2027.917
 20
-4812.593
 30
-1080.879
 70
    32
  0
VERTEX
  8
T63SSILL
 62
7
 10
2037.875
 20
-4825.336
 30
-1080.889
 70
    32
  0
VERTEX
  8
T63SSILL
 62
7
 10
2119.359
 20
-4761.019
 30
-1081.107
 70
    32
  0
VERTEX
  8
T63SSILL
 62
7
 10
2119.884
 20
-4750.489
 30
-1081.087
 70
    32
  0
VERTEX
  8
T63SSILL
 62
7
 10
2140.691
 20
-4734.439
 30
-1081.127
 70
    32
  0
VERTEX
  8
T63SSILL
 62
7
 10
2150.505
 20
-4746.409
 30
-1081.188
 70
    32
  0
VERTEX
  8
T63SSILL
 62
7
 10
2122.692
 20
-4769.075
 30
-1081.137
 70
    32
  0
VERTEX
  8
T63SSILL
 62
7
 10
2123.806
 20
-4775.943
 30
-1081.155
 70
    32
  0
VERTEX
  8
T63SSILL
 62
7
 10
2119.236
 20
-4780.828
 30
-1081.150
 70
    32
  0
VERTEX
  8
T63SSILL
 62
7
 10
2135.730
 20
-4788.081
 30
-1081.224
 70
    32
  0
VERTEX
  8
T63SSILL
 62
7
 10
2144.362
 20
-4788.718
 30
-1081.256
 70
    32
  0
VERTEX
  8
T63SSILL
 62
7
 10
2145.833
 20
-4782.210
 30
-1081.248
 70
    32
  0
VERTEX
  8
T63SSILL
 62
7
 10
2160.542
 20
-4786.517
 30
-1081.310
 70
    32
  0
VERTEX
  8
T63SSILL
 62
7
 10
2153.856
 20
-4804.345
 30
-1081.322
 70
    32
  0
VERTEX
  8
T63SSILL
 62
7
 10
2133.267
 20
-4797.212
 30
-1081.235
 70
    32
  0
VERTEX
  8
T63SSILL
 62
7
 10
2126.906
 20
-4802.788
 30
-1081.224
 70
    32
  0
VERTEX
  8
T63SSILL
 62
7
 10
2104.204
 20
-4794.608
 30
-1081.125
 70
    32
  0
VERTEX
  8
T63SSILL
 62
7
 10
2098.339
 20
-4796.175
 30
-1081.108
 70
    32
  0
VERTEX
  8
T63SSILL
 62
7
 10
1982.872
 20
-4887.820
 30
-1080.583
 70
    32
  0
VERTEX
  8
T63SSILL
 62
7
 10
1968.869
 20
-4889.258
 30
-1080.533
 70
    32
  0
VERTEX
  8
T63SSILL
 62
7
 10
1847.789
 20
-4984.262
 30
-1080.291
 70
    32
  0
VERTEX
  8
T63SSILL
 62
7
 10
1847.330
 20
-4988.903
 30
-1080.391
 70
    32
  0
VERTEX
  8
T63SSILL
 62
7
 10
1841.006
 20
-4989.717
 30
-1080.305
 70
    32
  0
VERTEX
  8
T63SSILL
 62
7
 10
1542.213
 20
-5223.724
 30
-1080.577
 70
    32
  0
VERTEX
  8
T63SSILL
 62
7
 10
1479.829
 20
-5256.759
 30
-1080.296
 70
    32
  0
VERTEX
  8
T63SSILL
 62
7
 10
1475.653
 20
-5263.769
 30
-1080.390
 70
    32
  0
VERTEX
  8
T63SSILL
 62
7
 10
1453.738
 20
-5274.269
 30
-1079.886
 70
    32
  0
VERTEX
  8
T63SSILL
 62
7
 10
1448.479
 20
-5273.286
 30
-1079.875
 70
    32
  0
VERTEX
  8
T63SSILL
 62
7
 10
1353.466
 20
-5323.924
 30
-1079.704
 70
    32
  0
VERTEX
  8
T63SSILL
 62
7
 10
1349.108
 20
-5329.089
 30
-1079.718
 70
    32
  0
VERTEX
  8
T63SSILL
 62
7
 10
1327.564
 20
-5345.475
 30
-1079.768
 70
    32
  0
VERTEX
  8
T63SSILL
 62
7
 10
1322.268
 20
-5343.859
 30
-1079.770
 70
    32
  0
VERTEX
  8
T63SSILL
 62
7
 10
1312.045
 20
-5350.592
 30
-1079.792
 70
    32
  0
VERTEX
  8
T63SSILL
 62
7
 10
1298.176
 20
-5350.166
 30
-1079.804
 70
    32
  0
VERTEX
  8
T63SSILL
 62
7
 10
1053.781
 20
-5524.694
 30
-1080.425
 70
    32
  0
VERTEX
  8
T63SSILL
 62
7
 10
1043.000
 20
-5546.000
 30
-1080.515
 70
    32
  0
VERTEX
  8
T63SSILL
 62
7
 10
1040.000
 20
-5561.000
 30
-1080.597
 70
    32
  0
VERTEX
  8
T63SSILL
 62
7
 10
1043.000
 20
-5581.000
 30
-1080.735
 70
    32
  0
VERTEX
  8
T63SSILL
 62
7
 10
1098.851
 20
-5690.693
 30
-1080.820
 70
    32
  0
VERTEX
  8
T63SSILL
 62
7
 10
1108.782
 20
-5695.568
 30
-1080.778
 70
    32
  0
VERTEX
  8
T63SSILL
 62
7
 10
1113.190
 20
-5704.561
 30
-1080.769
 70
    32
  0
VERTEX
  8
T63SSILL
 62
7
 10
1116.509
 20
-5705.892
 30
-1080.754
 70
    32
  0
VERTEX
  8
T63SSILL
 62
7
 10
1123.935
 20
-5680.753
 30
-1080.687
 70
    32
  0
VERTEX
  8
T63SSILL
 62
7
 10
1122.069
 20
-5674.287
 30
-1080.687
 70
    32
  0
VERTEX
  8
T63SSILL
 62
7
 10
1127.892
 20
-5659.578
 30
-1080.641
 70
    32
  0
VERTEX
  8
T63SSILL
 62
7
 10
1124.782
 20
-5649.668
 30
-1080.643
 70
    32
  0
VERTEX
  8
T63SSILL
 62
7
 10
1131.788
 20
-5642.447
 30
-1080.600
 70
    32
  0
VERTEX
  8
T63SSILL
 62
7
 10
1136.879
 20
-5642.309
 30
-1080.576
 70
    32
  0
VERTEX
  8
T63SSILL
 62
7
 10
1148.577
 20
-5677.071
 30
-1080.564
 70
    32
  0
VERTEX
  8
T63SSILL
 62
7
 10
1147.438
 20
-5682.956
 30
-1080.577
 70
    32
  0
VERTEX
  8
T63SSILL
 62
7
 10
1143.189
 20
-5688.877
 30
-1080.605
 70
    32
  0
VERTEX
  8
T63SSILL
 62
7
 10
1142.456
 20
-5699.774
 30
-1080.622
 70
    32
  0
VERTEX
  8
T63SSILL
 62
7
 10
1149.597
 20
-5700.241
 30
-1080.589
 70
    32
  0
VERTEX
  8
T63SSILL
 62
7
 10
1159.109
 20
-5706.818
 30
-1080.570
 70
    32
  0
VERTEX
  8
T63SSILL
 62
7
 10
1182.994
 20
-5708.643
 30
-1080.589
 70
    32
  0
VERTEX
  8
T63SSILL
 62
7
 10
1183.193
 20
-5715.963
 30
-1080.621
 70
    32
  0
VERTEX
  8
T63SSILL
 62
7
 10
1153.466
 20
-5716.426
 30
-1080.591
 70
    32
  0
VERTEX
  8
T63SSILL
 62
7
 10
1149.997
 20
-5728.499
 30
-1080.623
 70
    32
  0
VERTEX
  8
T63SSILL
 62
7
 10
1151.396
 20
-5733.998
 30
-1080.629
 70
    32
  0
VERTEX
  8
T63SSILL
 62
7
 10
1155.862
 20
-5739.707
 30
-1080.643
 70
    32
  0
VERTEX
  8
T63SSILL
 62
7
 10
1160.554
 20
-5773.581
 30
-1080.646
 70
    32
  0
VERTEX
  8
T63SSILL
 62
7
 10
1155.959
 20
-5774.881
 30
-1080.670
 70
    32
  0
VERTEX
  8
T63SSILL
 62
7
 10
1145.442
 20
-5760.150
 30
-1080.686
 70
    32
  0
VERTEX
  8
T63SSILL
 62
7
 10
1141.076
 20
-5740.965
 30
-1080.681
 70
    32
  0
VERTEX
  8
T63SSILL
 62
7
 10
1136.815
 20
-5731.111
 30
-1080.689
 70
    32
  0
VERTEX
  8
T63SSILL
 62
7
 10
1131.920
 20
-5724.948
 30
-1080.705
 70
    32
  0
VERTEX
  8
T63SSILL
 62
7
 10
1130.210
 20
-5716.102
 30
-1080.702
 70
    32
  0
VERTEX
  8
T63SSILL
 62
7
 10
1113.263
 20
-5714.456
 30
-1080.781
 70
    32
  0
VERTEX
  8
T63SSILL
 62
7
 10
1112.068
 20
-5717.354
 30
-1080.790
 70
    32
  0
VERTEX
  8
T63SSILL
 62
7
 10
1164.064
 20
-5819.857
 30
-1080.543
 70
    32
  0
VERTEX
  8
T63SSILL
 62
7
 10
1171.398
 20
-5830.908
 30
-1080.481
 70
    32
  0
VERTEX
  8
T63SSILL
 62
7
 10
1179.688
 20
-5849.466
 30
-1081.433
 70
    32
  0
VERTEX
  8
T63SSILL
 62
7
 10
1177.078
 20
-5867.958
 30
-1081.809
 70
    32
  0
VERTEX
  8
T63SSILL
 62
7
 10
1164.342
 20
-5887.877
 30
-1081.691
 70
    32
  0
VERTEX
  8
T63SSILL
 62
7
 10
1040.472
 20
-5977.565
 30
-1081.184
 70
    32
  0
VERTEX
  8
T63SSILL
 62
7
 10
1032.334
 20
-5987.315
 30
-1081.243
 70
    32
  0
VERTEX
  8
T63SSILL
 62
7
 10
1028.316
 20
-5996.316
 30
-1081.242
 70
    32
  0
VERTEX
  8
T63SSILL
 62
7
 10
1024.925
 20
-6013.091
 30
-1081.238
 70
    32
  0
VERTEX
  8
T63SSILL
 62
7
 10
1029.231
 20
-6038.156
 30
-1081.224
 70
    32
  0
VERTEX
  8
T63SSILL
 62
7
 10
1048.085
 20
-6052.293
 30
-1081.204
 70
    32
  0
VERTEX
  8
T63SSILL
 62
7
 10
1062.464
 20
-6058.566
 30
-1081.190
 70
    32
  0
VERTEX
  8
T63SSILL
 62
7
 10
1120.087
 20
-6056.120
 30
-1081.145
 70
    32
  0
VERTEX
  8
T63SSILL
 62
7
 10
1089.381
 20
-5995.222
 30
-1081.061
 70
    32
  0
VERTEX
  8
T63SSILL
 62
7
 10
1095.043
 20
-5989.924
 30
-1081.023
 70
    32
  0
VERTEX
  8
T63SSILL
 62
7
 10
1100.210
 20
-5997.084
 30
-1081.027
 70
    32
  0
VERTEX
  8
T63SSILL
 62
7
 10
1102.463
 20
-5997.978
 30
-1081.022
 70
    32
  0
VERTEX
  8
T63SSILL
 62
7
 10
1108.059
 20
-5995.646
 30
-1080.993
 70
    32
  0
VERTEX
  8
T63SSILL
 62
7
 10
1127.674
 20
-6031.516
 30
-1081.037
 70
    32
  0
VERTEX
  8
T63SSILL
 62
7
 10
1137.811
 20
-6058.407
 30
-1082.157
 70
    32
  0
VERTEX
  8
T63SSILL
 62
7
 10
1219.933
 20
-6056.056
 30
-1089.284
 70
    32
  0
VERTEX
  8
T63SSILL
 62
7
 10
1305.721
 20
-6035.330
 30
-1093.223
 70
    32
  0
VERTEX
  8
T63SSILL
 62
7
 10
1307.643
 20
-6042.946
 30
-1093.535
 70
    32
  0
VERTEX
  8
T63SSILL
 62
7
 10
1222.067
 20
-6064.278
 30
-1089.625
 70
    32
  0
VERTEX
  8
T63SSILL
 62
7
 10
1143.373
 20
-6066.585
 30
-1082.758
 70
    32
  0
VERTEX
  8
T63SSILL
 62
7
 10
1141.881
 20
-6069.369
 30
-1082.649
 70
    32
  0
VERTEX
  8
T63SSILL
 62
7
 10
1156.798
 20
-6102.721
 30
-1084.382
 70
    32
  0
VERTEX
  8
T63SSILL
 62
7
 10
1183.554
 20
-6145.329
 30
-1087.675
 70
    32
  0
VERTEX
  8
T63SSILL
 62
7
 10
1195.326
 20
-6177.443
 30
-1090.195
 70
    32
  0
VERTEX
  8
T63SSILL
 62
7
 10
1185.417
 20
-6182.391
 30
-1090.593
 70
    32
  0
VERTEX
  8
T63SSILL
 62
7
 10
1183.938
 20
-6178.462
 30
-1090.285
 70
    32
  0
VERTEX
  8
T63SSILL
 62
7
 10
1175.518
 20
-6173.277
 30
-1089.783
 70
    32
  0
VERTEX
  8
T63SSILL
 62
7
 10
1157.301
 20
-6134.798
 30
-1086.668
 70
    32
  0
VERTEX
  8
T63SSILL
 62
7
 10
1149.833
 20
-6124.075
 30
-1085.552
 70
    32
  0
VERTEX
  8
T63SSILL
 62
7
 10
1143.274
 20
-6118.006
 30
-1084.678
 70
    32
  0
VERTEX
  8
T63SSILL
 62
7
 10
1121.160
 20
-6119.145
 30
-1082.422
 70
    32
  0
VERTEX
  8
T63SSILL
 62
7
 10
1112.473
 20
-6112.201
 30
-1081.300
 70
    32
  0
VERTEX
  8
T63SSILL
 62
7
 10
1033.365
 20
-6048.749
 30
-1081.217
 70
    32
  0
VERTEX
  8
T63SSILL
 62
7
 10
1047.828
 20
-6134.854
 30
-1081.461
 70
    32
  0
VERTEX
  8
T63SSILL
 62
7
 10
1054.354
 20
-6137.053
 30
-1081.466
 70
    32
  0
VERTEX
  8
T63SSILL
 62
7
 10
1055.086
 20
-6140.536
 30
-1081.479
 70
    32
  0
VERTEX
  8
T63SSILL
 62
7
 10
1050.213
 20
-6146.033
 30
-1081.502
 70
    32
  0
VERTEX
  8
T63SSILL
 62
7
 10
1068.443
 20
-6239.078
 30
-1081.722
 70
    32
  0
VERTEX
  8
T63SSILL
 62
7
 10
1073.925
 20
-6247.201
 30
-1081.731
 70
    32
  0
VERTEX
  8
T63SSILL
 62
7
 10
1072.215
 20
-6253.306
 30
-1081.750
 70
    32
  0
VERTEX
  8
T63SSILL
 62
7
 10
1108.925
 20
-6338.484
 30
-1082.373
 70
    32
  0
VERTEX
  8
T63SSILL
 62
7
 10
1113.572
 20
-6336.789
 30
-1083.163
 70
    32
  0
VERTEX
  8
T63SSILL
 62
7
 10
1116.448
 20
-6342.327
 30
-1083.236
 70
    32
  0
VERTEX
  8
T63SSILL
 62
7
 10
1113.003
 20
-6347.069
 30
-1082.430
 70
    32
  0
VERTEX
  8
T63SSILL
 62
7
 10
1150.217
 20
-6433.406
 30
-1082.434
 70
    32
  0
VERTEX
  8
T63SSILL
 62
7
 10
1155.859
 20
-6432.951
 30
-1082.433
 70
    32
  0
VERTEX
  8
T63SSILL
 62
7
 10
1163.151
 20
-6448.460
 30
-1082.444
 70
    32
  0
VERTEX
  8
T63SSILL
 62
7
 10
1159.470
 20
-6452.720
 30
-1082.447
 70
    32
  0
VERTEX
  8
T63SSILL
 62
7
 10
1170.881
 20
-6478.086
 30
-1082.464
 70
    32
  0
VERTEX
  8
T63SSILL
 62
7
 10
1176.302
 20
-6485.060
 30
-1082.469
 70
    32
  0
VERTEX
  8
T63SSILL
 62
7
 10
1186.484
 20
-6493.837
 30
-1082.475
 70
    32
  0
VERTEX
  8
T63SSILL
 62
7
 10
1190.690
 20
-6492.891
 30
-1082.474
 70
    32
  0
VERTEX
  8
T63SSILL
 62
7
 10
1193.335
 20
-6468.215
 30
-1082.458
 70
    32
  0
VERTEX
  8
T63SSILL
 62
7
 10
1179.334
 20
-6454.249
 30
-1082.448
 70
    32
  0
VERTEX
  8
T63SSILL
 62
7
 10
1179.871
 20
-6420.556
 30
-1082.426
 70
    32
  0
VERTEX
  8
T63SSILL
 62
7
 10
1175.740
 20
-6408.862
 30
-1082.418
 70
    32
  0
VERTEX
  8
T63SSILL
 62
7
 10
1184.879
 20
-6403.738
 30
-1082.415
 70
    32
  0
VERTEX
  8
T63SSILL
 62
7
 10
1193.679
 20
-6417.410
 30
-1082.424
 70
    32
  0
VERTEX
  8
T63SSILL
 62
7
 10
1201.222
 20
-6422.649
 30
-1082.428
 70
    32
  0
VERTEX
  8
T63SSILL
 62
7
 10
1223.358
 20
-6413.547
 30
-1082.422
 70
    32
  0
VERTEX
  8
T63SSILL
 62
7
 10
1225.245
 20
-6412.228
 30
-1082.421
 70
    32
  0
VERTEX
  8
T63SSILL
 62
7
 10
1228.181
 20
-6400.223
 30
-1082.413
 70
    32
  0
VERTEX
  8
T63SSILL
 62
7
 10
1237.282
 20
-6380.525
 30
-1082.400
 70
    32
  0
VERTEX
  8
T63SSILL
 62
7
 10
1248.262
 20
-6382.317
 30
-1082.402
 70
    32
  0
VERTEX
  8
T63SSILL
 62
7
 10
1246.746
 20
-6386.006
 30
-1082.404
 70
    32
  0
VERTEX
  8
T63SSILL
 62
7
 10
1246.101
 20
-6397.641
 30
-1082.412
 70
    32
  0
VERTEX
  8
T63SSILL
 62
7
 10
1308.121
 20
-6354.266
 30
-1082.385
 70
    32
  0
VERTEX
  8
T63SSILL
 62
7
 10
1318.562
 20
-6342.001
 30
-1082.385
 70
    32
  0
VERTEX
  8
T63SSILL
 62
7
 10
1327.980
 20
-6340.908
 30
-1082.385
 70
    32
  0
VERTEX
  8
T63SSILL
 62
7
 10
1335.220
 20
-6335.406
 30
-1082.385
 70
    32
  0
VERTEX
  8
T63SSILL
 62
7
 10
1336.603
 20
-6330.511
 30
-1082.385
 70
    32
  0
VERTEX
  8
T63SSILL
 62
7
 10
1347.381
 20
-6322.370
 30
-1082.385
 70
    32
  0
VERTEX
  8
T63SSILL
 62
7
 10
1353.947
 20
-6320.930
 30
-1082.385
 70
    32
  0
VERTEX
  8
T63SSILL
 62
7
 10
1367.578
 20
-6313.136
 30
-1082.385
 70
    32
  0
VERTEX
  8
T63SSILL
 62
7
 10
1371.615
 20
-6303.305
 30
-1082.385
 70
    32
  0
VERTEX
  8
T63SSILL
 62
7
 10
1370.539
 20
-6283.895
 30
-1082.385
 70
    32
  0
VERTEX
  8
T63SSILL
 62
7
 10
1364.193
 20
-6272.592
 30
-1082.385
 70
    32
  0
VERTEX
  8
T63SSILL
 62
7
 10
1361.456
 20
-6257.081
 30
-1082.385
 70
    32
  0
VERTEX
  8
T63SSILL
 62
7
 10
1362.587
 20
-6242.276
 30
-1082.385
 70
    32
  0
VERTEX
  8
T63SSILL
 62
7
 10
1377.524
 20
-6240.709
 30
-1082.385
 70
    32
  0
VERTEX
  8
T63SSILL
 62
7
 10
1381.440
 20
-6295.195
 30
-1082.385
 70
    32
  0
VERTEX
  8
T63SSILL
 62
7
 10
1392.984
 20
-6313.241
 30
-1082.385
 70
    32
  0
VERTEX
  8
T63SSILL
 62
7
 10
1410.765
 20
-6323.953
 30
-1082.385
 70
    32
  0
VERTEX
  8
T63SSILL
 62
7
 10
1407.360
 20
-6333.286
 30
-1082.385
 70
    32
  0
VERTEX
  8
T63SSILL
 62
7
 10
1395.763
 20
-6328.423
 30
-1082.385
 70
    32
  0
VERTEX
  8
T63SSILL
 62
7
 10
1385.142
 20
-6327.060
 30
-1082.385
 70
    32
  0
VERTEX
  8
T63SSILL
 62
7
 10
1382.410
 20
-6325.050
 30
-1082.385
 70
    32
  0
VERTEX
  8
T63SSILL
 62
7
 10
1383.383
 20
-6364.221
 30
-1082.392
 70
    32
  0
VERTEX
  8
T63SSILL
 62
7
 10
1392.787
 20
-6376.159
 30
-1082.401
 70
    32
  0
VERTEX
  8
T63SSILL
 62
7
 10
1398.768
 20
-6377.089
 30
-1082.401
 70
    32
  0
VERTEX
  8
T63SSILL
 62
7
 10
1405.501
 20
-6381.498
 30
-1082.404
 70
    32
  0
VERTEX
  8
T63SSILL
 62
7
 10
1413.104
 20
-6383.330
 30
-1082.406
 70
    32
  0
VERTEX
  8
T63SSILL
 62
7
 10
1420.967
 20
-6370.656
 30
-1082.398
 70
    32
  0
VERTEX
  8
T63SSILL
 62
7
 10
1435.267
 20
-6366.073
 30
-1082.395
 70
    32
  0
VERTEX
  8
T63SSILL
 62
7
 10
1435.101
 20
-6364.021
 30
-1082.393
 70
    32
  0
VERTEX
  8
T63SSILL
 62
7
 10
1450.806
 20
-6358.976
 30
-1082.390
 70
    32
  0
VERTEX
  8
T63SSILL
 62
7
 10
1462.400
 20
-6360.016
 30
-1082.391
 70
    32
  0
VERTEX
  8
T63SSILL
 62
7
 10
1468.918
 20
-6467.759
 30
-1082.417
 70
    32
  0
VERTEX
  8
T63SSILL
 62
7
 10
1481.823
 20
-6546.957
 30
-1082.426
 70
    32
  0
VERTEX
  8
T63SSILL
 62
7
 10
1487.282
 20
-6568.551
 30
-1082.428
 70
    32
  0
VERTEX
  8
T63SSILL
 62
7
 10
1508.727
 20
-6553.325
 30
-1082.410
 70
    32
  0
VERTEX
  8
T63SSILL
 62
7
 10
1513.306
 20
-6560.033
 30
-1082.408
 70
    32
  0
VERTEX
  8
T63SSILL
 62
7
 10
1473.780
 20
-6589.272
 30
-1082.441
 70
    32
  0
VERTEX
  8
T63SSILL
 62
7
 10
1477.683
 20
-6597.765
 30
-1082.442
 70
    32
  0
VERTEX
  8
T63SSILL
 62
7
 10
1480.752
 20
-6621.935
 30
-1082.447
 70
    32
  0
VERTEX
  8
T63SSILL
 62
7
 10
1487.154
 20
-6642.420
 30
-1082.449
 70
    32
  0
VERTEX
  8
T63SSILL
 62
7
 10
1487.745
 20
-6652.956
 30
-1082.452
 70
    32
  0
VERTEX
  8
T63SSILL
 62
7
 10
1476.491
 20
-6655.578
 30
-1082.460
 70
    32
  0
VERTEX
  8
T63SSILL
 62
7
 10
1460.968
 20
-6614.599
 30
-1082.457
 70
    32
  0
VERTEX
  8
T63SSILL
 62
7
 10
1451.565
 20
-6603.421
 30
-1082.460
 70
    32
  0
VERTEX
  8
T63SSILL
 62
7
 10
1386.963
 20
-6650.698
 30
-1082.515
 70
    32
  0
VERTEX
  8
T63SSILL
 62
7
 10
1385.151
 20
-6658.179
 30
-1082.519
 70
    32
  0
VERTEX
  8
T63SSILL
 62
7
 10
1386.333
 20
-6682.288
 30
-1082.525
 70
    32
  0
VERTEX
  8
T63SSILL
 62
7
 10
1384.806
 20
-6685.767
 30
-1082.527
 70
    32
  0
VERTEX
  8
T63SSILL
 62
7
 10
1382.341
 20
-6721.923
 30
-1082.540
 70
    32
  0
VERTEX
  8
T63SSILL
 62
7
 10
1372.851
 20
-6721.548
 30
-1082.546
 70
    32
  0
VERTEX
  8
T63SSILL
 62
7
 10
1371.195
 20
-6671.739
 30
-1082.531
 70
    32
  0
VERTEX
  8
T63SSILL
 62
7
 10
1366.421
 20
-6665.821
 30
-1082.533
 70
    32
  0
VERTEX
  8
T63SSILL
 62
7
 10
1349.734
 20
-6676.776
 30
-1082.547
 70
    32
  0
VERTEX
  8
T63SSILL
 62
7
 10
1339.239
 20
-6678.639
 30
-1082.554
 70
    32
  0
VERTEX
  8
T63SSILL
 62
7
 10
1327.604
 20
-6677.844
 30
-1082.561
 70
    32
  0
VERTEX
  8
T63SSILL
 62
7
 10
1249.724
 20
-6656.933
 30
-1082.585
 70
    32
  0
VERTEX
  8
T63SSILL
 62
7
 10
1269.064
 20
-6700.824
 30
-1082.788
 70
    32
  0
VERTEX
  8
T63SSILL
 62
7
 10
1274.503
 20
-6703.120
 30
-1082.960
 70
    32
  0
VERTEX
  8
T63SSILL
 62
7
 10
1277.810
 20
-6709.869
 30
-1082.988
 70
    32
  0
VERTEX
  8
T63SSILL
 62
7
 10
1276.645
 20
-6718.406
 30
-1082.820
 70
    32
  0
VERTEX
  8
T63SSILL
 62
7
 10
1314.063
 20
-6803.511
 30
-1082.787
 70
    32
  0
VERTEX
  8
T63SSILL
 62
7
 10
1319.872
 20
-6807.386
 30
-1082.773
 70
    32
  0
VERTEX
  8
T63SSILL
 62
7
 10
1323.414
 20
-6813.099
 30
-1082.764
 70
    32
  0
VERTEX
  8
T63SSILL
 62
7
 10
1322.105
 20
-6820.979
 30
-1082.765
 70
    32
  0
VERTEX
  8
T63SSILL
 62
7
 10
1337.338
 20
-6856.849
 30
-1082.760
 70
    32
  0
VERTEX
  8
T63SSILL
 62
7
 10
1346.997
 20
-6866.868
 30
-1082.735
 70
    32
  0
VERTEX
  8
T63SSILL
 62
7
 10
1357.917
 20
-6873.490
 30
-1082.684
 70
    32
  0
VERTEX
  8
T63SSILL
 62
7
 10
1370.764
 20
-6877.649
 30
-1082.646
 70
    32
  0
VERTEX
  8
T63SSILL
 62
7
 10
1384.779
 20
-6877.827
 30
-1082.800
 70
    32
  0
VERTEX
  8
T63SSILL
 62
7
 10
1399.530
 20
-6873.572
 30
-1083.702
 70
    32
  0
VERTEX
  8
T63SSILL
 62
7
 10
1408.822
 20
-6867.145
 30
-1084.432
 70
    32
  0
VERTEX
  8
T63SSILL
 62
7
 10
1418.254
 20
-6853.023
 30
-1085.500
 70
    32
  0
VERTEX
  8
T63SSILL
 62
7
 10
1418.924
 20
-6839.090
 30
-1086.132
 70
    32
  0
VERTEX
  8
T63SSILL
 62
7
 10
1394.435
 20
-6758.410
 30
-1088.408
 70
    32
  0
VERTEX
  8
T63SSILL
 62
7
 10
1388.440
 20
-6751.088
 30
-1088.430
 70
    32
  0
VERTEX
  8
T63SSILL
 62
7
 10
1392.521
 20
-6747.844
 30
-1088.769
 70
    32
  0
VERTEX
  8
T63SSILL
 62
7
 10
1387.168
 20
-6730.949
 30
-1089.235
 70
    32
  0
VERTEX
  8
T63SSILL
 62
7
 10
1395.118
 20
-6728.411
 30
-1089.732
 70
    32
  0
VERTEX
  8
T63SSILL
 62
7
 10
1397.111
 20
-6735.448
 30
-1089.526
 70
    32
  0
VERTEX
  8
T63SSILL
 62
7
 10
1401.759
 20
-6736.030
 30
-1089.728
 70
    32
  0
VERTEX
  8
T63SSILL
 62
7
 10
1410.612
 20
-6733.389
 30
-1090.274
 70
    32
  0
VERTEX
  8
T63SSILL
 62
7
 10
1416.648
 20
-6739.706
 30
-1090.296
 70
    32
  0
VERTEX
  8
T63SSILL
 62
7
 10
1403.770
 20
-6757.051
 30
-1088.922
 70
    32
  0
VERTEX
  8
T63SSILL
 62
7
 10
1426.945
 20
-6835.741
 30
-1086.667
 70
    32
  0
VERTEX
  8
T63SSILL
 62
7
 10
1429.423
 20
-6845.579
 30
-1086.365
 70
    32
  0
VERTEX
  8
T63SSILL
 62
7
 10
1429.190
 20
-6851.930
 30
-1086.081
 70
    32
  0
VERTEX
  8
T63SSILL
 62
7
 10
1434.073
 20
-6850.717
 30
-1086.371
 70
    32
  0
VERTEX
  8
T63SSILL
 62
7
 10
1464.659
 20
-6828.252
 30
-1088.830
 70
    32
  0
VERTEX
  8
T63SSILL
 62
7
 10
1489.916
 20
-6809.702
 30
-1087.727
 70
    32
  0
VERTEX
  8
T63SSILL
 62
7
 10
1494.700
 20
-6815.937
 30
-1087.373
 70
    32
  0
VERTEX
  8
T63SSILL
 62
7
 10
1466.817
 20
-6836.171
 30
-1088.594
 70
    32
  0
VERTEX
  8
T63SSILL
 62
7
 10
1402.695
 20
-6882.701
 30
-1083.464
 70
    32
  0
VERTEX
  8
T63SSILL
 62
7
 10
1380.844
 20
-6887.801
 30
-1082.621
 70
    32
  0
VERTEX
  8
T63SSILL
 62
7
 10
1370.420
 20
-6887.334
 30
-1082.656
 70
    32
  0
VERTEX
  8
T63SSILL
 62
7
 10
1359.739
 20
-6884.990
 30
-1082.727
 70
    32
  0
VERTEX
  8
T63SSILL
 62
7
 10
1346.716
 20
-6877.702
 30
-1082.792
 70
    32
  0
VERTEX
  8
T63SSILL
 62
7
 10
1355.847
 20
-6898.514
 30
-1082.826
 70
    32
  0
VERTEX
  8
T63SSILL
 62
7
 10
1362.753
 20
-6901.496
 30
-1082.787
 70
    32
  0
VERTEX
  8
T63SSILL
 62
7
 10
1364.418
 20
-6906.707
 30
-1082.801
 70
    32
  0
VERTEX
  8
T63SSILL
 62
7
 10
1362.831
 20
-6914.352
 30
-1082.852
 70
    32
  0
VERTEX
  8
T63SSILL
 62
7
 10
1376.807
 20
-6945.541
 30
-1082.815
 70
    32
  0
VERTEX
  8
T63SSILL
 62
7
 10
1384.741
 20
-6954.626
 30
-1082.787
 70
    32
  0
VERTEX
  8
T63SSILL
 62
7
 10
1519.161
 20
-7030.321
 30
-1082.796
 70
    32
  0
VERTEX
  8
T63SSILL
 62
7
 10
1605.274
 20
-7194.500
 30
-1082.861
 70
    32
  0
VERTEX
  8
T63SSILL
 62
7
 10
1640.042
 20
-7483.094
 30
-1083.247
 70
    32
  0
VERTEX
  8
T63SSILL
 62
7
 10
1632.741
 20
-7523.637
 30
-1083.855
 70
    32
  0
VERTEX
  8
T63SSILL
 62
7
 10
1678.936
 20
-7621.045
 30
-1082.115
 70
    32
  0
VERTEX
  8
T63SSILL
 62
7
 10
1713.741
 20
-7698.389
 30
-1083.701
 70
    32
  0
VERTEX
  8
T63SSILL
 62
7
 10
1738.340
 20
-7742.231
 30
-1084.036
 70
    32
  0
VERTEX
  8
T63SSILL
 62
7
 10
1783.109
 20
-7848.393
 30
-1084.129
 70
    32
  0
VERTEX
  8
T63SSILL
 62
7
 10
1788.103
 20
-7873.505
 30
-1084.097
 70
    32
  0
VERTEX
  8
T63SSILL
 62
7
 10
1880.711
 20
-8082.012
 30
-1083.518
 70
    32
  0
VERTEX
  8
T63SSILL
 62
7
 10
1885.026
 20
-8094.358
 30
-1083.491
 70
    32
  0
VERTEX
  8
T63SSILL
 62
7
 10
1889.019
 20
-8118.574
 30
-1083.464
 70
    32
  0
VERTEX
  8
T63SSILL
 62
7
 10
1886.640
 20
-8138.679
 30
-1083.477
 70
    32
  0
VERTEX
  8
T63SSILL
 62
7
 10
1883.521
 20
-8148.139
 30
-1084.000
 70
    32
  0
VERTEX
  8
T63SSILL
 62
7
 10
1897.026
 20
-8180.124
 30
-1084.000
 70
    32
  0
VERTEX
  8
T63SSILL
 62
7
 10
1900.713
 20
-8199.753
 30
-1087.000
 70
    32
  0
VERTEX
  8
T63SSILL
 62
7
 10
1890.964
 20
-8205.987
 30
-1087.000
 70
    32
  0
VERTEX
  8
T63SSILL
 62
7
 10
1884.587
 20
-8186.628
 30
-1084.000
 70
    32
  0
VERTEX
  8
T63SSILL
 62
7
 10
1881.195
 20
-8179.967
 30
-1084.000
 70
    32
  0
VERTEX
  8
T63SSILL
 62
7
 10
1875.816
 20
-8179.751
 30
-1084.000
 70
    32
  0
VERTEX
  8
T63SSILL
 62
7
 10
1868.911
 20
-8181.318
 30
-1084.000
 70
    32
  0
VERTEX
  8
T63SSILL
 62
7
 10
1855.897
 20
-8212.293
 30
-1083.728
 70
    32
  0
VERTEX
  8
T63SSILL
 62
7
 10
1853.113
 20
-8235.225
 30
-1083.783
 70
    32
  0
VERTEX
  8
T63SSILL
 62
7
 10
1853.401
 20
-8254.267
 30
-1083.801
 70
    32
  0
VERTEX
  8
T63SSILL
 62
7
 10
1862.912
 20
-8277.906
 30
-1083.728
 70
    32
  0
VERTEX
  8
T63SSILL
 62
7
 10
1871.962
 20
-8287.401
 30
-1083.645
 70
    32
  0
VERTEX
  8
T63SSILL
 62
7
 10
1877.322
 20
-8301.055
 30
-1083.604
 70
    32
  0
VERTEX
  8
T63SSILL
 62
7
 10
1878.106
 20
-8315.666
 30
-1083.612
 70
    32
  0
VERTEX
  8
T63SSILL
 62
7
 10
1962.214
 20
-8523.358
 30
-1082.973
 70
    32
  0
VERTEX
  8
T63SSILL
 62
7
 10
1964.389
 20
-8530.126
 30
-1082.949
 70
    32
  0
VERTEX
  8
T63SSILL
 62
7
 10
1964.862
 20
-8540.708
 30
-1082.940
 70
    32
  0
VERTEX
  8
T63SSILL
 62
7
 10
1964.131
 20
-8548.345
 30
-1082.944
 70
    32
  0
VERTEX
  8
T63SSILL
 62
7
 10
1961.080
 20
-8556.778
 30
-1082.904
 70
    32
  0
VERTEX
  8
T63SSILL
 62
7
 10
1822.070
 20
-8888.178
 30
-1082.517
 70
    32
  0
VERTEX
  8
T63SSILL
 62
7
 10
1820.274
 20
-8915.190
 30
-1082.437
 70
    32
  0
VERTEX
  8
T63SSILL
 62
7
 10
1850.038
 20
-9005.171
 30
-1082.094
 70
    32
  0
VERTEX
  8
T63SSILL
 62
7
 10
1855.323
 20
-9008.446
 30
-1082.073
 70
    32
  0
VERTEX
  8
T63SSILL
 62
7
 10
1853.299
 20
-9015.646
 30
-1082.055
 70
    32
  0
VERTEX
  8
T63SSILL
 62
7
 10
1881.938
 20
-9107.630
 30
-1081.709
 70
    32
  0
VERTEX
  8
T63SSILL
 62
7
 10
1884.506
 20
-9105.785
 30
-1081.709
 70
    32
  0
VERTEX
  8
T63SSILL
 62
7
 10
1886.699
 20
-9112.829
 30
-1081.682
 70
    32
  0
VERTEX
  8
T63SSILL
 62
7
 10
1884.131
 20
-9114.674
 30
-1081.682
 70
    32
  0
VERTEX
  8
T63SSILL
 62
7
 10
1918.239
 20
-9224.222
 30
-1080.601
 70
    32
  0
VERTEX
  8
T63SSILL
 62
7
 10
1919.487
 20
-9228.228
 30
-1080.301
 70
    32
  0
VERTEX
  8
T63SSILL
 62
7
 10
1923.674
 20
-9241.677
 30
-1079.918
 70
    32
  0
VERTEX
  8
T63SSILL
 62
7
 10
1930.401
 20
-9248.691
 30
-1079.529
 70
    32
  0
VERTEX
  8
T63SSILL
 62
7
 10
1935.955
 20
-9254.481
 30
-1079.660
 70
    32
  0
VERTEX
  8
T63SSILL
 62
7
 10
1948.981
 20
-9261.860
 30
-1079.925
 70
    32
  0
VERTEX
  8
T63SSILL
 62
7
 10
1951.734
 20
-9262.444
 30
-1079.974
 70
    32
  0
VERTEX
  8
T63SSILL
 62
7
 10
1974.496
 20
-9267.590
 30
-1080.474
 70
    32
  0
VERTEX
  8
T63SSILL
 62
7
 10
1974.296
 20
-9267.234
 30
-1084.730
 70
    32
  0
VERTEX
  8
T63SSILL
 62
7
 10
1978.008
 20
-9265.853
 30
-1084.203
 70
    32
  0
VERTEX
  8
T63SSILL
 62
7
 10
1985.506
 20
-9263.064
 30
-1083.138
 70
    32
  0
VERTEX
  8
T63SSILL
 62
7
 10
1997.851
 20
-9252.160
 30
-1081.126
 70
    32
  0
VERTEX
  8
T63SSILL
 62
7
 10
2008.306
 20
-9246.364
 30
-1079.563
 70
    32
  0
VERTEX
  8
T63SSILL
 62
7
 10
2016.252
 20
-9243.830
 30
-1078.452
 70
    32
  0
VERTEX
  8
T63SSILL
 62
7
 10
2018.450
 20
-9242.369
 30
-1078.113
 70
    32
  0
VERTEX
  8
T63SSILL
 62
7
 10
2023.099
 20
-9243.700
 30
-1077.579
 70
    32
  0
VERTEX
  8
T63SSILL
 62
7
 10
2026.556
 20
-9252.250
 30
-1076.292
 70
    32
  0
VERTEX
  8
T63SSILL
 62
7
 10
2023.574
 20
-9251.981
 30
-1079.339
 70
    32
  0
VERTEX
  8
T63SSILL
 62
7
 10
2014.006
 20
-9258.713
 30
-1079.295
 70
    32
  0
VERTEX
  8
T63SSILL
 62
7
 10
2018.479
 20
-9269.392
 30
-1078.880
 70
    32
  0
VERTEX
  8
T63SSILL
 62
7
 10
2015.998
 20
-9277.123
 30
-1078.701
 70
    32
  0
VERTEX
  8
T63SSILL
 62
7
 10
2010.541
 20
-9275.574
 30
-1078.864
 70
    32
  0
VERTEX
  8
T63SSILL
 62
7
 10
1999.186
 20
-9280.445
 30
-1078.961
 70
    32
  0
VERTEX
  8
T63SSILL
 62
7
 10
1995.446
 20
-9282.876
 30
-1078.969
 70
    32
  0
VERTEX
  8
T63SSILL
 62
7
 10
1990.293
 20
-9281.272
 30
-1079.127
 70
    32
  0
VERTEX
  8
T63SSILL
 62
7
 10
1988.986
 20
-9280.865
 30
-1079.282
 70
    32
  0
VERTEX
  8
T63SSILL
 62
7
 10
1985.133
 20
-9279.742
 30
-1079.742
 70
    32
  0
VERTEX
  8
T63SSILL
 62
7
 10
1983.591
 20
-9279.666
 30
-1079.933
 70
    32
  0
VERTEX
  8
T63SSILL
 62
7
 10
1978.198
 20
-9278.779
 30
-1080.589
 70
    32
  0
VERTEX
  8
T63SSILL
 62
7
 10
1960.719
 20
-9275.904
 30
-1080.258
 70
    32
  0
VERTEX
  8
T63SSILL
 62
7
 10
1940.550
 20
-9271.682
 30
-1079.866
 70
    32
  0
VERTEX
  8
T63SSILL
 62
7
 10
1934.635
 20
-9276.884
 30
-1079.813
 70
    32
  0
VERTEX
  8
T63SSILL
 62
7
 10
1936.811
 20
-9283.874
 30
-1079.917
 70
    32
  0
VERTEX
  8
T63SSILL
 62
7
 10
1937.314
 20
-9285.489
 30
-1080.793
 70
    32
  0
VERTEX
  8
T63SSILL
 62
7
 10
1944.681
 20
-9309.149
 30
-1080.950
 70
    32
  0
VERTEX
  8
T63SSILL
 62
7
 10
1947.546
 20
-9308.257
 30
-1080.947
 70
    32
  0
VERTEX
  8
T63SSILL
 62
7
 10
1949.627
 20
-9314.940
 30
-1080.922
 70
    32
  0
VERTEX
  8
T63SSILL
 62
7
 10
1946.762
 20
-9315.832
 30
-1080.925
 70
    32
  0
VERTEX
  8
T63SSILL
 62
7
 10
1966.828
 20
-9380.279
 30
-1080.670
 70
    32
  0
VERTEX
  8
T63SSILL
 62
7
 10
1975.606
 20
-9400.913
 30
-1080.555
 70
    32
  0
VERTEX
  8
T63SSILL
 62
7
 10
1980.070
 20
-9403.609
 30
-1080.516
 70
    32
  0
VERTEX
  8
T63SSILL
 62
7
 10
1979.480
 20
-9409.726
 30
-1080.516
 70
    32
  0
VERTEX
  8
T63SSILL
 62
7
 10
2006.160
 20
-9472.734
 30
-1079.000
 70
    32
  0
VERTEX
  8
T63SSILL
 62
7
 10
2021.580
 20
-9484.671
 30
-1079.000
 70
    32
  0
VERTEX
  8
T63SSILL
 62
7
 10
2030.940
 20
-9489.602
 30
-1079.000
 70
    32
  0
VERTEX
  8
T63SSILL
 62
7
 10
2040.706
 20
-9492.058
 30
-1079.000
 70
    32
  0
VERTEX
  8
T63SSILL
 62
7
 10
2037.830
 20
-9505.285
 30
-1079.000
 70
    32
  0
VERTEX
  8
T63SSILL
 62
7
 10
2030.400
 20
-9502.367
 30
-1079.000
 70
    32
  0
VERTEX
  8
T63SSILL
 62
7
 10
2021.082
 20
-9501.403
 30
-1079.000
 70
    32
  0
VERTEX
  8
T63SSILL
 62
7
 10
2020.133
 20
-9505.580
 30
-1079.968
 70
    32
  0
VERTEX
  8
T63SSILL
 62
7
 10
2059.051
 20
-9597.060
 30
-1079.738
 70
    32
  0
VERTEX
  8
T63SSILL
 62
7
 10
2061.866
 20
-9598.567
 30
-1079.738
 70
    32
  0
VERTEX
  8
T63SSILL
 62
7
 10
2062.181
 20
-9604.417
 30
-1079.720
 70
    32
  0
VERTEX
  8
T63SSILL
 62
7
 10
2098.968
 20
-9690.890
 30
-1079.596
 70
    32
  0
VERTEX
  8
T63SSILL
 62
7
 10
2103.045
 20
-9695.424
 30
-1079.713
 70
    32
  0
VERTEX
  8
T63SSILL
 62
7
 10
2102.336
 20
-9698.806
 30
-1079.662
 70
    32
  0
VERTEX
  8
T63SSILL
 62
7
 10
2138.876
 20
-9784.698
 30
-1080.379
 70
    32
  0
VERTEX
  8
T63SSILL
 62
7
 10
2145.422
 20
-9788.125
 30
-1080.595
 70
    32
  0
VERTEX
  8
T63SSILL
 62
7
 10
2142.721
 20
-9793.735
 30
-1080.454
 70
    32
  0
VERTEX
  8
T63SSILL
 62
7
 10
2177.877
 20
-9876.374
 30
-1080.312
 70
    32
  0
VERTEX
  8
T63SSILL
 62
7
 10
2183.115
 20
-9880.967
 30
-1080.259
 70
    32
  0
VERTEX
  8
T63SSILL
 62
7
 10
2181.101
 20
-9883.952
 30
-1080.278
 70
    32
  0
VERTEX
  8
T63SSILL
 62
7
 10
2188.906
 20
-9902.297
 30
-1080.194
 70
    32
  0
VERTEX
  8
T63SSILL
 62
7
 10
2180.601
 20
-9905.768
 30
-1080.273
 70
    32
  0
VERTEX
  8
T63SSILL
 62
7
 10
2173.374
 20
-9888.778
 30
-1080.350
 70
    32
  0
VERTEX
  8
T63SSILL
 62
7
 10
2168.827
 20
-9888.451
 30
-1080.395
 70
    32
  0
VERTEX
  8
T63SSILL
 62
7
 10
2169.585
 20
-9879.871
 30
-1080.391
 70
    32
  0
VERTEX
  8
T63SSILL
 62
7
 10
2134.251
 20
-9796.815
 30
-1080.119
 70
    32
  0
VERTEX
  8
T63SSILL
 62
7
 10
2129.708
 20
-9794.370
 30
-1079.970
 70
    32
  0
VERTEX
  8
T63SSILL
 62
7
 10
2130.397
 20
-9787.756
 30
-1080.044
 70
    32
  0
VERTEX
  8
T63SSILL
 62
7
 10
2095.147
 20
-9704.897
 30
-1079.509
 70
    32
  0
VERTEX
  8
T63SSILL
 62
7
 10
2090.270
 20
-9702.408
 30
-1079.519
 70
    32
  0
VERTEX
  8
T63SSILL
 62
7
 10
2091.080
 20
-9695.338
 30
-1079.514
 70
    32
  0
VERTEX
  8
T63SSILL
 62
7
 10
2054.162
 20
-9608.557
 30
-1079.709
 70
    32
  0
VERTEX
  8
T63SSILL
 62
7
 10
2050.210
 20
-9606.932
 30
-1079.716
 70
    32
  0
VERTEX
  8
T63SSILL
 62
7
 10
2050.196
 20
-9599.234
 30
-1079.731
 70
    32
  0
VERTEX
  8
T63SSILL
 62
7
 10
2012.745
 20
-9511.202
 30
-1079.973
 70
    32
  0
VERTEX
  8
T63SSILL
 62
7
 10
2006.707
 20
-9506.832
 30
-1080.006
 70
    32
  0
VERTEX
  8
T63SSILL
 62
7
 10
2008.631
 20
-9501.532
 30
-1080.027
 70
    32
  0
VERTEX
  8
T63SSILL
 62
7
 10
1971.691
 20
-9414.701
 30
-1080.514
 70
    32
  0
VERTEX
  8
T63SSILL
 62
7
 10
1966.952
 20
-9410.927
 30
-1080.541
 70
    32
  0
VERTEX
  8
T63SSILL
 62
7
 10
1968.057
 20
-9406.158
 30
-1080.562
 70
    32
  0
VERTEX
  8
T63SSILL
 62
7
 10
1958.369
 20
-9383.386
 30
-1080.685
 70
    32
  0
VERTEX
  8
T63SSILL
 62
7
 10
1956.602
 20
-9377.712
 30
-1080.000
 70
    32
  0
VERTEX
  8
T63SSILL
 62
7
 10
1949.201
 20
-9370.402
 30
-1080.080
 70
    32
  0
VERTEX
  8
T63SSILL
 62
7
 10
1946.692
 20
-9371.386
 30
-1080.080
 70
    32
  0
VERTEX
  8
T63SSILL
 62
7
 10
1942.557
 20
-9379.606
 30
-1080.080
 70
    32
  0
VERTEX
  8
T63SSILL
 62
7
 10
1939.554
 20
-9380.656
 30
-1080.080
 70
    32
  0
VERTEX
  8
T63SSILL
 62
7
 10
1931.063
 20
-9374.367
 30
-1080.080
 70
    32
  0
SEQEND
  8
T63SSILL
  0
POLYLINE
  8
T63SSILL
 62
7
 66
     1
 70
     9
  0
VERTEX
  8
T63SSILL
 62
7
 10
1660.890
 20
-7820.135
 30
-1082.649
 70
    32
  0
VERTEX
  8
T63SSILL
 62
7
 10
1661.199
 20
-7794.037
 30
-1082.572
 70
    32
  0
VERTEX
  8
T63SSILL
 62
7
 10
1668.861
 20
-7789.159
 30
-1082.686
 70
    32
  0
VERTEX
  8
T63SSILL
 62
7
 10
1730.855
 20
-7782.190
 30
-1083.752
 70
    32
  0
VERTEX
  8
T63SSILL
 62
7
 10
1734.339
 20
-7785.675
 30
-1083.893
 70
    32
  0
VERTEX
  8
T63SSILL
 62
7
 10
1742.001
 20
-7787.765
 30
-1083.903
 70
    32
  0
VERTEX
  8
T63SSILL
 62
7
 10
1791.692
 20
-7899.231
 30
-1084.072
 70
    32
  0
VERTEX
  8
T63SSILL
 62
7
 10
1794.828
 20
-7915.422
 30
-1084.052
 70
    32
  0
VERTEX
  8
T63SSILL
 62
7
 10
1790.624
 20
-7933.823
 30
-1084.098
 70
    32
  0
VERTEX
  8
T63SSILL
 62
7
 10
1779.028
 20
-7949.534
 30
-1084.236
 70
    32
  0
VERTEX
  8
T63SSILL
 62
7
 10
1770.438
 20
-7955.641
 30
-1084.333
 70
    32
  0
VERTEX
  8
T63SSILL
 62
7
 10
1737.086
 20
-7970.430
 30
-1084.696
 70
    32
  0
VERTEX
  8
T63SSILL
 62
7
 10
1721.391
 20
-7963.540
 30
-1084.433
 70
    32
  0
VERTEX
  8
T63SSILL
 62
7
 10
1720.128
 20
-7961.414
 30
-1084.391
 70
    32
  0
VERTEX
  8
T63SSILL
 62
7
 10
1713.788
 20
-7964.081
 30
-1084.288
 70
    32
  0
VERTEX
  8
T63SSILL
 62
7
 10
1723.226
 20
-7985.314
 30
-1084.646
 70
    32
  0
VERTEX
  8
T63SSILL
 62
7
 10
1716.973
 20
-7988.683
 30
-1084.567
 70
    32
  0
VERTEX
  8
T63SSILL
 62
7
 10
1720.815
 20
-7996.885
 30
-1084.715
 70
    32
  0
VERTEX
  8
T63SSILL
 62
7
 10
1727.401
 20
-7994.254
 30
-1084.799
 70
    32
  0
VERTEX
  8
T63SSILL
 62
7
 10
1731.611
 20
-8003.387
 30
-1084.769
 70
    32
  0
VERTEX
  8
T63SSILL
 62
7
 10
1725.130
 20
-8006.597
 30
-1084.738
 70
    32
  0
VERTEX
  8
T63SSILL
 62
7
 10
1728.078
 20
-8013.605
 30
-1084.714
 70
    32
  0
VERTEX
  8
T63SSILL
 62
7
 10
1734.909
 20
-8010.570
 30
-1084.745
 70
    32
  0
VERTEX
  8
T63SSILL
 62
7
 10
1769.108
 20
-8086.675
 30
-1084.490
 70
    32
  0
VERTEX
  8
T63SSILL
 62
7
 10
1765.000
 20
-8099.000
 30
-1084.424
 70
    32
  0
VERTEX
  8
T63SSILL
 62
7
 10
1748.000
 20
-8112.000
 30
-1084.321
 70
    32
  0
VERTEX
  8
T63SSILL
 62
7
 10
1730.000
 20
-8115.000
 30
-1084.262
 70
    32
  0
VERTEX
  8
T63SSILL
 62
7
 10
1650.000
 20
-8085.000
 30
-1084.191
 70
    32
  0
VERTEX
  8
T63SSILL
 62
7
 10
1646.293
 20
-8075.934
 30
-1084.167
 70
    32
  0
VERTEX
  8
T63SSILL
 62
7
 10
1635.938
 20
-8071.232
 30
-1084.158
 70
    32
  0
VERTEX
  8
T63SSILL
 62
7
 10
1609.250
 20
-7891.700
 30
-1083.309
 70
    32
  0
VERTEX
  8
T63SSILL
 62
7
 10
1599.248
 20
-7893.167
 30
-1083.409
 70
    32
  0
VERTEX
  8
T63SSILL
 62
7
 10
1601.241
 20
-7907.675
 30
-1083.422
 70
    32
  0
VERTEX
  8
T63SSILL
 62
7
 10
1554.651
 20
-7888.056
 30
-1083.989
 70
    32
  0
VERTEX
  8
T63SSILL
 62
7
 10
1547.946
 20
-7873.180
 30
-1083.954
 70
    32
  0
VERTEX
  8
T63SSILL
 62
7
 10
1540.661
 20
-7872.050
 30
-1083.932
 70
    32
  0
VERTEX
  8
T63SSILL
 62
7
 10
1529.561
 20
-7866.253
 30
-1083.941
 70
    32
  0
VERTEX
  8
T63SSILL
 62
7
 10
1522.168
 20
-7856.331
 30
-1083.934
 70
    32
  0
VERTEX
  8
T63SSILL
 62
7
 10
1523.470
 20
-7846.473
 30
-1083.917
 70
    32
  0
VERTEX
  8
T63SSILL
 62
7
 10
1606.382
 20
-7785.781
 30
-1083.679
 70
    32
  0
VERTEX
  8
T63SSILL
 62
7
 10
1607.580
 20
-7788.169
 30
-1083.624
 70
    32
  0
VERTEX
  8
T63SSILL
 62
7
 10
1608.949
 20
-7791.725
 30
-1083.266
 70
    32
  0
VERTEX
  8
T63SSILL
 62
7
 10
1607.908
 20
-7796.635
 30
-1083.239
 70
    32
  0
VERTEX
  8
T63SSILL
 62
7
 10
1604.623
 20
-7807.411
 30
-1082.147
 70
    32
  0
VERTEX
  8
T63SSILL
 62
7
 10
1601.051
 20
-7819.336
 30
-1081.149
 70
    32
  0
VERTEX
  8
T63SSILL
 62
7
 10
1601.044
 20
-7825.985
 30
-1079.399
 70
    32
  0
VERTEX
  8
T63SSILL
 62
7
 10
1594.617
 20
-7840.813
 30
-1078.270
 70
    32
  0
VERTEX
  8
T63SSILL
 62
7
 10
1599.527
 20
-7846.337
 30
-1079.369
 70
    32
  0
VERTEX
  8
T63SSILL
 62
7
 10
1604.905
 20
-7847.816
 30
-1077.908
 70
    32
  0
VERTEX
  8
T63SSILL
 62
7
 10
1610.404
 20
-7845.800
 30
-1076.944
 70
    32
  0
VERTEX
  8
T63SSILL
 62
7
 10
1617.558
 20
-7843.867
 30
-1077.009
 70
    32
  0
VERTEX
  8
T63SSILL
 62
7
 10
1615.471
 20
-7833.080
 30
-1079.905
 70
    32
  0
VERTEX
  8
T63SSILL
 62
7
 10
1615.734
 20
-7827.752
 30
-1080.493
 70
    32
  0
VERTEX
  8
T63SSILL
 62
7
 10
1613.794
 20
-7820.033
 30
-1080.670
 70
    32
  0
VERTEX
  8
T63SSILL
 62
7
 10
1617.699
 20
-7803.715
 30
-1082.021
 70
    32
  0
VERTEX
  8
T63SSILL
 62
7
 10
1617.865
 20
-7798.082
 30
-1083.568
 70
    32
  0
VERTEX
  8
T63SSILL
 62
7
 10
1620.306
 20
-7789.427
 30
-1083.360
 70
    32
  0
VERTEX
  8
T63SSILL
 62
7
 10
1625.624
 20
-7772.152
 30
-1083.128
 70
    32
  0
VERTEX
  8
T63SSILL
 62
7
 10
1644.585
 20
-7758.199
 30
-1082.668
 70
    32
  0
VERTEX
  8
T63SSILL
 62
7
 10
1650.546
 20
-7763.344
 30
-1082.622
 70
    32
  0
VERTEX
  8
T63SSILL
 62
7
 10
1650.797
 20
-7851.582
 30
-1082.817
 70
    32
  0
VERTEX
  8
T63SSILL
 62
7
 10
1655.246
 20
-7879.681
 30
-1082.837
 70
    32
  0
VERTEX
  8
T63SSILL
 62
7
 10
1648.842
 20
-7879.273
 30
-1082.898
 70
    32
  0
VERTEX
  8
T63SSILL
 62
7
 10
1649.095
 20
-7890.463
 30
-1082.920
 70
    32
  0
VERTEX
  8
T63SSILL
 62
7
 10
1654.138
 20
-7895.941
 30
-1082.884
 70
    32
  0
VERTEX
  8
T63SSILL
 62
7
 10
1662.631
 20
-7962.792
 30
-1083.353
 70
    32
  0
VERTEX
  8
T63SSILL
 62
7
 10
1656.849
 20
-7980.938
 30
-1083.427
 70
    32
  0
VERTEX
  8
T63SSILL
 62
7
 10
1655.248
 20
-8000.431
 30
-1083.589
 70
    32
  0
VERTEX
  8
T63SSILL
 62
7
 10
1658.324
 20
-8015.362
 30
-1083.789
 70
    32
  0
VERTEX
  8
T63SSILL
 62
7
 10
1667.638
 20
-8027.612
 30
-1084.073
 70
    32
  0
VERTEX
  8
T63SSILL
 62
7
 10
1669.187
 20
-8046.642
 30
-1084.286
 70
    32
  0
VERTEX
  8
T63SSILL
 62
7
 10
1675.783
 20
-8079.128
 30
-1084.284
 70
    32
  0
VERTEX
  8
T63SSILL
 62
7
 10
1687.293
 20
-8078.811
 30
-1084.315
 70
    32
  0
VERTEX
  8
T63SSILL
 62
7
 10
1685.141
 20
-8067.629
 30
-1084.360
 70
    32
  0
VERTEX
  8
T63SSILL
 62
7
 10
1686.844
 20
-8056.048
 30
-1084.416
 70
    32
  0
VERTEX
  8
T63SSILL
 62
7
 10
1701.484
 20
-8052.191
 30
-1084.471
 70
    32
  0
VERTEX
  8
T63SSILL
 62
7
 10
1698.099
 20
-8023.462
 30
-1084.572
 70
    32
  0
VERTEX
  8
T63SSILL
 62
7
 10
1687.833
 20
-8019.162
 30
-1084.349
 70
    32
  0
VERTEX
  8
T63SSILL
 62
7
 10
1678.649
 20
-8006.560
 30
-1084.063
 70
    32
  0
VERTEX
  8
T63SSILL
 62
7
 10
1671.177
 20
-7939.587
 30
-1083.278
 70
    32
  0
VERTEX
  8
T63SSILL
 62
7
 10
1672.347
 20
-7929.990
 30
-1083.205
 70
    32
  0
VERTEX
  8
T63SSILL
 62
7
 10
1675.029
 20
-7928.088
 30
-1083.234
 70
    32
  0
VERTEX
  8
T63SSILL
 62
7
 10
1700.240
 20
-7961.231
 30
-1084.003
 70
    32
  0
VERTEX
  8
T63SSILL
 62
7
 10
1708.320
 20
-7953.072
 30
-1084.091
 70
    32
  0
VERTEX
  8
T63SSILL
 62
7
 10
1666.915
 20
-7901.384
 30
-1082.918
 70
    32
  0
VERTEX
  8
T63SSILL
 62
7
 10
1666.298
 20
-7895.855
 30
-1082.894
 70
    32
  0
VERTEX
  8
T63SSILL
 62
7
 10
1668.328
 20
-7889.395
 30
-1082.926
 70
    32
  0
VERTEX
  8
T63SSILL
 62
7
 10
1661.466
 20
-7854.190
 30
-1082.719
 70
    32
  0
VERTEX
  8
T63SSILL
 62
7
 10
1665.368
 20
-7849.041
 30
-1082.670
 70
    32
  0
SEQEND
  8
T63SSILL
  0
ENDSEC
  0
EOF
