999
********************************
999
*   DXF File - Entities Only   *
999
*        3D Data Format        *
999
*     Output from ENVISAGE     *
999
*     24-Dec-2007 12:26:25     *
999
********************************
  0
SECTION 
  2
HEADER
  9
$ACADVER
  1
AC1009
  9
$EXTMIN
 10
-290000.000
 20
-250000.000
 30
-4000.000
  9
$EXTMAX
 10
5000000.000
 20
600000.000
 30
6000.000
  0
ENDSEC
  0
SECTION
  2
ENTITIES
  0
POLYLINE
  8
T65SSILL
 62
13
 66
     1
 70
     9
  0
VERTEX
  8
T65SSILL
 62
13
 10
1062.213
 20
-5767.963
 30
-1234.835
 70
    32
  0
VERTEX
  8
T65SSILL
 62
13
 10
1062.066
 20
-5768.947
 30
-1234.835
 70
    32
  0
SEQEND
  8
T65SSILL
  0
POLYLINE
  8
T65SSILL
 62
13
 66
     1
 70
     9
  0
VERTEX
  8
T65SSILL
 62
13
 10
1641.264
 20
-7442.588
 30
-1238.821
 70
    32
  0
VERTEX
  8
T65SSILL
 62
13
 10
1642.106
 20
-7441.142
 30
-1238.817
 70
    32
  0
SEQEND
  8
T65SSILL
  0
POLYLINE
  8
T65SSILL
 62
13
 66
     1
 70
     9
  0
VERTEX
  8
T65SSILL
 62
13
 10
1555.290
 20
-7886.523
 30
-1239.696
 70
    32
  0
VERTEX
  8
T65SSILL
 62
13
 10
1555.085
 20
-7890.763
 30
-1239.700
 70
    32
  0
SEQEND
  8
T65SSILL
  0
POLYLINE
  8
T65SSILL
 62
3
 66
     1
 70
     9
  0
VERTEX
  8
T65SSILL
 62
3
 10
973.930
 20
-5505.665
 30
-1234.561
 70
    32
  0
VERTEX
  8
T65SSILL
 62
3
 10
976.718
 20
-5500.031
 30
-1234.532
 70
    32
  0
VERTEX
  8
T65SSILL
 62
3
 10
977.515
 20
-5493.822
 30
-1234.495
 70
    32
  0
VERTEX
  8
T65SSILL
 62
3
 10
971.090
 20
-5480.753
 30
-1234.403
 70
    32
  0
VERTEX
  8
T65SSILL
 62
3
 10
985.735
 20
-5477.965
 30
-1234.417
 70
    32
  0
VERTEX
  8
T65SSILL
 62
3
 10
990.404
 20
-5488.818
 30
-1234.487
 70
    32
  0
VERTEX
  8
T65SSILL
 62
3
 10
989.504
 20
-5505.702
 30
-1234.590
 70
    32
  0
SEQEND
  8
T65SSILL
  0
POLYLINE
  8
T65SSILL
 62
3
 66
     1
 70
     9
  0
VERTEX
  8
T65SSILL
 62
3
 10
970.940
 20
-6151.203
 30
-1235.556
 70
    32
  0
VERTEX
  8
T65SSILL
 62
3
 10
977.971
 20
-6143.378
 30
-1235.537
 70
    32
  0
VERTEX
  8
T65SSILL
 62
3
 10
998.648
 20
-6163.712
 30
-1235.582
 70
    32
  0
VERTEX
  8
T65SSILL
 62
3
 10
991.128
 20
-6172.000
 30
-1235.612
 70
    32
  0
VERTEX
  8
T65SSILL
 62
3
 10
978.539
 20
-6161.090
 30
-1235.581
 70
    32
  0
VERTEX
  8
T65SSILL
 62
3
 10
974.021
 20
-6159.833
 30
-1235.576
 70
    32
  0
SEQEND
  8
T65SSILL
  0
POLYLINE
  8
T65SSILL
 62
3
 66
     1
 70
     9
  0
VERTEX
  8
T65SSILL
 62
3
 10
1157.194
 20
-6257.763
 30
-1235.848
 70
    32
  0
VERTEX
  8
T65SSILL
 62
3
 10
1161.885
 20
-6264.038
 30
-1235.847
 70
    32
  0
VERTEX
  8
T65SSILL
 62
3
 10
1186.529
 20
-6265.636
 30
-1235.745
 70
    32
  0
VERTEX
  8
T65SSILL
 62
3
 10
1180.641
 20
-6278.060
 30
-1235.808
 70
    32
  0
VERTEX
  8
T65SSILL
 62
3
 10
1151.010
 20
-6274.687
 30
-1235.927
 70
    32
  0
SEQEND
  8
T65SSILL
  0
POLYLINE
  8
T65SSILL
 62
3
 66
     1
 70
     9
  0
VERTEX
  8
T65SSILL
 62
3
 10
972.487
 20
-5514.953
 30
-1234.596
 70
    32
  0
VERTEX
  8
T65SSILL
 62
3
 10
952.210
 20
-5535.080
 30
-1234.508
 70
    32
  0
VERTEX
  8
T65SSILL
 62
3
 10
957.041
 20
-5544.858
 30
-1234.482
 70
    32
  0
VERTEX
  8
T65SSILL
 62
3
 10
986.815
 20
-5515.455
 30
-1234.611
 70
    32
  0
SEQEND
  8
T65SSILL
  0
POLYLINE
  8
T65SSILL
 62
3
 66
     1
 70
     9
  0
VERTEX
  8
T65SSILL
 62
3
 10
7330.011
 20
-8369.743
 30
-1255.733
 70
    32
  0
VERTEX
  8
T65SSILL
 62
3
 10
7352.712
 20
-8370.338
 30
-1255.550
 70
    32
  0
VERTEX
  8
T65SSILL
 62
3
 10
7342.585
 20
-8381.897
 30
-1255.600
 70
    32
  0
VERTEX
  8
T65SSILL
 62
3
 10
7317.578
 20
-8383.707
 30
-1255.795
 70
    32
  0
SEQEND
  8
T65SSILL
  0
POLYLINE
  8
T65SSILL
 62
3
 66
     1
 70
     9
  0
VERTEX
  8
T65SSILL
 62
3
 10
7404.216
 20
-8532.173
 30
-1254.702
 70
    32
  0
VERTEX
  8
T65SSILL
 62
3
 10
7417.561
 20
-8494.532
 30
-1254.697
 70
    32
  0
VERTEX
  8
T65SSILL
 62
3
 10
7430.110
 20
-8492.178
 30
-1254.603
 70
    32
  0
VERTEX
  8
T65SSILL
 62
3
 10
7415.794
 20
-8533.369
 30
-1254.607
 70
    32
  0
SEQEND
  8
T65SSILL
  0
TEXT
  8
T65SSILL
 62
3
 10
969.869
 20
-5493.717
 30
-1221.630
 40
8.202
  1
U
 41
 1.0 
  0
TEXT
  8
T65SSILL
 62
3
 10
994.338
 20
-6146.011
 30
-1218.140
 40
8.202
  1
U
 41
 1.0 
  0
TEXT
  8
T65SSILL
 62
3
 10
1161.719
 20
-6271.525
 30
-1224.598
 40
8.202
  1
D
 41
 1.0 
  0
TEXT
  8
T65SSILL
 62
3
 10
948.553
 20
-5525.615
 30
-1230.487
 40
8.202
  1
D
 41
 1.0 
  0
TEXT
  8
T65SSILL
 62
13
 10
2031.383
 20
-6334.980
 30
-1228.418
 40
4.101
  1
6500
 41
 1.0 
  0
TEXT
  8
T65SSILL
 62
13
 10
4999.747
 20
-8933.733
 30
-1244.932
 40
4.101
  1
6500
 41
 1.0 
  0
TEXT
  8
T65SSILL
 62
3
 10
7362.101
 20
-8354.025
 30
-1240.341
 40
8.202
  1
U
 41
 1.0 
  0
TEXT
  8
T65SSILL
 62
3
 10
7450.405
 20
-8504.939
 30
-1244.780
 40
8.202
  1
D
 41
 1.0 
  0
POLYLINE
  8
T65SSILL
 62
13
 66
     1
 70
     9
  0
VERTEX
  8
T65SSILL
 62
13
 10
6463.509
 20
-11342.527
 30
-1251.187
 70
    32
  0
VERTEX
  8
T65SSILL
 62
13
 10
6461.242
 20
-11340.476
 30
-1251.166
 70
    32
  0
VERTEX
  8
T65SSILL
 62
13
 10
6451.920
 20
-11314.340
 30
-1251.031
 70
    32
  0
VERTEX
  8
T65SSILL
 62
13
 10
6425.653
 20
-11317.972
 30
-1250.867
 70
    32
  0
VERTEX
  8
T65SSILL
 62
13
 10
6427.280
 20
-11322.129
 30
-1250.889
 70
    32
  0
VERTEX
  8
T65SSILL
 62
13
 10
6425.842
 20
-11329.405
 30
-1250.900
 70
    32
  0
VERTEX
  8
T65SSILL
 62
13
 10
6432.160
 20
-11342.351
 30
-1250.978
 70
    32
  0
VERTEX
  8
T65SSILL
 62
13
 10
6439.031
 20
-11348.452
 30
-1251.041
 70
    32
  0
VERTEX
  8
T65SSILL
 62
13
 10
6462.963
 20
-11345.656
 30
-1251.178
 70
    32
  0
VERTEX
  8
T65SSILL
 62
13
 10
6463.501
 20
-11342.571
 30
-1251.187
 70
    32
  0
SEQEND
  8
T65SSILL
  0
POLYLINE
  8
T65SSILL
 62
13
 66
     1
 70
     9
  0
VERTEX
  8
T65SSILL
 62
13
 10
6457.127
 20
-11266.316
 30
-1250.931
 70
    32
  0
VERTEX
  8
T65SSILL
 62
13
 10
6409.188
 20
-11270.761
 30
-1250.626
 70
    32
  0
VERTEX
  8
T65SSILL
 62
13
 10
6403.744
 20
-11280.316
 30
-1250.616
 70
    32
  0
VERTEX
  8
T65SSILL
 62
13
 10
6411.405
 20
-11297.627
 30
-1250.716
 70
    32
  0
VERTEX
  8
T65SSILL
 62
13
 10
6425.190
 20
-11307.505
 30
-1250.835
 70
    32
  0
VERTEX
  8
T65SSILL
 62
13
 10
6450.585
 20
-11304.620
 30
-1250.995
 70
    32
  0
VERTEX
  8
T65SSILL
 62
13
 10
6449.423
 20
-11298.267
 30
-1250.970
 70
    32
  0
VERTEX
  8
T65SSILL
 62
13
 10
6450.126
 20
-11284.325
 30
-1250.935
 70
    32
  0
VERTEX
  8
T65SSILL
 62
13
 10
6455.710
 20
-11270.192
 30
-1250.933
 70
    32
  0
SEQEND
  8
T65SSILL
  0
POLYLINE
  8
T65SSILL
 62
13
 66
     1
 70
     9
  0
VERTEX
  8
T65SSILL
 62
13
 10
6399.670
 20
-11257.321
 30
-1250.525
 70
    32
  0
VERTEX
  8
T65SSILL
 62
13
 10
6405.216
 20
-11262.209
 30
-1250.576
 70
    32
  0
VERTEX
  8
T65SSILL
 62
13
 10
6459.575
 20
-11256.991
 30
-1250.922
 70
    32
  0
VERTEX
  8
T65SSILL
 62
13
 10
6458.846
 20
-11246.609
 30
-1251.026
 70
    32
  0
VERTEX
  8
T65SSILL
 62
13
 10
6451.414
 20
-11246.596
 30
-1250.924
 70
    32
  0
VERTEX
  8
T65SSILL
 62
13
 10
6448.759
 20
-11244.611
 30
-1250.918
 70
    32
  0
VERTEX
  8
T65SSILL
 62
13
 10
6445.164
 20
-11238.511
 30
-1250.961
 70
    32
  0
VERTEX
  8
T65SSILL
 62
13
 10
6392.323
 20
-11210.634
 30
-1250.660
 70
    32
  0
VERTEX
  8
T65SSILL
 62
13
 10
6388.331
 20
-11211.593
 30
-1250.590
 70
    32
  0
VERTEX
  8
T65SSILL
 62
13
 10
6384.584
 20
-11217.504
 30
-1250.449
 70
    32
  0
VERTEX
  8
T65SSILL
 62
13
 10
6381.457
 20
-11230.820
 30
-1250.331
 70
    32
  0
VERTEX
  8
T65SSILL
 62
13
 10
6390.910
 20
-11251.621
 30
-1250.451
 70
    32
  0
VERTEX
  8
T65SSILL
 62
13
 10
6394.185
 20
-11253.261
 30
-1250.478
 70
    32
  0
VERTEX
  8
T65SSILL
 62
13
 10
6397.124
 20
-11256.675
 30
-1250.507
 70
    32
  0
SEQEND
  8
T65SSILL
  0
POLYLINE
  8
T65SSILL
 62
13
 66
     1
 70
     9
  0
VERTEX
  8
T65SSILL
 62
13
 10
6450.565
 20
-11231.280
 30
-1251.145
 70
    32
  0
VERTEX
  8
T65SSILL
 62
13
 10
6460.986
 20
-11236.417
 30
-1251.210
 70
    32
  0
VERTEX
  8
T65SSILL
 62
13
 10
6461.562
 20
-11221.259
 30
-1251.449
 70
    32
  0
VERTEX
  8
T65SSILL
 62
13
 10
6448.214
 20
-11227.326
 30
-1251.173
 70
    32
  0
SEQEND
  8
T65SSILL
  0
POLYLINE
  8
T65SSILL
 62
13
 66
     1
 70
     9
  0
VERTEX
  8
T65SSILL
 62
13
 10
6532.038
 20
-11323.872
 30
-1251.549
 70
    32
  0
VERTEX
  8
T65SSILL
 62
13
 10
6541.527
 20
-11263.215
 30
-1251.908
 70
    32
  0
VERTEX
  8
T65SSILL
 62
13
 10
6485.293
 20
-11184.663
 30
-1252.331
 70
    32
  0
VERTEX
  8
T65SSILL
 62
13
 10
6480.605
 20
-11188.097
 30
-1252.215
 70
    32
  0
VERTEX
  8
T65SSILL
 62
13
 10
6480.379
 20
-11203.436
 30
-1251.978
 70
    32
  0
VERTEX
  8
T65SSILL
 62
13
 10
6477.510
 20
-11214.270
 30
-1251.774
 70
    32
  0
VERTEX
  8
T65SSILL
 62
13
 10
6478.863
 20
-11216.117
 30
-1251.764
 70
    32
  0
VERTEX
  8
T65SSILL
 62
13
 10
6477.259
 20
-11224.060
 30
-1251.621
 70
    32
  0
VERTEX
  8
T65SSILL
 62
13
 10
6477.131
 20
-11233.869
 30
-1251.470
 70
    32
  0
VERTEX
  8
T65SSILL
 62
13
 10
6479.055
 20
-11238.135
 30
-1251.432
 70
    32
  0
VERTEX
  8
T65SSILL
 62
13
 10
6488.194
 20
-11243.011
 30
-1251.483
 70
    32
  0
VERTEX
  8
T65SSILL
 62
13
 10
6489.500
 20
-11253.735
 30
-1251.338
 70
    32
  0
VERTEX
  8
T65SSILL
 62
13
 10
6495.040
 20
-11262.339
 30
-1251.283
 70
    32
  0
VERTEX
  8
T65SSILL
 62
13
 10
6498.356
 20
-11285.344
 30
-1251.258
 70
    32
  0
VERTEX
  8
T65SSILL
 62
13
 10
6497.369
 20
-11299.493
 30
-1251.291
 70
    32
  0
VERTEX
  8
T65SSILL
 62
13
 10
6502.609
 20
-11309.627
 30
-1251.354
 70
    32
  0
VERTEX
  8
T65SSILL
 62
13
 10
6499.075
 20
-11315.381
 30
-1251.347
 70
    32
  0
VERTEX
  8
T65SSILL
 62
13
 10
6504.916
 20
-11325.293
 30
-1251.413
 70
    32
  0
VERTEX
  8
T65SSILL
 62
13
 10
6515.314
 20
-11330.993
 30
-1251.455
 70
    32
  0
VERTEX
  8
T65SSILL
 62
13
 10
6517.694
 20
-11333.943
 30
-1251.461
 70
    32
  0
SEQEND
  8
T65SSILL
  0
POLYLINE
  8
T65SSILL
 62
13
 66
     1
 70
     9
  0
VERTEX
  8
T65SSILL
 62
13
 10
6471.932
 20
-11207.550
 30
-1251.800
 70
    32
  0
VERTEX
  8
T65SSILL
 62
13
 10
6473.094
 20
-11202.878
 30
-1251.887
 70
    32
  0
VERTEX
  8
T65SSILL
 62
13
 10
6472.460
 20
-11184.131
 30
-1252.163
 70
    32
  0
VERTEX
  8
T65SSILL
 62
13
 10
6479.824
 20
-11177.644
 30
-1252.363
 70
    32
  0
VERTEX
  8
T65SSILL
 62
13
 10
6417.814
 20
-11091.207
 30
-1252.827
 70
    32
  0
VERTEX
  8
T65SSILL
 62
13
 10
6412.271
 20
-11090.793
 30
-1252.757
 70
    32
  0
VERTEX
  8
T65SSILL
 62
13
 10
6410.906
 20
-11102.490
 30
-1252.560
 70
    32
  0
VERTEX
  8
T65SSILL
 62
13
 10
6414.692
 20
-11113.470
 30
-1252.445
 70
    32
  0
VERTEX
  8
T65SSILL
 62
13
 10
6414.941
 20
-11117.982
 30
-1252.380
 70
    32
  0
VERTEX
  8
T65SSILL
 62
13
 10
6413.240
 20
-11120.428
 30
-1252.319
 70
    32
  0
VERTEX
  8
T65SSILL
 62
13
 10
6436.231
 20
-11154.345
 30
-1252.119
 70
    32
  0
VERTEX
  8
T65SSILL
 62
13
 10
6424.212
 20
-11162.822
 30
-1251.825
 70
    32
  0
VERTEX
  8
T65SSILL
 62
13
 10
6410.289
 20
-11143.221
 30
-1251.932
 70
    32
  0
VERTEX
  8
T65SSILL
 62
13
 10
6410.866
 20
-11134.175
 30
-1252.078
 70
    32
  0
VERTEX
  8
T65SSILL
 62
13
 10
6404.027
 20
-11131.544
 30
-1252.024
 70
    32
  0
VERTEX
  8
T65SSILL
 62
13
 10
6389.276
 20
-11196.492
 30
-1250.833
 70
    32
  0
VERTEX
  8
T65SSILL
 62
13
 10
6392.848
 20
-11201.517
 30
-1250.806
 70
    32
  0
VERTEX
  8
T65SSILL
 62
13
 10
6428.316
 20
-11219.089
 30
-1251.025
 70
    32
  0
VERTEX
  8
T65SSILL
 62
13
 10
6439.557
 20
-11214.019
 30
-1251.257
 70
    32
  0
VERTEX
  8
T65SSILL
 62
13
 10
6444.355
 20
-11210.287
 30
-1251.379
 70
    32
  0
VERTEX
  8
T65SSILL
 62
13
 10
6469.177
 20
-11206.621
 30
-1251.776
 70
    32
  0
SEQEND
  8
T65SSILL
  0
POLYLINE
  8
T65SSILL
 62
13
 66
     1
 70
     9
  0
VERTEX
  8
T65SSILL
 62
13
 10
6899.994
 20
-10734.676
 30
-1252.240
 70
    32
  0
VERTEX
  8
T65SSILL
 62
13
 10
6899.446
 20
-10732.331
 30
-1252.234
 70
    32
  0
VERTEX
  8
T65SSILL
 62
13
 10
6867.013
 20
-10732.757
 30
-1252.259
 70
    32
  0
VERTEX
  8
T65SSILL
 62
13
 10
6866.467
 20
-10733.939
 30
-1252.263
 70
    32
  0
VERTEX
  8
T65SSILL
 62
13
 10
6863.223
 20
-10734.611
 30
-1252.267
 70
    32
  0
VERTEX
  8
T65SSILL
 62
13
 10
6862.894
 20
-10744.893
 30
-1252.298
 70
    32
  0
VERTEX
  8
T65SSILL
 62
13
 10
6899.066
 20
-10773.088
 30
-1252.343
 70
    32
  0
VERTEX
  8
T65SSILL
 62
13
 10
6897.598
 20
-10766.581
 30
-1252.327
 70
    32
  0
VERTEX
  8
T65SSILL
 62
13
 10
6897.906
 20
-10751.132
 30
-1252.285
 70
    32
  0
VERTEX
  8
T65SSILL
 62
13
 10
6896.369
 20
-10747.323
 30
-1252.277
 70
    32
  0
VERTEX
  8
T65SSILL
 62
13
 10
6900.490
 20
-10738.273
 30
-1252.249
 70
    32
  0
SEQEND
  8
T65SSILL
  0
POLYLINE
  8
T65SSILL
 62
13
 66
     1
 70
     9
  0
VERTEX
  8
T65SSILL
 62
13
 10
6866.073
 20
-10724.310
 30
-1252.235
 70
    32
  0
VERTEX
  8
T65SSILL
 62
13
 10
6866.321
 20
-10725.227
 30
-1252.238
 70
    32
  0
VERTEX
  8
T65SSILL
 62
13
 10
6898.788
 20
-10723.672
 30
-1252.211
 70
    32
  0
VERTEX
  8
T65SSILL
 62
13
 10
6898.043
 20
-10717.394
 30
-1252.193
 70
    32
  0
VERTEX
  8
T65SSILL
 62
13
 10
6900.257
 20
-10704.924
 30
-1252.155
 70
    32
  0
VERTEX
  8
T65SSILL
 62
13
 10
6898.257
 20
-10694.185
 30
-1252.125
 70
    32
  0
VERTEX
  8
T65SSILL
 62
13
 10
6861.928
 20
-10695.442
 30
-1252.154
 70
    32
  0
VERTEX
  8
T65SSILL
 62
13
 10
6862.651
 20
-10724.012
 30
-1252.237
 70
    32
  0
SEQEND
  8
T65SSILL
  0
POLYLINE
  8
T65SSILL
 62
13
 66
     1
 70
     9
  0
VERTEX
  8
T65SSILL
 62
13
 10
6867.389
 20
-10657.486
 30
-1252.040
 70
    32
  0
VERTEX
  8
T65SSILL
 62
13
 10
6861.234
 20
-10657.367
 30
-1252.044
 70
    32
  0
VERTEX
  8
T65SSILL
 62
13
 10
6861.975
 20
-10686.695
 30
-1252.129
 70
    32
  0
VERTEX
  8
T65SSILL
 62
13
 10
6895.624
 20
-10685.686
 30
-1252.103
 70
    32
  0
VERTEX
  8
T65SSILL
 62
13
 10
6893.876
 20
-10654.577
 30
-1252.013
 70
    32
  0
VERTEX
  8
T65SSILL
 62
13
 10
6867.546
 20
-10655.934
 30
-1252.036
 70
    32
  0
SEQEND
  8
T65SSILL
  0
POLYLINE
  8
T65SSILL
 62
13
 66
     1
 70
     9
  0
VERTEX
  8
T65SSILL
 62
13
 10
6866.112
 20
-10646.094
 30
-1252.008
 70
    32
  0
VERTEX
  8
T65SSILL
 62
13
 10
6866.994
 20
-10647.416
 30
-1252.011
 70
    32
  0
VERTEX
  8
T65SSILL
 62
13
 10
6892.601
 20
-10646.712
 30
-1251.991
 70
    32
  0
VERTEX
  8
T65SSILL
 62
13
 10
6875.144
 20
-10622.438
 30
-1251.933
 70
    32
  0
VERTEX
  8
T65SSILL
 62
13
 10
6868.670
 20
-10619.691
 30
-1251.929
 70
    32
  0
VERTEX
  8
T65SSILL
 62
13
 10
6860.117
 20
-10620.490
 30
-1251.938
 70
    32
  0
VERTEX
  8
T65SSILL
 62
13
 10
6861.227
 20
-10646.344
 30
-1252.012
 70
    32
  0
SEQEND
  8
T65SSILL
  0
POLYLINE
  8
T65SSILL
 62
13
 66
     1
 70
     9
  0
VERTEX
  8
T65SSILL
 62
13
 10
6898.168
 20
-10608.456
 30
-1251.876
 70
    32
  0
VERTEX
  8
T65SSILL
 62
13
 10
6882.260
 20
-10607.831
 30
-1251.885
 70
    32
  0
VERTEX
  8
T65SSILL
 62
13
 10
6881.202
 20
-10608.625
 30
-1251.888
 70
    32
  0
VERTEX
  8
T65SSILL
 62
13
 10
6883.270
 20
-10615.784
 30
-1251.908
 70
    32
  0
VERTEX
  8
T65SSILL
 62
13
 10
6882.497
 20
-10620.335
 30
-1251.922
 70
    32
  0
VERTEX
  8
T65SSILL
 62
13
 10
6887.863
 20
-10627.333
 30
-1251.938
 70
    32
  0
VERTEX
  8
T65SSILL
 62
13
 10
6893.838
 20
-10621.633
 30
-1251.917
 70
    32
  0
VERTEX
  8
T65SSILL
 62
13
 10
6897.888
 20
-10612.195
 30
-1251.887
 70
    32
  0
SEQEND
  8
T65SSILL
  0
POLYLINE
  8
T65SSILL
 62
13
 66
     1
 70
     9
  0
VERTEX
  8
T65SSILL
 62
13
 10
6922.170
 20
-10636.306
 30
-1251.940
 70
    32
  0
VERTEX
  8
T65SSILL
 62
13
 10
6910.703
 20
-10630.581
 30
-1251.932
 70
    32
  0
VERTEX
  8
T65SSILL
 62
13
 10
6905.730
 20
-10630.567
 30
-1251.935
 70
    32
  0
VERTEX
  8
T65SSILL
 62
13
 10
6904.482
 20
-10637.569
 30
-1251.956
 70
    32
  0
VERTEX
  8
T65SSILL
 62
13
 10
6912.433
 20
-10660.050
 30
-1252.016
 70
    32
  0
VERTEX
  8
T65SSILL
 62
13
 10
6916.969
 20
-10665.796
 30
-1252.030
 70
    32
  0
VERTEX
  8
T65SSILL
 62
13
 10
6924.133
 20
-10671.224
 30
-1252.041
 70
    32
  0
VERTEX
  8
T65SSILL
 62
13
 10
6925.963
 20
-10664.997
 30
-1252.021
 70
    32
  0
VERTEX
  8
T65SSILL
 62
13
 10
6927.169
 20
-10648.983
 30
-1251.974
 70
    32
  0
VERTEX
  8
T65SSILL
 62
13
 10
6924.341
 20
-10638.315
 30
-1251.945
 70
    32
  0
SEQEND
  8
T65SSILL
  0
POLYLINE
  8
T65SSILL
 62
13
 66
     1
 70
     9
  0
VERTEX
  8
T65SSILL
 62
13
 10
6922.803
 20
-10688.984
 30
-1252.093
 70
    32
  0
VERTEX
  8
T65SSILL
 62
13
 10
6908.999
 20
-10669.135
 30
-1252.045
 70
    32
  0
VERTEX
  8
T65SSILL
 62
13
 10
6905.632
 20
-10670.230
 30
-1252.051
 70
    32
  0
VERTEX
  8
T65SSILL
 62
13
 10
6906.046
 20
-10683.704
 30
-1252.090
 70
    32
  0
VERTEX
  8
T65SSILL
 62
13
 10
6911.696
 20
-10694.458
 30
-1252.117
 70
    32
  0
VERTEX
  8
T65SSILL
 62
13
 10
6923.074
 20
-10697.714
 30
-1252.118
 70
    32
  0
VERTEX
  8
T65SSILL
 62
13
 10
6925.013
 20
-10696.919
 30
-1252.115
 70
    32
  0
VERTEX
  8
T65SSILL
 62
13
 10
6920.638
 20
-10694.911
 30
-1252.112
 70
    32
  0
SEQEND
  8
T65SSILL
  0
POLYLINE
  8
T65SSILL
 62
13
 66
     1
 70
     9
  0
VERTEX
  8
T65SSILL
 62
13
 10
6785.921
 20
-10562.956
 30
-1252.008
 70
    32
  0
VERTEX
  8
T65SSILL
 62
13
 10
6732.131
 20
-10599.844
 30
-1252.294
 70
    32
  0
VERTEX
  8
T65SSILL
 62
13
 10
6474.562
 20
-10786.018
 30
-1253.303
 70
    32
  0
VERTEX
  8
T65SSILL
 62
13
 10
6477.874
 20
-10790.687
 30
-1253.282
 70
    32
  0
VERTEX
  8
T65SSILL
 62
13
 10
6716.221
 20
-10779.586
 30
-1252.382
 70
    32
  0
VERTEX
  8
T65SSILL
 62
13
 10
6822.016
 20
-10775.923
 30
-1252.415
 70
    32
  0
VERTEX
  8
T65SSILL
 62
13
 10
6833.724
 20
-10772.424
 30
-1252.396
 70
    32
  0
VERTEX
  8
T65SSILL
 62
13
 10
6839.101
 20
-10769.158
 30
-1252.383
 70
    32
  0
VERTEX
  8
T65SSILL
 62
13
 10
6847.577
 20
-10759.153
 30
-1252.349
 70
    32
  0
VERTEX
  8
T65SSILL
 62
13
 10
6852.474
 20
-10749.080
 30
-1252.317
 70
    32
  0
VERTEX
  8
T65SSILL
 62
13
 10
6854.777
 20
-10738.197
 30
-1252.284
 70
    32
  0
VERTEX
  8
T65SSILL
 62
13
 10
6850.308
 20
-10587.164
 30
-1251.863
 70
    32
  0
VERTEX
  8
T65SSILL
 62
13
 10
6843.352
 20
-10576.728
 30
-1251.771
 70
    32
  0
VERTEX
  8
T65SSILL
 62
13
 10
6827.384
 20
-10564.129
 30
-1251.717
 70
    32
  0
VERTEX
  8
T65SSILL
 62
13
 10
6817.135
 20
-10560.026
 30
-1251.737
 70
    32
  0
VERTEX
  8
T65SSILL
 62
13
 10
6805.970
 20
-10559.257
 30
-1251.809
 70
    32
  0
VERTEX
  8
T65SSILL
 62
13
 10
6790.910
 20
-10561.083
 30
-1251.945
 70
    32
  0
SEQEND
  8
T65SSILL
  0
POLYLINE
  8
T65SSILL
 62
13
 66
     1
 70
     9
  0
VERTEX
  8
T65SSILL
 62
13
 10
7164.153
 20
-8837.137
 30
-1255.797
 70
    32
  0
VERTEX
  8
T65SSILL
 62
13
 10
7152.020
 20
-8846.569
 30
-1255.869
 70
    32
  0
VERTEX
  8
T65SSILL
 62
13
 10
7143.811
 20
-8850.052
 30
-1255.925
 70
    32
  0
VERTEX
  8
T65SSILL
 62
13
 10
7133.304
 20
-8852.181
 30
-1256.003
 70
    32
  0
VERTEX
  8
T65SSILL
 62
13
 10
6907.210
 20
-8868.668
 30
-1255.975
 70
    32
  0
VERTEX
  8
T65SSILL
 62
13
 10
6717.057
 20
-8882.534
 30
-1259.847
 70
    32
  0
VERTEX
  8
T65SSILL
 62
13
 10
6712.146
 20
-8875.701
 30
-1259.989
 70
    32
  0
VERTEX
  8
T65SSILL
 62
13
 10
6768.266
 20
-8837.293
 30
-1259.046
 70
    32
  0
VERTEX
  8
T65SSILL
 62
13
 10
6918.036
 20
-8773.410
 30
-1256.303
 70
    32
  0
VERTEX
  8
T65SSILL
 62
13
 10
7035.125
 20
-8724.912
 30
-1256.479
 70
    32
  0
VERTEX
  8
T65SSILL
 62
13
 10
7044.659
 20
-8718.942
 30
-1256.498
 70
    32
  0
VERTEX
  8
T65SSILL
 62
13
 10
7223.791
 20
-8642.729
 30
-1255.845
 70
    32
  0
VERTEX
  8
T65SSILL
 62
13
 10
7225.379
 20
-8644.347
 30
-1255.828
 70
    32
  0
VERTEX
  8
T65SSILL
 62
13
 10
7174.660
 20
-8817.644
 30
-1255.766
 70
    32
  0
VERTEX
  8
T65SSILL
 62
13
 10
7172.198
 20
-8825.244
 30
-1255.765
 70
    32
  0
VERTEX
  8
T65SSILL
 62
13
 10
7168.458
 20
-8831.789
 30
-1255.777
 70
    32
  0
SEQEND
  8
T65SSILL
  0
POLYLINE
  8
T65SSILL
 62
13
 66
     1
 70
     9
  0
VERTEX
  8
T65SSILL
 62
13
 10
7269.773
 20
-8342.624
 30
-1255.726
 70
    32
  0
VERTEX
  8
T65SSILL
 62
13
 10
7276.158
 20
-8335.500
 30
-1255.706
 70
    32
  0
VERTEX
  8
T65SSILL
 62
13
 10
7285.378
 20
-8317.468
 30
-1255.659
 70
    32
  0
VERTEX
  8
T65SSILL
 62
13
 10
7290.853
 20
-8310.482
 30
-1255.639
 70
    32
  0
VERTEX
  8
T65SSILL
 62
13
 10
7316.483
 20
-8314.932
 30
-1255.635
 70
    32
  0
VERTEX
  8
T65SSILL
 62
13
 10
7317.624
 20
-8318.783
 30
-1255.644
 70
    32
  0
VERTEX
  8
T65SSILL
 62
13
 10
7316.748
 20
-8328.470
 30
-1255.667
 70
    32
  0
VERTEX
  8
T65SSILL
 62
13
 10
7308.774
 20
-8354.696
 30
-1255.733
 70
    32
  0
VERTEX
  8
T65SSILL
 62
13
 10
7300.455
 20
-8361.858
 30
-1255.754
 70
    32
  0
VERTEX
  8
T65SSILL
 62
13
 10
7295.832
 20
-8367.757
 30
-1255.771
 70
    32
  0
VERTEX
  8
T65SSILL
 62
13
 10
7283.409
 20
-8367.493
 30
-1255.777
 70
    32
  0
VERTEX
  8
T65SSILL
 62
13
 10
7282.755
 20
-8376.001
 30
-1255.797
 70
    32
  0
VERTEX
  8
T65SSILL
 62
13
 10
7287.122
 20
-8376.567
 30
-1255.796
 70
    32
  0
VERTEX
  8
T65SSILL
 62
13
 10
7300.900
 20
-8381.752
 30
-1255.801
 70
    32
  0
VERTEX
  8
T65SSILL
 62
13
 10
7287.482
 20
-8426.563
 30
-1255.914
 70
    32
  0
VERTEX
  8
T65SSILL
 62
13
 10
7259.758
 20
-8407.392
 30
-1255.884
 70
    32
  0
VERTEX
  8
T65SSILL
 62
13
 10
7257.882
 20
-8400.960
 30
-1255.870
 70
    32
  0
VERTEX
  8
T65SSILL
 62
13
 10
7255.960
 20
-8391.135
 30
-1255.848
 70
    32
  0
VERTEX
  8
T65SSILL
 62
13
 10
7261.527
 20
-8372.394
 30
-1255.801
 70
    32
  0
VERTEX
  8
T65SSILL
 62
13
 10
7255.879
 20
-8363.358
 30
-1255.783
 70
    32
  0
VERTEX
  8
T65SSILL
 62
13
 10
7259.323
 20
-8357.236
 30
-1255.766
 70
    32
  0
VERTEX
  8
T65SSILL
 62
13
 10
7266.681
 20
-8348.871
 30
-1255.743
 70
    32
  0
SEQEND
  8
T65SSILL
  0
POLYLINE
  8
T65SSILL
 62
13
 66
     1
 70
     9
  0
VERTEX
  8
T65SSILL
 62
13
 10
5860.397
 20
-10336.577
 30
-1254.985
 70
    32
  0
VERTEX
  8
T65SSILL
 62
13
 10
5861.542
 20
-10324.881
 30
-1255.024
 70
    32
  0
VERTEX
  8
T65SSILL
 62
13
 10
5860.274
 20
-10318.334
 30
-1255.042
 70
    32
  0
VERTEX
  8
T65SSILL
 62
13
 10
5856.918
 20
-10311.425
 30
-1255.057
 70
    32
  0
VERTEX
  8
T65SSILL
 62
13
 10
5705.510
 20
-10100.843
 30
-1255.426
 70
    32
  0
VERTEX
  8
T65SSILL
 62
13
 10
5703.033
 20
-10114.015
 30
-1255.380
 70
    32
  0
VERTEX
  8
T65SSILL
 62
13
 10
5706.555
 20
-10131.266
 30
-1255.333
 70
    32
  0
VERTEX
  8
T65SSILL
 62
13
 10
5710.054
 20
-10135.163
 30
-1255.328
 70
    32
  0
VERTEX
  8
T65SSILL
 62
13
 10
5702.027
 20
-10141.678
 30
-1255.292
 70
    32
  0
VERTEX
  8
T65SSILL
 62
13
 10
5696.992
 20
-10136.059
 30
-1255.300
 70
    32
  0
VERTEX
  8
T65SSILL
 62
13
 10
5681.560
 20
-10204.176
 30
-1255.058
 70
    32
  0
VERTEX
  8
T65SSILL
 62
13
 10
5692.013
 20
-10220.858
 30
-1255.026
 70
    32
  0
VERTEX
  8
T65SSILL
 62
13
 10
5702.217
 20
-10233.512
 30
-1255.006
 70
    32
  0
VERTEX
  8
T65SSILL
 62
13
 10
5696.750
 20
-10238.763
 30
-1254.979
 70
    32
  0
VERTEX
  8
T65SSILL
 62
13
 10
5784.332
 20
-10361.458
 30
-1254.677
 70
    32
  0
VERTEX
  8
T65SSILL
 62
13
 10
5790.420
 20
-10369.032
 30
-1254.665
 70
    32
  0
VERTEX
  8
T65SSILL
 62
13
 10
5798.552
 20
-10374.303
 30
-1254.667
 70
    32
  0
VERTEX
  8
T65SSILL
 62
13
 10
5808.998
 20
-10375.357
 30
-1254.690
 70
    32
  0
VERTEX
  8
T65SSILL
 62
13
 10
5820.003
 20
-10372.459
 30
-1254.706
 70
    32
  0
VERTEX
  8
T65SSILL
 62
13
 10
5851.515
 20
-10349.839
 30
-1254.927
 70
    32
  0
VERTEX
  8
T65SSILL
 62
13
 10
5858.676
 20
-10341.023
 30
-1254.968
 70
    32
  0
SEQEND
  8
T65SSILL
  0
POLYLINE
  8
T65SSILL
 62
13
 66
     1
 70
     9
  0
VERTEX
  8
T65SSILL
 62
13
 10
3148.888
 20
-8828.136
 30
-1246.725
 70
    32
  0
VERTEX
  8
T65SSILL
 62
13
 10
3164.624
 20
-8830.214
 30
-1246.828
 70
    32
  0
VERTEX
  8
T65SSILL
 62
13
 10
3211.088
 20
-8853.210
 30
-1247.268
 70
    32
  0
VERTEX
  8
T65SSILL
 62
13
 10
3216.150
 20
-8847.310
 30
-1247.222
 70
    32
  0
VERTEX
  8
T65SSILL
 62
13
 10
3202.036
 20
-8804.967
 30
-1246.692
 70
    32
  0
VERTEX
  8
T65SSILL
 62
13
 10
3193.497
 20
-8806.702
 30
-1246.678
 70
    32
  0
VERTEX
  8
T65SSILL
 62
13
 10
3191.412
 20
-8799.066
 30
-1246.584
 70
    32
  0
VERTEX
  8
T65SSILL
 62
13
 10
3199.525
 20
-8797.433
 30
-1246.598
 70
    32
  0
VERTEX
  8
T65SSILL
 62
13
 10
3196.827
 20
-8789.339
 30
-1246.497
 70
    32
  0
VERTEX
  8
T65SSILL
 62
13
 10
3195.581
 20
-8788.984
 30
-1246.488
 70
    32
  0
VERTEX
  8
T65SSILL
 62
13
 10
3191.838
 20
-8782.677
 30
-1246.488
 70
    32
  0
VERTEX
  8
T65SSILL
 62
13
 10
3193.400
 20
-8779.059
 30
-1246.473
 70
    32
  0
VERTEX
  8
T65SSILL
 62
13
 10
3188.400
 20
-8765.856
 30
-1246.518
 70
    32
  0
VERTEX
  8
T65SSILL
 62
13
 10
3178.695
 20
-8745.615
 30
-1246.556
 70
    32
  0
VERTEX
  8
T65SSILL
 62
13
 10
3172.067
 20
-8744.204
 30
-1246.600
 70
    32
  0
VERTEX
  8
T65SSILL
 62
13
 10
3172.953
 20
-8751.570
 30
-1246.604
 70
    32
  0
VERTEX
  8
T65SSILL
 62
13
 10
3172.038
 20
-8756.678
 30
-1246.618
 70
    32
  0
VERTEX
  8
T65SSILL
 62
13
 10
3162.903
 20
-8776.240
 30
-1246.708
 70
    32
  0
VERTEX
  8
T65SSILL
 62
13
 10
3144.254
 20
-8807.756
 30
-1246.675
 70
    32
  0
VERTEX
  8
T65SSILL
 62
13
 10
3134.950
 20
-8817.139
 30
-1246.577
 70
    32
  0
VERTEX
  8
T65SSILL
 62
13
 10
3126.995
 20
-8822.735
 30
-1246.493
 70
    32
  0
VERTEX
  8
T65SSILL
 62
13
 10
3121.444
 20
-8829.934
 30
-1246.435
 70
    32
  0
SEQEND
  8
T65SSILL
  0
POLYLINE
  8
T65SSILL
 62
13
 66
     1
 70
     9
  0
VERTEX
  8
T65SSILL
 62
13
 10
999.867
 20
-5890.437
 30
-1234.916
 70
    32
  0
VERTEX
  8
T65SSILL
 62
13
 10
963.354
 20
-5915.748
 30
-1234.895
 70
    32
  0
VERTEX
  8
T65SSILL
 62
13
 10
971.927
 20
-5930.015
 30
-1234.938
 70
    32
  0
VERTEX
  8
T65SSILL
 62
13
 10
973.408
 20
-5946.008
 30
-1234.971
 70
    32
  0
VERTEX
  8
T65SSILL
 62
13
 10
981.074
 20
-5952.503
 30
-1234.998
 70
    32
  0
VERTEX
  8
T65SSILL
 62
13
 10
983.122
 20
-5952.041
 30
-1235.001
 70
    32
  0
VERTEX
  8
T65SSILL
 62
13
 10
999.881
 20
-5939.786
 30
-1235.009
 70
    32
  0
SEQEND
  8
T65SSILL
  0
POLYLINE
  8
T65SSILL
 62
13
 66
     1
 70
     9
  0
VERTEX
  8
T65SSILL
 62
13
 10
1554.146
 20
-7965.164
 30
-1239.804
 70
    32
  0
VERTEX
  8
T65SSILL
 62
13
 10
1549.559
 20
-8000.676
 30
-1239.856
 70
    32
  0
VERTEX
  8
T65SSILL
 62
13
 10
1551.543
 20
-8008.096
 30
-1239.869
 70
    32
  0
VERTEX
  8
T65SSILL
 62
13
 10
1560.112
 20
-8025.322
 30
-1239.900
 70
    32
  0
VERTEX
  8
T65SSILL
 62
13
 10
1713.220
 20
-8238.939
 30
-1239.568
 70
    32
  0
VERTEX
  8
T65SSILL
 62
13
 10
1723.768
 20
-8232.276
 30
-1239.608
 70
    32
  0
VERTEX
  8
T65SSILL
 62
13
 10
1761.508
 20
-8192.166
 30
-1239.742
 70
    32
  0
VERTEX
  8
T65SSILL
 62
13
 10
1769.177
 20
-8194.471
 30
-1239.775
 70
    32
  0
VERTEX
  8
T65SSILL
 62
13
 10
1782.217
 20
-8215.471
 30
-1239.712
 70
    32
  0
VERTEX
  8
T65SSILL
 62
13
 10
1777.231
 20
-8219.828
 30
-1239.695
 70
    32
  0
VERTEX
  8
T65SSILL
 62
13
 10
1776.028
 20
-8235.905
 30
-1239.630
 70
    32
  0
VERTEX
  8
T65SSILL
 62
13
 10
1764.274
 20
-8243.920
 30
-1239.599
 70
    32
  0
VERTEX
  8
T65SSILL
 62
13
 10
1756.171
 20
-8240.878
 30
-1239.612
 70
    32
  0
VERTEX
  8
T65SSILL
 62
13
 10
1746.311
 20
-8226.323
 30
-1239.672
 70
    32
  0
VERTEX
  8
T65SSILL
 62
13
 10
1738.334
 20
-8233.119
 30
-1239.645
 70
    32
  0
VERTEX
  8
T65SSILL
 62
13
 10
1730.031
 20
-8244.160
 30
-1239.601
 70
    32
  0
VERTEX
  8
T65SSILL
 62
13
 10
1729.865
 20
-8245.783
 30
-1239.595
 70
    32
  0
VERTEX
  8
T65SSILL
 62
13
 10
1735.992
 20
-8249.709
 30
-1239.579
 70
    32
  0
VERTEX
  8
T65SSILL
 62
13
 10
1741.513
 20
-8245.125
 30
-1239.597
 70
    32
  0
VERTEX
  8
T65SSILL
 62
13
 10
1748.291
 20
-8252.192
 30
-1239.567
 70
    32
  0
VERTEX
  8
T65SSILL
 62
13
 10
1747.572
 20
-8263.769
 30
-1239.518
 70
    32
  0
VERTEX
  8
T65SSILL
 62
13
 10
1765.714
 20
-8263.927
 30
-1239.519
 70
    32
  0
VERTEX
  8
T65SSILL
 62
13
 10
1774.208
 20
-8260.117
 30
-1239.533
 70
    32
  0
VERTEX
  8
T65SSILL
 62
13
 10
1787.695
 20
-8251.879
 30
-1239.565
 70
    32
  0
VERTEX
  8
T65SSILL
 62
13
 10
1798.265
 20
-8242.628
 30
-1239.601
 70
    32
  0
VERTEX
  8
T65SSILL
 62
13
 10
1805.384
 20
-8232.832
 30
-1239.640
 70
    32
  0
VERTEX
  8
T65SSILL
 62
13
 10
1809.422
 20
-8223.198
 30
-1239.678
 70
    32
  0
VERTEX
  8
T65SSILL
 62
13
 10
1810.856
 20
-8211.595
 30
-1239.724
 70
    32
  0
VERTEX
  8
T65SSILL
 62
13
 10
1800.042
 20
-8191.761
 30
-1239.805
 70
    32
  0
VERTEX
  8
T65SSILL
 62
13
 10
1793.887
 20
-8193.675
 30
-1239.798
 70
    32
  0
VERTEX
  8
T65SSILL
 62
13
 10
1790.557
 20
-8188.261
 30
-1239.820
 70
    32
  0
VERTEX
  8
T65SSILL
 62
13
 10
1796.651
 20
-8183.729
 30
-1239.838
 70
    32
  0
VERTEX
  8
T65SSILL
 62
13
 10
1782.607
 20
-8149.160
 30
-1239.822
 70
    32
  0
VERTEX
  8
T65SSILL
 62
13
 10
1773.530
 20
-8149.948
 30
-1239.783
 70
    32
  0
VERTEX
  8
T65SSILL
 62
13
 10
1773.021
 20
-8147.147
 30
-1239.781
 70
    32
  0
VERTEX
  8
T65SSILL
 62
13
 10
1776.555
 20
-8145.566
 30
-1239.797
 70
    32
  0
VERTEX
  8
T65SSILL
 62
13
 10
1777.093
 20
-8137.347
 30
-1239.802
 70
    32
  0
VERTEX
  8
T65SSILL
 62
13
 10
1763.786
 20
-8098.346
 30
-1239.757
 70
    32
  0
VERTEX
  8
T65SSILL
 62
13
 10
1758.403
 20
-8097.933
 30
-1239.734
 70
    32
  0
VERTEX
  8
T65SSILL
 62
13
 10
1755.242
 20
-8091.979
 30
-1239.722
 70
    32
  0
VERTEX
  8
T65SSILL
 62
13
 10
1759.649
 20
-8087.945
 30
-1239.742
 70
    32
  0
VERTEX
  8
T65SSILL
 62
13
 10
1734.732
 20
-8016.564
 30
-1239.657
 70
    32
  0
VERTEX
  8
T65SSILL
 62
13
 10
1727.793
 20
-8018.262
 30
-1239.626
 70
    32
  0
VERTEX
  8
T65SSILL
 62
13
 10
1724.333
 20
-8006.342
 30
-1239.615
 70
    32
  0
VERTEX
  8
T65SSILL
 62
13
 10
1730.026
 20
-8004.846
 30
-1239.640
 70
    32
  0
VERTEX
  8
T65SSILL
 62
13
 10
1720.509
 20
-7985.200
 30
-1239.605
 70
    32
  0
VERTEX
  8
T65SSILL
 62
13
 10
1720.094
 20
-7975.588
 30
-1239.607
 70
    32
  0
VERTEX
  8
T65SSILL
 62
13
 10
1692.738
 20
-7900.746
 30
-1239.512
 70
    32
  0
VERTEX
  8
T65SSILL
 62
13
 10
1686.987
 20
-7900.261
 30
-1239.487
 70
    32
  0
VERTEX
  8
T65SSILL
 62
13
 10
1684.863
 20
-7896.161
 30
-1239.515
 70
    32
  0
VERTEX
  8
T65SSILL
 62
13
 10
1689.636
 20
-7891.881
 30
-1239.501
 70
    32
  0
VERTEX
  8
T65SSILL
 62
13
 10
1648.164
 20
-7772.733
 30
-1239.578
 70
    32
  0
VERTEX
  8
T65SSILL
 62
13
 10
1642.360
 20
-7771.539
 30
-1239.577
 70
    32
  0
VERTEX
  8
T65SSILL
 62
13
 10
1569.046
 20
-7867.942
 30
-1239.677
 70
    32
  0
VERTEX
  8
T65SSILL
 62
13
 10
1553.892
 20
-7965.299
 30
-1239.804
 70
    32
  0
SEQEND
  8
T65SSILL
  0
POLYLINE
  8
T65SSILL
 62
13
 66
     1
 70
     9
  0
VERTEX
  8
T65SSILL
 62
13
 10
1703.649
 20
-8291.731
 30
-1239.369
 70
    32
  0
VERTEX
  8
T65SSILL
 62
13
 10
1707.565
 20
-8253.296
 30
-1239.498
 70
    32
  0
VERTEX
  8
T65SSILL
 62
13
 10
1712.125
 20
-8249.679
 30
-1239.542
 70
    32
  0
VERTEX
  8
T65SSILL
 62
13
 10
1718.906
 20
-8258.707
 30
-1239.535
 70
    32
  0
VERTEX
  8
T65SSILL
 62
13
 10
1731.319
 20
-8267.348
 30
-1239.496
 70
    32
  0
VERTEX
  8
T65SSILL
 62
13
 10
1744.565
 20
-8271.387
 30
-1239.480
 70
    32
  0
VERTEX
  8
T65SSILL
 62
13
 10
1758.354
 20
-8271.660
 30
-1239.483
 70
    32
  0
VERTEX
  8
T65SSILL
 62
13
 10
1715.846
 20
-8301.479
 30
-1239.325
 70
    32
  0
VERTEX
  8
T65SSILL
 62
13
 10
1713.153
 20
-8300.637
 30
-1239.328
 70
    32
  0
VERTEX
  8
T65SSILL
 62
13
 10
1710.762
 20
-8301.505
 30
-1239.323
 70
    32
  0
VERTEX
  8
T65SSILL
 62
13
 10
1701.045
 20
-8312.817
 30
-1239.265
 70
    32
  0
VERTEX
  8
T65SSILL
 62
13
 10
1698.095
 20
-8311.451
 30
-1239.271
 70
    32
  0
VERTEX
  8
T65SSILL
 62
13
 10
1701.344
 20
-8303.857
 30
-1239.309
 70
    32
  0
SEQEND
  8
T65SSILL
  0
POLYLINE
  8
T65SSILL
 62
13
 66
     1
 70
     9
  0
VERTEX
  8
T65SSILL
 62
13
 10
1544.488
 20
-7965.603
 30
-1239.800
 70
    32
  0
VERTEX
  8
T65SSILL
 62
13
 10
1545.177
 20
-7948.280
 30
-1239.774
 70
    32
  0
VERTEX
  8
T65SSILL
 62
13
 10
1547.731
 20
-7933.557
 30
-1239.753
 70
    32
  0
VERTEX
  8
T65SSILL
 62
13
 10
1552.216
 20
-7926.400
 30
-1239.744
 70
    32
  0
VERTEX
  8
T65SSILL
 62
13
 10
1555.426
 20
-7886.157
 30
-1239.695
 70
    32
  0
VERTEX
  8
T65SSILL
 62
13
 10
1534.454
 20
-7913.816
 30
-1239.724
 70
    32
  0
VERTEX
  8
T65SSILL
 62
13
 10
1528.727
 20
-7922.994
 30
-1239.733
 70
    32
  0
VERTEX
  8
T65SSILL
 62
13
 10
1525.887
 20
-7932.353
 30
-1239.743
 70
    32
  0
VERTEX
  8
T65SSILL
 62
13
 10
1525.934
 20
-7951.678
 30
-1239.769
 70
    32
  0
VERTEX
  8
T65SSILL
 62
13
 10
1527.462
 20
-7958.838
 30
-1239.781
 70
    32
  0
VERTEX
  8
T65SSILL
 62
13
 10
1533.834
 20
-7972.779
 30
-1239.806
 70
    32
  0
VERTEX
  8
T65SSILL
 62
13
 10
1540.184
 20
-7980.449
 30
-1239.821
 70
    32
  0
VERTEX
  8
T65SSILL
 62
13
 10
1542.508
 20
-7980.466
 30
-1239.822
 70
    32
  0
VERTEX
  8
T65SSILL
 62
13
 10
1544.706
 20
-7965.621
 30
-1239.800
 70
    32
  0
SEQEND
  8
T65SSILL
  0
POLYLINE
  8
T65SSILL
 62
13
 66
     1
 70
     9
  0
VERTEX
  8
T65SSILL
 62
13
 10
1347.336
 20
-6969.435
 30
-1237.298
 70
    32
  0
VERTEX
  8
T65SSILL
 62
13
 10
1335.990
 20
-6970.981
 30
-1237.318
 70
    32
  0
VERTEX
  8
T65SSILL
 62
13
 10
1331.989
 20
-6972.615
 30
-1237.328
 70
    32
  0
VERTEX
  8
T65SSILL
 62
13
 10
1328.385
 20
-6970.579
 30
-1237.328
 70
    32
  0
VERTEX
  8
T65SSILL
 62
13
 10
1322.872
 20
-6963.347
 30
-1237.319
 70
    32
  0
VERTEX
  8
T65SSILL
 62
13
 10
1338.238
 20
-6888.683
 30
-1237.122
 70
    32
  0
VERTEX
  8
T65SSILL
 62
13
 10
1351.942
 20
-6928.003
 30
-1237.195
 70
    32
  0
VERTEX
  8
T65SSILL
 62
13
 10
1354.151
 20
-6945.218
 30
-1237.232
 70
    32
  0
SEQEND
  8
T65SSILL
  0
POLYLINE
  8
T65SSILL
 62
13
 66
     1
 70
     9
  0
VERTEX
  8
T65SSILL
 62
13
 10
1524.095
 20
-6302.694
 30
-1236.051
 70
    32
  0
VERTEX
  8
T65SSILL
 62
13
 10
1527.917
 20
-6311.553
 30
-1236.066
 70
    32
  0
VERTEX
  8
T65SSILL
 62
13
 10
1531.967
 20
-6315.188
 30
-1236.072
 70
    32
  0
VERTEX
  8
T65SSILL
 62
13
 10
1533.617
 20
-6314.465
 30
-1236.070
 70
    32
  0
VERTEX
  8
T65SSILL
 62
13
 10
1533.699
 20
-6299.321
 30
-1236.043
 70
    32
  0
VERTEX
  8
T65SSILL
 62
13
 10
1529.924
 20
-6295.925
 30
-1236.038
 70
    32
  0
VERTEX
  8
T65SSILL
 62
13
 10
1523.808
 20
-6298.584
 30
-1236.044
 70
    32
  0
SEQEND
  8
T65SSILL
  0
POLYLINE
  8
T65SSILL
 62
13
 66
     1
 70
     9
  0
VERTEX
  8
T65SSILL
 62
13
 10
1320.836
 20
-6141.566
 30
-1235.809
 70
    32
  0
VERTEX
  8
T65SSILL
 62
13
 10
1324.569
 20
-6173.428
 30
-1235.870
 70
    32
  0
VERTEX
  8
T65SSILL
 62
13
 10
1323.900
 20
-6186.560
 30
-1235.882
 70
    32
  0
VERTEX
  8
T65SSILL
 62
13
 10
1322.835
 20
-6191.937
 30
-1235.880
 70
    32
  0
VERTEX
  8
T65SSILL
 62
13
 10
1317.995
 20
-6195.964
 30
-1235.849
 70
    32
  0
VERTEX
  8
T65SSILL
 62
13
 10
1317.027
 20
-6204.732
 30
-1235.851
 70
    32
  0
VERTEX
  8
T65SSILL
 62
13
 10
1186.435
 20
-6409.645
 30
-1236.183
 70
    32
  0
VERTEX
  8
T65SSILL
 62
13
 10
1182.533
 20
-6413.359
 30
-1236.212
 70
    32
  0
VERTEX
  8
T65SSILL
 62
13
 10
1179.131
 20
-6412.575
 30
-1236.224
 70
    32
  0
VERTEX
  8
T65SSILL
 62
13
 10
1170.264
 20
-6387.757
 30
-1236.177
 70
    32
  0
VERTEX
  8
T65SSILL
 62
13
 10
1150.795
 20
-6275.277
 30
-1235.928
 70
    32
  0
VERTEX
  8
T65SSILL
 62
13
 10
1157.194
 20
-6257.763
 30
-1235.848
 70
    32
  0
VERTEX
  8
T65SSILL
 62
13
 10
1154.441
 20
-6251.820
 30
-1235.842
 70
    32
  0
VERTEX
  8
T65SSILL
 62
13
 10
1163.918
 20
-6231.616
 30
-1235.740
 70
    32
  0
VERTEX
  8
T65SSILL
 62
13
 10
1186.986
 20
-6207.730
 30
-1235.566
 70
    32
  0
VERTEX
  8
T65SSILL
 62
13
 10
1191.718
 20
-6207.870
 30
-1235.546
 70
    32
  0
VERTEX
  8
T65SSILL
 62
13
 10
1196.286
 20
-6205.000
 30
-1235.517
 70
    32
  0
VERTEX
  8
T65SSILL
 62
13
 10
1202.398
 20
-6196.632
 30
-1235.465
 70
    32
  0
VERTEX
  8
T65SSILL
 62
13
 10
1202.322
 20
-6190.973
 30
-1235.448
 70
    32
  0
VERTEX
  8
T65SSILL
 62
13
 10
1247.039
 20
-6143.330
 30
-1235.463
 70
    32
  0
VERTEX
  8
T65SSILL
 62
13
 10
1261.364
 20
-6135.147
 30
-1235.502
 70
    32
  0
VERTEX
  8
T65SSILL
 62
13
 10
1267.658
 20
-6126.113
 30
-1235.518
 70
    32
  0
VERTEX
  8
T65SSILL
 62
13
 10
1269.619
 20
-6125.065
 30
-1235.523
 70
    32
  0
VERTEX
  8
T65SSILL
 62
13
 10
1271.075
 20
-6122.215
 30
-1235.526
 70
    32
  0
VERTEX
  8
T65SSILL
 62
13
 10
1270.520
 20
-6119.262
 30
-1235.524
 70
    32
  0
VERTEX
  8
T65SSILL
 62
13
 10
1306.238
 20
-6080.174
 30
-1235.632
 70
    32
  0
VERTEX
  8
T65SSILL
 62
13
 10
1312.007
 20
-6070.555
 30
-1235.664
 70
    32
  0
VERTEX
  8
T65SSILL
 62
13
 10
1320.381
 20
-6142.149
 30
-1235.806
 70
    32
  0
SEQEND
  8
T65SSILL
  0
POLYLINE
  8
T65SSILL
 62
13
 66
     1
 70
     9
  0
VERTEX
  8
T65SSILL
 62
13
 10
1147.967
 20
-6240.235
 30
-1235.835
 70
    32
  0
VERTEX
  8
T65SSILL
 62
13
 10
1153.565
 20
-6228.831
 30
-1235.776
 70
    32
  0
VERTEX
  8
T65SSILL
 62
13
 10
1158.765
 20
-6221.316
 30
-1235.731
 70
    32
  0
VERTEX
  8
T65SSILL
 62
13
 10
1178.234
 20
-6201.993
 30
-1235.587
 70
    32
  0
VERTEX
  8
T65SSILL
 62
13
 10
1176.875
 20
-6199.279
 30
-1235.585
 70
    32
  0
VERTEX
  8
T65SSILL
 62
13
 10
1137.682
 20
-6204.263
 30
-1235.768
 70
    32
  0
VERTEX
  8
T65SSILL
 62
13
 10
1140.396
 20
-6219.385
 30
-1235.802
 70
    32
  0
VERTEX
  8
T65SSILL
 62
13
 10
1145.369
 20
-6234.235
 30
-1235.828
 70
    32
  0
SEQEND
  8
T65SSILL
  0
POLYLINE
  8
T65SSILL
 62
13
 66
     1
 70
     9
  0
VERTEX
  8
T65SSILL
 62
13
 10
1160.169
 20
-6185.094
 30
-1235.614
 70
    32
  0
VERTEX
  8
T65SSILL
 62
13
 10
1161.690
 20
-6194.053
 30
-1235.635
 70
    32
  0
VERTEX
  8
T65SSILL
 62
13
 10
1175.382
 20
-6191.594
 30
-1235.568
 70
    32
  0
VERTEX
  8
T65SSILL
 62
13
 10
1187.257
 20
-6177.903
 30
-1235.474
 70
    32
  0
VERTEX
  8
T65SSILL
 62
13
 10
1196.060
 20
-6182.634
 30
-1235.450
 70
    32
  0
VERTEX
  8
T65SSILL
 62
13
 10
1239.155
 20
-6138.064
 30
-1235.439
 70
    32
  0
VERTEX
  8
T65SSILL
 62
13
 10
1236.814
 20
-6133.019
 30
-1235.431
 70
    32
  0
VERTEX
  8
T65SSILL
 62
13
 10
1240.537
 20
-6127.399
 30
-1235.441
 70
    32
  0
VERTEX
  8
T65SSILL
 62
13
 10
1240.164
 20
-6121.625
 30
-1235.438
 70
    32
  0
VERTEX
  8
T65SSILL
 62
13
 10
1208.903
 20
-6099.725
 30
-1235.344
 70
    32
  0
VERTEX
  8
T65SSILL
 62
13
 10
1196.102
 20
-6101.454
 30
-1235.308
 70
    32
  0
VERTEX
  8
T65SSILL
 62
13
 10
1181.150
 20
-6105.656
 30
-1235.281
 70
    32
  0
VERTEX
  8
T65SSILL
 62
13
 10
1178.731
 20
-6097.109
 30
-1235.266
 70
    32
  0
VERTEX
  8
T65SSILL
 62
13
 10
1196.079
 20
-6091.555
 30
-1235.305
 70
    32
  0
VERTEX
  8
T65SSILL
 62
13
 10
1111.619
 20
-6034.101
 30
-1235.366
 70
    32
  0
VERTEX
  8
T65SSILL
 62
13
 10
1117.687
 20
-6086.869
 30
-1235.500
 70
    32
  0
VERTEX
  8
T65SSILL
 62
13
 10
1123.616
 20
-6082.401
 30
-1235.461
 70
    32
  0
VERTEX
  8
T65SSILL
 62
13
 10
1129.806
 20
-6089.713
 30
-1235.456
 70
    32
  0
VERTEX
  8
T65SSILL
 62
13
 10
1119.237
 20
-6097.102
 30
-1235.525
 70
    32
  0
VERTEX
  8
T65SSILL
 62
13
 10
1135.406
 20
-6187.749
 30
-1235.730
 70
    32
  0
SEQEND
  8
T65SSILL
  0
POLYLINE
  8
T65SSILL
 62
13
 66
     1
 70
     9
  0
VERTEX
  8
T65SSILL
 62
13
 10
840.252
 20
-5825.066
 30
-1234.601
 70
    32
  0
VERTEX
  8
T65SSILL
 62
13
 10
857.823
 20
-5798.556
 30
-1234.486
 70
    32
  0
VERTEX
  8
T65SSILL
 62
13
 10
867.175
 20
-5804.843
 30
-1234.505
 70
    32
  0
VERTEX
  8
T65SSILL
 62
13
 10
872.044
 20
-5813.452
 30
-1234.530
 70
    32
  0
VERTEX
  8
T65SSILL
 62
13
 10
868.159
 20
-5816.117
 30
-1234.534
 70
    32
  0
VERTEX
  8
T65SSILL
 62
13
 10
874.790
 20
-5823.444
 30
-1234.554
 70
    32
  0
VERTEX
  8
T65SSILL
 62
13
 10
882.475
 20
-5835.207
 30
-1234.591
 70
    32
  0
VERTEX
  8
T65SSILL
 62
13
 10
871.168
 20
-5843.543
 30
-1234.626
 70
    32
  0
VERTEX
  8
T65SSILL
 62
13
 10
869.636
 20
-5850.756
 30
-1234.653
 70
    32
  0
VERTEX
  8
T65SSILL
 62
13
 10
850.263
 20
-5879.927
 30
-1234.779
 70
    32
  0
VERTEX
  8
T65SSILL
 62
13
 10
836.587
 20
-5843.255
 30
-1234.669
 70
    32
  0
SEQEND
  8
T65SSILL
  0
POLYLINE
  8
T65SSILL
 62
13
 66
     1
 70
     9
  0
VERTEX
  8
T65SSILL
 62
13
 10
886.051
 20
-5845.100
 30
-1234.617
 70
    32
  0
VERTEX
  8
T65SSILL
 62
13
 10
899.484
 20
-5864.161
 30
-1234.678
 70
    32
  0
VERTEX
  8
T65SSILL
 62
13
 10
906.684
 20
-5863.977
 30
-1234.691
 70
    32
  0
VERTEX
  8
T65SSILL
 62
13
 10
904.905
 20
-5886.559
 30
-1234.734
 70
    32
  0
VERTEX
  8
T65SSILL
 62
13
 10
902.558
 20
-5890.140
 30
-1234.749
 70
    32
  0
VERTEX
  8
T65SSILL
 62
13
 10
869.721
 20
-5927.646
 30
-1234.921
 70
    32
  0
VERTEX
  8
T65SSILL
 62
13
 10
857.199
 20
-5896.632
 30
-1234.829
 70
    32
  0
VERTEX
  8
T65SSILL
 62
13
 10
857.053
 20
-5886.711
 30
-1234.795
 70
    32
  0
VERTEX
  8
T65SSILL
 62
13
 10
885.347
 20
-5846.110
 30
-1234.617
 70
    32
  0
SEQEND
  8
T65SSILL
  0
POLYLINE
  8
T65SSILL
 62
13
 66
     1
 70
     9
  0
VERTEX
  8
T65SSILL
 62
13
 10
948.687
 20
-5927.295
 30
-1234.890
 70
    32
  0
VERTEX
  8
T65SSILL
 62
13
 10
959.975
 20
-5938.047
 30
-1234.931
 70
    32
  0
VERTEX
  8
T65SSILL
 62
13
 10
961.676
 20
-5937.397
 30
-1234.933
 70
    32
  0
VERTEX
  8
T65SSILL
 62
13
 10
963.320
 20
-5959.634
 30
-1234.978
 70
    32
  0
VERTEX
  8
T65SSILL
 62
13
 10
960.269
 20
-5967.910
 30
-1234.988
 70
    32
  0
VERTEX
  8
T65SSILL
 62
13
 10
948.664
 20
-5976.130
 30
-1234.991
 70
    32
  0
VERTEX
  8
T65SSILL
 62
13
 10
903.165
 20
-5988.433
 30
-1235.091
 70
    32
  0
VERTEX
  8
T65SSILL
 62
13
 10
892.032
 20
-5982.529
 30
-1235.085
 70
    32
  0
VERTEX
  8
T65SSILL
 62
13
 10
886.752
 20
-5967.576
 30
-1235.039
 70
    32
  0
VERTEX
  8
T65SSILL
 62
13
 10
889.020
 20
-5961.572
 30
-1235.015
 70
    32
  0
VERTEX
  8
T65SSILL
 62
13
 10
930.241
 20
-5940.837
 30
-1234.891
 70
    32
  0
SEQEND
  8
T65SSILL
  0
POLYLINE
  8
T65SSILL
 62
13
 66
     1
 70
     9
  0
VERTEX
  8
T65SSILL
 62
13
 10
1031.476
 20
-5873.835
 30
-1234.943
 70
    32
  0
VERTEX
  8
T65SSILL
 62
13
 10
1031.259
 20
-5909.443
 30
-1235.011
 70
    32
  0
VERTEX
  8
T65SSILL
 62
13
 10
1029.300
 20
-5918.356
 30
-1235.024
 70
    32
  0
VERTEX
  8
T65SSILL
 62
13
 10
1022.271
 20
-5922.947
 30
-1235.019
 70
    32
  0
VERTEX
  8
T65SSILL
 62
13
 10
1009.763
 20
-5918.005
 30
-1234.986
 70
    32
  0
VERTEX
  8
T65SSILL
 62
13
 10
1009.793
 20
-5881.666
 30
-1234.918
 70
    32
  0
VERTEX
  8
T65SSILL
 62
13
 10
1027.391
 20
-5868.608
 30
-1234.926
 70
    32
  0
SEQEND
  8
T65SSILL
  0
POLYLINE
  8
T65SSILL
 62
13
 66
     1
 70
     9
  0
VERTEX
  8
T65SSILL
 62
13
 10
955.565
 20
-5847.262
 30
-1234.751
 70
    32
  0
VERTEX
  8
T65SSILL
 62
13
 10
967.603
 20
-5840.895
 30
-1234.761
 70
    32
  0
VERTEX
  8
T65SSILL
 62
13
 10
973.651
 20
-5818.561
 30
-1234.730
 70
    32
  0
VERTEX
  8
T65SSILL
 62
13
 10
972.672
 20
-5785.405
 30
-1234.666
 70
    32
  0
VERTEX
  8
T65SSILL
 62
13
 10
966.848
 20
-5784.628
 30
-1234.653
 70
    32
  0
VERTEX
  8
T65SSILL
 62
13
 10
957.400
 20
-5791.771
 30
-1234.649
 70
    32
  0
VERTEX
  8
T65SSILL
 62
13
 10
945.838
 20
-5838.436
 30
-1234.716
 70
    32
  0
SEQEND
  8
T65SSILL
  0
POLYLINE
  8
T65SSILL
 62
13
 66
     1
 70
     9
  0
VERTEX
  8
T65SSILL
 62
13
 10
918.599
 20
-5819.975
 30
-1234.630
 70
    32
  0
VERTEX
  8
T65SSILL
 62
13
 10
914.991
 20
-5827.455
 30
-1234.637
 70
    32
  0
VERTEX
  8
T65SSILL
 62
13
 10
917.008
 20
-5878.745
 30
-1234.738
 70
    32
  0
VERTEX
  8
T65SSILL
 62
13
 10
926.122
 20
-5872.049
 30
-1234.743
 70
    32
  0
VERTEX
  8
T65SSILL
 62
13
 10
931.900
 20
-5865.208
 30
-1234.741
 70
    32
  0
VERTEX
  8
T65SSILL
 62
13
 10
928.450
 20
-5851.023
 30
-1234.707
 70
    32
  0
VERTEX
  8
T65SSILL
 62
13
 10
929.736
 20
-5842.688
 30
-1234.694
 70
    32
  0
VERTEX
  8
T65SSILL
 62
13
 10
938.203
 20
-5841.080
 30
-1234.707
 70
    32
  0
VERTEX
  8
T65SSILL
 62
13
 10
946.226
 20
-5807.235
 30
-1234.658
 70
    32
  0
VERTEX
  8
T65SSILL
 62
13
 10
939.585
 20
-5804.980
 30
-1234.641
 70
    32
  0
SEQEND
  8
T65SSILL
  0
POLYLINE
  8
T65SSILL
 62
13
 66
     1
 70
     9
  0
VERTEX
  8
T65SSILL
 62
13
 10
1239.038
 20
-5430.804
 30
-1234.424
 70
    32
  0
VERTEX
  8
T65SSILL
 62
13
 10
1240.992
 20
-5410.280
 30
-1234.572
 70
    32
  0
VERTEX
  8
T65SSILL
 62
13
 10
1244.020
 20
-5399.008
 30
-1234.645
 70
    32
  0
VERTEX
  8
T65SSILL
 62
13
 10
1068.141
 20
-5526.750
 30
-1234.716
 70
    32
  0
VERTEX
  8
T65SSILL
 62
13
 10
1054.221
 20
-5541.011
 30
-1234.687
 70
    32
  0
VERTEX
  8
T65SSILL
 62
13
 10
1044.412
 20
-5556.456
 30
-1234.670
 70
    32
  0
VERTEX
  8
T65SSILL
 62
13
 10
1037.331
 20
-5576.350
 30
-1234.663
 70
    32
  0
VERTEX
  8
T65SSILL
 62
13
 10
1033.861
 20
-5598.805
 30
-1234.666
 70
    32
  0
VERTEX
  8
T65SSILL
 62
13
 10
1041.140
 20
-5647.400
 30
-1234.712
 70
    32
  0
VERTEX
  8
T65SSILL
 62
13
 10
1051.240
 20
-5640.813
 30
-1234.735
 70
    32
  0
VERTEX
  8
T65SSILL
 62
13
 10
1056.149
 20
-5647.835
 30
-1234.752
 70
    32
  0
VERTEX
  8
T65SSILL
 62
13
 10
1043.386
 20
-5657.943
 30
-1234.724
 70
    32
  0
VERTEX
  8
T65SSILL
 62
13
 10
1043.189
 20
-5659.304
 30
-1234.724
 70
    32
  0
VERTEX
  8
T65SSILL
 62
13
 10
1050.357
 20
-5701.674
 30
-1234.767
 70
    32
  0
VERTEX
  8
T65SSILL
 62
13
 10
1073.735
 20
-5715.075
 30
-1234.809
 70
    32
  0
VERTEX
  8
T65SSILL
 62
13
 10
1083.879
 20
-5705.074
 30
-1234.746
 70
    32
  0
VERTEX
  8
T65SSILL
 62
13
 10
1090.546
 20
-5711.836
 30
-1234.699
 70
    32
  0
VERTEX
  8
T65SSILL
 62
13
 10
1085.540
 20
-5722.557
 30
-1234.728
 70
    32
  0
VERTEX
  8
T65SSILL
 62
13
 10
1093.764
 20
-5727.692
 30
-1234.672
 70
    32
  0
VERTEX
  8
T65SSILL
 62
13
 10
1099.997
 20
-5735.836
 30
-1234.627
 70
    32
  0
VERTEX
  8
T65SSILL
 62
13
 10
1108.517
 20
-5754.343
 30
-1234.563
 70
    32
  0
VERTEX
  8
T65SSILL
 62
13
 10
1107.205
 20
-5757.092
 30
-1234.571
 70
    32
  0
VERTEX
  8
T65SSILL
 62
13
 10
1145.998
 20
-5840.329
 30
-1235.012
 70
    32
  0
VERTEX
  8
T65SSILL
 62
13
 10
1156.754
 20
-5845.849
 30
-1235.032
 70
    32
  0
VERTEX
  8
T65SSILL
 62
13
 10
1153.268
 20
-5855.507
 30
-1235.058
 70
    32
  0
VERTEX
  8
T65SSILL
 62
13
 10
1164.231
 20
-5879.204
 30
-1235.130
 70
    32
  0
VERTEX
  8
T65SSILL
 62
13
 10
1157.022
 20
-5882.304
 30
-1235.137
 70
    32
  0
VERTEX
  8
T65SSILL
 62
13
 10
1151.884
 20
-5870.485
 30
-1235.101
 70
    32
  0
VERTEX
  8
T65SSILL
 62
13
 10
1147.985
 20
-5869.223
 30
-1235.096
 70
    32
  0
VERTEX
  8
T65SSILL
 62
13
 10
1143.178
 20
-5872.368
 30
-1235.100
 70
    32
  0
VERTEX
  8
T65SSILL
 62
13
 10
1134.693
 20
-5868.709
 30
-1235.075
 70
    32
  0
VERTEX
  8
T65SSILL
 62
13
 10
1143.342
 20
-5852.100
 30
-1235.045
 70
    32
  0
VERTEX
  8
T65SSILL
 62
13
 10
1100.618
 20
-5760.619
 30
-1234.613
 70
    32
  0
VERTEX
  8
T65SSILL
 62
13
 10
1098.086
 20
-5760.234
 30
-1234.629
 70
    32
  0
VERTEX
  8
T65SSILL
 62
13
 10
1094.691
 20
-5750.753
 30
-1234.656
 70
    32
  0
VERTEX
  8
T65SSILL
 62
13
 10
1087.348
 20
-5736.704
 30
-1234.710
 70
    32
  0
VERTEX
  8
T65SSILL
 62
13
 10
1082.879
 20
-5731.853
 30
-1234.741
 70
    32
  0
VERTEX
  8
T65SSILL
 62
13
 10
1074.568
 20
-5726.132
 30
-1234.798
 70
    32
  0
VERTEX
  8
T65SSILL
 62
13
 10
1071.484
 20
-5728.503
 30
-1234.818
 70
    32
  0
VERTEX
  8
T65SSILL
 62
13
 10
1066.792
 20
-5721.330
 30
-1234.821
 70
    32
  0
VERTEX
  8
T65SSILL
 62
13
 10
1052.384
 20
-5712.435
 30
-1234.778
 70
    32
  0
VERTEX
  8
T65SSILL
 62
13
 10
1060.439
 20
-5759.494
 30
-1234.826
 70
    32
  0
VERTEX
  8
T65SSILL
 62
13
 10
1067.663
 20
-5754.022
 30
-1234.832
 70
    32
  0
VERTEX
  8
T65SSILL
 62
13
 10
1072.283
 20
-5760.168
 30
-1234.799
 70
    32
  0
VERTEX
  8
T65SSILL
 62
13
 10
1062.213
 20
-5767.963
 30
-1234.835
 70
    32
  0
VERTEX
  8
T65SSILL
 62
13
 10
1073.361
 20
-5832.159
 30
-1234.918
 70
    32
  0
VERTEX
  8
T65SSILL
 62
13
 10
1078.095
 20
-5841.243
 30
-1234.925
 70
    32
  0
VERTEX
  8
T65SSILL
 62
13
 10
1082.262
 20
-5854.603
 30
-1234.948
 70
    32
  0
VERTEX
  8
T65SSILL
 62
13
 10
1083.314
 20
-5862.274
 30
-1234.967
 70
    32
  0
VERTEX
  8
T65SSILL
 62
13
 10
1079.736
 20
-5868.871
 30
-1235.002
 70
    32
  0
VERTEX
  8
T65SSILL
 62
13
 10
1084.031
 20
-5885.806
 30
-1235.035
 70
    32
  0
VERTEX
  8
T65SSILL
 62
13
 10
1107.518
 20
-6008.194
 30
-1235.305
 70
    32
  0
VERTEX
  8
T65SSILL
 62
13
 10
1118.128
 20
-6028.150
 30
-1235.320
 70
    32
  0
VERTEX
  8
T65SSILL
 62
13
 10
1211.860
 20
-6092.700
 30
-1235.350
 70
    32
  0
VERTEX
  8
T65SSILL
 62
13
 10
1214.923
 20
-6088.295
 30
-1235.358
 70
    32
  0
VERTEX
  8
T65SSILL
 62
13
 10
1237.433
 20
-6102.303
 30
-1235.425
 70
    32
  0
VERTEX
  8
T65SSILL
 62
13
 10
1241.819
 20
-6113.355
 30
-1235.441
 70
    32
  0
VERTEX
  8
T65SSILL
 62
13
 10
1247.099
 20
-6117.208
 30
-1235.457
 70
    32
  0
VERTEX
  8
T65SSILL
 62
13
 10
1258.735
 20
-6114.892
 30
-1235.489
 70
    32
  0
VERTEX
  8
T65SSILL
 62
13
 10
1298.463
 20
-6074.293
 30
-1235.592
 70
    32
  0
VERTEX
  8
T65SSILL
 62
13
 10
1308.416
 20
-6056.774
 30
-1235.623
 70
    32
  0
VERTEX
  8
T65SSILL
 62
13
 10
1309.462
 20
-6049.792
 30
-1235.622
 70
    32
  0
VERTEX
  8
T65SSILL
 62
13
 10
1293.214
 20
-5922.823
 30
-1235.300
 70
    32
  0
VERTEX
  8
T65SSILL
 62
13
 10
1272.695
 20
-5740.329
 30
-1233.489
 70
    32
  0
VERTEX
  8
T65SSILL
 62
13
 10
1238.854
 20
-5445.663
 30
-1234.312
 70
    32
  0
VERTEX
  8
T65SSILL
 62
13
 10
1238.775
 20
-5435.542
 30
-1234.390
 70
    32
  0
SEQEND
  8
T65SSILL
  0
POLYLINE
  8
T65SSILL
 62
13
 66
     1
 70
     9
  0
VERTEX
  8
T65SSILL
 62
13
 10
1025.589
 20
-5558.186
 30
-1234.621
 70
    32
  0
VERTEX
  8
T65SSILL
 62
13
 10
1030.820
 20
-5578.988
 30
-1234.647
 70
    32
  0
VERTEX
  8
T65SSILL
 62
13
 10
1031.413
 20
-5571.344
 30
-1234.644
 70
    32
  0
VERTEX
  8
T65SSILL
 62
13
 10
1041.394
 20
-5548.575
 30
-1234.658
 70
    32
  0
VERTEX
  8
T65SSILL
 62
13
 10
1050.916
 20
-5534.787
 30
-1234.675
 70
    32
  0
VERTEX
  8
T65SSILL
 62
13
 10
1061.866
 20
-5523.454
 30
-1234.698
 70
    32
  0
VERTEX
  8
T65SSILL
 62
13
 10
1060.992
 20
-5519.693
 30
-1234.693
 70
    32
  0
VERTEX
  8
T65SSILL
 62
13
 10
1057.681
 20
-5517.237
 30
-1234.688
 70
    32
  0
VERTEX
  8
T65SSILL
 62
13
 10
1020.021
 20
-5516.613
 30
-1234.646
 70
    32
  0
VERTEX
  8
T65SSILL
 62
13
 10
1023.511
 20
-5548.924
 30
-1234.611
 70
    32
  0
VERTEX
  8
T65SSILL
 62
13
 10
1026.785
 20
-5551.188
 30
-1234.621
 70
    32
  0
SEQEND
  8
T65SSILL
  0
POLYLINE
  8
T65SSILL
 62
13
 66
     1
 70
     9
  0
VERTEX
  8
T65SSILL
 62
13
 10
1029.010
 20
-6029.128
 30
-1235.233
 70
    32
  0
VERTEX
  8
T65SSILL
 62
13
 10
1020.533
 20
-6021.586
 30
-1235.203
 70
    32
  0
VERTEX
  8
T65SSILL
 62
13
 10
1012.929
 20
-6007.935
 30
-1235.163
 70
    32
  0
VERTEX
  8
T65SSILL
 62
13
 10
1010.576
 20
-5999.019
 30
-1235.141
 70
    32
  0
VERTEX
  8
T65SSILL
 62
13
 10
995.770
 20
-5988.785
 30
-1235.094
 70
    32
  0
VERTEX
  8
T65SSILL
 62
13
 10
985.172
 20
-5967.142
 30
-1235.034
 70
    32
  0
VERTEX
  8
T65SSILL
 62
13
 10
977.421
 20
-5973.950
 30
-1235.032
 70
    32
  0
VERTEX
  8
T65SSILL
 62
13
 10
987.241
 20
-5997.550
 30
-1235.095
 70
    32
  0
VERTEX
  8
T65SSILL
 62
13
 10
981.267
 20
-6004.421
 30
-1235.097
 70
    32
  0
VERTEX
  8
T65SSILL
 62
13
 10
995.777
 20
-6025.638
 30
-1235.164
 70
    32
  0
VERTEX
  8
T65SSILL
 62
13
 10
1011.275
 20
-6030.939
 30
-1235.203
 70
    32
  0
VERTEX
  8
T65SSILL
 62
13
 10
1009.181
 20
-6032.325
 30
-1235.202
 70
    32
  0
VERTEX
  8
T65SSILL
 62
13
 10
1013.013
 20
-6038.268
 30
-1235.220
 70
    32
  0
VERTEX
  8
T65SSILL
 62
13
 10
1011.201
 20
-6042.768
 30
-1235.226
 70
    32
  0
VERTEX
  8
T65SSILL
 62
13
 10
946.231
 20
-6087.649
 30
-1235.383
 70
    32
  0
VERTEX
  8
T65SSILL
 62
13
 10
941.147
 20
-6083.768
 30
-1235.376
 70
    32
  0
VERTEX
  8
T65SSILL
 62
13
 10
925.521
 20
-6065.271
 30
-1235.331
 70
    32
  0
VERTEX
  8
T65SSILL
 62
13
 10
900.312
 20
-6003.468
 30
-1235.147
 70
    32
  0
VERTEX
  8
T65SSILL
 62
13
 10
906.951
 20
-5997.857
 30
-1235.119
 70
    32
  0
VERTEX
  8
T65SSILL
 62
13
 10
952.964
 20
-5985.518
 30
-1235.018
 70
    32
  0
VERTEX
  8
T65SSILL
 62
13
 10
1061.855
 20
-5905.727
 30
-1235.061
 70
    32
  0
VERTEX
  8
T65SSILL
 62
13
 10
1056.151
 20
-5898.184
 30
-1235.036
 70
    32
  0
VERTEX
  8
T65SSILL
 62
13
 10
1045.126
 20
-5906.000
 30
-1235.030
 70
    32
  0
VERTEX
  8
T65SSILL
 62
13
 10
1042.172
 20
-5896.533
 30
-1235.006
 70
    32
  0
VERTEX
  8
T65SSILL
 62
13
 10
1041.442
 20
-5858.030
 30
-1234.932
 70
    32
  0
VERTEX
  8
T65SSILL
 62
13
 10
1045.989
 20
-5854.205
 30
-1234.933
 70
    32
  0
VERTEX
  8
T65SSILL
 62
13
 10
1040.914
 20
-5846.330
 30
-1234.909
 70
    32
  0
VERTEX
  8
T65SSILL
 62
13
 10
958.821
 20
-5908.032
 30
-1234.872
 70
    32
  0
VERTEX
  8
T65SSILL
 62
13
 10
946.998
 20
-5895.282
 30
-1234.826
 70
    32
  0
VERTEX
  8
T65SSILL
 62
13
 10
933.497
 20
-5905.260
 30
-1234.819
 70
    32
  0
VERTEX
  8
T65SSILL
 62
13
 10
942.859
 20
-5919.730
 30
-1234.864
 70
    32
  0
VERTEX
  8
T65SSILL
 62
13
 10
924.891
 20
-5933.800
 30
-1234.873
 70
    32
  0
VERTEX
  8
T65SSILL
 62
13
 10
888.353
 20
-5951.369
 30
-1234.980
 70
    32
  0
VERTEX
  8
T65SSILL
 62
13
 10
881.597
 20
-5948.333
 30
-1234.978
 70
    32
  0
VERTEX
  8
T65SSILL
 62
13
 10
877.094
 20
-5939.734
 30
-1234.954
 70
    32
  0
VERTEX
  8
T65SSILL
 62
13
 10
878.161
 20
-5933.707
 30
-1234.932
 70
    32
  0
VERTEX
  8
T65SSILL
 62
13
 10
880.435
 20
-5930.177
 30
-1234.917
 70
    32
  0
VERTEX
  8
T65SSILL
 62
13
 10
911.384
 20
-5893.669
 30
-1234.756
 70
    32
  0
VERTEX
  8
T65SSILL
 62
13
 10
927.744
 20
-5882.231
 30
-1234.765
 70
    32
  0
VERTEX
  8
T65SSILL
 62
13
 10
920.596
 20
-5915.787
 30
-1234.816
 70
    32
  0
VERTEX
  8
T65SSILL
 62
13
 10
928.540
 20
-5918.209
 30
-1234.835
 70
    32
  0
VERTEX
  8
T65SSILL
 62
13
 10
936.297
 20
-5881.209
 30
-1234.779
 70
    32
  0
VERTEX
  8
T65SSILL
 62
13
 10
947.283
 20
-5866.093
 30
-1234.771
 70
    32
  0
VERTEX
  8
T65SSILL
 62
13
 10
1008.215
 20
-5821.447
 30
-1234.801
 70
    32
  0
VERTEX
  8
T65SSILL
 62
13
 10
1003.060
 20
-5814.382
 30
-1234.778
 70
    32
  0
VERTEX
  8
T65SSILL
 62
13
 10
982.863
 20
-5829.580
 30
-1234.769
 70
    32
  0
VERTEX
  8
T65SSILL
 62
13
 10
982.928
 20
-5804.854
 30
-1234.722
 70
    32
  0
VERTEX
  8
T65SSILL
 62
13
 10
996.047
 20
-5793.097
 30
-1234.724
 70
    32
  0
VERTEX
  8
T65SSILL
 62
13
 10
992.144
 20
-5786.126
 30
-1234.704
 70
    32
  0
VERTEX
  8
T65SSILL
 62
13
 10
985.969
 20
-5766.195
 30
-1234.654
 70
    32
  0
VERTEX
  8
T65SSILL
 62
13
 10
979.834
 20
-5764.664
 30
-1234.640
 70
    32
  0
VERTEX
  8
T65SSILL
 62
13
 10
968.337
 20
-5750.070
 30
-1234.591
 70
    32
  0
VERTEX
  8
T65SSILL
 62
13
 10
974.323
 20
-5722.714
 30
-1234.578
 70
    32
  0
VERTEX
  8
T65SSILL
 62
13
 10
1023.724
 20
-5646.925
 30
-1234.666
 70
    32
  0
VERTEX
  8
T65SSILL
 62
13
 10
1026.336
 20
-5656.886
 30
-1234.678
 70
    32
  0
VERTEX
  8
T65SSILL
 62
13
 10
1021.473
 20
-5660.814
 30
-1234.668
 70
    32
  0
VERTEX
  8
T65SSILL
 62
13
 10
1019.410
 20
-5667.256
 30
-1234.666
 70
    32
  0
VERTEX
  8
T65SSILL
 62
13
 10
1023.502
 20
-5675.093
 30
-1234.681
 70
    32
  0
VERTEX
  8
T65SSILL
 62
13
 10
1028.613
 20
-5675.846
 30
-1234.695
 70
    32
  0
VERTEX
  8
T65SSILL
 62
13
 10
1032.697
 20
-5687.719
 30
-1234.712
 70
    32
  0
VERTEX
  8
T65SSILL
 62
13
 10
1032.408
 20
-5689.578
 30
-1234.713
 70
    32
  0
VERTEX
  8
T65SSILL
 62
13
 10
1013.258
 20
-5689.459
 30
-1234.662
 70
    32
  0
VERTEX
  8
T65SSILL
 62
13
 10
1012.674
 20
-5698.490
 30
-1234.666
 70
    32
  0
VERTEX
  8
T65SSILL
 62
13
 10
1021.509
 20
-5699.103
 30
-1234.689
 70
    32
  0
VERTEX
  8
T65SSILL
 62
13
 10
1034.833
 20
-5705.522
 30
-1234.728
 70
    32
  0
VERTEX
  8
T65SSILL
 62
13
 10
1037.708
 20
-5715.948
 30
-1234.741
 70
    32
  0
VERTEX
  8
T65SSILL
 62
13
 10
1043.456
 20
-5755.724
 30
-1234.779
 70
    32
  0
VERTEX
  8
T65SSILL
 62
13
 10
1039.172
 20
-5757.218
 30
-1234.768
 70
    32
  0
VERTEX
  8
T65SSILL
 62
13
 10
1035.637
 20
-5771.311
 30
-1234.767
 70
    32
  0
VERTEX
  8
T65SSILL
 62
13
 10
1037.649
 20
-5776.418
 30
-1234.775
 70
    32
  0
VERTEX
  8
T65SSILL
 62
13
 10
1047.133
 20
-5775.940
 30
-1234.800
 70
    32
  0
VERTEX
  8
T65SSILL
 62
13
 10
1050.736
 20
-5786.474
 30
-1234.815
 70
    32
  0
VERTEX
  8
T65SSILL
 62
13
 10
1059.793
 20
-5798.938
 30
-1234.855
 70
    32
  0
VERTEX
  8
T65SSILL
 62
13
 10
1057.074
 20
-5807.012
 30
-1234.865
 70
    32
  0
VERTEX
  8
T65SSILL
 62
13
 10
1056.699
 20
-5815.572
 30
-1234.880
 70
    32
  0
VERTEX
  8
T65SSILL
 62
13
 10
1064.760
 20
-5839.897
 30
-1234.941
 70
    32
  0
VERTEX
  8
T65SSILL
 62
13
 10
1070.962
 20
-5875.436
 30
-1235.020
 70
    32
  0
VERTEX
  8
T65SSILL
 62
13
 10
1082.965
 20
-5930.279
 30
-1235.147
 70
    32
  0
VERTEX
  8
T65SSILL
 62
13
 10
1077.674
 20
-5963.965
 30
-1235.201
 70
    32
  0
VERTEX
  8
T65SSILL
 62
13
 10
1068.850
 20
-5993.735
 30
-1235.241
 70
    32
  0
VERTEX
  8
T65SSILL
 62
13
 10
1058.204
 20
-6008.722
 30
-1235.249
 70
    32
  0
SEQEND
  8
T65SSILL
  0
POLYLINE
  8
T65SSILL
 62
13
 66
     1
 70
     9
  0
VERTEX
  8
T65SSILL
 62
13
 10
1085.116
 20
-6099.756
 30
-1235.472
 70
    32
  0
VERTEX
  8
T65SSILL
 62
13
 10
1070.477
 20
-6080.539
 30
-1235.408
 70
    32
  0
VERTEX
  8
T65SSILL
 62
13
 10
1060.500
 20
-6078.137
 30
-1235.385
 70
    32
  0
VERTEX
  8
T65SSILL
 62
13
 10
1049.934
 20
-6056.857
 30
-1235.325
 70
    32
  0
VERTEX
  8
T65SSILL
 62
13
 10
1040.658
 20
-6042.973
 30
-1235.281
 70
    32
  0
VERTEX
  8
T65SSILL
 62
13
 10
1034.561
 20
-6035.200
 30
-1235.255
 70
    32
  0
VERTEX
  8
T65SSILL
 62
13
 10
1061.703
 20
-6015.113
 30
-1235.268
 70
    32
  0
VERTEX
  8
T65SSILL
 62
13
 10
1069.197
 20
-6007.180
 30
-1235.267
 70
    32
  0
VERTEX
  8
T65SSILL
 62
13
 10
1074.770
 20
-6004.361
 30
-1235.272
 70
    32
  0
VERTEX
  8
T65SSILL
 62
13
 10
1073.782
 20
-5999.556
 30
-1235.261
 70
    32
  0
VERTEX
  8
T65SSILL
 62
13
 10
1086.581
 20
-5961.043
 30
-1235.212
 70
    32
  0
VERTEX
  8
T65SSILL
 62
13
 10
1090.111
 20
-5991.158
 30
-1235.276
 70
    32
  0
VERTEX
  8
T65SSILL
 62
13
 10
1093.130
 20
-6000.255
 30
-1235.298
 70
    32
  0
VERTEX
  8
T65SSILL
 62
13
 10
1093.393
 20
-6007.723
 30
-1235.313
 70
    32
  0
VERTEX
  8
T65SSILL
 62
13
 10
1095.331
 20
-6010.032
 30
-1235.321
 70
    32
  0
VERTEX
  8
T65SSILL
 62
13
 10
1099.888
 20
-6037.669
 30
-1235.382
 70
    32
  0
VERTEX
  8
T65SSILL
 62
13
 10
1106.570
 20
-6068.346
 30
-1235.453
 70
    32
  0
SEQEND
  8
T65SSILL
  0
POLYLINE
  8
T65SSILL
 62
13
 66
     1
 70
     9
  0
VERTEX
  8
T65SSILL
 62
13
 10
1375.720
 20
-6365.471
 30
-1235.751
 70
    32
  0
VERTEX
  8
T65SSILL
 62
13
 10
1361.864
 20
-6319.725
 30
-1235.517
 70
    32
  0
VERTEX
  8
T65SSILL
 62
13
 10
1329.712
 20
-6203.457
 30
-1235.923
 70
    32
  0
VERTEX
  8
T65SSILL
 62
13
 10
1323.073
 20
-6210.126
 30
-1235.902
 70
    32
  0
VERTEX
  8
T65SSILL
 62
13
 10
1196.321
 20
-6408.320
 30
-1236.139
 70
    32
  0
VERTEX
  8
T65SSILL
 62
13
 10
1190.427
 20
-6444.190
 30
-1236.279
 70
    32
  0
VERTEX
  8
T65SSILL
 62
13
 10
1195.497
 20
-6458.380
 30
-1236.305
 70
    32
  0
VERTEX
  8
T65SSILL
 62
13
 10
1201.757
 20
-6467.798
 30
-1236.310
 70
    32
  0
VERTEX
  8
T65SSILL
 62
13
 10
1207.839
 20
-6473.569
 30
-1236.305
 70
    32
  0
VERTEX
  8
T65SSILL
 62
13
 10
1219.962
 20
-6481.044
 30
-1236.280
 70
    32
  0
VERTEX
  8
T65SSILL
 62
13
 10
1224.730
 20
-6482.776
 30
-1236.266
 70
    32
  0
VERTEX
  8
T65SSILL
 62
13
 10
1251.707
 20
-6468.335
 30
-1236.110
 70
    32
  0
VERTEX
  8
T65SSILL
 62
13
 10
1258.112
 20
-6478.729
 30
-1236.118
 70
    32
  0
VERTEX
  8
T65SSILL
 62
13
 10
1286.249
 20
-6459.166
 30
-1235.941
 70
    32
  0
VERTEX
  8
T65SSILL
 62
13
 10
1283.980
 20
-6455.149
 30
-1235.937
 70
    32
  0
VERTEX
  8
T65SSILL
 62
13
 10
1285.495
 20
-6450.533
 30
-1235.915
 70
    32
  0
VERTEX
  8
T65SSILL
 62
13
 10
1297.738
 20
-6439.064
 30
-1235.970
 70
    32
  0
VERTEX
  8
T65SSILL
 62
13
 10
1302.660
 20
-6436.701
 30
-1236.004
 70
    32
  0
VERTEX
  8
T65SSILL
 62
13
 10
1306.762
 20
-6437.174
 30
-1236.035
 70
    32
  0
VERTEX
  8
T65SSILL
 62
13
 10
1312.925
 20
-6439.978
 30
-1236.083
 70
    32
  0
VERTEX
  8
T65SSILL
 62
13
 10
1378.099
 20
-6393.229
 30
-1236.249
 70
    32
  0
SEQEND
  8
T65SSILL
  0
POLYLINE
  8
T65SSILL
 62
13
 66
     1
 70
     9
  0
VERTEX
  8
T65SSILL
 62
13
 10
1498.766
 20
-6671.008
 30
-1236.715
 70
    32
  0
VERTEX
  8
T65SSILL
 62
13
 10
1503.101
 20
-6668.379
 30
-1236.709
 70
    32
  0
VERTEX
  8
T65SSILL
 62
13
 10
1508.028
 20
-6668.490
 30
-1236.708
 70
    32
  0
VERTEX
  8
T65SSILL
 62
13
 10
1523.238
 20
-6657.103
 30
-1236.684
 70
    32
  0
VERTEX
  8
T65SSILL
 62
13
 10
1531.666
 20
-6648.193
 30
-1236.666
 70
    32
  0
VERTEX
  8
T65SSILL
 62
13
 10
1535.723
 20
-6639.968
 30
-1236.651
 70
    32
  0
VERTEX
  8
T65SSILL
 62
13
 10
1536.360
 20
-6579.972
 30
-1236.543
 70
    32
  0
VERTEX
  8
T65SSILL
 62
13
 10
1532.144
 20
-6560.816
 30
-1236.510
 70
    32
  0
VERTEX
  8
T65SSILL
 62
13
 10
1524.159
 20
-6556.987
 30
-1236.505
 70
    32
  0
VERTEX
  8
T65SSILL
 62
13
 10
1527.780
 20
-6540.122
 30
-1236.474
 70
    32
  0
VERTEX
  8
T65SSILL
 62
13
 10
1535.583
 20
-6535.098
 30
-1236.463
 70
    32
  0
VERTEX
  8
T65SSILL
 62
13
 10
1533.085
 20
-6357.946
 30
-1236.148
 70
    32
  0
VERTEX
  8
T65SSILL
 62
13
 10
1526.813
 20
-6355.757
 30
-1236.145
 70
    32
  0
VERTEX
  8
T65SSILL
 62
13
 10
1524.311
 20
-6352.333
 30
-1236.140
 70
    32
  0
VERTEX
  8
T65SSILL
 62
13
 10
1522.499
 20
-6345.732
 30
-1236.129
 70
    32
  0
VERTEX
  8
T65SSILL
 62
13
 10
1522.187
 20
-6333.880
 30
-1236.108
 70
    32
  0
VERTEX
  8
T65SSILL
 62
13
 10
1520.540
 20
-6330.290
 30
-1236.102
 70
    32
  0
VERTEX
  8
T65SSILL
 62
13
 10
1513.525
 20
-6323.339
 30
-1236.091
 70
    32
  0
VERTEX
  8
T65SSILL
 62
13
 10
1510.259
 20
-6316.354
 30
-1236.079
 70
    32
  0
VERTEX
  8
T65SSILL
 62
13
 10
1515.673
 20
-6314.078
 30
-1236.074
 70
    32
  0
VERTEX
  8
T65SSILL
 62
13
 10
1515.835
 20
-6309.223
 30
-1236.065
 70
    32
  0
VERTEX
  8
T65SSILL
 62
13
 10
1511.929
 20
-6306.565
 30
-1236.061
 70
    32
  0
VERTEX
  8
T65SSILL
 62
13
 10
1436.859
 20
-6363.535
 30
-1235.829
 70
    32
  0
VERTEX
  8
T65SSILL
 62
13
 10
1401.523
 20
-6388.471
 30
-1235.882
 70
    32
  0
VERTEX
  8
T65SSILL
 62
13
 10
1409.386
 20
-6400.249
 30
-1235.935
 70
    32
  0
VERTEX
  8
T65SSILL
 62
13
 10
1418.457
 20
-6430.286
 30
-1235.915
 70
    32
  0
VERTEX
  8
T65SSILL
 62
13
 10
1422.394
 20
-6453.752
 30
-1235.895
 70
    32
  0
VERTEX
  8
T65SSILL
 62
13
 10
1428.257
 20
-6457.057
 30
-1235.892
 70
    32
  0
VERTEX
  8
T65SSILL
 62
13
 10
1445.923
 20
-6450.063
 30
-1235.891
 70
    32
  0
VERTEX
  8
T65SSILL
 62
13
 10
1450.386
 20
-6461.337
 30
-1235.890
 70
    32
  0
VERTEX
  8
T65SSILL
 62
13
 10
1431.679
 20
-6471.454
 30
-1235.886
 70
    32
  0
VERTEX
  8
T65SSILL
 62
13
 10
1449.320
 20
-6508.199
 30
-1235.850
 70
    32
  0
VERTEX
  8
T65SSILL
 62
13
 10
1461.372
 20
-6502.792
 30
-1235.849
 70
    32
  0
VERTEX
  8
T65SSILL
 62
13
 10
1465.542
 20
-6512.430
 30
-1235.847
 70
    32
  0
VERTEX
  8
T65SSILL
 62
13
 10
1452.570
 20
-6518.249
 30
-1235.846
 70
    32
  0
VERTEX
  8
T65SSILL
 62
13
 10
1470.980
 20
-6560.600
 30
-1235.806
 70
    32
  0
VERTEX
  8
T65SSILL
 62
13
 10
1476.561
 20
-6562.680
 30
-1235.801
 70
    32
  0
VERTEX
  8
T65SSILL
 62
13
 10
1479.812
 20
-6567.391
 30
-1235.800
 70
    32
  0
VERTEX
  8
T65SSILL
 62
13
 10
1498.974
 20
-6568.202
 30
-1235.800
 70
    32
  0
VERTEX
  8
T65SSILL
 62
13
 10
1499.918
 20
-6581.578
 30
-1235.800
 70
    32
  0
VERTEX
  8
T65SSILL
 62
13
 10
1482.145
 20
-6579.027
 30
-1235.787
 70
    32
  0
VERTEX
  8
T65SSILL
 62
13
 10
1480.439
 20
-6580.310
 30
-1235.782
 70
    32
  0
VERTEX
  8
T65SSILL
 62
13
 10
1502.843
 20
-6629.452
 30
-1235.616
 70
    32
  0
VERTEX
  8
T65SSILL
 62
13
 10
1504.327
 20
-6652.534
 30
-1235.537
 70
    32
  0
SEQEND
  8
T65SSILL
  0
POLYLINE
  8
T65SSILL
 62
3
 66
     1
 70
     9
  0
VERTEX
  8
T65SSILL
 62
3
 10
1468.152
 20
-6583.808
 30
-1235.783
 70
    32
  0
VERTEX
  8
T65SSILL
 62
3
 10
1460.691
 20
-6584.589
 30
-1235.794
 70
    32
  0
VERTEX
  8
T65SSILL
 62
3
 10
1442.660
 20
-6572.069
 30
-1235.800
 70
    32
  0
VERTEX
  8
T65SSILL
 62
3
 10
1410.142
 20
-6566.268
 30
-1235.800
 70
    32
  0
VERTEX
  8
T65SSILL
 62
3
 10
1411.618
 20
-6556.374
 30
-1235.800
 70
    32
  0
VERTEX
  8
T65SSILL
 62
3
 10
1452.600
 20
-6563.685
 30
-1235.805
 70
    32
  0
VERTEX
  8
T65SSILL
 62
3
 10
1457.604
 20
-6559.905
 30
-1235.810
 70
    32
  0
SEQEND
  8
T65SSILL
  0
TEXT
  8
T65SSILL
 62
3
 10
1409.139
 20
-6550.289
 30
-1218.140
 40
8.202
  1
U
 41
 1.0 
  0
POLYLINE
  8
T65SSILL
 62
3
 66
     1
 70
     8
  0
VERTEX
  8
T65SSILL
 62
3
 10
2078.053
 20
-9441.709
 30
-1235.981
 70
    32
  0
VERTEX
  8
T65SSILL
 62
3
 10
2083.244
 20
-9451.941
 30
-1235.981
 70
    32
  0
VERTEX
  8
T65SSILL
 62
3
 10
2087.832
 20
-9459.831
 30
-1235.981
 70
    32
  0
VERTEX
  8
T65SSILL
 62
3
 10
2097.078
 20
-9453.187
 30
-1235.981
 70
    32
  0
VERTEX
  8
T65SSILL
 62
3
 10
2090.821
 20
-9446.751
 30
-1235.981
 70
    32
  0
VERTEX
  8
T65SSILL
 62
3
 10
2086.064
 20
-9437.608
 30
-1236.159
 70
    32
  0
SEQEND
  8
T65SSILL
  0
TEXT
  8
T65SSILL
 62
3
 10
2121.955
 20
-9504.967
 30
-1224.598
 40
8.202
  1
D
 41
 1.0 
  0
LINE
  8
T65SSILL
 62
13
 10
1527.474
 20
-6652.759
 30
-1236.670
 11
1531.614
 21
-6659.353
 31
-1236.670
  0
POLYLINE
  8
T65SSILL
 62
13
 66
     1
 70
     8
  0
VERTEX
  8
T65SSILL
 62
13
 10
1527.578
 20
-6652.846
 30
-1236.670
 70
    32
  0
VERTEX
  8
T65SSILL
 62
13
 10
1527.376
 20
-6654.481
 30
-1236.670
 70
    32
  0
VERTEX
  8
T65SSILL
 62
13
 10
1529.181
 20
-6655.479
 30
-1236.670
 70
    32
  0
VERTEX
  8
T65SSILL
 62
13
 10
1529.001
 20
-6656.984
 30
-1236.670
 70
    32
  0
VERTEX
  8
T65SSILL
 62
13
 10
1530.524
 20
-6657.669
 30
-1236.670
 70
    32
  0
VERTEX
  8
T65SSILL
 62
13
 10
1530.327
 20
-6659.071
 30
-1236.670
 70
    32
  0
VERTEX
  8
T65SSILL
 62
13
 10
1531.614
 20
-6659.353
 30
-1236.670
 70
    32
  0
SEQEND
  8
T65SSILL
  0
LINE
  8
T65SSILL
 62
13
 10
1526.794
 20
-6653.516
 30
-1236.670
 11
1530.824
 21
-6659.973
 31
-1236.670
  0
POLYLINE
  8
T65SSILL
 62
13
 66
     1
 70
     8
  0
VERTEX
  8
T65SSILL
 62
13
 10
1370.316
 20
-6767.288
 30
-1236.000
 70
    32
  0
VERTEX
  8
T65SSILL
 62
13
 10
1373.093
 20
-6767.366
 30
-1236.000
 70
    32
  0
VERTEX
  8
T65SSILL
 62
13
 10
1372.548
 20
-6769.370
 30
-1236.000
 70
    32
  0
VERTEX
  8
T65SSILL
 62
13
 10
1375.092
 20
-6769.214
 30
-1236.000
 70
    32
  0
VERTEX
  8
T65SSILL
 62
13
 10
1374.651
 20
-6771.400
 30
-1236.000
 70
    32
  0
VERTEX
  8
T65SSILL
 62
13
 10
1377.039
 20
-6771.114
 30
-1236.000
 70
    32
  0
SEQEND
  8
T65SSILL
  0
LINE
  8
T65SSILL
 62
13
 10
1370.233
 20
-6767.300
 30
-1236.000
 11
1375.615
 21
-6772.383
 31
-1236.000
  0
LINE
  8
T65SSILL
 62
13
 10
1371.857
 20
-6766.083
 30
-1236.000
 11
1377.169
 21
-6771.099
 31
-1236.000
  0
POLYLINE
  8
T65SSILL
 62
13
 66
     1
 70
     8
  0
VERTEX
  8
T65SSILL
 62
13
 10
1360.129
 20
-6764.906
 30
-1236.000
 70
    32
  0
VERTEX
  8
T65SSILL
 62
13
 10
1360.120
 20
-6764.688
 30
-1236.000
 70
    32
  0
VERTEX
  8
T65SSILL
 62
13
 10
1360.091
 20
-6764.471
 30
-1236.000
 70
    32
  0
VERTEX
  8
T65SSILL
 62
13
 10
1360.044
 20
-6764.259
 30
-1236.000
 70
    32
  0
VERTEX
  8
T65SSILL
 62
13
 10
1359.979
 20
-6764.051
 30
-1236.000
 70
    32
  0
VERTEX
  8
T65SSILL
 62
13
 10
1359.895
 20
-6763.849
 30
-1236.000
 70
    32
  0
VERTEX
  8
T65SSILL
 62
13
 10
1359.794
 20
-6763.656
 30
-1236.000
 70
    32
  0
VERTEX
  8
T65SSILL
 62
13
 10
1359.677
 20
-6763.472
 30
-1236.000
 70
    32
  0
VERTEX
  8
T65SSILL
 62
13
 10
1359.544
 20
-6763.299
 30
-1236.000
 70
    32
  0
VERTEX
  8
T65SSILL
 62
13
 10
1359.397
 20
-6763.138
 30
-1236.000
 70
    32
  0
VERTEX
  8
T65SSILL
 62
13
 10
1359.236
 20
-6762.990
 30
-1236.000
 70
    32
  0
VERTEX
  8
T65SSILL
 62
13
 10
1359.063
 20
-6762.858
 30
-1236.000
 70
    32
  0
VERTEX
  8
T65SSILL
 62
13
 10
1358.879
 20
-6762.740
 30
-1236.000
 70
    32
  0
VERTEX
  8
T65SSILL
 62
13
 10
1358.686
 20
-6762.640
 30
-1236.000
 70
    32
  0
VERTEX
  8
T65SSILL
 62
13
 10
1358.484
 20
-6762.556
 30
-1236.000
 70
    32
  0
VERTEX
  8
T65SSILL
 62
13
 10
1358.276
 20
-6762.491
 30
-1236.000
 70
    32
  0
VERTEX
  8
T65SSILL
 62
13
 10
1358.063
 20
-6762.444
 30
-1236.000
 70
    32
  0
VERTEX
  8
T65SSILL
 62
13
 10
1357.847
 20
-6762.415
 30
-1236.000
 70
    32
  0
VERTEX
  8
T65SSILL
 62
13
 10
1357.629
 20
-6762.406
 30
-1236.000
 70
    32
  0
VERTEX
  8
T65SSILL
 62
13
 10
1357.411
 20
-6762.415
 30
-1236.000
 70
    32
  0
VERTEX
  8
T65SSILL
 62
13
 10
1357.195
 20
-6762.444
 30
-1236.000
 70
    32
  0
VERTEX
  8
T65SSILL
 62
13
 10
1356.982
 20
-6762.491
 30
-1236.000
 70
    32
  0
VERTEX
  8
T65SSILL
 62
13
 10
1356.774
 20
-6762.556
 30
-1236.000
 70
    32
  0
VERTEX
  8
T65SSILL
 62
13
 10
1356.573
 20
-6762.640
 30
-1236.000
 70
    32
  0
VERTEX
  8
T65SSILL
 62
13
 10
1356.379
 20
-6762.740
 30
-1236.000
 70
    32
  0
VERTEX
  8
T65SSILL
 62
13
 10
1356.195
 20
-6762.858
 30
-1236.000
 70
    32
  0
VERTEX
  8
T65SSILL
 62
13
 10
1356.022
 20
-6762.990
 30
-1236.000
 70
    32
  0
VERTEX
  8
T65SSILL
 62
13
 10
1355.862
 20
-6763.138
 30
-1236.000
 70
    32
  0
VERTEX
  8
T65SSILL
 62
13
 10
1355.714
 20
-6763.299
 30
-1236.000
 70
    32
  0
VERTEX
  8
T65SSILL
 62
13
 10
1355.581
 20
-6763.472
 30
-1236.000
 70
    32
  0
VERTEX
  8
T65SSILL
 62
13
 10
1355.464
 20
-6763.656
 30
-1236.000
 70
    32
  0
VERTEX
  8
T65SSILL
 62
13
 10
1355.364
 20
-6763.849
 30
-1236.000
 70
    32
  0
VERTEX
  8
T65SSILL
 62
13
 10
1355.280
 20
-6764.051
 30
-1236.000
 70
    32
  0
VERTEX
  8
T65SSILL
 62
13
 10
1355.214
 20
-6764.259
 30
-1236.000
 70
    32
  0
VERTEX
  8
T65SSILL
 62
13
 10
1355.167
 20
-6764.471
 30
-1236.000
 70
    32
  0
VERTEX
  8
T65SSILL
 62
13
 10
1355.139
 20
-6764.688
 30
-1236.000
 70
    32
  0
VERTEX
  8
T65SSILL
 62
13
 10
1355.129
 20
-6764.906
 30
-1236.000
 70
    32
  0
VERTEX
  8
T65SSILL
 62
13
 10
1355.139
 20
-6765.123
 30
-1236.000
 70
    32
  0
VERTEX
  8
T65SSILL
 62
13
 10
1355.167
 20
-6765.340
 30
-1236.000
 70
    32
  0
VERTEX
  8
T65SSILL
 62
13
 10
1355.214
 20
-6765.553
 30
-1236.000
 70
    32
  0
VERTEX
  8
T65SSILL
 62
13
 10
1355.280
 20
-6765.761
 30
-1236.000
 70
    32
  0
VERTEX
  8
T65SSILL
 62
13
 10
1355.364
 20
-6765.962
 30
-1236.000
 70
    32
  0
VERTEX
  8
T65SSILL
 62
13
 10
1355.464
 20
-6766.156
 30
-1236.000
 70
    32
  0
VERTEX
  8
T65SSILL
 62
13
 10
1355.581
 20
-6766.339
 30
-1236.000
 70
    32
  0
VERTEX
  8
T65SSILL
 62
13
 10
1355.714
 20
-6766.513
 30
-1236.000
 70
    32
  0
VERTEX
  8
T65SSILL
 62
13
 10
1355.862
 20
-6766.673
 30
-1236.000
 70
    32
  0
VERTEX
  8
T65SSILL
 62
13
 10
1356.022
 20
-6766.821
 30
-1236.000
 70
    32
  0
VERTEX
  8
T65SSILL
 62
13
 10
1356.195
 20
-6766.953
 30
-1236.000
 70
    32
  0
VERTEX
  8
T65SSILL
 62
13
 10
1356.379
 20
-6767.071
 30
-1236.000
 70
    32
  0
VERTEX
  8
T65SSILL
 62
13
 10
1356.573
 20
-6767.171
 30
-1236.000
 70
    32
  0
VERTEX
  8
T65SSILL
 62
13
 10
1356.774
 20
-6767.255
 30
-1236.000
 70
    32
  0
VERTEX
  8
T65SSILL
 62
13
 10
1356.982
 20
-6767.320
 30
-1236.000
 70
    32
  0
VERTEX
  8
T65SSILL
 62
13
 10
1357.195
 20
-6767.368
 30
-1236.000
 70
    32
  0
VERTEX
  8
T65SSILL
 62
13
 10
1357.411
 20
-6767.396
 30
-1236.000
 70
    32
  0
VERTEX
  8
T65SSILL
 62
13
 10
1357.629
 20
-6767.406
 30
-1236.000
 70
    32
  0
VERTEX
  8
T65SSILL
 62
13
 10
1357.847
 20
-6767.396
 30
-1236.000
 70
    32
  0
VERTEX
  8
T65SSILL
 62
13
 10
1358.063
 20
-6767.368
 30
-1236.000
 70
    32
  0
VERTEX
  8
T65SSILL
 62
13
 10
1358.276
 20
-6767.320
 30
-1236.000
 70
    32
  0
VERTEX
  8
T65SSILL
 62
13
 10
1358.484
 20
-6767.255
 30
-1236.000
 70
    32
  0
VERTEX
  8
T65SSILL
 62
13
 10
1358.686
 20
-6767.171
 30
-1236.000
 70
    32
  0
VERTEX
  8
T65SSILL
 62
13
 10
1358.879
 20
-6767.071
 30
-1236.000
 70
    32
  0
VERTEX
  8
T65SSILL
 62
13
 10
1359.063
 20
-6766.953
 30
-1236.000
 70
    32
  0
VERTEX
  8
T65SSILL
 62
13
 10
1359.236
 20
-6766.821
 30
-1236.000
 70
    32
  0
VERTEX
  8
T65SSILL
 62
13
 10
1359.397
 20
-6766.673
 30
-1236.000
 70
    32
  0
VERTEX
  8
T65SSILL
 62
13
 10
1359.544
 20
-6766.513
 30
-1236.000
 70
    32
  0
VERTEX
  8
T65SSILL
 62
13
 10
1359.677
 20
-6766.339
 30
-1236.000
 70
    32
  0
VERTEX
  8
T65SSILL
 62
13
 10
1359.794
 20
-6766.156
 30
-1236.000
 70
    32
  0
VERTEX
  8
T65SSILL
 62
13
 10
1359.895
 20
-6765.962
 30
-1236.000
 70
    32
  0
VERTEX
  8
T65SSILL
 62
13
 10
1359.979
 20
-6765.761
 30
-1236.000
 70
    32
  0
VERTEX
  8
T65SSILL
 62
13
 10
1360.044
 20
-6765.553
 30
-1236.000
 70
    32
  0
VERTEX
  8
T65SSILL
 62
13
 10
1360.091
 20
-6765.340
 30
-1236.000
 70
    32
  0
VERTEX
  8
T65SSILL
 62
13
 10
1360.120
 20
-6765.123
 30
-1236.000
 70
    32
  0
VERTEX
  8
T65SSILL
 62
13
 10
1360.129
 20
-6764.906
 30
-1236.000
 70
    32
  0
SEQEND
  8
T65SSILL
  0
LINE
  8
T65SSILL
 62
13
 10
1355.128
 20
-6764.930
 30
-1236.000
 11
1360.072
 21
-6764.930
 31
-1236.000
  0
LINE
  8
T65SSILL
 62
13
 10
1357.426
 20
-6767.377
 30
-1236.000
 11
1357.426
 21
-6762.450
 31
-1236.000
  0
POLYLINE
  8
T65SSILL
 62
3
 66
     1
 70
     8
  0
VERTEX
  8
T65SSILL
 62
3
 10
1223.514
 20
-6890.888
 30
-1237.000
 70
    32
  0
VERTEX
  8
T65SSILL
 62
3
 10
1228.429
 20
-6897.511
 30
-1237.000
 70
    32
  0
VERTEX
  8
T65SSILL
 62
3
 10
1238.156
 20
-6892.079
 30
-1237.000
 70
    32
  0
VERTEX
  8
T65SSILL
 62
3
 10
1233.684
 20
-6885.460
 30
-1237.000
 70
    32
  0
SEQEND
  8
T65SSILL
  0
TEXT
  8
T65SSILL
 62
3
 10
1220.992
 20
-6934.232
 30
-1224.598
 40
8.202
  1
D
 41
 1.0 
  0
POLYLINE
  8
T65SSILL
 62
13
 66
     1
 70
     9
  0
VERTEX
  8
T65SSILL
 62
13
 10
7331.621
 20
-8351.034
 30
-1255.712
 70
    32
  0
VERTEX
  8
T65SSILL
 62
13
 10
7328.707
 20
-8366.359
 30
-1255.749
 70
    32
  0
VERTEX
  8
T65SSILL
 62
13
 10
7330.011
 20
-8369.743
 30
-1255.733
 70
    32
  0
VERTEX
  8
T65SSILL
 62
13
 10
7317.578
 20
-8383.707
 30
-1255.795
 70
    32
  0
VERTEX
  8
T65SSILL
 62
13
 10
7310.007
 20
-8386.889
 30
-1255.808
 70
    32
  0
VERTEX
  8
T65SSILL
 62
13
 10
7306.116
 20
-8393.115
 30
-1255.825
 70
    32
  0
VERTEX
  8
T65SSILL
 62
13
 10
7227.553
 20
-8664.699
 30
-1255.756
 70
    32
  0
VERTEX
  8
T65SSILL
 62
13
 10
7240.757
 20
-8660.224
 30
-1255.663
 70
    32
  0
VERTEX
  8
T65SSILL
 62
13
 10
7301.356
 20
-8616.022
 30
-1255.298
 70
    32
  0
VERTEX
  8
T65SSILL
 62
13
 10
7296.185
 20
-8605.683
 30
-1255.367
 70
    32
  0
VERTEX
  8
T65SSILL
 62
13
 10
7301.135
 20
-8597.982
 30
-1255.348
 70
    32
  0
VERTEX
  8
T65SSILL
 62
13
 10
7301.492
 20
-8589.229
 30
-1255.369
 70
    32
  0
VERTEX
  8
T65SSILL
 62
13
 10
7305.165
 20
-8585.642
 30
-1255.349
 70
    32
  0
VERTEX
  8
T65SSILL
 62
13
 10
7310.336
 20
-8582.129
 30
-1255.317
 70
    32
  0
VERTEX
  8
T65SSILL
 62
13
 10
7314.205
 20
-8582.059
 30
-1255.287
 70
    32
  0
VERTEX
  8
T65SSILL
 62
13
 10
7330.832
 20
-8595.382
 30
-1255.118
 70
    32
  0
VERTEX
  8
T65SSILL
 62
13
 10
7391.779
 20
-8551.504
 30
-1254.750
 70
    32
  0
VERTEX
  8
T65SSILL
 62
13
 10
7393.310
 20
-8543.172
 30
-1254.760
 70
    32
  0
VERTEX
  8
T65SSILL
 62
13
 10
7396.246
 20
-8539.056
 30
-1254.747
 70
    32
  0
VERTEX
  8
T65SSILL
 62
13
 10
7393.091
 20
-8521.619
 30
-1254.820
 70
    32
  0
VERTEX
  8
T65SSILL
 62
13
 10
7400.642
 20
-8522.738
 30
-1254.756
 70
    32
  0
VERTEX
  8
T65SSILL
 62
13
 10
7404.216
 20
-8532.173
 30
-1254.702
 70
    32
  0
VERTEX
  8
T65SSILL
 62
13
 10
7407.413
 20
-8535.640
 30
-1254.667
 70
    32
  0
VERTEX
  8
T65SSILL
 62
13
 10
7410.531
 20
-8535.632
 30
-1254.643
 70
    32
  0
VERTEX
  8
T65SSILL
 62
13
 10
7422.231
 20
-8529.623
 30
-1254.565
 70
    32
  0
VERTEX
  8
T65SSILL
 62
13
 10
7425.560
 20
-8534.198
 30
-1254.526
 70
    32
  0
VERTEX
  8
T65SSILL
 62
13
 10
7414.816
 20
-8543.267
 30
-1254.588
 70
    32
  0
VERTEX
  8
T65SSILL
 62
13
 10
7412.835
 20
-8552.299
 30
-1254.579
 70
    32
  0
VERTEX
  8
T65SSILL
 62
13
 10
7420.040
 20
-8563.434
 30
-1254.492
 70
    32
  0
VERTEX
  8
T65SSILL
 62
13
 10
7412.517
 20
-8571.472
 30
-1254.530
 70
    32
  0
VERTEX
  8
T65SSILL
 62
13
 10
7412.856
 20
-8591.212
 30
-1254.474
 70
    32
  0
VERTEX
  8
T65SSILL
 62
13
 10
7408.965
 20
-8600.950
 30
-1254.479
 70
    32
  0
VERTEX
  8
T65SSILL
 62
13
 10
7403.941
 20
-8601.467
 30
-1254.518
 70
    32
  0
VERTEX
  8
T65SSILL
 62
13
 10
7400.986
 20
-8604.715
 30
-1254.532
 70
    32
  0
VERTEX
  8
T65SSILL
 62
13
 10
7399.852
 20
-8616.371
 30
-1254.510
 70
    32
  0
VERTEX
  8
T65SSILL
 62
13
 10
7397.259
 20
-8619.350
 30
-1254.523
 70
    32
  0
VERTEX
  8
T65SSILL
 62
13
 10
7397.544
 20
-8627.605
 30
-1254.498
 70
    32
  0
VERTEX
  8
T65SSILL
 62
13
 10
7381.441
 20
-8634.618
 30
-1254.608
 70
    32
  0
VERTEX
  8
T65SSILL
 62
13
 10
7363.098
 20
-8623.861
 30
-1254.783
 70
    32
  0
VERTEX
  8
T65SSILL
 62
13
 10
7364.324
 20
-8615.088
 30
-1254.797
 70
    32
  0
VERTEX
  8
T65SSILL
 62
13
 10
7383.678
 20
-8614.345
 30
-1254.645
 70
    32
  0
VERTEX
  8
T65SSILL
 62
13
 10
7384.183
 20
-8607.766
 30
-1254.658
 70
    32
  0
VERTEX
  8
T65SSILL
 62
13
 10
7381.649
 20
-8604.669
 30
-1254.687
 70
    32
  0
VERTEX
  8
T65SSILL
 62
13
 10
7368.208
 20
-8602.232
 30
-1254.801
 70
    32
  0
VERTEX
  8
T65SSILL
 62
13
 10
7366.014
 20
-8592.829
 30
-1254.844
 70
    32
  0
VERTEX
  8
T65SSILL
 62
13
 10
7374.466
 20
-8587.378
 30
-1254.791
 70
    32
  0
VERTEX
  8
T65SSILL
 62
13
 10
7380.314
 20
-8580.131
 30
-1254.764
 70
    32
  0
VERTEX
  8
T65SSILL
 62
13
 10
7376.529
 20
-8571.284
 30
-1254.818
 70
    32
  0
VERTEX
  8
T65SSILL
 62
13
 10
7320.931
 20
-8610.785
 30
-1255.155
 70
    32
  0
VERTEX
  8
T65SSILL
 62
13
 10
7315.238
 20
-8626.836
 30
-1255.158
 70
    32
  0
VERTEX
  8
T65SSILL
 62
13
 10
7306.872
 20
-8637.222
 30
-1255.196
 70
    32
  0
VERTEX
  8
T65SSILL
 62
13
 10
7303.184
 20
-8639.743
 30
-1255.219
 70
    32
  0
VERTEX
  8
T65SSILL
 62
13
 10
7290.268
 20
-8633.252
 30
-1255.340
 70
    32
  0
VERTEX
  8
T65SSILL
 62
13
 10
7256.476
 20
-8657.977
 30
-1255.543
 70
    32
  0
VERTEX
  8
T65SSILL
 62
13
 10
7259.260
 20
-8670.906
 30
-1255.486
 70
    32
  0
VERTEX
  8
T65SSILL
 62
13
 10
7264.355
 20
-8675.916
 30
-1255.432
 70
    32
  0
VERTEX
  8
T65SSILL
 62
13
 10
7263.928
 20
-8680.800
 30
-1255.422
 70
    32
  0
VERTEX
  8
T65SSILL
 62
13
 10
7265.717
 20
-8685.418
 30
-1255.395
 70
    32
  0
VERTEX
  8
T65SSILL
 62
13
 10
7261.218
 20
-8688.907
 30
-1255.422
 70
    32
  0
VERTEX
  8
T65SSILL
 62
13
 10
7252.760
 20
-8679.046
 30
-1255.516
 70
    32
  0
VERTEX
  8
T65SSILL
 62
13
 10
7248.654
 20
-8677.374
 30
-1255.553
 70
    32
  0
VERTEX
  8
T65SSILL
 62
13
 10
7239.912
 20
-8669.597
 30
-1255.644
 70
    32
  0
VERTEX
  8
T65SSILL
 62
13
 10
7223.127
 20
-8680.542
 30
-1255.749
 70
    32
  0
VERTEX
  8
T65SSILL
 62
13
 10
7219.263
 20
-8694.266
 30
-1255.742
 70
    32
  0
VERTEX
  8
T65SSILL
 62
13
 10
7222.233
 20
-8705.937
 30
-1255.687
 70
    32
  0
VERTEX
  8
T65SSILL
 62
13
 10
7206.475
 20
-8760.197
 30
-1255.667
 70
    32
  0
VERTEX
  8
T65SSILL
 62
13
 10
7212.234
 20
-8762.065
 30
-1255.616
 70
    32
  0
VERTEX
  8
T65SSILL
 62
13
 10
7213.884
 20
-8764.115
 30
-1255.597
 70
    32
  0
VERTEX
  8
T65SSILL
 62
13
 10
7211.407
 20
-8775.819
 30
-1255.585
 70
    32
  0
VERTEX
  8
T65SSILL
 62
13
 10
7202.264
 20
-8775.256
 30
-1255.660
 70
    32
  0
VERTEX
  8
T65SSILL
 62
13
 10
7197.166
 20
-8794.635
 30
-1255.648
 70
    32
  0
VERTEX
  8
T65SSILL
 62
13
 10
7217.028
 20
-8794.140
 30
-1255.491
 70
    32
  0
VERTEX
  8
T65SSILL
 62
13
 10
7220.613
 20
-8790.986
 30
-1255.471
 70
    32
  0
VERTEX
  8
T65SSILL
 62
13
 10
7223.278
 20
-8770.999
 30
-1255.503
 70
    32
  0
VERTEX
  8
T65SSILL
 62
13
 10
7228.233
 20
-8768.270
 30
-1255.471
 70
    32
  0
VERTEX
  8
T65SSILL
 62
13
 10
7237.177
 20
-8770.684
 30
-1255.393
 70
    32
  0
VERTEX
  8
T65SSILL
 62
13
 10
7234.289
 20
-8807.360
 30
-1255.317
 70
    32
  0
VERTEX
  8
T65SSILL
 62
13
 10
7221.088
 20
-8815.149
 30
-1255.402
 70
    32
  0
VERTEX
  8
T65SSILL
 62
13
 10
7215.080
 20
-8812.132
 30
-1255.458
 70
    32
  0
VERTEX
  8
T65SSILL
 62
13
 10
7215.187
 20
-8802.228
 30
-1255.484
 70
    32
  0
VERTEX
  8
T65SSILL
 62
13
 10
7204.672
 20
-8801.239
 30
-1255.570
 70
    32
  0
VERTEX
  8
T65SSILL
 62
13
 10
7195.974
 20
-8803.685
 30
-1255.633
 70
    32
  0
VERTEX
  8
T65SSILL
 62
13
 10
7188.176
 20
-8809.901
 30
-1255.679
 70
    32
  0
VERTEX
  8
T65SSILL
 62
13
 10
7183.496
 20
-8816.109
 30
-1255.699
 70
    32
  0
VERTEX
  8
T65SSILL
 62
13
 10
7178.590
 20
-8830.520
 30
-1255.700
 70
    32
  0
VERTEX
  8
T65SSILL
 62
13
 10
7171.261
 20
-8840.417
 30
-1255.732
 70
    32
  0
VERTEX
  8
T65SSILL
 62
13
 10
7162.470
 20
-8848.662
 30
-1255.780
 70
    32
  0
VERTEX
  8
T65SSILL
 62
13
 10
7150.118
 20
-8855.563
 30
-1255.860
 70
    32
  0
VERTEX
  8
T65SSILL
 62
13
 10
7162.240
 20
-8862.233
 30
-1255.745
 70
    32
  0
VERTEX
  8
T65SSILL
 62
13
 10
7175.505
 20
-8875.874
 30
-1255.602
 70
    32
  0
VERTEX
  8
T65SSILL
 62
13
 10
7178.267
 20
-8881.107
 30
-1255.566
 70
    32
  0
VERTEX
  8
T65SSILL
 62
13
 10
7188.850
 20
-8922.799
 30
-1255.369
 70
    32
  0
VERTEX
  8
T65SSILL
 62
13
 10
7193.614
 20
-8914.251
 30
-1255.354
 70
    32
  0
VERTEX
  8
T65SSILL
 62
13
 10
7194.937
 20
-8904.652
 30
-1255.369
 70
    32
  0
VERTEX
  8
T65SSILL
 62
13
 10
7190.656
 20
-8882.967
 30
-1255.462
 70
    32
  0
VERTEX
  8
T65SSILL
 62
13
 10
7174.502
 20
-8850.593
 30
-1255.678
 70
    32
  0
VERTEX
  8
T65SSILL
 62
13
 10
7173.399
 20
-8841.847
 30
-1255.711
 70
    32
  0
VERTEX
  8
T65SSILL
 62
13
 10
7176.753
 20
-8838.411
 30
-1255.693
 70
    32
  0
VERTEX
  8
T65SSILL
 62
13
 10
7180.252
 20
-8839.003
 30
-1255.664
 70
    32
  0
VERTEX
  8
T65SSILL
 62
13
 10
7214.522
 20
-8881.656
 30
-1255.275
 70
    32
  0
VERTEX
  8
T65SSILL
 62
13
 10
7220.525
 20
-8905.748
 30
-1255.162
 70
    32
  0
VERTEX
  8
T65SSILL
 62
13
 10
7216.624
 20
-8915.880
 30
-1255.166
 70
    32
  0
VERTEX
  8
T65SSILL
 62
13
 10
7220.472
 20
-8927.137
 30
-1255.105
 70
    32
  0
VERTEX
  8
T65SSILL
 62
13
 10
7218.123
 20
-8943.658
 30
-1255.079
 70
    32
  0
VERTEX
  8
T65SSILL
 62
13
 10
7208.728
 20
-8954.139
 30
-1255.126
 70
    32
  0
VERTEX
  8
T65SSILL
 62
13
 10
7208.593
 20
-8960.056
 30
-1255.111
 70
    32
  0
VERTEX
  8
T65SSILL
 62
13
 10
7200.586
 20
-8969.035
 30
-1255.150
 70
    32
  0
VERTEX
  8
T65SSILL
 62
13
 10
7230.056
 20
-9085.135
 30
-1254.602
 70
    32
  0
VERTEX
  8
T65SSILL
 62
13
 10
7223.013
 20
-9085.922
 30
-1254.656
 70
    32
  0
VERTEX
  8
T65SSILL
 62
13
 10
7212.975
 20
-9046.663
 30
-1254.842
 70
    32
  0
VERTEX
  8
T65SSILL
 62
13
 10
7205.529
 20
-9056.517
 30
-1254.875
 70
    32
  0
VERTEX
  8
T65SSILL
 62
13
 10
7195.548
 20
-9063.275
 30
-1254.936
 70
    32
  0
VERTEX
  8
T65SSILL
 62
13
 10
6998.979
 20
-9113.300
 30
-1255.128
 70
    32
  0
VERTEX
  8
T65SSILL
 62
13
 10
6994.492
 20
-9119.710
 30
-1255.107
 70
    32
  0
VERTEX
  8
T65SSILL
 62
13
 10
6986.280
 20
-9125.048
 30
-1255.090
 70
    32
  0
VERTEX
  8
T65SSILL
 62
13
 10
6983.177
 20
-9120.952
 30
-1255.105
 70
    32
  0
VERTEX
  8
T65SSILL
 62
13
 10
6987.812
 20
-9108.034
 30
-1255.149
 70
    32
  0
VERTEX
  8
T65SSILL
 62
13
 10
7188.673
 20
-9058.422
 30
-1255.004
 70
    32
  0
VERTEX
  8
T65SSILL
 62
13
 10
7194.240
 20
-9056.576
 30
-1254.965
 70
    32
  0
VERTEX
  8
T65SSILL
 62
13
 10
7203.455
 20
-9048.814
 30
-1254.912
 70
    32
  0
VERTEX
  8
T65SSILL
 62
13
 10
7208.837
 20
-9036.031
 30
-1254.904
 70
    32
  0
VERTEX
  8
T65SSILL
 62
13
 10
7208.203
 20
-9027.453
 30
-1254.932
 70
    32
  0
VERTEX
  8
T65SSILL
 62
13
 10
7172.508
 20
-8887.921
 30
-1255.593
 70
    32
  0
VERTEX
  8
T65SSILL
 62
13
 10
7170.413
 20
-8882.862
 30
-1255.624
 70
    32
  0
VERTEX
  8
T65SSILL
 62
13
 10
7162.928
 20
-8873.614
 30
-1255.709
 70
    32
  0
VERTEX
  8
T65SSILL
 62
13
 10
7150.809
 20
-8865.090
 30
-1255.828
 70
    32
  0
VERTEX
  8
T65SSILL
 62
13
 10
7137.228
 20
-8860.084
 30
-1255.950
 70
    32
  0
VERTEX
  8
T65SSILL
 62
13
 10
7070.823
 20
-8864.689
 30
-1255.982
 70
    32
  0
VERTEX
  8
T65SSILL
 62
13
 10
7077.677
 20
-8872.186
 30
-1255.987
 70
    32
  0
VERTEX
  8
T65SSILL
 62
13
 10
7082.932
 20
-8882.290
 30
-1255.992
 70
    32
  0
VERTEX
  8
T65SSILL
 62
13
 10
7087.479
 20
-8883.657
 30
-1256.012
 70
    32
  0
VERTEX
  8
T65SSILL
 62
13
 10
7088.278
 20
-8893.620
 30
-1255.994
 70
    32
  0
VERTEX
  8
T65SSILL
 62
13
 10
7084.078
 20
-8896.390
 30
-1255.966
 70
    32
  0
VERTEX
  8
T65SSILL
 62
13
 10
7086.479
 20
-8925.947
 30
-1255.911
 70
    32
  0
VERTEX
  8
T65SSILL
 62
13
 10
7104.894
 20
-8914.362
 30
-1256.033
 70
    32
  0
VERTEX
  8
T65SSILL
 62
13
 10
7110.902
 20
-8912.210
 30
-1256.020
 70
    32
  0
VERTEX
  8
T65SSILL
 62
13
 10
7114.532
 20
-8912.253
 30
-1255.991
 70
    32
  0
VERTEX
  8
T65SSILL
 62
13
 10
7121.112
 20
-8917.928
 30
-1255.923
 70
    32
  0
VERTEX
  8
T65SSILL
 62
13
 10
7124.499
 20
-8923.451
 30
-1255.881
 70
    32
  0
VERTEX
  8
T65SSILL
 62
13
 10
7122.562
 20
-8930.511
 30
-1255.878
 70
    32
  0
VERTEX
  8
T65SSILL
 62
13
 10
7109.746
 20
-8947.386
 30
-1255.934
 70
    32
  0
VERTEX
  8
T65SSILL
 62
13
 10
7095.078
 20
-8962.404
 30
-1255.873
 70
    32
  0
VERTEX
  8
T65SSILL
 62
13
 10
7089.599
 20
-8964.347
 30
-1255.841
 70
    32
  0
VERTEX
  8
T65SSILL
 62
13
 10
7093.320
 20
-9010.156
 30
-1255.756
 70
    32
  0
VERTEX
  8
T65SSILL
 62
13
 10
7086.089
 20
-9010.544
 30
-1255.718
 70
    32
  0
VERTEX
  8
T65SSILL
 62
13
 10
7082.541
 20
-8965.591
 30
-1255.801
 70
    32
  0
VERTEX
  8
T65SSILL
 62
13
 10
7067.811
 20
-8967.466
 30
-1255.720
 70
    32
  0
VERTEX
  8
T65SSILL
 62
13
 10
7046.574
 20
-8964.220
 30
-1255.639
 70
    32
  0
VERTEX
  8
T65SSILL
 62
13
 10
7040.948
 20
-8954.778
 30
-1255.673
 70
    32
  0
VERTEX
  8
T65SSILL
 62
13
 10
7039.400
 20
-8946.534
 30
-1255.703
 70
    32
  0
VERTEX
  8
T65SSILL
 62
13
 10
7055.953
 20
-8938.821
 30
-1255.726
 70
    32
  0
VERTEX
  8
T65SSILL
 62
13
 10
7079.764
 20
-8930.395
 30
-1255.866
 70
    32
  0
VERTEX
  8
T65SSILL
 62
13
 10
7078.162
 20
-8910.107
 30
-1255.904
 70
    32
  0
VERTEX
  8
T65SSILL
 62
13
 10
7067.325
 20
-8896.971
 30
-1255.877
 70
    32
  0
VERTEX
  8
T65SSILL
 62
13
 10
7067.357
 20
-8886.908
 30
-1255.905
 70
    32
  0
VERTEX
  8
T65SSILL
 62
13
 10
7075.003
 20
-8883.174
 30
-1255.948
 70
    32
  0
VERTEX
  8
T65SSILL
 62
13
 10
7074.051
 20
-8880.628
 30
-1255.949
 70
    32
  0
VERTEX
  8
T65SSILL
 62
13
 10
7064.173
 20
-8868.998
 30
-1255.968
 70
    32
  0
VERTEX
  8
T65SSILL
 62
13
 10
7053.473
 20
-8865.755
 30
-1255.982
 70
    32
  0
VERTEX
  8
T65SSILL
 62
13
 10
6906.313
 20
-8876.559
 30
-1255.947
 70
    32
  0
VERTEX
  8
T65SSILL
 62
13
 10
6749.876
 20
-8888.045
 30
-1259.133
 70
    32
  0
VERTEX
  8
T65SSILL
 62
13
 10
6742.450
 20
-8895.256
 30
-1259.245
 70
    32
  0
VERTEX
  8
T65SSILL
 62
13
 10
6710.207
 20
-8897.008
 30
-1259.906
 70
    32
  0
VERTEX
  8
T65SSILL
 62
13
 10
6709.947
 20
-8891.082
 30
-1259.945
 70
    32
  0
VERTEX
  8
T65SSILL
 62
13
 10
6336.514
 20
-8917.813
 30
-1267.554
 70
    32
  0
VERTEX
  8
T65SSILL
 62
13
 10
6120.494
 20
-8931.611
 30
-1264.120
 70
    32
  0
VERTEX
  8
T65SSILL
 62
13
 10
6104.907
 20
-8930.617
 30
-1263.862
 70
    32
  0
VERTEX
  8
T65SSILL
 62
13
 10
6082.273
 20
-8925.979
 30
-1263.481
 70
    32
  0
VERTEX
  8
T65SSILL
 62
13
 10
6066.100
 20
-8918.323
 30
-1263.198
 70
    32
  0
VERTEX
  8
T65SSILL
 62
13
 10
6042.416
 20
-8900.385
 30
-1262.769
 70
    32
  0
VERTEX
  8
T65SSILL
 62
13
 10
6045.759
 20
-8929.224
 30
-1262.890
 70
    32
  0
VERTEX
  8
T65SSILL
 62
13
 10
6041.774
 20
-8954.937
 30
-1262.884
 70
    32
  0
VERTEX
  8
T65SSILL
 62
13
 10
6034.794
 20
-8971.923
 30
-1262.809
 70
    32
  0
VERTEX
  8
T65SSILL
 62
13
 10
6023.959
 20
-8988.605
 30
-1262.670
 70
    32
  0
VERTEX
  8
T65SSILL
 62
13
 10
5714.876
 20
-9352.599
 30
-1258.446
 70
    32
  0
VERTEX
  8
T65SSILL
 62
13
 10
5445.476
 20
-9669.390
 30
-1257.165
 70
    32
  0
VERTEX
  8
T65SSILL
 62
13
 10
5442.441
 20
-9689.425
 30
-1257.098
 70
    32
  0
VERTEX
  8
T65SSILL
 62
13
 10
5451.542
 20
-9731.749
 30
-1256.969
 70
    32
  0
VERTEX
  8
T65SSILL
 62
13
 10
5543.292
 20
-9859.597
 30
-1256.497
 70
    32
  0
VERTEX
  8
T65SSILL
 62
13
 10
5547.523
 20
-9856.725
 30
-1256.517
 70
    32
  0
VERTEX
  8
T65SSILL
 62
13
 10
5552.104
 20
-9862.772
 30
-1256.371
 70
    32
  0
VERTEX
  8
T65SSILL
 62
13
 10
5548.329
 20
-9866.292
 30
-1256.336
 70
    32
  0
VERTEX
  8
T65SSILL
 62
13
 10
6269.082
 20
-10869.849
 30
-1253.703
 70
    32
  0
VERTEX
  8
T65SSILL
 62
13
 10
6275.745
 20
-10864.641
 30
-1253.713
 70
    32
  0
VERTEX
  8
T65SSILL
 62
13
 10
6279.975
 20
-10870.374
 30
-1253.697
 70
    32
  0
VERTEX
  8
T65SSILL
 62
13
 10
6273.477
 20
-10875.253
 30
-1253.688
 70
    32
  0
VERTEX
  8
T65SSILL
 62
13
 10
6287.220
 20
-10884.179
 30
-1253.660
 70
    32
  0
VERTEX
  8
T65SSILL
 62
13
 10
6297.747
 20
-10887.820
 30
-1253.647
 70
    32
  0
VERTEX
  8
T65SSILL
 62
13
 10
6304.947
 20
-10888.112
 30
-1253.642
 70
    32
  0
VERTEX
  8
T65SSILL
 62
13
 10
6318.809
 20
-10886.472
 30
-1253.640
 70
    32
  0
VERTEX
  8
T65SSILL
 62
13
 10
6325.462
 20
-10883.782
 30
-1253.643
 70
    32
  0
VERTEX
  8
T65SSILL
 62
13
 10
6705.520
 20
-10610.605
 30
-1252.342
 70
    32
  0
VERTEX
  8
T65SSILL
 62
13
 10
6704.375
 20
-10601.293
 30
-1252.236
 70
    32
  0
VERTEX
  8
T65SSILL
 62
13
 10
6739.565
 20
-10577.588
 30
-1252.107
 70
    32
  0
VERTEX
  8
T65SSILL
 62
13
 10
6738.037
 20
-10477.610
 30
-1251.009
 70
    32
  0
VERTEX
  8
T65SSILL
 62
13
 10
6732.741
 20
-10469.677
 30
-1250.903
 70
    32
  0
VERTEX
  8
T65SSILL
 62
13
 10
6736.179
 20
-10467.647
 30
-1250.893
 70
    32
  0
VERTEX
  8
T65SSILL
 62
13
 10
6738.133
 20
-10462.319
 30
-1250.842
 70
    32
  0
VERTEX
  8
T65SSILL
 62
13
 10
6738.319
 20
-10364.915
 30
-1250.782
 70
    32
  0
VERTEX
  8
T65SSILL
 62
13
 10
6733.641
 20
-10358.393
 30
-1250.841
 70
    32
  0
VERTEX
  8
T65SSILL
 62
13
 10
6737.991
 20
-10349.501
 30
-1250.855
 70
    32
  0
VERTEX
  8
T65SSILL
 62
13
 10
6737.907
 20
-10244.690
 30
-1251.492
 70
    32
  0
VERTEX
  8
T65SSILL
 62
13
 10
6733.514
 20
-10242.365
 30
-1251.597
 70
    32
  0
VERTEX
  8
T65SSILL
 62
13
 10
6733.601
 20
-10240.425
 30
-1251.606
 70
    32
  0
VERTEX
  8
T65SSILL
 62
13
 10
6738.589
 20
-10235.466
 30
-1251.531
 70
    32
  0
VERTEX
  8
T65SSILL
 62
13
 10
6737.992
 20
-10211.764
 30
-1251.681
 70
    32
  0
VERTEX
  8
T65SSILL
 62
13
 10
6745.240
 20
-10211.283
 30
-1251.534
 70
    32
  0
VERTEX
  8
T65SSILL
 62
13
 10
6745.285
 20
-10226.027
 30
-1251.447
 70
    32
  0
VERTEX
  8
T65SSILL
 62
13
 10
6750.299
 20
-10234.171
 30
-1251.295
 70
    32
  0
VERTEX
  8
T65SSILL
 62
13
 10
6745.363
 20
-10238.760
 30
-1251.371
 70
    32
  0
VERTEX
  8
T65SSILL
 62
13
 10
6745.096
 20
-10345.599
 30
-1250.918
 70
    32
  0
VERTEX
  8
T65SSILL
 62
13
 10
6749.898
 20
-10353.462
 30
-1250.971
 70
    32
  0
VERTEX
  8
T65SSILL
 62
13
 10
6744.648
 20
-10362.477
 30
-1250.829
 70
    32
  0
VERTEX
  8
T65SSILL
 62
13
 10
6745.361
 20
-10457.994
 30
-1250.822
 70
    32
  0
VERTEX
  8
T65SSILL
 62
13
 10
6748.043
 20
-10459.950
 30
-1250.853
 70
    32
  0
VERTEX
  8
T65SSILL
 62
13
 10
6749.792
 20
-10464.481
 30
-1250.909
 70
    32
  0
VERTEX
  8
T65SSILL
 62
13
 10
6744.876
 20
-10471.592
 30
-1250.968
 70
    32
  0
VERTEX
  8
T65SSILL
 62
13
 10
6746.210
 20
-10572.928
 30
-1252.080
 70
    32
  0
VERTEX
  8
T65SSILL
 62
13
 10
6756.682
 20
-10566.166
 30
-1252.045
 70
    32
  0
VERTEX
  8
T65SSILL
 62
13
 10
6761.536
 20
-10571.895
 30
-1252.125
 70
    32
  0
VERTEX
  8
T65SSILL
 62
13
 10
6895.897
 20
-10476.504
 30
-1251.405
 70
    32
  0
VERTEX
  8
T65SSILL
 62
13
 10
6899.816
 20
-10482.604
 30
-1251.411
 70
    32
  0
VERTEX
  8
T65SSILL
 62
13
 10
6802.492
 20
-10552.275
 30
-1251.739
 70
    32
  0
VERTEX
  8
T65SSILL
 62
13
 10
6819.635
 20
-10553.517
 30
-1251.629
 70
    32
  0
VERTEX
  8
T65SSILL
 62
13
 10
6833.941
 20
-10559.645
 30
-1251.607
 70
    32
  0
VERTEX
  8
T65SSILL
 62
13
 10
6848.023
 20
-10572.228
 30
-1251.776
 70
    32
  0
VERTEX
  8
T65SSILL
 62
13
 10
6865.851
 20
-10596.554
 30
-1251.864
 70
    32
  0
VERTEX
  8
T65SSILL
 62
13
 10
6879.080
 20
-10599.191
 30
-1251.862
 70
    32
  0
VERTEX
  8
T65SSILL
 62
13
 10
6898.373
 20
-10599.038
 30
-1251.848
 70
    32
  0
VERTEX
  8
T65SSILL
 62
13
 10
6898.012
 20
-10585.635
 30
-1251.797
 70
    32
  0
VERTEX
  8
T65SSILL
 62
13
 10
6906.656
 20
-10561.168
 30
-1251.694
 70
    32
  0
VERTEX
  8
T65SSILL
 62
13
 10
6912.277
 20
-10553.528
 30
-1251.659
 70
    32
  0
VERTEX
  8
T65SSILL
 62
13
 10
6915.471
 20
-10556.313
 30
-1251.667
 70
    32
  0
VERTEX
  8
T65SSILL
 62
13
 10
6930.817
 20
-10587.907
 30
-1251.775
 70
    32
  0
VERTEX
  8
T65SSILL
 62
13
 10
6930.221
 20
-10593.427
 30
-1251.797
 70
    32
  0
VERTEX
  8
T65SSILL
 62
13
 10
6931.794
 20
-10598.752
 30
-1251.816
 70
    32
  0
VERTEX
  8
T65SSILL
 62
13
 10
6935.216
 20
-10601.254
 30
-1251.823
 70
    32
  0
VERTEX
  8
T65SSILL
 62
13
 10
6942.703
 20
-10643.382
 30
-1251.947
 70
    32
  0
VERTEX
  8
T65SSILL
 62
13
 10
6941.586
 20
-10661.425
 30
-1252.000
 70
    32
  0
VERTEX
  8
T65SSILL
 62
13
 10
6945.949
 20
-10671.933
 30
-1252.028
 70
    32
  0
VERTEX
  8
T65SSILL
 62
13
 10
6939.108
 20
-10674.865
 30
-1252.041
 70
    32
  0
VERTEX
  8
T65SSILL
 62
13
 10
6936.711
 20
-10677.547
 30
-1252.050
 70
    32
  0
VERTEX
  8
T65SSILL
 62
13
 10
6936.579
 20
-10691.321
 30
-1252.090
 70
    32
  0
VERTEX
  8
T65SSILL
 62
13
 10
6941.487
 20
-10700.647
 30
-1252.114
 70
    32
  0
VERTEX
  8
T65SSILL
 62
13
 10
6941.242
 20
-10702.817
 30
-1252.120
 70
    32
  0
VERTEX
  8
T65SSILL
 62
13
 10
6957.393
 20
-10724.322
 30
-1252.164
 70
    32
  0
VERTEX
  8
T65SSILL
 62
13
 10
6959.702
 20
-10723.580
 30
-1252.160
 70
    32
  0
VERTEX
  8
T65SSILL
 62
13
 10
6961.541
 20
-10703.121
 30
-1252.104
 70
    32
  0
VERTEX
  8
T65SSILL
 62
13
 10
6965.368
 20
-10702.343
 30
-1252.099
 70
    32
  0
VERTEX
  8
T65SSILL
 62
13
 10
6972.477
 20
-10705.495
 30
-1252.101
 70
    32
  0
VERTEX
  8
T65SSILL
 62
13
 10
6977.845
 20
-10715.580
 30
-1252.124
 70
    32
  0
VERTEX
  8
T65SSILL
 62
13
 10
6980.639
 20
-10727.817
 30
-1252.154
 70
    32
  0
VERTEX
  8
T65SSILL
 62
13
 10
6979.498
 20
-10735.402
 30
-1252.175
 70
    32
  0
VERTEX
  8
T65SSILL
 62
13
 10
6985.724
 20
-10765.132
 30
-1252.249
 70
    32
  0
VERTEX
  8
T65SSILL
 62
13
 10
6991.192
 20
-10765.217
 30
-1252.245
 70
    32
  0
VERTEX
  8
T65SSILL
 62
13
 10
6992.238
 20
-10774.246
 30
-1252.268
 70
    32
  0
VERTEX
  8
T65SSILL
 62
13
 10
7042.580
 20
-10844.070
 30
-1252.413
 70
    32
  0
VERTEX
  8
T65SSILL
 62
13
 10
7046.936
 20
-10843.556
 30
-1252.408
 70
    32
  0
VERTEX
  8
T65SSILL
 62
13
 10
7048.141
 20
-10852.356
 30
-1252.430
 70
    32
  0
VERTEX
  8
T65SSILL
 62
13
 10
7058.467
 20
-10866.105
 30
-1252.435
 70
    32
  0
VERTEX
  8
T65SSILL
 62
13
 10
7052.314
 20
-10869.513
 30
-1252.431
 70
    32
  0
VERTEX
  8
T65SSILL
 62
13
 10
7041.935
 20
-10855.252
 30
-1252.439
 70
    32
  0
VERTEX
  8
T65SSILL
 62
13
 10
7032.886
 20
-10852.453
 30
-1252.439
 70
    32
  0
VERTEX
  8
T65SSILL
 62
13
 10
7036.304
 20
-10847.019
 30
-1252.426
 70
    32
  0
VERTEX
  8
T65SSILL
 62
13
 10
6986.526
 20
-10777.212
 30
-1252.281
 70
    32
  0
VERTEX
  8
T65SSILL
 62
13
 10
6978.147
 20
-10774.572
 30
-1252.281
 70
    32
  0
VERTEX
  8
T65SSILL
 62
13
 10
6974.974
 20
-10776.955
 30
-1252.290
 70
    32
  0
VERTEX
  8
T65SSILL
 62
13
 10
6972.831
 20
-10790.254
 30
-1252.327
 70
    32
  0
VERTEX
  8
T65SSILL
 62
13
 10
6977.032
 20
-10796.142
 30
-1252.339
 70
    32
  0
VERTEX
  8
T65SSILL
 62
13
 10
6979.068
 20
-10809.279
 30
-1252.373
 70
    32
  0
VERTEX
  8
T65SSILL
 62
13
 10
6977.519
 20
-10813.531
 30
-1252.386
 70
    32
  0
VERTEX
  8
T65SSILL
 62
13
 10
6971.297
 20
-10819.196
 30
-1252.406
 70
    32
  0
VERTEX
  8
T65SSILL
 62
13
 10
6965.584
 20
-10820.399
 30
-1252.414
 70
    32
  0
VERTEX
  8
T65SSILL
 62
13
 10
6963.102
 20
-10800.648
 30
-1252.363
 70
    32
  0
VERTEX
  8
T65SSILL
 62
13
 10
6961.602
 20
-10798.797
 30
-1252.359
 70
    32
  0
VERTEX
  8
T65SSILL
 62
13
 10
6956.664
 20
-10798.976
 30
-1252.364
 70
    32
  0
VERTEX
  8
T65SSILL
 62
13
 10
6946.126
 20
-10784.504
 30
-1252.334
 70
    32
  0
VERTEX
  8
T65SSILL
 62
13
 10
6947.794
 20
-10772.775
 30
-1252.302
 70
    32
  0
VERTEX
  8
T65SSILL
 62
13
 10
6956.883
 20
-10755.362
 30
-1252.247
 70
    32
  0
VERTEX
  8
T65SSILL
 62
13
 10
6964.108
 20
-10746.628
 30
-1252.218
 70
    32
  0
VERTEX
  8
T65SSILL
 62
13
 10
6937.225
 20
-10708.480
 30
-1252.139
 70
    32
  0
VERTEX
  8
T65SSILL
 62
13
 10
6932.113
 20
-10712.540
 30
-1252.154
 70
    32
  0
VERTEX
  8
T65SSILL
 62
13
 10
6931.441
 20
-10738.518
 30
-1252.224
 70
    32
  0
VERTEX
  8
T65SSILL
 62
13
 10
6927.320
 20
-10746.686
 30
-1252.249
 70
    32
  0
VERTEX
  8
T65SSILL
 62
13
 10
6923.696
 20
-10761.538
 30
-1252.292
 70
    32
  0
VERTEX
  8
T65SSILL
 62
13
 10
6925.204
 20
-10776.175
 30
-1252.330
 70
    32
  0
VERTEX
  8
T65SSILL
 62
13
 10
6928.455
 20
-10785.203
 30
-1252.351
 70
    32
  0
VERTEX
  8
T65SSILL
 62
13
 10
6931.217
 20
-10802.537
 30
-1252.395
 70
    32
  0
VERTEX
  8
T65SSILL
 62
13
 10
6930.532
 20
-10806.912
 30
-1252.407
 70
    32
  0
VERTEX
  8
T65SSILL
 62
13
 10
6926.778
 20
-10810.282
 30
-1252.419
 70
    32
  0
VERTEX
  8
T65SSILL
 62
13
 10
6916.960
 20
-10790.307
 30
-1252.374
 70
    32
  0
VERTEX
  8
T65SSILL
 62
13
 10
6903.995
 20
-10786.700
 30
-1252.375
 70
    32
  0
VERTEX
  8
T65SSILL
 62
13
 10
6902.177
 20
-10783.985
 30
-1252.370
 70
    32
  0
VERTEX
  8
T65SSILL
 62
13
 10
6898.315
 20
-10785.010
 30
-1252.376
 70
    32
  0
VERTEX
  8
T65SSILL
 62
13
 10
6866.415
 20
-10762.210
 30
-1252.341
 70
    32
  0
VERTEX
  8
T65SSILL
 62
13
 10
6857.053
 20
-10766.924
 30
-1252.362
 70
    32
  0
VERTEX
  8
T65SSILL
 62
13
 10
6845.262
 20
-10779.418
 30
-1252.405
 70
    32
  0
VERTEX
  8
T65SSILL
 62
13
 10
6830.663
 20
-10785.089
 30
-1252.432
 70
    32
  0
VERTEX
  8
T65SSILL
 62
13
 10
6819.712
 20
-10786.365
 30
-1252.439
 70
    32
  0
VERTEX
  8
T65SSILL
 62
13
 10
6819.805
 20
-10793.684
 30
-1252.437
 70
    32
  0
VERTEX
  8
T65SSILL
 62
13
 10
6884.796
 20
-10881.400
 30
-1252.473
 70
    32
  0
VERTEX
  8
T65SSILL
 62
13
 10
6887.724
 20
-10880.746
 30
-1252.464
 70
    32
  0
VERTEX
  8
T65SSILL
 62
13
 10
6893.531
 20
-10888.184
 30
-1252.466
 70
    32
  0
VERTEX
  8
T65SSILL
 62
13
 10
6901.957
 20
-10882.518
 30
-1252.433
 70
    32
  0
VERTEX
  8
T65SSILL
 62
13
 10
6906.936
 20
-10890.469
 30
-1252.438
 70
    32
  0
VERTEX
  8
T65SSILL
 62
13
 10
6897.982
 20
-10899.398
 30
-1252.469
 70
    32
  0
VERTEX
  8
T65SSILL
 62
13
 10
6941.793
 20
-10960.232
 30
-1252.419
 70
    32
  0
VERTEX
  8
T65SSILL
 62
13
 10
6955.328
 20
-10971.793
 30
-1252.378
 70
    32
  0
VERTEX
  8
T65SSILL
 62
13
 10
6954.361
 20
-10977.261
 30
-1252.364
 70
    32
  0
VERTEX
  8
T65SSILL
 62
13
 10
6959.869
 20
-10985.476
 30
-1252.337
 70
    32
  0
VERTEX
  8
T65SSILL
 62
13
 10
6952.271
 20
-10990.630
 30
-1252.329
 70
    32
  0
VERTEX
  8
T65SSILL
 62
13
 10
6948.140
 20
-10984.690
 30
-1252.348
 70
    32
  0
VERTEX
  8
T65SSILL
 62
13
 10
6936.412
 20
-10984.785
 30
-1252.357
 70
    32
  0
VERTEX
  8
T65SSILL
 62
13
 10
6923.828
 20
-10969.644
 30
-1252.407
 70
    32
  0
VERTEX
  8
T65SSILL
 62
13
 10
6920.526
 20
-10963.191
 30
-1252.427
 70
    32
  0
VERTEX
  8
T65SSILL
 62
13
 10
6926.040
 20
-10954.087
 30
-1252.447
 70
    32
  0
VERTEX
  8
T65SSILL
 62
13
 10
6890.966
 20
-10904.887
 30
-1252.480
 70
    32
  0
VERTEX
  8
T65SSILL
 62
13
 10
6887.369
 20
-10905.383
 30
-1252.485
 70
    32
  0
VERTEX
  8
T65SSILL
 62
13
 10
6881.685
 20
-10897.081
 30
-1252.489
 70
    32
  0
VERTEX
  8
T65SSILL
 62
13
 10
6882.600
 20
-10893.747
 30
-1252.487
 70
    32
  0
VERTEX
  8
T65SSILL
 62
13
 10
6817.872
 20
-10805.061
 30
-1252.468
 70
    32
  0
VERTEX
  8
T65SSILL
 62
13
 10
6808.978
 20
-10796.301
 30
-1252.470
 70
    32
  0
VERTEX
  8
T65SSILL
 62
13
 10
6799.116
 20
-10790.364
 30
-1252.481
 70
    32
  0
VERTEX
  8
T65SSILL
 62
13
 10
6780.560
 20
-10786.214
 30
-1252.518
 70
    32
  0
VERTEX
  8
T65SSILL
 62
13
 10
6508.699
 20
-10796.706
 30
-1253.132
 70
    32
  0
VERTEX
  8
T65SSILL
 62
13
 10
6516.435
 20
-10804.137
 30
-1253.090
 70
    32
  0
VERTEX
  8
T65SSILL
 62
13
 10
6525.631
 20
-10818.032
 30
-1253.035
 70
    32
  0
VERTEX
  8
T65SSILL
 62
13
 10
6547.125
 20
-10909.807
 30
-1252.855
 70
    32
  0
VERTEX
  8
T65SSILL
 62
13
 10
6554.807
 20
-10912.694
 30
-1252.841
 70
    32
  0
VERTEX
  8
T65SSILL
 62
13
 10
6561.206
 20
-10926.345
 30
-1252.800
 70
    32
  0
VERTEX
  8
T65SSILL
 62
13
 10
6565.106
 20
-10955.362
 30
-1252.719
 70
    32
  0
VERTEX
  8
T65SSILL
 62
13
 10
6577.095
 20
-10988.715
 30
-1252.620
 70
    32
  0
VERTEX
  8
T65SSILL
 62
13
 10
6577.199
 20
-11007.632
 30
-1252.569
 70
    32
  0
VERTEX
  8
T65SSILL
 62
13
 10
6572.236
 20
-11019.782
 30
-1252.540
 70
    32
  0
VERTEX
  8
T65SSILL
 62
13
 10
6576.008
 20
-11032.083
 30
-1252.505
 70
    32
  0
VERTEX
  8
T65SSILL
 62
13
 10
6567.386
 20
-11034.469
 30
-1252.505
 70
    32
  0
VERTEX
  8
T65SSILL
 62
13
 10
6564.150
 20
-11019.920
 30
-1252.546
 70
    32
  0
VERTEX
  8
T65SSILL
 62
13
 10
6557.110
 20
-11011.651
 30
-1252.574
 70
    32
  0
VERTEX
  8
T65SSILL
 62
13
 10
6553.308
 20
-10994.242
 30
-1252.623
 70
    32
  0
VERTEX
  8
T65SSILL
 62
13
 10
6547.272
 20
-10976.614
 30
-1252.675
 70
    32
  0
VERTEX
  8
T65SSILL
 62
13
 10
6544.009
 20
-10950.405
 30
-1252.748
 70
    32
  0
VERTEX
  8
T65SSILL
 62
13
 10
6538.399
 20
-10940.214
 30
-1252.791
 70
    32
  0
VERTEX
  8
T65SSILL
 62
13
 10
6543.705
 20
-10933.599
 30
-1252.794
 70
    32
  0
VERTEX
  8
T65SSILL
 62
13
 10
6520.759
 20
-10830.006
 30
-1253.047
 70
    32
  0
VERTEX
  8
T65SSILL
 62
13
 10
6517.501
 20
-10822.132
 30
-1253.069
 70
    32
  0
VERTEX
  8
T65SSILL
 62
13
 10
6507.935
 20
-10809.819
 30
-1253.124
 70
    32
  0
VERTEX
  8
T65SSILL
 62
13
 10
6496.629
 20
-10801.836
 30
-1253.184
 70
    32
  0
VERTEX
  8
T65SSILL
 62
13
 10
6485.582
 20
-10797.485
 30
-1253.239
 70
    32
  0
VERTEX
  8
T65SSILL
 62
13
 10
6467.465
 20
-10798.531
 30
-1253.323
 70
    32
  0
VERTEX
  8
T65SSILL
 62
13
 10
6447.256
 20
-10805.367
 30
-1253.409
 70
    32
  0
VERTEX
  8
T65SSILL
 62
13
 10
6322.868
 20
-10893.651
 30
-1253.620
 70
    32
  0
VERTEX
  8
T65SSILL
 62
13
 10
6305.170
 20
-10896.463
 30
-1253.622
 70
    32
  0
VERTEX
  8
T65SSILL
 62
13
 10
6285.332
 20
-10892.330
 30
-1253.642
 70
    32
  0
VERTEX
  8
T65SSILL
 62
13
 10
6379.531
 20
-11023.302
 30
-1253.232
 70
    32
  0
VERTEX
  8
T65SSILL
 62
13
 10
6386.847
 20
-11017.942
 30
-1253.216
 70
    32
  0
VERTEX
  8
T65SSILL
 62
13
 10
6390.844
 20
-11024.292
 30
-1253.184
 70
    32
  0
VERTEX
  8
T65SSILL
 62
13
 10
6383.542
 20
-11029.970
 30
-1253.200
 70
    32
  0
VERTEX
  8
T65SSILL
 62
13
 10
6689.791
 20
-11455.770
 30
-1251.843
 70
    32
  0
VERTEX
  8
T65SSILL
 62
13
 10
6683.493
 20
-11459.839
 30
-1251.835
 70
    32
  0
VERTEX
  8
T65SSILL
 62
13
 10
6547.460
 20
-11271.313
 30
-1251.866
 70
    32
  0
VERTEX
  8
T65SSILL
 62
13
 10
6539.147
 20
-11327.615
 30
-1251.575
 70
    32
  0
VERTEX
  8
T65SSILL
 62
13
 10
6522.771
 20
-11339.830
 30
-1251.474
 70
    32
  0
VERTEX
  8
T65SSILL
 62
13
 10
6515.217
 20
-11355.297
 30
-1251.408
 70
    32
  0
VERTEX
  8
T65SSILL
 62
13
 10
6496.446
 20
-11365.883
 30
-1251.298
 70
    32
  0
VERTEX
  8
T65SSILL
 62
13
 10
6479.359
 20
-11359.843
 30
-1251.229
 70
    32
  0
VERTEX
  8
T65SSILL
 62
13
 10
6471.765
 20
-11360.057
 30
-1251.192
 70
    32
  0
VERTEX
  8
T65SSILL
 62
13
 10
6470.736
 20
-11354.480
 30
-1251.198
 70
    32
  0
VERTEX
  8
T65SSILL
 62
13
 10
6439.745
 20
-11358.517
 30
-1251.043
 70
    32
  0
VERTEX
  8
T65SSILL
 62
13
 10
6430.360
 20
-11362.990
 30
-1250.990
 70
    32
  0
VERTEX
  8
T65SSILL
 62
13
 10
6384.723
 20
-11261.503
 30
-1250.438
 70
    32
  0
VERTEX
  8
T65SSILL
 62
13
 10
6375.901
 20
-11256.613
 30
-1250.366
 70
    32
  0
VERTEX
  8
T65SSILL
 62
13
 10
6360.909
 20
-11264.757
 30
-1250.292
 70
    32
  0
VERTEX
  8
T65SSILL
 62
13
 10
6350.043
 20
-11247.392
 30
-1250.499
 70
    32
  0
VERTEX
  8
T65SSILL
 62
13
 10
6365.463
 20
-11237.297
 30
-1250.371
 70
    32
  0
VERTEX
  8
T65SSILL
 62
13
 10
6364.419
 20
-11231.403
 30
-1250.412
 70
    32
  0
VERTEX
  8
T65SSILL
 62
13
 10
6372.697
 20
-11226.758
 30
-1250.340
 70
    32
  0
VERTEX
  8
T65SSILL
 62
13
 10
6404.545
 20
-11090.230
 30
-1252.659
 70
    32
  0
VERTEX
  8
T65SSILL
 62
13
 10
6398.224
 20
-11063.423
 30
-1252.980
 70
    32
  0
VERTEX
  8
T65SSILL
 62
13
 10
6079.818
 20
-10619.238
 30
-1254.383
 70
    32
  0
VERTEX
  8
T65SSILL
 62
13
 10
6068.296
 20
-10616.326
 30
-1254.340
 70
    32
  0
VERTEX
  8
T65SSILL
 62
13
 10
6055.415
 20
-10598.146
 30
-1254.392
 70
    32
  0
VERTEX
  8
T65SSILL
 62
13
 10
6058.302
 20
-10588.826
 30
-1254.470
 70
    32
  0
VERTEX
  8
T65SSILL
 62
13
 10
5869.692
 20
-10328.953
 30
-1255.026
 70
    32
  0
VERTEX
  8
T65SSILL
 62
13
 10
5868.346
 20
-10338.526
 30
-1254.994
 70
    32
  0
VERTEX
  8
T65SSILL
 62
13
 10
5865.147
 20
-10346.385
 30
-1254.963
 70
    32
  0
VERTEX
  8
T65SSILL
 62
13
 10
5857.409
 20
-10355.607
 30
-1254.920
 70
    32
  0
VERTEX
  8
T65SSILL
 62
13
 10
5795.188
 20
-10400.607
 30
-1254.426
 70
    32
  0
VERTEX
  8
T65SSILL
 62
13
 10
5791.106
 20
-10394.964
 30
-1254.443
 70
    32
  0
VERTEX
  8
T65SSILL
 62
13
 10
5806.183
 20
-10383.915
 30
-1254.633
 70
    32
  0
VERTEX
  8
T65SSILL
 62
13
 10
5800.541
 20
-10383.252
 30
-1254.589
 70
    32
  0
VERTEX
  8
T65SSILL
 62
13
 10
5793.563
 20
-10380.080
 30
-1254.569
 70
    32
  0
VERTEX
  8
T65SSILL
 62
13
 10
5781.729
 20
-10370.623
 30
-1254.595
 70
    32
  0
VERTEX
  8
T65SSILL
 62
13
 10
5625.277
 20
-10151.193
 30
-1255.116
 70
    32
  0
VERTEX
  8
T65SSILL
 62
13
 10
5631.000
 20
-10147.379
 30
-1255.139
 70
    32
  0
VERTEX
  8
T65SSILL
 62
13
 10
5673.433
 20
-10205.802
 30
-1255.037
 70
    32
  0
VERTEX
  8
T65SSILL
 62
13
 10
5692.181
 20
-10127.695
 30
-1255.317
 70
    32
  0
VERTEX
  8
T65SSILL
 62
13
 10
5686.854
 20
-10121.203
 30
-1255.327
 70
    32
  0
VERTEX
  8
T65SSILL
 62
13
 10
5695.076
 20
-10114.658
 30
-1255.363
 70
    32
  0
VERTEX
  8
T65SSILL
 62
13
 10
5698.797
 20
-10099.424
 30
-1255.418
 70
    32
  0
VERTEX
  8
T65SSILL
 62
13
 10
5698.253
 20
-10093.446
 30
-1255.436
 70
    32
  0
VERTEX
  8
T65SSILL
 62
13
 10
5694.734
 20
-10084.927
 30
-1255.455
 70
    32
  0
VERTEX
  8
T65SSILL
 62
13
 10
5648.868
 20
-10020.403
 30
-1255.570
 70
    32
  0
VERTEX
  8
T65SSILL
 62
13
 10
5647.717
 20
-10027.036
 30
-1255.547
 70
    32
  0
VERTEX
  8
T65SSILL
 62
13
 10
5643.053
 20
-10037.868
 30
-1255.504
 70
    32
  0
VERTEX
  8
T65SSILL
 62
13
 10
5629.623
 20
-10050.185
 30
-1255.440
 70
    32
  0
VERTEX
  8
T65SSILL
 62
13
 10
5665.754
 20
-10098.433
 30
-1255.358
 70
    32
  0
VERTEX
  8
T65SSILL
 62
13
 10
5682.461
 20
-10128.285
 30
-1255.297
 70
    32
  0
VERTEX
  8
T65SSILL
 62
13
 10
5673.185
 20
-10134.710
 30
-1255.259
 70
    32
  0
VERTEX
  8
T65SSILL
 62
13
 10
5660.525
 20
-10124.540
 30
-1255.267
 70
    32
  0
VERTEX
  8
T65SSILL
 62
13
 10
5635.510
 20
-10119.944
 30
-1255.233
 70
    32
  0
VERTEX
  8
T65SSILL
 62
13
 10
5606.157
 20
-10092.958
 30
-1255.262
 70
    32
  0
VERTEX
  8
T65SSILL
 62
13
 10
5599.583
 20
-10071.677
 30
-1255.316
 70
    32
  0
VERTEX
  8
T65SSILL
 62
13
 10
5590.973
 20
-10077.836
 30
-1255.280
 70
    32
  0
VERTEX
  8
T65SSILL
 62
13
 10
5598.726
 20
-10093.123
 30
-1255.247
 70
    32
  0
VERTEX
  8
T65SSILL
 62
13
 10
5612.574
 20
-10112.483
 30
-1255.213
 70
    32
  0
VERTEX
  8
T65SSILL
 62
13
 10
5621.791
 20
-10120.979
 30
-1255.204
 70
    32
  0
VERTEX
  8
T65SSILL
 62
13
 10
5622.680
 20
-10128.979
 30
-1255.181
 70
    32
  0
VERTEX
  8
T65SSILL
 62
13
 10
5630.991
 20
-10133.585
 30
-1255.182
 70
    32
  0
VERTEX
  8
T65SSILL
 62
13
 10
5631.113
 20
-10141.261
 30
-1255.158
 70
    32
  0
VERTEX
  8
T65SSILL
 62
13
 10
5627.165
 20
-10144.688
 30
-1255.140
 70
    32
  0
VERTEX
  8
T65SSILL
 62
13
 10
5620.975
 20
-10141.716
 30
-1255.138
 70
    32
  0
VERTEX
  8
T65SSILL
 62
13
 10
5613.526
 20
-10143.080
 30
-1255.119
 70
    32
  0
VERTEX
  8
T65SSILL
 62
13
 10
5582.552
 20
-10125.429
 30
-1255.115
 70
    32
  0
VERTEX
  8
T65SSILL
 62
13
 10
5560.438
 20
-10107.038
 30
-1255.131
 70
    32
  0
VERTEX
  8
T65SSILL
 62
13
 10
5552.977
 20
-10105.020
 30
-1255.123
 70
    32
  0
VERTEX
  8
T65SSILL
 62
13
 10
5491.463
 20
-10149.030
 30
-1254.618
 70
    32
  0
VERTEX
  8
T65SSILL
 62
13
 10
5488.123
 20
-10142.757
 30
-1254.616
 70
    32
  0
VERTEX
  8
T65SSILL
 62
13
 10
5521.140
 20
-10118.753
 30
-1255.019
 70
    32
  0
VERTEX
  8
T65SSILL
 62
13
 10
5522.734
 20
-10110.299
 30
-1255.049
 70
    32
  0
VERTEX
  8
T65SSILL
 62
13
 10
5532.160
 20
-10110.670
 30
-1255.066
 70
    32
  0
VERTEX
  8
T65SSILL
 62
13
 10
5543.946
 20
-10102.294
 30
-1255.114
 70
    32
  0
VERTEX
  8
T65SSILL
 62
13
 10
5545.164
 20
-10094.074
 30
-1255.142
 70
    32
  0
VERTEX
  8
T65SSILL
 62
13
 10
5551.930
 20
-10086.075
 30
-1255.180
 70
    32
  0
VERTEX
  8
T65SSILL
 62
13
 10
5556.012
 20
-10084.063
 30
-1255.194
 70
    32
  0
VERTEX
  8
T65SSILL
 62
13
 10
5554.303
 20
-10074.592
 30
-1255.220
 70
    32
  0
VERTEX
  8
T65SSILL
 62
13
 10
5555.445
 20
-10061.821
 30
-1255.262
 70
    32
  0
VERTEX
  8
T65SSILL
 62
13
 10
5545.823
 20
-10037.438
 30
-1255.320
 70
    32
  0
VERTEX
  8
T65SSILL
 62
13
 10
5540.156
 20
-10028.166
 30
-1255.338
 70
    32
  0
VERTEX
  8
T65SSILL
 62
13
 10
5532.004
 20
-10033.583
 30
-1255.306
 70
    32
  0
VERTEX
  8
T65SSILL
 62
13
 10
5528.253
 20
-10027.491
 30
-1255.318
 70
    32
  0
VERTEX
  8
T65SSILL
 62
13
 10
5538.939
 20
-10018.781
 30
-1255.365
 70
    32
  0
VERTEX
  8
T65SSILL
 62
13
 10
5546.967
 20
-10015.176
 30
-1255.392
 70
    32
  0
VERTEX
  8
T65SSILL
 62
13
 10
5560.858
 20
-10037.201
 30
-1255.350
 70
    32
  0
VERTEX
  8
T65SSILL
 62
13
 10
5566.427
 20
-10042.659
 30
-1255.343
 70
    32
  0
VERTEX
  8
T65SSILL
 62
13
 10
5586.557
 20
-10072.010
 30
-1255.290
 70
    32
  0
VERTEX
  8
T65SSILL
 62
13
 10
5595.110
 20
-10065.932
 30
-1255.325
 70
    32
  0
VERTEX
  8
T65SSILL
 62
13
 10
5588.274
 20
-10053.475
 30
-1255.351
 70
    32
  0
VERTEX
  8
T65SSILL
 62
13
 10
5578.986
 20
-10047.940
 30
-1255.351
 70
    32
  0
VERTEX
  8
T65SSILL
 62
13
 10
5581.263
 20
-10038.466
 30
-1255.385
 70
    32
  0
VERTEX
  8
T65SSILL
 62
13
 10
5577.806
 20
-10031.412
 30
-1255.400
 70
    32
  0
VERTEX
  8
T65SSILL
 62
13
 10
5565.668
 20
-10024.433
 30
-1255.399
 70
    32
  0
VERTEX
  8
T65SSILL
 62
13
 10
5557.587
 20
-10008.669
 30
-1255.433
 70
    32
  0
VERTEX
  8
T65SSILL
 62
13
 10
5559.894
 20
-10002.300
 30
-1255.457
 70
    32
  0
VERTEX
  8
T65SSILL
 62
13
 10
5555.785
 20
-9976.406
 30
-1255.530
 70
    32
  0
VERTEX
  8
T65SSILL
 62
13
 10
5558.528
 20
-9970.809
 30
-1255.553
 70
    32
  0
VERTEX
  8
T65SSILL
 62
13
 10
5563.660
 20
-9969.675
 30
-1255.566
 70
    32
  0
VERTEX
  8
T65SSILL
 62
13
 10
5569.739
 20
-9976.931
 30
-1255.555
 70
    32
  0
VERTEX
  8
T65SSILL
 62
13
 10
5579.605
 20
-9984.970
 30
-1255.548
 70
    32
  0
VERTEX
  8
T65SSILL
 62
13
 10
5592.941
 20
-10007.278
 30
-1255.504
 70
    32
  0
VERTEX
  8
T65SSILL
 62
13
 10
5594.078
 20
-10024.051
 30
-1255.454
 70
    32
  0
VERTEX
  8
T65SSILL
 62
13
 10
5605.934
 20
-10025.730
 30
-1255.471
 70
    32
  0
VERTEX
  8
T65SSILL
 62
13
 10
5613.711
 20
-10038.151
 30
-1255.447
 70
    32
  0
VERTEX
  8
T65SSILL
 62
13
 10
5626.224
 20
-10043.819
 30
-1255.453
 70
    32
  0
VERTEX
  8
T65SSILL
 62
13
 10
5631.107
 20
-10040.349
 30
-1255.474
 70
    32
  0
VERTEX
  8
T65SSILL
 62
13
 10
5638.853
 20
-10031.445
 30
-1255.516
 70
    32
  0
VERTEX
  8
T65SSILL
 62
13
 10
5640.820
 20
-10027.041
 30
-1255.534
 70
    32
  0
VERTEX
  8
T65SSILL
 62
13
 10
5641.695
 20
-10017.260
 30
-1255.566
 70
    32
  0
VERTEX
  8
T65SSILL
 62
13
 10
5639.618
 20
-10007.726
 30
-1255.592
 70
    32
  0
VERTEX
  8
T65SSILL
 62
13
 10
5582.103
 20
-9927.578
 30
-1255.732
 70
    32
  0
VERTEX
  8
T65SSILL
 62
13
 10
5580.849
 20
-9938.811
 30
-1255.695
 70
    32
  0
VERTEX
  8
T65SSILL
 62
13
 10
5571.209
 20
-9952.069
 30
-1255.635
 70
    32
  0
VERTEX
  8
T65SSILL
 62
13
 10
5580.413
 20
-9961.005
 30
-1255.625
 70
    32
  0
VERTEX
  8
T65SSILL
 62
13
 10
5583.857
 20
-9968.499
 30
-1255.608
 70
    32
  0
VERTEX
  8
T65SSILL
 62
13
 10
5577.348
 20
-9973.190
 30
-1255.581
 70
    32
  0
VERTEX
  8
T65SSILL
 62
13
 10
5572.994
 20
-9968.385
 30
-1255.588
 70
    32
  0
VERTEX
  8
T65SSILL
 62
13
 10
5565.905
 20
-9966.585
 30
-1255.580
 70
    32
  0
VERTEX
  8
T65SSILL
 62
13
 10
5562.135
 20
-9958.781
 30
-1255.597
 70
    32
  0
VERTEX
  8
T65SSILL
 62
13
 10
5459.562
 20
-10031.763
 30
-1255.174
 70
    32
  0
VERTEX
  8
T65SSILL
 62
13
 10
5456.138
 20
-10025.980
 30
-1255.185
 70
    32
  0
VERTEX
  8
T65SSILL
 62
13
 10
5567.963
 20
-9945.621
 30
-1255.649
 70
    32
  0
VERTEX
  8
T65SSILL
 62
13
 10
5573.314
 20
-9937.756
 30
-1255.684
 70
    32
  0
VERTEX
  8
T65SSILL
 62
13
 10
5574.948
 20
-9927.980
 30
-1255.718
 70
    32
  0
VERTEX
  8
T65SSILL
 62
13
 10
5573.840
 20
-9919.057
 30
-1255.743
 70
    32
  0
VERTEX
  8
T65SSILL
 62
13
 10
5571.135
 20
-9912.767
 30
-1255.758
 70
    32
  0
VERTEX
  8
T65SSILL
 62
13
 10
5542.903
 20
-9873.132
 30
-1256.095
 70
    32
  0
VERTEX
  8
T65SSILL
 62
13
 10
5530.562
 20
-9891.741
 30
-1255.746
 70
    32
  0
VERTEX
  8
T65SSILL
 62
13
 10
5523.899
 20
-9887.484
 30
-1255.747
 70
    32
  0
VERTEX
  8
T65SSILL
 62
13
 10
5535.902
 20
-9864.261
 30
-1256.303
 70
    32
  0
VERTEX
  8
T65SSILL
 62
13
 10
5447.033
 20
-9740.963
 30
-1256.935
 70
    32
  0
VERTEX
  8
T65SSILL
 62
13
 10
5443.687
 20
-9758.413
 30
-1256.876
 70
    32
  0
VERTEX
  8
T65SSILL
 62
13
 10
5434.875
 20
-9776.370
 30
-1256.809
 70
    32
  0
VERTEX
  8
T65SSILL
 62
13
 10
5429.238
 20
-9782.603
 30
-1256.742
 70
    32
  0
VERTEX
  8
T65SSILL
 62
13
 10
5312.173
 20
-9866.544
 30
-1255.409
 70
    32
  0
VERTEX
  8
T65SSILL
 62
13
 10
5308.054
 20
-9860.388
 30
-1255.421
 70
    32
  0
VERTEX
  8
T65SSILL
 62
13
 10
5424.961
 20
-9776.989
 30
-1256.784
 70
    32
  0
VERTEX
  8
T65SSILL
 62
13
 10
5428.479
 20
-9772.033
 30
-1256.817
 70
    32
  0
VERTEX
  8
T65SSILL
 62
13
 10
5435.556
 20
-9756.052
 30
-1256.876
 70
    32
  0
VERTEX
  8
T65SSILL
 62
13
 10
5440.625
 20
-9724.666
 30
-1256.982
 70
    32
  0
VERTEX
  8
T65SSILL
 62
13
 10
5433.243
 20
-9682.641
 30
-1257.111
 70
    32
  0
VERTEX
  8
T65SSILL
 62
13
 10
5400.782
 20
-9719.837
 30
-1256.960
 70
    32
  0
VERTEX
  8
T65SSILL
 62
13
 10
5402.091
 20
-9727.973
 30
-1256.935
 70
    32
  0
VERTEX
  8
T65SSILL
 62
13
 10
5395.383
 20
-9728.706
 30
-1256.926
 70
    32
  0
VERTEX
  8
T65SSILL
 62
13
 10
5388.245
 20
-9732.655
 30
-1256.906
 70
    32
  0
VERTEX
  8
T65SSILL
 62
13
 10
5378.422
 20
-9734.935
 30
-1256.889
 70
    32
  0
VERTEX
  8
T65SSILL
 62
13
 10
5199.281
 20
-9719.083
 30
-1255.867
 70
    32
  0
VERTEX
  8
T65SSILL
 62
13
 10
5194.886
 20
-9720.345
 30
-1255.837
 70
    32
  0
VERTEX
  8
T65SSILL
 62
13
 10
5184.644
 20
-9719.579
 30
-1255.801
 70
    32
  0
VERTEX
  8
T65SSILL
 62
13
 10
5183.281
 20
-9717.950
 30
-1255.810
 70
    32
  0
VERTEX
  8
T65SSILL
 62
13
 10
5096.207
 20
-9710.126
 30
-1255.424
 70
    32
  0
VERTEX
  8
T65SSILL
 62
13
 10
5086.031
 20
-9718.559
 30
-1255.339
 70
    32
  0
VERTEX
  8
T65SSILL
 62
13
 10
5079.762
 20
-9717.622
 30
-1255.336
 70
    32
  0
VERTEX
  8
T65SSILL
 62
13
 10
5072.959
 20
-9707.655
 30
-1255.322
 70
    32
  0
VERTEX
  8
T65SSILL
 62
13
 10
4982.103
 20
-9699.261
 30
-1255.272
 70
    32
  0
VERTEX
  8
T65SSILL
 62
13
 10
4971.438
 20
-9704.202
 30
-1255.268
 70
    32
  0
VERTEX
  8
T65SSILL
 62
13
 10
4967.670
 20
-9707.974
 30
-1255.230
 70
    32
  0
VERTEX
  8
T65SSILL
 62
13
 10
4964.751
 20
-9708.167
 30
-1255.198
 70
    32
  0
VERTEX
  8
T65SSILL
 62
13
 10
4951.910
 20
-9717.997
 30
-1254.928
 70
    32
  0
VERTEX
  8
T65SSILL
 62
13
 10
4946.790
 20
-9710.635
 30
-1254.979
 70
    32
  0
VERTEX
  8
T65SSILL
 62
13
 10
4945.253
 20
-9703.683
 30
-1255.060
 70
    32
  0
VERTEX
  8
T65SSILL
 62
13
 10
4938.303
 20
-9704.780
 30
-1254.973
 70
    32
  0
VERTEX
  8
T65SSILL
 62
13
 10
4907.556
 20
-9700.312
 30
-1254.719
 70
    32
  0
VERTEX
  8
T65SSILL
 62
13
 10
4908.563
 20
-9693.991
 30
-1254.818
 70
    32
  0
VERTEX
  8
T65SSILL
 62
13
 10
4853.341
 20
-9688.065
 30
-1254.472
 70
    32
  0
VERTEX
  8
T65SSILL
 62
13
 10
4849.773
 20
-9690.925
 30
-1254.473
 70
    32
  0
VERTEX
  8
T65SSILL
 62
13
 10
4854.870
 20
-9712.734
 30
-1254.480
 70
    32
  0
VERTEX
  8
T65SSILL
 62
13
 10
4847.965
 20
-9720.687
 30
-1254.483
 70
    32
  0
VERTEX
  8
T65SSILL
 62
13
 10
4853.536
 20
-9742.693
 30
-1254.477
 70
    32
  0
VERTEX
  8
T65SSILL
 62
13
 10
4859.369
 20
-9745.701
 30
-1254.482
 70
    32
  0
VERTEX
  8
T65SSILL
 62
13
 10
4862.218
 20
-9751.027
 30
-1254.469
 70
    32
  0
VERTEX
  8
T65SSILL
 62
13
 10
4863.998
 20
-9763.922
 30
-1254.423
 70
    32
  0
VERTEX
  8
T65SSILL
 62
13
 10
4879.282
 20
-9792.406
 30
-1254.354
 70
    32
  0
VERTEX
  8
T65SSILL
 62
13
 10
4880.539
 20
-9802.081
 30
-1254.320
 70
    32
  0
VERTEX
  8
T65SSILL
 62
13
 10
4875.324
 20
-9806.705
 30
-1254.225
 70
    32
  0
VERTEX
  8
T65SSILL
 62
13
 10
4874.045
 20
-9811.478
 30
-1254.143
 70
    32
  0
VERTEX
  8
T65SSILL
 62
13
 10
4868.931
 20
-9814.169
 30
-1254.055
 70
    32
  0
VERTEX
  8
T65SSILL
 62
13
 10
4863.664
 20
-9813.257
 30
-1254.018
 70
    32
  0
VERTEX
  8
T65SSILL
 62
13
 10
4857.658
 20
-9793.322
 30
-1254.253
 70
    32
  0
VERTEX
  8
T65SSILL
 62
13
 10
4854.572
 20
-9792.107
 30
-1254.242
 70
    32
  0
VERTEX
  8
T65SSILL
 62
13
 10
4849.688
 20
-9772.654
 30
-1254.348
 70
    32
  0
VERTEX
  8
T65SSILL
 62
13
 10
4839.020
 20
-9742.284
 30
-1254.438
 70
    32
  0
VERTEX
  8
T65SSILL
 62
13
 10
4837.281
 20
-9742.150
 30
-1254.433
 70
    32
  0
VERTEX
  8
T65SSILL
 62
13
 10
4834.179
 20
-9749.037
 30
-1254.397
 70
    32
  0
VERTEX
  8
T65SSILL
 62
13
 10
4823.792
 20
-9746.229
 30
-1254.379
 70
    32
  0
VERTEX
  8
T65SSILL
 62
13
 10
4834.950
 20
-9716.544
 30
-1254.482
 70
    32
  0
VERTEX
  8
T65SSILL
 62
13
 10
4839.095
 20
-9700.576
 30
-1254.476
 70
    32
  0
VERTEX
  8
T65SSILL
 62
13
 10
4834.118
 20
-9687.204
 30
-1254.472
 70
    32
  0
VERTEX
  8
T65SSILL
 62
13
 10
4764.737
 20
-9680.167
 30
-1254.471
 70
    32
  0
VERTEX
  8
T65SSILL
 62
13
 10
4762.724
 20
-9684.390
 30
-1254.450
 70
    32
  0
VERTEX
  8
T65SSILL
 62
13
 10
4756.560
 20
-9683.595
 30
-1254.435
 70
    32
  0
VERTEX
  8
T65SSILL
 62
13
 10
4754.475
 20
-9679.891
 30
-1254.444
 70
    32
  0
VERTEX
  8
T65SSILL
 62
13
 10
4613.050
 20
-9667.243
 30
-1253.770
 70
    32
  0
VERTEX
  8
T65SSILL
 62
13
 10
4607.576
 20
-9671.074
 30
-1253.662
 70
    32
  0
VERTEX
  8
T65SSILL
 62
13
 10
4604.053
 20
-9666.904
 30
-1253.689
 70
    32
  0
VERTEX
  8
T65SSILL
 62
13
 10
4480.631
 20
-9656.128
 30
-1253.429
 70
    32
  0
VERTEX
  8
T65SSILL
 62
13
 10
4474.714
 20
-9657.883
 30
-1253.429
 70
    32
  0
VERTEX
  8
T65SSILL
 62
13
 10
4465.628
 20
-9657.720
 30
-1253.431
 70
    32
  0
VERTEX
  8
T65SSILL
 62
13
 10
4460.922
 20
-9654.315
 30
-1253.438
 70
    32
  0
VERTEX
  8
T65SSILL
 62
13
 10
4329.438
 20
-9642.838
 30
-1253.353
 70
    32
  0
VERTEX
  8
T65SSILL
 62
13
 10
4322.652
 20
-9645.782
 30
-1253.313
 70
    32
  0
VERTEX
  8
T65SSILL
 62
13
 10
4318.022
 20
-9641.446
 30
-1253.322
 70
    32
  0
VERTEX
  8
T65SSILL
 62
13
 10
4239.242
 20
-9633.822
 30
-1253.103
 70
    32
  0
VERTEX
  8
T65SSILL
 62
13
 10
4233.655
 20
-9638.831
 30
-1253.060
 70
    32
  0
VERTEX
  8
T65SSILL
 62
13
 10
4233.203
 20
-9643.538
 30
-1253.034
 70
    32
  0
VERTEX
  8
T65SSILL
 62
13
 10
4223.401
 20
-9642.702
 30
-1253.008
 70
    32
  0
VERTEX
  8
T65SSILL
 62
13
 10
4224.068
 20
-9637.398
 30
-1253.038
 70
    32
  0
VERTEX
  8
T65SSILL
 62
13
 10
4219.935
 20
-9632.257
 30
-1253.052
 70
    32
  0
VERTEX
  8
T65SSILL
 62
13
 10
4212.309
 20
-9631.997
 30
-1253.030
 70
    32
  0
VERTEX
  8
T65SSILL
 62
13
 10
4196.932
 20
-9639.878
 30
-1252.942
 70
    32
  0
VERTEX
  8
T65SSILL
 62
13
 10
4177.557
 20
-9640.879
 30
-1252.866
 70
    32
  0
VERTEX
  8
T65SSILL
 62
13
 10
4141.336
 20
-9634.776
 30
-1252.741
 70
    32
  0
VERTEX
  8
T65SSILL
 62
13
 10
4138.160
 20
-9625.757
 30
-1252.789
 70
    32
  0
VERTEX
  8
T65SSILL
 62
13
 10
4100.748
 20
-9621.685
 30
-1252.645
 70
    32
  0
VERTEX
  8
T65SSILL
 62
13
 10
4096.985
 20
-9624.883
 30
-1252.605
 70
    32
  0
VERTEX
  8
T65SSILL
 62
13
 10
4094.535
 20
-9623.626
 30
-1252.603
 70
    32
  0
VERTEX
  8
T65SSILL
 62
13
 10
4081.531
 20
-9623.895
 30
-1252.541
 70
    32
  0
VERTEX
  8
T65SSILL
 62
13
 10
4078.040
 20
-9619.583
 30
-1252.555
 70
    32
  0
VERTEX
  8
T65SSILL
 62
13
 10
3943.984
 20
-9607.873
 30
-1252.271
 70
    32
  0
VERTEX
  8
T65SSILL
 62
13
 10
3934.348
 20
-9610.798
 30
-1252.236
 70
    32
  0
VERTEX
  8
T65SSILL
 62
13
 10
3929.537
 20
-9606.473
 30
-1252.243
 70
    32
  0
VERTEX
  8
T65SSILL
 62
13
 10
3817.989
 20
-9595.702
 30
-1252.028
 70
    32
  0
VERTEX
  8
T65SSILL
 62
13
 10
3801.668
 20
-9602.005
 30
-1251.964
 70
    32
  0
VERTEX
  8
T65SSILL
 62
13
 10
3791.539
 20
-9603.219
 30
-1251.936
 70
    32
  0
VERTEX
  8
T65SSILL
 62
13
 10
3750.513
 20
-9599.940
 30
-1251.926
 70
    32
  0
VERTEX
  8
T65SSILL
 62
13
 10
3750.022
 20
-9589.608
 30
-1251.930
 70
    32
  0
VERTEX
  8
T65SSILL
 62
13
 10
3638.290
 20
-9579.627
 30
-1251.973
 70
    32
  0
VERTEX
  8
T65SSILL
 62
13
 10
3626.938
 20
-9583.484
 30
-1251.976
 70
    32
  0
VERTEX
  8
T65SSILL
 62
13
 10
3624.974
 20
-9577.834
 30
-1251.979
 70
    32
  0
VERTEX
  8
T65SSILL
 62
13
 10
3418.203
 20
-9559.805
 30
-1250.245
 70
    32
  0
VERTEX
  8
T65SSILL
 62
13
 10
3418.569
 20
-9550.045
 30
-1250.393
 70
    32
  0
VERTEX
  8
T65SSILL
 62
13
 10
3454.654
 20
-9553.131
 30
-1250.775
 70
    32
  0
VERTEX
  8
T65SSILL
 62
13
 10
3455.523
 20
-9549.111
 30
-1250.816
 70
    32
  0
VERTEX
  8
T65SSILL
 62
13
 10
3438.173
 20
-9530.968
 30
-1250.762
 70
    32
  0
VERTEX
  8
T65SSILL
 62
13
 10
3434.302
 20
-9524.207
 30
-1250.772
 70
    32
  0
VERTEX
  8
T65SSILL
 62
13
 10
3422.903
 20
-9483.508
 30
-1250.675
 70
    32
  0
VERTEX
  8
T65SSILL
 62
13
 10
3411.190
 20
-9490.126
 30
-1250.551
 70
    32
  0
VERTEX
  8
T65SSILL
 62
13
 10
3406.616
 20
-9483.753
 30
-1250.487
 70
    32
  0
VERTEX
  8
T65SSILL
 62
13
 10
3420.394
 20
-9475.482
 30
-1250.632
 70
    32
  0
VERTEX
  8
T65SSILL
 62
13
 10
3394.135
 20
-9391.490
 30
-1250.182
 70
    32
  0
VERTEX
  8
T65SSILL
 62
13
 10
3390.064
 20
-9388.647
 30
-1250.129
 70
    32
  0
VERTEX
  8
T65SSILL
 62
13
 10
3389.189
 20
-9384.613
 30
-1250.112
 70
    32
  0
VERTEX
  8
T65SSILL
 62
13
 10
3378.290
 20
-9392.436
 30
-1250.000
 70
    32
  0
VERTEX
  8
T65SSILL
 62
13
 10
3373.625
 20
-9385.937
 30
-1249.934
 70
    32
  0
VERTEX
  8
T65SSILL
 62
13
 10
3388.464
 20
-9375.286
 30
-1250.088
 70
    32
  0
VERTEX
  8
T65SSILL
 62
13
 10
3360.138
 20
-9286.444
 30
-1249.917
 70
    32
  0
VERTEX
  8
T65SSILL
 62
13
 10
3345.637
 20
-9292.290
 30
-1249.732
 70
    32
  0
VERTEX
  8
T65SSILL
 62
13
 10
3340.934
 20
-9286.239
 30
-1249.688
 70
    32
  0
VERTEX
  8
T65SSILL
 62
13
 10
3355.797
 20
-9271.859
 30
-1249.896
 70
    32
  0
VERTEX
  8
T65SSILL
 62
13
 10
3328.371
 20
-9183.972
 30
-1249.529
 70
    32
  0
VERTEX
  8
T65SSILL
 62
13
 10
3310.853
 20
-9199.659
 30
-1249.416
 70
    32
  0
VERTEX
  8
T65SSILL
 62
13
 10
3305.045
 20
-9192.515
 30
-1249.299
 70
    32
  0
VERTEX
  8
T65SSILL
 62
13
 10
3325.194
 20
-9174.442
 30
-1249.429
 70
    32
  0
VERTEX
  8
T65SSILL
 62
13
 10
3294.752
 20
-9083.117
 30
-1248.469
 70
    32
  0
VERTEX
  8
T65SSILL
 62
13
 10
3280.164
 20
-9093.588
 30
-1248.359
 70
    32
  0
VERTEX
  8
T65SSILL
 62
13
 10
3275.541
 20
-9087.059
 30
-1248.260
 70
    32
  0
VERTEX
  8
T65SSILL
 62
13
 10
3292.104
 20
-9075.170
 30
-1248.386
 70
    32
  0
VERTEX
  8
T65SSILL
 62
13
 10
3262.887
 20
-8987.519
 30
-1248.164
 70
    32
  0
VERTEX
  8
T65SSILL
 62
13
 10
3258.645
 20
-8985.940
 30
-1248.086
 70
    32
  0
VERTEX
  8
T65SSILL
 62
13
 10
3244.271
 20
-8996.258
 30
-1247.813
 70
    32
  0
VERTEX
  8
T65SSILL
 62
13
 10
3239.400
 20
-8989.906
 30
-1247.757
 70
    32
  0
VERTEX
  8
T65SSILL
 62
13
 10
3258.994
 20
-8975.842
 30
-1248.143
 70
    32
  0
VERTEX
  8
T65SSILL
 62
13
 10
3228.903
 20
-8885.569
 30
-1247.700
 70
    32
  0
VERTEX
  8
T65SSILL
 62
13
 10
3213.047
 20
-8896.923
 30
-1247.608
 70
    32
  0
VERTEX
  8
T65SSILL
 62
13
 10
3207.819
 20
-8890.789
 30
-1247.533
 70
    32
  0
VERTEX
  8
T65SSILL
 62
13
 10
3224.025
 20
-8879.125
 30
-1247.608
 70
    32
  0
VERTEX
  8
T65SSILL
 62
13
 10
3212.789
 20
-8865.869
 30
-1247.416
 70
    32
  0
VERTEX
  8
T65SSILL
 62
13
 10
3155.237
 20
-8836.740
 30
-1246.791
 70
    32
  0
VERTEX
  8
T65SSILL
 62
13
 10
2899.824
 20
-8853.474
 30
-1244.068
 70
    32
  0
VERTEX
  8
T65SSILL
 62
13
 10
2899.517
 20
-8844.474
 30
-1244.078
 70
    32
  0
VERTEX
  8
T65SSILL
 62
13
 10
2984.428
 20
-8839.010
 30
-1244.981
 70
    32
  0
VERTEX
  8
T65SSILL
 62
13
 10
3003.645
 20
-8832.477
 30
-1245.192
 70
    32
  0
VERTEX
  8
T65SSILL
 62
13
 10
3009.244
 20
-8828.039
 30
-1245.251
 70
    32
  0
VERTEX
  8
T65SSILL
 62
13
 10
3019.856
 20
-8826.674
 30
-1245.363
 70
    32
  0
VERTEX
  8
T65SSILL
 62
13
 10
3022.768
 20
-8818.384
 30
-1245.393
 70
    32
  0
VERTEX
  8
T65SSILL
 62
13
 10
3031.224
 20
-8821.167
 30
-1245.483
 70
    32
  0
VERTEX
  8
T65SSILL
 62
13
 10
3032.441
 20
-8824.827
 30
-1245.496
 70
    32
  0
VERTEX
  8
T65SSILL
 62
13
 10
3051.306
 20
-8826.575
 30
-1245.695
 70
    32
  0
VERTEX
  8
T65SSILL
 62
13
 10
3071.166
 20
-8833.218
 30
-1245.904
 70
    32
  0
VERTEX
  8
T65SSILL
 62
13
 10
3084.101
 20
-8832.354
 30
-1246.041
 70
    32
  0
VERTEX
  8
T65SSILL
 62
13
 10
3112.939
 20
-8821.778
 30
-1246.345
 70
    32
  0
VERTEX
  8
T65SSILL
 62
13
 10
3121.197
 20
-8815.163
 30
-1246.432
 70
    32
  0
VERTEX
  8
T65SSILL
 62
13
 10
3133.467
 20
-8801.666
 30
-1246.560
 70
    32
  0
VERTEX
  8
T65SSILL
 62
13
 10
3145.695
 20
-8787.401
 30
-1246.759
 70
    32
  0
VERTEX
  8
T65SSILL
 62
13
 10
3151.064
 20
-8777.990
 30
-1246.792
 70
    32
  0
VERTEX
  8
T65SSILL
 62
13
 10
3163.223
 20
-8747.092
 30
-1246.665
 70
    32
  0
VERTEX
  8
T65SSILL
 62
13
 10
3159.271
 20
-8723.039
 30
-1246.659
 70
    32
  0
VERTEX
  8
T65SSILL
 62
13
 10
3162.252
 20
-8713.171
 30
-1246.624
 70
    32
  0
VERTEX
  8
T65SSILL
 62
13
 10
3148.775
 20
-8686.579
 30
-1246.680
 70
    32
  0
VERTEX
  8
T65SSILL
 62
13
 10
3142.864
 20
-8685.546
 30
-1246.719
 70
    32
  0
VERTEX
  8
T65SSILL
 62
13
 10
3144.087
 20
-8677.403
 30
-1246.700
 70
    32
  0
VERTEX
  8
T65SSILL
 62
13
 10
3127.420
 20
-8643.816
 30
-1246.768
 70
    32
  0
VERTEX
  8
T65SSILL
 62
13
 10
3112.452
 20
-8619.470
 30
-1246.745
 70
    32
  0
VERTEX
  8
T65SSILL
 62
13
 10
3101.781
 20
-8606.654
 30
-1246.606
 70
    32
  0
VERTEX
  8
T65SSILL
 62
13
 10
3096.473
 20
-8604.492
 30
-1246.523
 70
    32
  0
VERTEX
  8
T65SSILL
 62
13
 10
3095.823
 20
-8599.319
 30
-1246.528
 70
    32
  0
VERTEX
  8
T65SSILL
 62
13
 10
2974.246
 20
-8451.930
 30
-1244.948
 70
    32
  0
VERTEX
  8
T65SSILL
 62
13
 10
2971.387
 20
-8450.392
 30
-1244.904
 70
    32
  0
VERTEX
  8
T65SSILL
 62
13
 10
2970.341
 20
-8447.196
 30
-1244.897
 70
    32
  0
VERTEX
  8
T65SSILL
 62
13
 10
2908.638
 20
-8373.821
 30
-1244.249
 70
    32
  0
VERTEX
  8
T65SSILL
 62
13
 10
2847.058
 20
-8296.364
 30
-1244.035
 70
    32
  0
VERTEX
  8
T65SSILL
 62
13
 10
2842.010
 20
-8295.260
 30
-1243.997
 70
    32
  0
VERTEX
  8
T65SSILL
 62
13
 10
2841.736
 20
-8289.901
 30
-1244.016
 70
    32
  0
VERTEX
  8
T65SSILL
 62
13
 10
2758.963
 20
-8190.111
 30
-1243.618
 70
    32
  0
VERTEX
  8
T65SSILL
 62
13
 10
2766.186
 20
-8184.572
 30
-1243.620
 70
    32
  0
VERTEX
  8
T65SSILL
 62
13
 10
2850.720
 20
-8288.035
 30
-1244.054
 70
    32
  0
VERTEX
  8
T65SSILL
 62
13
 10
2853.084
 20
-8287.097
 30
-1244.051
 70
    32
  0
VERTEX
  8
T65SSILL
 62
13
 10
2853.850
 20
-8292.613
 30
-1244.067
 70
    32
  0
VERTEX
  8
T65SSILL
 62
13
 10
2912.103
 20
-8362.450
 30
-1244.279
 70
    32
  0
VERTEX
  8
T65SSILL
 62
13
 10
2915.690
 20
-8364.082
 30
-1244.284
 70
    32
  0
VERTEX
  8
T65SSILL
 62
13
 10
2920.174
 20
-8371.778
 30
-1244.307
 70
    32
  0
VERTEX
  8
T65SSILL
 62
13
 10
2977.565
 20
-8441.810
 30
-1244.921
 70
    32
  0
VERTEX
  8
T65SSILL
 62
13
 10
2981.192
 20
-8442.315
 30
-1244.912
 70
    32
  0
VERTEX
  8
T65SSILL
 62
13
 10
2980.781
 20
-8445.709
 30
-1244.962
 70
    32
  0
VERTEX
  8
T65SSILL
 62
13
 10
3029.627
 20
-8504.926
 30
-1245.595
 70
    32
  0
VERTEX
  8
T65SSILL
 62
13
 10
3037.726
 20
-8511.522
 30
-1245.653
 70
    32
  0
VERTEX
  8
T65SSILL
 62
13
 10
3047.982
 20
-8511.068
 30
-1245.602
 70
    32
  0
VERTEX
  8
T65SSILL
 62
13
 10
3054.764
 20
-8481.522
 30
-1245.151
 70
    32
  0
VERTEX
  8
T65SSILL
 62
13
 10
3060.267
 20
-8470.881
 30
-1244.975
 70
    32
  0
VERTEX
  8
T65SSILL
 62
13
 10
3081.781
 20
-8443.341
 30
-1244.534
 70
    32
  0
VERTEX
  8
T65SSILL
 62
13
 10
3089.873
 20
-8448.682
 30
-1244.550
 70
    32
  0
VERTEX
  8
T65SSILL
 62
13
 10
3068.697
 20
-8474.765
 30
-1244.994
 70
    32
  0
VERTEX
  8
T65SSILL
 62
13
 10
3064.061
 20
-8485.688
 30
-1245.170
 70
    32
  0
VERTEX
  8
T65SSILL
 62
13
 10
3059.547
 20
-8499.137
 30
-1245.381
 70
    32
  0
VERTEX
  8
T65SSILL
 62
13
 10
3058.533
 20
-8524.353
 30
-1245.746
 70
    32
  0
VERTEX
  8
T65SSILL
 62
13
 10
3059.536
 20
-8529.830
 30
-1245.820
 70
    32
  0
VERTEX
  8
T65SSILL
 62
13
 10
3057.727
 20
-8538.990
 30
-1245.958
 70
    32
  0
VERTEX
  8
T65SSILL
 62
13
 10
3103.151
 20
-8594.059
 30
-1246.546
 70
    32
  0
VERTEX
  8
T65SSILL
 62
13
 10
3110.251
 20
-8594.432
 30
-1246.521
 70
    32
  0
VERTEX
  8
T65SSILL
 62
13
 10
3111.657
 20
-8596.153
 30
-1246.539
 70
    32
  0
VERTEX
  8
T65SSILL
 62
13
 10
3109.829
 20
-8601.218
 30
-1246.619
 70
    32
  0
VERTEX
  8
T65SSILL
 62
13
 10
3126.455
 20
-8621.765
 30
-1246.726
 70
    32
  0
VERTEX
  8
T65SSILL
 62
13
 10
3152.084
 20
-8673.273
 30
-1246.625
 70
    32
  0
VERTEX
  8
T65SSILL
 62
13
 10
3158.958
 20
-8677.967
 30
-1246.575
 70
    32
  0
VERTEX
  8
T65SSILL
 62
13
 10
3157.084
 20
-8682.290
 30
-1246.602
 70
    32
  0
VERTEX
  8
T65SSILL
 62
13
 10
3195.387
 20
-8759.054
 30
-1246.450
 70
    32
  0
VERTEX
  8
T65SSILL
 62
13
 10
3199.236
 20
-8770.739
 30
-1246.416
 70
    32
  0
VERTEX
  8
T65SSILL
 62
13
 10
3225.607
 20
-8744.805
 30
-1246.140
 70
    32
  0
VERTEX
  8
T65SSILL
 62
13
 10
3350.947
 20
-8645.933
 30
-1244.732
 70
    32
  0
VERTEX
  8
T65SSILL
 62
13
 10
3398.713
 20
-8608.254
 30
-1245.452
 70
    32
  0
VERTEX
  8
T65SSILL
 62
13
 10
3416.589
 20
-8596.472
 30
-1245.143
 70
    32
  0
VERTEX
  8
T65SSILL
 62
13
 10
3429.545
 20
-8592.099
 30
-1245.007
 70
    32
  0
VERTEX
  8
T65SSILL
 62
13
 10
3446.628
 20
-8592.536
 30
-1245.009
 70
    32
  0
VERTEX
  8
T65SSILL
 62
13
 10
3474.383
 20
-8604.811
 30
-1245.057
 70
    32
  0
VERTEX
  8
T65SSILL
 62
13
 10
3485.387
 20
-8612.785
 30
-1245.134
 70
    32
  0
VERTEX
  8
T65SSILL
 62
13
 10
3489.188
 20
-8623.040
 30
-1245.137
 70
    32
  0
VERTEX
  8
T65SSILL
 62
13
 10
3489.203
 20
-8633.364
 30
-1244.911
 70
    32
  0
VERTEX
  8
T65SSILL
 62
13
 10
3498.468
 20
-8663.299
 30
-1244.813
 70
    32
  0
VERTEX
  8
T65SSILL
 62
13
 10
3505.764
 20
-8667.780
 30
-1244.863
 70
    32
  0
VERTEX
  8
T65SSILL
 62
13
 10
3506.425
 20
-8669.735
 30
-1244.878
 70
    32
  0
VERTEX
  8
T65SSILL
 62
13
 10
3511.893
 20
-8672.187
 30
-1244.909
 70
    32
  0
VERTEX
  8
T65SSILL
 62
13
 10
3536.392
 20
-8669.527
 30
-1245.179
 70
    32
  0
VERTEX
  8
T65SSILL
 62
13
 10
3546.653
 20
-8667.975
 30
-1245.444
 70
    32
  0
VERTEX
  8
T65SSILL
 62
13
 10
3553.313
 20
-8662.866
 30
-1245.596
 70
    32
  0
VERTEX
  8
T65SSILL
 62
13
 10
3566.837
 20
-8660.906
 30
-1245.681
 70
    32
  0
VERTEX
  8
T65SSILL
 62
13
 10
3572.558
 20
-8665.833
 30
-1245.720
 70
    32
  0
VERTEX
  8
T65SSILL
 62
13
 10
3594.332
 20
-8667.511
 30
-1245.860
 70
    32
  0
VERTEX
  8
T65SSILL
 62
13
 10
3595.848
 20
-8676.325
 30
-1245.875
 70
    32
  0
VERTEX
  8
T65SSILL
 62
13
 10
3585.777
 20
-8679.050
 30
-1245.813
 70
    32
  0
VERTEX
  8
T65SSILL
 62
13
 10
3584.872
 20
-8686.903
 30
-1245.812
 70
    32
  0
VERTEX
  8
T65SSILL
 62
13
 10
3580.630
 20
-8690.823
 30
-1245.707
 70
    32
  0
VERTEX
  8
T65SSILL
 62
13
 10
3574.009
 20
-8693.643
 30
-1245.496
 70
    32
  0
VERTEX
  8
T65SSILL
 62
13
 10
3569.954
 20
-8700.484
 30
-1245.254
 70
    32
  0
VERTEX
  8
T65SSILL
 62
13
 10
3554.018
 20
-8706.255
 30
-1245.255
 70
    32
  0
VERTEX
  8
T65SSILL
 62
13
 10
3540.680
 20
-8732.174
 30
-1245.403
 70
    32
  0
VERTEX
  8
T65SSILL
 62
13
 10
3530.427
 20
-8746.009
 30
-1245.474
 70
    32
  0
VERTEX
  8
T65SSILL
 62
13
 10
3523.992
 20
-8768.437
 30
-1245.617
 70
    32
  0
VERTEX
  8
T65SSILL
 62
13
 10
3513.204
 20
-8767.595
 30
-1245.639
 70
    32
  0
VERTEX
  8
T65SSILL
 62
13
 10
3516.025
 20
-8740.810
 30
-1245.404
 70
    32
  0
VERTEX
  8
T65SSILL
 62
13
 10
3525.513
 20
-8726.666
 30
-1245.326
 70
    32
  0
VERTEX
  8
T65SSILL
 62
13
 10
3533.856
 20
-8718.964
 30
-1245.293
 70
    32
  0
VERTEX
  8
T65SSILL
 62
13
 10
3539.427
 20
-8710.294
 30
-1245.246
 70
    32
  0
VERTEX
  8
T65SSILL
 62
13
 10
3543.572
 20
-8697.683
 30
-1245.168
 70
    32
  0
VERTEX
  8
T65SSILL
 62
13
 10
3541.212
 20
-8680.756
 30
-1245.044
 70
    32
  0
VERTEX
  8
T65SSILL
 62
13
 10
3534.148
 20
-8678.164
 30
-1245.008
 70
    32
  0
VERTEX
  8
T65SSILL
 62
13
 10
3511.148
 20
-8681.039
 30
-1244.970
 70
    32
  0
VERTEX
  8
T65SSILL
 62
13
 10
3500.645
 20
-8683.903
 30
-1244.963
 70
    32
  0
VERTEX
  8
T65SSILL
 62
13
 10
3499.650
 20
-8686.135
 30
-1244.983
 70
    32
  0
VERTEX
  8
T65SSILL
 62
13
 10
3510.024
 20
-8746.605
 30
-1245.469
 70
    32
  0
VERTEX
  8
T65SSILL
 62
13
 10
3501.017
 20
-8748.100
 30
-1245.505
 70
    32
  0
VERTEX
  8
T65SSILL
 62
13
 10
3484.320
 20
-8647.358
 30
-1244.693
 70
    32
  0
VERTEX
  8
T65SSILL
 62
13
 10
3477.306
 20
-8625.536
 30
-1244.922
 70
    32
  0
VERTEX
  8
T65SSILL
 62
13
 10
3457.017
 20
-8608.687
 30
-1245.120
 70
    32
  0
VERTEX
  8
T65SSILL
 62
13
 10
3439.524
 20
-8601.959
 30
-1245.105
 70
    32
  0
VERTEX
  8
T65SSILL
 62
13
 10
3429.057
 20
-8603.265
 30
-1245.189
 70
    32
  0
VERTEX
  8
T65SSILL
 62
13
 10
3409.157
 20
-8613.108
 30
-1245.439
 70
    32
  0
VERTEX
  8
T65SSILL
 62
13
 10
3407.037
 20
-8619.305
 30
-1245.316
 70
    32
  0
VERTEX
  8
T65SSILL
 62
13
 10
3392.755
 20
-8632.941
 30
-1244.994
 70
    32
  0
VERTEX
  8
T65SSILL
 62
13
 10
3393.175
 20
-8641.300
 30
-1244.792
 70
    32
  0
VERTEX
  8
T65SSILL
 62
13
 10
3394.856
 20
-8643.642
 30
-1244.734
 70
    32
  0
VERTEX
  8
T65SSILL
 62
13
 10
3386.697
 20
-8647.643
 30
-1244.693
 70
    32
  0
VERTEX
  8
T65SSILL
 62
13
 10
3382.271
 20
-8642.158
 30
-1244.776
 70
    32
  0
VERTEX
  8
T65SSILL
 62
13
 10
3377.878
 20
-8643.130
 30
-1244.755
 70
    32
  0
VERTEX
  8
T65SSILL
 62
13
 10
3365.948
 20
-8652.017
 30
-1244.748
 70
    32
  0
VERTEX
  8
T65SSILL
 62
13
 10
3360.720
 20
-8649.687
 30
-1244.718
 70
    32
  0
VERTEX
  8
T65SSILL
 62
13
 10
3264.689
 20
-8724.682
 30
-1245.777
 70
    32
  0
VERTEX
  8
T65SSILL
 62
13
 10
3224.404
 20
-8760.783
 30
-1246.281
 70
    32
  0
VERTEX
  8
T65SSILL
 62
13
 10
3213.062
 20
-8772.971
 30
-1246.378
 70
    32
  0
VERTEX
  8
T65SSILL
 62
13
 10
3209.349
 20
-8782.474
 30
-1246.469
 70
    32
  0
VERTEX
  8
T65SSILL
 62
13
 10
3209.117
 20
-8800.910
 30
-1246.675
 70
    32
  0
VERTEX
  8
T65SSILL
 62
13
 10
3229.523
 20
-8862.129
 30
-1247.440
 70
    32
  0
VERTEX
  8
T65SSILL
 62
13
 10
3233.251
 20
-8862.841
 30
-1247.463
 70
    32
  0
VERTEX
  8
T65SSILL
 62
13
 10
3235.556
 20
-8868.829
 30
-1247.539
 70
    32
  0
VERTEX
  8
T65SSILL
 62
13
 10
3248.333
 20
-8859.512
 30
-1247.417
 70
    32
  0
VERTEX
  8
T65SSILL
 62
13
 10
3252.886
 20
-8865.856
 30
-1247.485
 70
    32
  0
VERTEX
  8
T65SSILL
 62
13
 10
3235.364
 20
-8879.574
 30
-1247.658
 70
    32
  0
VERTEX
  8
T65SSILL
 62
13
 10
3265.798
 20
-8970.958
 30
-1248.182
 70
    32
  0
VERTEX
  8
T65SSILL
 62
13
 10
3282.645
 20
-8958.866
 30
-1247.974
 70
    32
  0
VERTEX
  8
T65SSILL
 62
13
 10
3287.516
 20
-8965.217
 30
-1247.960
 70
    32
  0
VERTEX
  8
T65SSILL
 62
13
 10
3269.930
 20
-8977.840
 30
-1248.177
 70
    32
  0
VERTEX
  8
T65SSILL
 62
13
 10
3269.351
 20
-8981.630
 30
-1248.200
 70
    32
  0
VERTEX
  8
T65SSILL
 62
13
 10
3298.924
 20
-9070.333
 30
-1248.393
 70
    32
  0
VERTEX
  8
T65SSILL
 62
13
 10
3308.135
 20
-9067.910
 30
-1248.389
 70
    32
  0
VERTEX
  8
T65SSILL
 62
13
 10
3313.763
 20
-9063.687
 30
-1248.361
 70
    32
  0
VERTEX
  8
T65SSILL
 62
13
 10
3317.628
 20
-9071.211
 30
-1248.443
 70
    32
  0
VERTEX
  8
T65SSILL
 62
13
 10
3309.561
 20
-9077.761
 30
-1248.489
 70
    32
  0
VERTEX
  8
T65SSILL
 62
13
 10
3304.910
 20
-9084.847
 30
-1248.548
 70
    32
  0
VERTEX
  8
T65SSILL
 62
13
 10
3333.575
 20
-9169.369
 30
-1249.436
 70
    32
  0
VERTEX
  8
T65SSILL
 62
13
 10
3348.423
 20
-9156.745
 30
-1249.346
 70
    32
  0
VERTEX
  8
T65SSILL
 62
13
 10
3353.294
 20
-9163.883
 30
-1249.425
 70
    32
  0
VERTEX
  8
T65SSILL
 62
13
 10
3336.390
 20
-9177.667
 30
-1249.524
 70
    32
  0
VERTEX
  8
T65SSILL
 62
13
 10
3346.196
 20
-9206.580
 30
-1249.806
 70
    32
  0
VERTEX
  8
T65SSILL
 62
13
 10
3352.185
 20
-9209.301
 30
-1249.814
 70
    32
  0
VERTEX
  8
T65SSILL
 62
13
 10
3357.694
 20
-9227.332
 30
-1249.935
 70
    32
  0
VERTEX
  8
T65SSILL
 62
13
 10
3371.210
 20
-9259.906
 30
-1250.008
 70
    32
  0
VERTEX
  8
T65SSILL
 62
13
 10
3376.481
 20
-9256.161
 30
-1250.032
 70
    32
  0
VERTEX
  8
T65SSILL
 62
13
 10
3381.297
 20
-9263.709
 30
-1250.057
 70
    32
  0
VERTEX
  8
T65SSILL
 62
13
 10
3372.529
 20
-9273.514
 30
-1250.018
 70
    32
  0
VERTEX
  8
T65SSILL
 62
13
 10
3373.120
 20
-9287.385
 30
-1250.025
 70
    32
  0
VERTEX
  8
T65SSILL
 62
13
 10
3397.812
 20
-9368.577
 30
-1250.165
 70
    32
  0
VERTEX
  8
T65SSILL
 62
13
 10
3406.928
 20
-9362.033
 30
-1250.206
 70
    32
  0
VERTEX
  8
T65SSILL
 62
13
 10
3411.722
 20
-9368.713
 30
-1250.231
 70
    32
  0
VERTEX
  8
T65SSILL
 62
13
 10
3400.706
 20
-9376.347
 30
-1250.209
 70
    32
  0
VERTEX
  8
T65SSILL
 62
13
 10
3404.048
 20
-9378.081
 30
-1250.223
 70
    32
  0
VERTEX
  8
T65SSILL
 62
13
 10
3402.545
 20
-9383.869
 30
-1250.247
 70
    32
  0
VERTEX
  8
T65SSILL
 62
13
 10
3428.862
 20
-9469.383
 30
-1250.691
 70
    32
  0
VERTEX
  8
T65SSILL
 62
13
 10
3439.793
 20
-9461.537
 30
-1250.743
 70
    32
  0
VERTEX
  8
T65SSILL
 62
13
 10
3444.458
 20
-9468.036
 30
-1250.795
 70
    32
  0
VERTEX
  8
T65SSILL
 62
13
 10
3431.345
 20
-9477.449
 30
-1250.733
 70
    32
  0
VERTEX
  8
T65SSILL
 62
13
 10
3441.042
 20
-9512.279
 30
-1250.907
 70
    32
  0
VERTEX
  8
T65SSILL
 62
13
 10
3444.189
 20
-9520.880
 30
-1250.909
 70
    32
  0
VERTEX
  8
T65SSILL
 62
13
 10
3451.020
 20
-9528.850
 30
-1250.924
 70
    32
  0
VERTEX
  8
T65SSILL
 62
13
 10
3457.513
 20
-9530.413
 30
-1250.984
 70
    32
  0
VERTEX
  8
T65SSILL
 62
13
 10
3463.699
 20
-9534.384
 30
-1251.023
 70
    32
  0
VERTEX
  8
T65SSILL
 62
13
 10
3464.362
 20
-9536.625
 30
-1251.013
 70
    32
  0
VERTEX
  8
T65SSILL
 62
13
 10
3475.944
 20
-9542.745
 30
-1251.095
 70
    32
  0
VERTEX
  8
T65SSILL
 62
13
 10
3482.964
 20
-9551.122
 30
-1251.109
 70
    32
  0
VERTEX
  8
T65SSILL
 62
13
 10
3498.939
 20
-9557.728
 30
-1251.237
 70
    32
  0
VERTEX
  8
T65SSILL
 62
13
 10
3637.020
 20
-9569.867
 30
-1251.928
 70
    32
  0
VERTEX
  8
T65SSILL
 62
13
 10
3647.351
 20
-9566.105
 30
-1251.875
 70
    32
  0
VERTEX
  8
T65SSILL
 62
13
 10
3649.533
 20
-9571.159
 30
-1251.925
 70
    32
  0
VERTEX
  8
T65SSILL
 62
13
 10
3782.105
 20
-9583.522
 30
-1251.959
 70
    32
  0
VERTEX
  8
T65SSILL
 62
13
 10
3786.081
 20
-9581.805
 30
-1251.957
 70
    32
  0
VERTEX
  8
T65SSILL
 62
13
 10
3788.767
 20
-9583.979
 30
-1251.971
 70
    32
  0
VERTEX
  8
T65SSILL
 62
13
 10
3945.423
 20
-9598.089
 30
-1252.271
 70
    32
  0
VERTEX
  8
T65SSILL
 62
13
 10
3951.399
 20
-9593.595
 30
-1252.258
 70
    32
  0
VERTEX
  8
T65SSILL
 62
13
 10
3956.943
 20
-9600.109
 30
-1252.298
 70
    32
  0
VERTEX
  8
T65SSILL
 62
13
 10
4092.144
 20
-9611.744
 30
-1252.614
 70
    32
  0
VERTEX
  8
T65SSILL
 62
13
 10
4093.959
 20
-9609.757
 30
-1252.607
 70
    32
  0
VERTEX
  8
T65SSILL
 62
13
 10
4100.503
 20
-9609.755
 30
-1252.630
 70
    32
  0
VERTEX
  8
T65SSILL
 62
13
 10
4105.379
 20
-9612.832
 30
-1252.668
 70
    32
  0
VERTEX
  8
T65SSILL
 62
13
 10
4111.728
 20
-9614.268
 30
-1252.701
 70
    32
  0
VERTEX
  8
T65SSILL
 62
13
 10
4173.630
 20
-9620.061
 30
-1252.942
 70
    32
  0
VERTEX
  8
T65SSILL
 62
13
 10
4182.630
 20
-9614.494
 30
-1252.926
 70
    32
  0
VERTEX
  8
T65SSILL
 62
13
 10
4186.733
 20
-9621.516
 30
-1252.974
 70
    32
  0
VERTEX
  8
T65SSILL
 62
13
 10
4222.690
 20
-9624.752
 30
-1253.057
 70
    32
  0
VERTEX
  8
T65SSILL
 62
13
 10
4225.379
 20
-9619.374
 30
-1253.030
 70
    32
  0
VERTEX
  8
T65SSILL
 62
13
 10
4226.773
 20
-9607.519
 30
-1252.964
 70
    32
  0
VERTEX
  8
T65SSILL
 62
13
 10
4234.363
 20
-9608.024
 30
-1252.981
 70
    32
  0
VERTEX
  8
T65SSILL
 62
13
 10
4235.141
 20
-9615.429
 30
-1253.025
 70
    32
  0
VERTEX
  8
T65SSILL
 62
13
 10
4245.078
 20
-9625.458
 30
-1253.100
 70
    32
  0
VERTEX
  8
T65SSILL
 62
13
 10
4248.796
 20
-9626.642
 30
-1253.114
 70
    32
  0
VERTEX
  8
T65SSILL
 62
13
 10
4251.749
 20
-9615.711
 30
-1253.056
 70
    32
  0
VERTEX
  8
T65SSILL
 62
13
 10
4243.470
 20
-9604.815
 30
-1252.978
 70
    32
  0
VERTEX
  8
T65SSILL
 62
13
 10
4240.922
 20
-9585.569
 30
-1252.862
 70
    32
  0
VERTEX
  8
T65SSILL
 62
13
 10
4248.311
 20
-9584.474
 30
-1252.869
 70
    32
  0
VERTEX
  8
T65SSILL
 62
13
 10
4249.987
 20
-9591.761
 30
-1252.914
 70
    32
  0
VERTEX
  8
T65SSILL
 62
13
 10
4253.556
 20
-9594.368
 30
-1252.936
 70
    32
  0
VERTEX
  8
T65SSILL
 62
13
 10
4257.118
 20
-9611.738
 30
-1253.043
 70
    32
  0
VERTEX
  8
T65SSILL
 62
13
 10
4260.030
 20
-9615.378
 30
-1253.069
 70
    32
  0
VERTEX
  8
T65SSILL
 62
13
 10
4256.666
 20
-9627.378
 30
-1253.132
 70
    32
  0
VERTEX
  8
T65SSILL
 62
13
 10
4326.212
 20
-9633.308
 30
-1253.353
 70
    32
  0
VERTEX
  8
T65SSILL
 62
13
 10
4332.484
 20
-9628.339
 30
-1253.357
 70
    32
  0
VERTEX
  8
T65SSILL
 62
13
 10
4337.560
 20
-9634.312
 30
-1253.388
 70
    32
  0
VERTEX
  8
T65SSILL
 62
13
 10
4456.938
 20
-9645.237
 30
-1253.449
 70
    32
  0
VERTEX
  8
T65SSILL
 62
13
 10
4466.643
 20
-9636.635
 30
-1253.455
 70
    32
  0
VERTEX
  8
T65SSILL
 62
13
 10
4477.564
 20
-9638.392
 30
-1253.478
 70
    32
  0
VERTEX
  8
T65SSILL
 62
13
 10
4480.939
 20
-9646.499
 30
-1253.454
 70
    32
  0
VERTEX
  8
T65SSILL
 62
13
 10
4615.285
 20
-9658.592
 30
-1253.832
 70
    32
  0
VERTEX
  8
T65SSILL
 62
13
 10
4621.040
 20
-9654.551
 30
-1253.875
 70
    32
  0
VERTEX
  8
T65SSILL
 62
13
 10
4625.520
 20
-9660.310
 30
-1253.918
 70
    32
  0
VERTEX
  8
T65SSILL
 62
13
 10
4665.854
 20
-9663.697
 30
-1254.216
 70
    32
  0
VERTEX
  8
T65SSILL
 62
13
 10
4640.343
 20
-9629.224
 30
-1254.002
 70
    32
  0
VERTEX
  8
T65SSILL
 62
13
 10
4635.584
 20
-9628.702
 30
-1253.963
 70
    32
  0
VERTEX
  8
T65SSILL
 62
13
 10
4621.556
 20
-9637.224
 30
-1253.859
 70
    32
  0
VERTEX
  8
T65SSILL
 62
13
 10
4616.679
 20
-9630.338
 30
-1253.811
 70
    32
  0
VERTEX
  8
T65SSILL
 62
13
 10
4620.911
 20
-9622.614
 30
-1253.836
 70
    32
  0
VERTEX
  8
T65SSILL
 62
13
 10
4626.719
 20
-9618.644
 30
-1253.879
 70
    32
  0
VERTEX
  8
T65SSILL
 62
13
 10
4626.998
 20
-9610.895
 30
-1253.872
 70
    32
  0
VERTEX
  8
T65SSILL
 62
13
 10
4613.033
 20
-9590.399
 30
-1253.743
 70
    32
  0
VERTEX
  8
T65SSILL
 62
13
 10
4600.447
 20
-9585.063
 30
-1253.728
 70
    32
  0
VERTEX
  8
T65SSILL
 62
13
 10
4583.019
 20
-9589.433
 30
-1253.671
 70
    32
  0
VERTEX
  8
T65SSILL
 62
13
 10
4580.062
 20
-9598.290
 30
-1253.636
 70
    32
  0
VERTEX
  8
T65SSILL
 62
13
 10
4554.363
 20
-9604.189
 30
-1253.565
 70
    32
  0
VERTEX
  8
T65SSILL
 62
13
 10
4551.312
 20
-9594.749
 30
-1253.593
 70
    32
  0
VERTEX
  8
T65SSILL
 62
13
 10
4554.518
 20
-9585.489
 30
-1253.620
 70
    32
  0
VERTEX
  8
T65SSILL
 62
13
 10
4570.970
 20
-9582.607
 30
-1253.662
 70
    32
  0
VERTEX
  8
T65SSILL
 62
13
 10
4592.637
 20
-9575.100
 30
-1253.740
 70
    32
  0
VERTEX
  8
T65SSILL
 62
13
 10
4595.557
 20
-9566.489
 30
-1253.774
 70
    32
  0
VERTEX
  8
T65SSILL
 62
13
 10
4593.017
 20
-9562.465
 30
-1253.780
 70
    32
  0
VERTEX
  8
T65SSILL
 62
13
 10
4589.219
 20
-9562.652
 30
-1253.770
 70
    32
  0
VERTEX
  8
T65SSILL
 62
13
 10
4586.867
 20
-9554.007
 30
-1253.791
 70
    32
  0
VERTEX
  8
T65SSILL
 62
13
 10
4578.997
 20
-9542.338
 30
-1253.808
 70
    32
  0
VERTEX
  8
T65SSILL
 62
13
 10
4557.261
 20
-9530.546
 30
-1253.790
 70
    32
  0
VERTEX
  8
T65SSILL
 62
13
 10
4547.591
 20
-9530.923
 30
-1253.783
 70
    32
  0
VERTEX
  8
T65SSILL
 62
13
 10
4541.436
 20
-9523.343
 30
-1253.806
 70
    32
  0
VERTEX
  8
T65SSILL
 62
13
 10
4544.209
 20
-9515.716
 30
-1253.820
 70
    32
  0
VERTEX
  8
T65SSILL
 62
13
 10
4547.097
 20
-9514.890
 30
-1253.830
 70
    32
  0
VERTEX
  8
T65SSILL
 62
13
 10
4543.529
 20
-9503.865
 30
-1253.822
 70
    32
  0
VERTEX
  8
T65SSILL
 62
13
 10
4545.758
 20
-9496.093
 30
-1253.834
 70
    32
  0
VERTEX
  8
T65SSILL
 62
13
 10
4486.827
 20
-9413.651
 30
-1253.520
 70
    32
  0
VERTEX
  8
T65SSILL
 62
13
 10
4481.674
 20
-9414.075
 30
-1253.482
 70
    32
  0
VERTEX
  8
T65SSILL
 62
13
 10
4478.086
 20
-9409.078
 30
-1253.434
 70
    32
  0
VERTEX
  8
T65SSILL
 62
13
 10
4480.047
 20
-9404.785
 30
-1253.432
 70
    32
  0
VERTEX
  8
T65SSILL
 62
13
 10
4431.874
 20
-9335.700
 30
-1252.675
 70
    32
  0
VERTEX
  8
T65SSILL
 62
13
 10
4425.830
 20
-9335.362
 30
-1252.584
 70
    32
  0
VERTEX
  8
T65SSILL
 62
13
 10
4424.986
 20
-9327.131
 30
-1252.491
 70
    32
  0
VERTEX
  8
T65SSILL
 62
13
 10
4375.046
 20
-9256.840
 30
-1251.188
 70
    32
  0
VERTEX
  8
T65SSILL
 62
13
 10
4369.413
 20
-9255.433
 30
-1251.164
 70
    32
  0
VERTEX
  8
T65SSILL
 62
13
 10
4368.718
 20
-9248.732
 30
-1251.141
 70
    32
  0
VERTEX
  8
T65SSILL
 62
13
 10
4333.234
 20
-9199.009
 30
-1250.884
 70
    32
  0
VERTEX
  8
T65SSILL
 62
13
 10
4323.179
 20
-9196.502
 30
-1250.819
 70
    32
  0
VERTEX
  8
T65SSILL
 62
13
 10
4313.021
 20
-9179.968
 30
-1250.744
 70
    32
  0
VERTEX
  8
T65SSILL
 62
13
 10
4276.284
 20
-9131.063
 30
-1250.480
 70
    32
  0
VERTEX
  8
T65SSILL
 62
13
 10
4278.432
 20
-9122.148
 30
-1250.488
 70
    32
  0
VERTEX
  8
T65SSILL
 62
13
 10
4242.272
 20
-9071.068
 30
-1250.226
 70
    32
  0
VERTEX
  8
T65SSILL
 62
13
 10
4249.069
 20
-9066.366
 30
-1250.266
 70
    32
  0
VERTEX
  8
T65SSILL
 62
13
 10
4322.841
 20
-9169.748
 30
-1250.800
 70
    32
  0
VERTEX
  8
T65SSILL
 62
13
 10
4329.024
 20
-9170.421
 30
-1250.839
 70
    32
  0
VERTEX
  8
T65SSILL
 62
13
 10
4327.896
 20
-9176.284
 30
-1250.836
 70
    32
  0
VERTEX
  8
T65SSILL
 62
13
 10
4374.663
 20
-9242.583
 30
-1251.175
 70
    32
  0
VERTEX
  8
T65SSILL
 62
13
 10
4381.651
 20
-9243.753
 30
-1251.220
 70
    32
  0
VERTEX
  8
T65SSILL
 62
13
 10
4383.007
 20
-9246.029
 30
-1251.230
 70
    32
  0
VERTEX
  8
T65SSILL
 62
13
 10
4381.240
 20
-9250.288
 30
-1251.221
 70
    32
  0
VERTEX
  8
T65SSILL
 62
13
 10
4432.727
 20
-9323.261
 30
-1252.553
 70
    32
  0
VERTEX
  8
T65SSILL
 62
13
 10
4438.726
 20
-9325.163
 30
-1252.649
 70
    32
  0
VERTEX
  8
T65SSILL
 62
13
 10
4441.706
 20
-9329.189
 30
-1252.731
 70
    32
  0
VERTEX
  8
T65SSILL
 62
13
 10
4439.003
 20
-9331.299
 30
-1252.722
 70
    32
  0
VERTEX
  8
T65SSILL
 62
13
 10
4487.756
 20
-9400.282
 30
-1253.413
 70
    32
  0
VERTEX
  8
T65SSILL
 62
13
 10
4492.116
 20
-9400.116
 30
-1253.399
 70
    32
  0
VERTEX
  8
T65SSILL
 62
13
 10
4494.924
 20
-9403.615
 30
-1253.431
 70
    32
  0
VERTEX
  8
T65SSILL
 62
13
 10
4493.303
 20
-9406.891
 30
-1253.473
 70
    32
  0
VERTEX
  8
T65SSILL
 62
13
 10
4551.393
 20
-9489.081
 30
-1253.829
 70
    32
  0
VERTEX
  8
T65SSILL
 62
13
 10
4560.135
 20
-9490.701
 30
-1253.840
 70
    32
  0
VERTEX
  8
T65SSILL
 62
13
 10
4559.234
 20
-9499.677
 30
-1253.856
 70
    32
  0
VERTEX
  8
T65SSILL
 62
13
 10
4592.211
 20
-9545.569
 30
-1253.850
 70
    32
  0
VERTEX
  8
T65SSILL
 62
13
 10
4601.107
 20
-9550.794
 30
-1253.867
 70
    32
  0
VERTEX
  8
T65SSILL
 62
13
 10
4601.001
 20
-9559.071
 30
-1253.826
 70
    32
  0
VERTEX
  8
T65SSILL
 62
13
 10
4613.043
 20
-9575.196
 30
-1253.805
 70
    32
  0
VERTEX
  8
T65SSILL
 62
13
 10
4648.706
 20
-9580.399
 30
-1253.952
 70
    32
  0
VERTEX
  8
T65SSILL
 62
13
 10
4647.713
 20
-9589.989
 30
-1253.900
 70
    32
  0
VERTEX
  8
T65SSILL
 62
13
 10
4627.414
 20
-9587.082
 30
-1253.817
 70
    32
  0
VERTEX
  8
T65SSILL
 62
13
 10
4625.259
 20
-9591.409
 30
-1253.786
 70
    32
  0
VERTEX
  8
T65SSILL
 62
13
 10
4634.384
 20
-9604.773
 30
-1253.876
 70
    32
  0
VERTEX
  8
T65SSILL
 62
13
 10
4669.386
 20
-9614.401
 30
-1253.966
 70
    32
  0
VERTEX
  8
T65SSILL
 62
13
 10
4683.193
 20
-9621.239
 30
-1254.019
 70
    32
  0
VERTEX
  8
T65SSILL
 62
13
 10
4679.415
 20
-9629.282
 30
-1254.084
 70
    32
  0
VERTEX
  8
T65SSILL
 62
13
 10
4655.521
 20
-9622.256
 30
-1254.001
 70
    32
  0
VERTEX
  8
T65SSILL
 62
13
 10
4653.114
 20
-9624.912
 30
-1254.009
 70
    32
  0
VERTEX
  8
T65SSILL
 62
13
 10
4652.078
 20
-9630.161
 30
-1254.031
 70
    32
  0
VERTEX
  8
T65SSILL
 62
13
 10
4670.420
 20
-9653.321
 30
-1254.177
 70
    32
  0
VERTEX
  8
T65SSILL
 62
13
 10
4675.926
 20
-9658.102
 30
-1254.211
 70
    32
  0
VERTEX
  8
T65SSILL
 62
13
 10
4691.610
 20
-9665.409
 30
-1254.278
 70
    32
  0
VERTEX
  8
T65SSILL
 62
13
 10
4745.561
 20
-9669.323
 30
-1254.409
 70
    32
  0
VERTEX
  8
T65SSILL
 62
13
 10
4754.418
 20
-9666.814
 30
-1254.386
 70
    32
  0
VERTEX
  8
T65SSILL
 62
13
 10
4756.802
 20
-9670.625
 30
-1254.419
 70
    32
  0
VERTEX
  8
T65SSILL
 62
13
 10
4820.507
 20
-9676.195
 30
-1254.428
 70
    32
  0
VERTEX
  8
T65SSILL
 62
13
 10
4821.918
 20
-9662.888
 30
-1254.385
 70
    32
  0
VERTEX
  8
T65SSILL
 62
13
 10
4810.107
 20
-9651.950
 30
-1254.365
 70
    32
  0
VERTEX
  8
T65SSILL
 62
13
 10
4817.438
 20
-9646.197
 30
-1254.442
 70
    32
  0
VERTEX
  8
T65SSILL
 62
13
 10
4846.572
 20
-9671.975
 30
-1254.455
 70
    32
  0
VERTEX
  8
T65SSILL
 62
13
 10
4850.011
 20
-9678.774
 30
-1254.442
 70
    32
  0
VERTEX
  8
T65SSILL
 62
13
 10
4892.625
 20
-9682.499
 30
-1254.796
 70
    32
  0
VERTEX
  8
T65SSILL
 62
13
 10
4898.677
 20
-9676.053
 30
-1254.923
 70
    32
  0
VERTEX
  8
T65SSILL
 62
13
 10
4913.782
 20
-9675.042
 30
-1255.082
 70
    32
  0
VERTEX
  8
T65SSILL
 62
13
 10
4915.305
 20
-9684.192
 30
-1255.000
 70
    32
  0
VERTEX
  8
T65SSILL
 62
13
 10
5082.418
 20
-9701.642
 30
-1255.413
 70
    32
  0
VERTEX
  8
T65SSILL
 62
13
 10
5087.981
 20
-9697.293
 30
-1255.442
 70
    32
  0
VERTEX
  8
T65SSILL
 62
13
 10
5094.262
 20
-9701.927
 30
-1255.467
 70
    32
  0
VERTEX
  8
T65SSILL
 62
13
 10
5195.770
 20
-9710.881
 30
-1255.892
 70
    32
  0
VERTEX
  8
T65SSILL
 62
13
 10
5197.246
 20
-9709.303
 30
-1255.900
 70
    32
  0
VERTEX
  8
T65SSILL
 62
13
 10
5206.183
 20
-9710.665
 30
-1255.929
 70
    32
  0
VERTEX
  8
T65SSILL
 62
13
 10
5207.554
 20
-9712.611
 30
-1255.931
 70
    32
  0
VERTEX
  8
T65SSILL
 62
13
 10
5370.564
 20
-9726.992
 30
-1256.908
 70
    32
  0
VERTEX
  8
T65SSILL
 62
13
 10
5378.363
 20
-9726.890
 30
-1256.915
 70
    32
  0
VERTEX
  8
T65SSILL
 62
13
 10
5385.831
 20
-9724.327
 30
-1256.931
 70
    32
  0
VERTEX
  8
T65SSILL
 62
13
 10
5391.365
 20
-9719.784
 30
-1256.951
 70
    32
  0
VERTEX
  8
T65SSILL
 62
13
 10
5714.178
 20
-9340.505
 30
-1258.484
 70
    32
  0
VERTEX
  8
T65SSILL
 62
13
 10
5832.224
 20
-9200.119
 30
-1260.017
 70
    32
  0
VERTEX
  8
T65SSILL
 62
13
 10
5836.415
 20
-9190.331
 30
-1260.063
 70
    32
  0
VERTEX
  8
T65SSILL
 62
13
 10
5835.794
 20
-9183.159
 30
-1260.036
 70
    32
  0
VERTEX
  8
T65SSILL
 62
13
 10
5840.170
 20
-9177.314
 30
-1260.094
 70
    32
  0
VERTEX
  8
T65SSILL
 62
13
 10
5848.576
 20
-9169.723
 30
-1260.214
 70
    32
  0
VERTEX
  8
T65SSILL
 62
13
 10
5857.437
 20
-9171.670
 30
-1260.364
 70
    32
  0
VERTEX
  8
T65SSILL
 62
13
 10
6016.667
 20
-8985.990
 30
-1262.544
 70
    32
  0
VERTEX
  8
T65SSILL
 62
13
 10
6028.769
 20
-8967.136
 30
-1262.699
 70
    32
  0
VERTEX
  8
T65SSILL
 62
13
 10
6033.668
 20
-8954.069
 30
-1262.749
 70
    32
  0
VERTEX
  8
T65SSILL
 62
13
 10
6037.591
 20
-8935.470
 30
-1262.770
 70
    32
  0
VERTEX
  8
T65SSILL
 62
13
 10
6036.755
 20
-8913.128
 30
-1262.705
 70
    32
  0
VERTEX
  8
T65SSILL
 62
13
 10
6033.965
 20
-8899.330
 30
-1262.628
 70
    32
  0
VERTEX
  8
T65SSILL
 62
13
 10
6023.167
 20
-8875.918
 30
-1262.397
 70
    32
  0
VERTEX
  8
T65SSILL
 62
13
 10
5823.522
 20
-8567.998
 30
-1259.698
 70
    32
  0
VERTEX
  8
T65SSILL
 62
13
 10
5787.547
 20
-8560.368
 30
-1259.570
 70
    32
  0
VERTEX
  8
T65SSILL
 62
13
 10
5788.616
 20
-8551.478
 30
-1259.585
 70
    32
  0
VERTEX
  8
T65SSILL
 62
13
 10
5816.163
 20
-8556.859
 30
-1259.684
 70
    32
  0
VERTEX
  8
T65SSILL
 62
13
 10
5685.784
 20
-8358.429
 30
-1259.205
 70
    32
  0
VERTEX
  8
T65SSILL
 62
13
 10
5674.843
 20
-8359.329
 30
-1259.045
 70
    32
  0
VERTEX
  8
T65SSILL
 62
13
 10
5672.541
 20
-8346.689
 30
-1259.097
 70
    32
  0
VERTEX
  8
T65SSILL
 62
13
 10
5677.648
 20
-8346.333
 30
-1259.171
 70
    32
  0
VERTEX
  8
T65SSILL
 62
13
 10
5629.999
 20
-8273.584
 30
-1258.987
 70
    32
  0
VERTEX
  8
T65SSILL
 62
13
 10
5636.677
 20
-8268.272
 30
-1259.116
 70
    32
  0
VERTEX
  8
T65SSILL
 62
13
 10
5686.504
 20
-8344.748
 30
-1259.306
 70
    32
  0
VERTEX
  8
T65SSILL
 62
13
 10
5704.387
 20
-8342.744
 30
-1259.570
 70
    32
  0
VERTEX
  8
T65SSILL
 62
13
 10
5704.810
 20
-8345.341
 30
-1259.559
 70
    32
  0
VERTEX
  8
T65SSILL
 62
13
 10
5726.513
 20
-8342.059
 30
-1259.885
 70
    32
  0
VERTEX
  8
T65SSILL
 62
13
 10
5728.494
 20
-8350.102
 30
-1259.860
 70
    32
  0
VERTEX
  8
T65SSILL
 62
13
 10
5705.856
 20
-8352.966
 30
-1259.523
 70
    32
  0
VERTEX
  8
T65SSILL
 62
13
 10
5705.531
 20
-8354.800
 30
-1259.506
 70
    32
  0
VERTEX
  8
T65SSILL
 62
13
 10
5694.122
 20
-8356.563
 30
-1259.334
 70
    32
  0
VERTEX
  8
T65SSILL
 62
13
 10
5744.063
 20
-8433.816
 30
-1259.521
 70
    32
  0
VERTEX
  8
T65SSILL
 62
13
 10
5761.006
 20
-8423.286
 30
-1259.829
 70
    32
  0
VERTEX
  8
T65SSILL
 62
13
 10
5767.791
 20
-8431.700
 30
-1259.868
 70
    32
  0
VERTEX
  8
T65SSILL
 62
13
 10
5750.402
 20
-8442.883
 30
-1259.549
 70
    32
  0
VERTEX
  8
T65SSILL
 62
13
 10
5938.175
 20
-8730.605
 30
-1260.723
 70
    32
  0
VERTEX
  8
T65SSILL
 62
13
 10
5964.174
 20
-8610.114
 30
-1261.995
 70
    32
  0
VERTEX
  8
T65SSILL
 62
13
 10
5962.509
 20
-8591.029
 30
-1262.080
 70
    32
  0
VERTEX
  8
T65SSILL
 62
13
 10
5959.176
 20
-8582.432
 30
-1262.066
 70
    32
  0
VERTEX
  8
T65SSILL
 62
13
 10
5952.133
 20
-8571.286
 30
-1261.994
 70
    32
  0
VERTEX
  8
T65SSILL
 62
13
 10
5949.882
 20
-8569.752
 30
-1261.958
 70
    32
  0
VERTEX
  8
T65SSILL
 62
13
 10
5867.585
 20
-8443.769
 30
-1261.188
 70
    32
  0
VERTEX
  8
T65SSILL
 62
13
 10
5889.215
 20
-8429.503
 30
-1261.479
 70
    32
  0
VERTEX
  8
T65SSILL
 62
13
 10
5897.940
 20
-8442.901
 30
-1261.569
 70
    32
  0
VERTEX
  8
T65SSILL
 62
13
 10
5885.412
 20
-8451.339
 30
-1261.387
 70
    32
  0
VERTEX
  8
T65SSILL
 62
13
 10
5910.106
 20
-8489.570
 30
-1261.653
 70
    32
  0
VERTEX
  8
T65SSILL
 62
13
 10
5920.900
 20
-8483.095
 30
-1261.911
 70
    32
  0
VERTEX
  8
T65SSILL
 62
13
 10
5925.061
 20
-8489.506
 30
-1261.955
 70
    32
  0
VERTEX
  8
T65SSILL
 62
13
 10
5914.706
 20
-8495.996
 30
-1261.706
 70
    32
  0
VERTEX
  8
T65SSILL
 62
13
 10
5958.129
 20
-8563.772
 30
-1262.161
 70
    32
  0
VERTEX
  8
T65SSILL
 62
13
 10
5957.474
 20
-8564.980
 30
-1262.140
 70
    32
  0
VERTEX
  8
T65SSILL
 62
13
 10
5962.850
 20
-8573.435
 30
-1262.196
 70
    32
  0
VERTEX
  8
T65SSILL
 62
13
 10
5965.368
 20
-8571.674
 30
-1262.258
 70
    32
  0
VERTEX
  8
T65SSILL
 62
13
 10
5970.048
 20
-8486.122
 30
-1261.707
 70
    32
  0
VERTEX
  8
T65SSILL
 62
13
 10
5959.397
 20
-8471.500
 30
-1261.482
 70
    32
  0
VERTEX
  8
T65SSILL
 62
13
 10
5956.031
 20
-8469.138
 30
-1261.467
 70
    32
  0
VERTEX
  8
T65SSILL
 62
13
 10
5955.553
 20
-8462.938
 30
-1261.319
 70
    32
  0
VERTEX
  8
T65SSILL
 62
13
 10
5956.317
 20
-8461.118
 30
-1261.264
 70
    32
  0
VERTEX
  8
T65SSILL
 62
13
 10
5961.598
 20
-8458.712
 30
-1261.135
 70
    32
  0
VERTEX
  8
T65SSILL
 62
13
 10
5966.472
 20
-8451.126
 30
-1261.116
 70
    32
  0
VERTEX
  8
T65SSILL
 62
13
 10
5963.459
 20
-8449.268
 30
-1261.132
 70
    32
  0
VERTEX
  8
T65SSILL
 62
13
 10
5952.436
 20
-8454.189
 30
-1261.178
 70
    32
  0
VERTEX
  8
T65SSILL
 62
13
 10
5949.269
 20
-8445.369
 30
-1261.203
 70
    32
  0
VERTEX
  8
T65SSILL
 62
13
 10
5953.751
 20
-8443.199
 30
-1261.184
 70
    32
  0
VERTEX
  8
T65SSILL
 62
13
 10
5962.611
 20
-8422.006
 30
-1261.165
 70
    32
  0
VERTEX
  8
T65SSILL
 62
13
 10
5969.459
 20
-8422.146
 30
-1261.133
 70
    32
  0
VERTEX
  8
T65SSILL
 62
13
 10
5973.660
 20
-8420.494
 30
-1261.115
 70
    32
  0
VERTEX
  8
T65SSILL
 62
13
 10
5977.744
 20
-8334.395
 30
-1260.880
 70
    32
  0
VERTEX
  8
T65SSILL
 62
13
 10
5966.163
 20
-8334.993
 30
-1260.875
 70
    32
  0
VERTEX
  8
T65SSILL
 62
13
 10
5963.294
 20
-8331.963
 30
-1260.852
 70
    32
  0
VERTEX
  8
T65SSILL
 62
13
 10
5961.673
 20
-8311.562
 30
-1260.708
 70
    32
  0
VERTEX
  8
T65SSILL
 62
13
 10
5963.314
 20
-8309.772
 30
-1260.697
 70
    32
  0
VERTEX
  8
T65SSILL
 62
13
 10
5976.536
 20
-8308.456
 30
-1260.697
 70
    32
  0
VERTEX
  8
T65SSILL
 62
13
 10
5982.975
 20
-8178.070
 30
-1259.789
 70
    32
  0
VERTEX
  8
T65SSILL
 62
13
 10
5993.203
 20
-8177.990
 30
-1259.796
 70
    32
  0
VERTEX
  8
T65SSILL
 62
13
 10
5973.299
 20
-8564.629
 30
-1262.462
 70
    32
  0
VERTEX
  8
T65SSILL
 62
13
 10
5976.970
 20
-8573.098
 30
-1262.484
 70
    32
  0
VERTEX
  8
T65SSILL
 62
13
 10
5975.829
 20
-8593.072
 30
-1262.336
 70
    32
  0
VERTEX
  8
T65SSILL
 62
13
 10
5971.645
 20
-8602.105
 30
-1262.196
 70
    32
  0
VERTEX
  8
T65SSILL
 62
13
 10
5971.792
 20
-8609.823
 30
-1262.151
 70
    32
  0
VERTEX
  8
T65SSILL
 62
13
 10
5946.976
 20
-8724.345
 30
-1260.939
 70
    32
  0
VERTEX
  8
T65SSILL
 62
13
 10
5948.424
 20
-8745.724
 30
-1260.872
 70
    32
  0
VERTEX
  8
T65SSILL
 62
13
 10
6040.115
 20
-8886.674
 30
-1262.699
 70
    32
  0
VERTEX
  8
T65SSILL
 62
13
 10
6061.891
 20
-8907.553
 30
-1263.104
 70
    32
  0
VERTEX
  8
T65SSILL
 62
13
 10
6082.393
 20
-8918.181
 30
-1263.465
 70
    32
  0
VERTEX
  8
T65SSILL
 62
13
 10
6095.288
 20
-8921.915
 30
-1263.684
 70
    32
  0
VERTEX
  8
T65SSILL
 62
13
 10
6121.987
 20
-8924.246
 30
-1264.127
 70
    32
  0
VERTEX
  8
T65SSILL
 62
13
 10
6332.217
 20
-8910.531
 30
-1267.557
 70
    32
  0
VERTEX
  8
T65SSILL
 62
13
 10
6672.859
 20
-8885.757
 30
-1260.748
 70
    32
  0
VERTEX
  8
T65SSILL
 62
13
 10
6682.198
 20
-8883.372
 30
-1260.567
 70
    32
  0
VERTEX
  8
T65SSILL
 62
13
 10
6697.968
 20
-8874.633
 30
-1260.290
 70
    32
  0
VERTEX
  8
T65SSILL
 62
13
 10
6775.768
 20
-8820.235
 30
-1258.989
 70
    32
  0
VERTEX
  8
T65SSILL
 62
13
 10
6910.901
 20
-8763.149
 30
-1256.370
 70
    32
  0
VERTEX
  8
T65SSILL
 62
13
 10
6973.922
 20
-8736.526
 30
-1256.391
 70
    32
  0
VERTEX
  8
T65SSILL
 62
13
 10
6992.571
 20
-8726.923
 30
-1256.413
 70
    32
  0
VERTEX
  8
T65SSILL
 62
13
 10
7031.686
 20
-8711.443
 30
-1256.477
 70
    32
  0
VERTEX
  8
T65SSILL
 62
13
 10
7129.562
 20
-8666.433
 30
-1256.534
 70
    32
  0
VERTEX
  8
T65SSILL
 62
13
 10
7132.242
 20
-8661.666
 30
-1256.525
 70
    32
  0
VERTEX
  8
T65SSILL
 62
13
 10
7130.960
 20
-8658.156
 30
-1256.544
 70
    32
  0
VERTEX
  8
T65SSILL
 62
13
 10
7133.949
 20
-8652.463
 30
-1256.529
 70
    32
  0
VERTEX
  8
T65SSILL
 62
13
 10
7147.138
 20
-8645.756
 30
-1256.449
 70
    32
  0
VERTEX
  8
T65SSILL
 62
13
 10
7167.635
 20
-8639.007
 30
-1256.304
 70
    32
  0
VERTEX
  8
T65SSILL
 62
13
 10
7173.513
 20
-8647.168
 30
-1256.235
 70
    32
  0
VERTEX
  8
T65SSILL
 62
13
 10
7181.913
 20
-8644.259
 30
-1256.176
 70
    32
  0
VERTEX
  8
T65SSILL
 62
13
 10
7183.115
 20
-8637.897
 30
-1256.183
 70
    32
  0
VERTEX
  8
T65SSILL
 62
13
 10
7196.380
 20
-8632.201
 30
-1256.093
 70
    32
  0
VERTEX
  8
T65SSILL
 62
13
 10
7205.398
 20
-8636.550
 30
-1256.009
 70
    32
  0
VERTEX
  8
T65SSILL
 62
13
 10
7211.011
 20
-8631.014
 30
-1255.979
 70
    32
  0
VERTEX
  8
T65SSILL
 62
13
 10
7215.481
 20
-8623.037
 30
-1255.965
 70
    32
  0
VERTEX
  8
T65SSILL
 62
13
 10
7234.199
 20
-8614.208
 30
-1255.839
 70
    32
  0
VERTEX
  8
T65SSILL
 62
13
 10
7253.231
 20
-8549.178
 30
-1255.862
 70
    32
  0
VERTEX
  8
T65SSILL
 62
13
 10
7249.876
 20
-8542.274
 30
-1255.908
 70
    32
  0
VERTEX
  8
T65SSILL
 62
13
 10
7241.388
 20
-8538.963
 30
-1255.985
 70
    32
  0
VERTEX
  8
T65SSILL
 62
13
 10
7238.674
 20
-8536.399
 30
-1256.013
 70
    32
  0
VERTEX
  8
T65SSILL
 62
13
 10
7239.273
 20
-8529.566
 30
-1256.027
 70
    32
  0
VERTEX
  8
T65SSILL
 62
13
 10
7244.224
 20
-8525.333
 30
-1255.999
 70
    32
  0
VERTEX
  8
T65SSILL
 62
13
 10
7257.359
 20
-8522.159
 30
-1255.902
 70
    32
  0
VERTEX
  8
T65SSILL
 62
13
 10
7261.327
 20
-8517.751
 30
-1255.883
 70
    32
  0
VERTEX
  8
T65SSILL
 62
13
 10
7282.538
 20
-8445.895
 30
-1255.907
 70
    32
  0
VERTEX
  8
T65SSILL
 62
13
 10
7280.340
 20
-8436.689
 30
-1255.941
 70
    32
  0
VERTEX
  8
T65SSILL
 62
13
 10
7274.666
 20
-8425.904
 30
-1255.919
 70
    32
  0
VERTEX
  8
T65SSILL
 62
13
 10
7259.374
 20
-8414.585
 30
-1255.901
 70
    32
  0
VERTEX
  8
T65SSILL
 62
13
 10
7252.670
 20
-8416.089
 30
-1255.908
 70
    32
  0
VERTEX
  8
T65SSILL
 62
13
 10
7243.977
 20
-8413.476
 30
-1255.907
 70
    32
  0
VERTEX
  8
T65SSILL
 62
13
 10
7241.995
 20
-8409.658
 30
-1255.899
 70
    32
  0
VERTEX
  8
T65SSILL
 62
13
 10
7242.376
 20
-8404.695
 30
-1255.887
 70
    32
  0
VERTEX
  8
T65SSILL
 62
13
 10
7228.544
 20
-8394.656
 30
-1255.826
 70
    32
  0
VERTEX
  8
T65SSILL
 62
13
 10
7227.487
 20
-8390.570
 30
-1255.807
 70
    32
  0
VERTEX
  8
T65SSILL
 62
13
 10
7229.629
 20
-8369.547
 30
-1255.732
 70
    32
  0
VERTEX
  8
T65SSILL
 62
13
 10
7224.195
 20
-8346.746
 30
-1255.625
 70
    32
  0
VERTEX
  8
T65SSILL
 62
13
 10
7226.683
 20
-8344.786
 30
-1255.625
 70
    32
  0
VERTEX
  8
T65SSILL
 62
13
 10
7235.380
 20
-8343.985
 30
-1255.649
 70
    32
  0
VERTEX
  8
T65SSILL
 62
13
 10
7238.945
 20
-8335.854
 30
-1255.628
 70
    32
  0
VERTEX
  8
T65SSILL
 62
13
 10
7239.138
 20
-8321.221
 30
-1255.570
 70
    32
  0
VERTEX
  8
T65SSILL
 62
13
 10
7246.566
 20
-8298.377
 30
-1255.501
 70
    32
  0
VERTEX
  8
T65SSILL
 62
13
 10
7244.523
 20
-8294.269
 30
-1255.478
 70
    32
  0
VERTEX
  8
T65SSILL
 62
13
 10
7249.473
 20
-8284.116
 30
-1255.453
 70
    32
  0
VERTEX
  8
T65SSILL
 62
13
 10
7257.567
 20
-8274.952
 30
-1255.442
 70
    32
  0
VERTEX
  8
T65SSILL
 62
13
 10
7266.231
 20
-8257.315
 30
-1255.399
 70
    32
  0
VERTEX
  8
T65SSILL
 62
13
 10
7237.961
 20
-8228.415
 30
-1255.413
 70
    32
  0
VERTEX
  8
T65SSILL
 62
13
 10
7242.686
 20
-8224.673
 30
-1255.395
 70
    32
  0
VERTEX
  8
T65SSILL
 62
13
 10
7314.403
 20
-8299.356
 30
-1255.600
 70
    32
  0
VERTEX
  8
T65SSILL
 62
13
 10
7322.150
 20
-8310.002
 30
-1255.621
 70
    32
  0
VERTEX
  8
T65SSILL
 62
13
 10
7443.999
 20
-7892.239
 30
-1254.471
 70
    32
  0
VERTEX
  8
T65SSILL
 62
13
 10
7444.029
 20
-7887.832
 30
-1254.461
 70
    32
  0
VERTEX
  8
T65SSILL
 62
13
 10
7419.655
 20
-7789.347
 30
-1254.364
 70
    32
  0
VERTEX
  8
T65SSILL
 62
13
 10
7407.504
 20
-7795.592
 30
-1254.341
 70
    32
  0
VERTEX
  8
T65SSILL
 62
13
 10
7402.127
 20
-7795.731
 30
-1254.284
 70
    32
  0
VERTEX
  8
T65SSILL
 62
13
 10
7400.691
 20
-7794.382
 30
-1254.275
 70
    32
  0
VERTEX
  8
T65SSILL
 62
13
 10
7409.104
 20
-7783.229
 30
-1254.335
 70
    32
  0
VERTEX
  8
T65SSILL
 62
13
 10
7416.985
 20
-7777.731
 30
-1254.351
 70
    32
  0
VERTEX
  8
T65SSILL
 62
13
 10
7341.685
 20
-7471.174
 30
-1253.878
 70
    32
  0
VERTEX
  8
T65SSILL
 62
13
 10
7334.459
 20
-7463.475
 30
-1253.922
 70
    32
  0
VERTEX
  8
T65SSILL
 62
13
 10
7338.855
 20
-7459.786
 30
-1253.899
 70
    32
  0
VERTEX
  8
T65SSILL
 62
13
 10
7315.838
 20
-7364.024
 30
-1253.912
 70
    32
  0
VERTEX
  8
T65SSILL
 62
13
 10
7310.519
 20
-7358.312
 30
-1253.930
 70
    32
  0
VERTEX
  8
T65SSILL
 62
13
 10
7312.299
 20
-7350.639
 30
-1253.889
 70
    32
  0
VERTEX
  8
T65SSILL
 62
13
 10
7288.891
 20
-7257.907
 30
-1253.382
 70
    32
  0
VERTEX
  8
T65SSILL
 62
13
 10
7282.373
 20
-7254.725
 30
-1253.429
 70
    32
  0
VERTEX
  8
T65SSILL
 62
13
 10
7286.646
 20
-7248.497
 30
-1253.407
 70
    32
  0
VERTEX
  8
T65SSILL
 62
13
 10
7262.446
 20
-7150.542
 30
-1253.584
 70
    32
  0
VERTEX
  8
T65SSILL
 62
13
 10
7256.344
 20
-7145.847
 30
-1253.555
 70
    32
  0
VERTEX
  8
T65SSILL
 62
13
 10
7259.276
 20
-7139.733
 30
-1253.544
 70
    32
  0
VERTEX
  8
T65SSILL
 62
13
 10
7235.140
 20
-7040.086
 30
-1253.186
 70
    32
  0
VERTEX
  8
T65SSILL
 62
13
 10
7230.518
 20
-7038.133
 30
-1253.169
 70
    32
  0
VERTEX
  8
T65SSILL
 62
13
 10
7232.585
 20
-7032.331
 30
-1253.157
 70
    32
  0
VERTEX
  8
T65SSILL
 62
13
 10
7224.278
 20
-6996.933
 30
-1253.030
 70
    32
  0
VERTEX
  8
T65SSILL
 62
13
 10
7231.146
 20
-6995.253
 30
-1253.042
 70
    32
  0
VERTEX
  8
T65SSILL
 62
13
 10
7237.147
 20
-7022.491
 30
-1253.139
 70
    32
  0
VERTEX
  8
T65SSILL
 62
13
 10
7242.672
 20
-7028.927
 30
-1253.172
 70
    32
  0
VERTEX
  8
T65SSILL
 62
13
 10
7240.159
 20
-7033.087
 30
-1253.178
 70
    32
  0
VERTEX
  8
T65SSILL
 62
13
 10
7264.972
 20
-7129.055
 30
-1253.526
 70
    32
  0
VERTEX
  8
T65SSILL
 62
13
 10
7272.424
 20
-7134.834
 30
-1253.562
 70
    32
  0
VERTEX
  8
T65SSILL
 62
13
 10
7269.325
 20
-7139.537
 30
-1253.569
 70
    32
  0
VERTEX
  8
T65SSILL
 62
13
 10
7269.418
 20
-7149.003
 30
-1253.597
 70
    32
  0
VERTEX
  8
T65SSILL
 62
13
 10
7291.784
 20
-7239.437
 30
-1253.397
 70
    32
  0
VERTEX
  8
T65SSILL
 62
13
 10
7297.942
 20
-7243.762
 30
-1253.376
 70
    32
  0
VERTEX
  8
T65SSILL
 62
13
 10
7294.516
 20
-7247.282
 30
-1253.375
 70
    32
  0
VERTEX
  8
T65SSILL
 62
13
 10
7317.939
 20
-7342.852
 30
-1253.837
 70
    32
  0
VERTEX
  8
T65SSILL
 62
13
 10
7323.450
 20
-7348.971
 30
-1253.866
 70
    32
  0
VERTEX
  8
T65SSILL
 62
13
 10
7321.288
 20
-7355.830
 30
-1253.900
 70
    32
  0
VERTEX
  8
T65SSILL
 62
13
 10
7344.726
 20
-7449.197
 30
-1253.890
 70
    32
  0
VERTEX
  8
T65SSILL
 62
13
 10
7350.775
 20
-7451.301
 30
-1253.884
 70
    32
  0
VERTEX
  8
T65SSILL
 62
13
 10
7353.454
 20
-7456.554
 30
-1253.874
 70
    32
  0
VERTEX
  8
T65SSILL
 62
13
 10
7347.397
 20
-7460.813
 30
-1253.869
 70
    32
  0
VERTEX
  8
T65SSILL
 62
13
 10
7369.791
 20
-7554.843
 30
-1253.726
 70
    32
  0
VERTEX
  8
T65SSILL
 62
13
 10
7378.866
 20
-7557.778
 30
-1253.745
 70
    32
  0
VERTEX
  8
T65SSILL
 62
13
 10
7383.999
 20
-7577.766
 30
-1253.777
 70
    32
  0
VERTEX
  8
T65SSILL
 62
13
 10
7377.487
 20
-7584.226
 30
-1253.773
 70
    32
  0
VERTEX
  8
T65SSILL
 62
13
 10
7453.094
 20
-7889.569
 30
-1254.449
 70
    32
  0
VERTEX
  8
T65SSILL
 62
13
 10
7377.013
 20
-8153.405
 30
-1255.223
 70
    32
  0
VERTEX
  8
T65SSILL
 62
13
 10
7384.329
 20
-8155.887
 30
-1255.224
 70
    32
  0
VERTEX
  8
T65SSILL
 62
13
 10
7378.358
 20
-8178.496
 30
-1255.281
 70
    32
  0
VERTEX
  8
T65SSILL
 62
13
 10
7370.207
 20
-8176.960
 30
-1255.282
 70
    32
  0
VERTEX
  8
T65SSILL
 62
13
 10
7323.736
 20
-8331.635
 30
-1255.671
 70
    32
  0
VERTEX
  8
T65SSILL
 62
13
 10
7323.790
 20
-8343.120
 30
-1255.698
 70
    32
  0
VERTEX
  8
T65SSILL
 62
13
 10
7325.737
 20
-8346.006
 30
-1255.703
 70
    32
  0
VERTEX
  8
T65SSILL
 62
13
 10
7365.986
 20
-8316.772
 30
-1255.589
 70
    32
  0
VERTEX
  8
T65SSILL
 62
13
 10
7362.325
 20
-8309.427
 30
-1255.597
 70
    32
  0
VERTEX
  8
T65SSILL
 62
13
 10
7382.028
 20
-8295.155
 30
-1255.519
 70
    32
  0
VERTEX
  8
T65SSILL
 62
13
 10
7399.448
 20
-8285.764
 30
-1255.405
 70
    32
  0
VERTEX
  8
T65SSILL
 62
13
 10
7406.083
 20
-8285.560
 30
-1255.353
 70
    32
  0
VERTEX
  8
T65SSILL
 62
13
 10
7417.863
 20
-8279.514
 30
-1255.275
 70
    32
  0
VERTEX
  8
T65SSILL
 62
13
 10
7419.332
 20
-8287.796
 30
-1255.241
 70
    32
  0
VERTEX
  8
T65SSILL
 62
13
 10
7416.056
 20
-8289.536
 30
-1255.262
 70
    32
  0
VERTEX
  8
T65SSILL
 62
13
 10
7414.019
 20
-8299.277
 30
-1255.252
 70
    32
  0
VERTEX
  8
T65SSILL
 62
13
 10
7406.553
 20
-8304.751
 30
-1255.297
 70
    32
  0
VERTEX
  8
T65SSILL
 62
13
 10
7400.229
 20
-8313.881
 30
-1255.323
 70
    32
  0
VERTEX
  8
T65SSILL
 62
13
 10
7386.148
 20
-8320.427
 30
-1255.418
 70
    32
  0
VERTEX
  8
T65SSILL
 62
13
 10
7381.662
 20
-8318.155
 30
-1255.460
 70
    32
  0
VERTEX
  8
T65SSILL
 62
13
 10
7370.890
 20
-8323.237
 30
-1255.532
 70
    32
  0
VERTEX
  8
T65SSILL
 62
13
 10
7346.879
 20
-8340.234
 30
-1255.678
 70
    32
  0
SEQEND
  8
T65SSILL
  0
POLYLINE
  8
T65SSILL
 62
13
 66
     1
 70
     9
  0
VERTEX
  8
T65SSILL
 62
13
 10
1653.114
 20
-8354.654
 30
-1238.000
 70
    32
  0
VERTEX
  8
T65SSILL
 62
13
 10
1665.397
 20
-8359.249
 30
-1238.000
 70
    32
  0
VERTEX
  8
T65SSILL
 62
13
 10
1681.942
 20
-8362.329
 30
-1238.000
 70
    32
  0
VERTEX
  8
T65SSILL
 62
13
 10
1689.404
 20
-8367.266
 30
-1238.000
 70
    32
  0
VERTEX
  8
T65SSILL
 62
13
 10
1691.903
 20
-8367.678
 30
-1238.000
 70
    32
  0
VERTEX
  8
T65SSILL
 62
13
 10
1694.342
 20
-8361.283
 30
-1238.000
 70
    32
  0
VERTEX
  8
T65SSILL
 62
13
 10
1693.479
 20
-8359.143
 30
-1238.000
 70
    32
  0
VERTEX
  8
T65SSILL
 62
13
 10
1685.216
 20
-8342.853
 30
-1238.000
 70
    32
  0
VERTEX
  8
T65SSILL
 62
13
 10
1684.570
 20
-8335.582
 30
-1238.000
 70
    32
  0
SEQEND
  8
T65SSILL
  0
POLYLINE
  8
T65SSILL
 62
3
 66
     1
 70
     8
  0
VERTEX
  8
T65SSILL
 62
3
 10
1613.062
 20
-8337.462
 30
-1232.000
 70
    32
  0
VERTEX
  8
T65SSILL
 62
3
 10
1621.218
 20
-8341.977
 30
-1233.300
 70
    32
  0
VERTEX
  8
T65SSILL
 62
3
 10
1640.105
 20
-8344.558
 30
-1237.300
 70
    32
  0
VERTEX
  8
T65SSILL
 62
3
 10
1646.329
 20
-8348.428
 30
-1239.000
 70
    32
  0
VERTEX
  8
T65SSILL
 62
3
 10
1631.091
 20
-8357.244
 30
-1237.000
 70
    32
  0
VERTEX
  8
T65SSILL
 62
3
 10
1604.692
 20
-8350.578
 30
-1231.300
 70
    32
  0
SEQEND
  8
T65SSILL
  0
TEXT
  8
T65SSILL
 62
3
 10
1621.782
 20
-8327.879
 30
-1240.000
 40
2.362
  1
U
 41
 1.0 
  0
POLYLINE
  8
T65SSILL
 62
13
 66
     1
 70
     9
  0
VERTEX
  8
T65SSILL
 62
13
 10
1773.883
 20
-8440.625
 30
-1239.307
 70
    32
  0
VERTEX
  8
T65SSILL
 62
13
 10
1718.773
 20
-8379.789
 30
-1238.925
 70
    32
  0
VERTEX
  8
T65SSILL
 62
13
 10
1702.873
 20
-8356.476
 30
-1239.001
 70
    32
  0
VERTEX
  8
T65SSILL
 62
13
 10
1693.561
 20
-8333.867
 30
-1239.158
 70
    32
  0
VERTEX
  8
T65SSILL
 62
13
 10
1693.941
 20
-8328.511
 30
-1239.187
 70
    32
  0
VERTEX
  8
T65SSILL
 62
13
 10
1709.150
 20
-8316.303
 30
-1239.251
 70
    32
  0
VERTEX
  8
T65SSILL
 62
13
 10
1713.675
 20
-8321.756
 30
-1239.225
 70
    32
  0
VERTEX
  8
T65SSILL
 62
13
 10
1725.077
 20
-8314.072
 30
-1239.266
 70
    32
  0
VERTEX
  8
T65SSILL
 62
13
 10
1720.939
 20
-8307.932
 30
-1239.295
 70
    32
  0
VERTEX
  8
T65SSILL
 62
13
 10
1739.040
 20
-8295.519
 30
-1239.361
 70
    32
  0
VERTEX
  8
T65SSILL
 62
13
 10
1742.960
 20
-8302.125
 30
-1239.329
 70
    32
  0
VERTEX
  8
T65SSILL
 62
13
 10
1742.958
 20
-8311.267
 30
-1239.285
 70
    32
  0
VERTEX
  8
T65SSILL
 62
13
 10
1745.521
 20
-8315.386
 30
-1239.265
 70
    32
  0
VERTEX
  8
T65SSILL
 62
13
 10
1750.466
 20
-8316.730
 30
-1239.260
 70
    32
  0
VERTEX
  8
T65SSILL
 62
13
 10
1761.342
 20
-8311.419
 30
-1239.289
 70
    32
  0
VERTEX
  8
T65SSILL
 62
13
 10
1763.187
 20
-8308.794
 30
-1239.303
 70
    32
  0
VERTEX
  8
T65SSILL
 62
13
 10
1749.924
 20
-8286.908
 30
-1239.406
 70
    32
  0
VERTEX
  8
T65SSILL
 62
13
 10
1799.981
 20
-8251.257
 30
-1239.566
 70
    32
  0
VERTEX
  8
T65SSILL
 62
13
 10
1806.207
 20
-8245.040
 30
-1239.591
 70
    32
  0
VERTEX
  8
T65SSILL
 62
13
 10
1811.814
 20
-8237.116
 30
-1239.622
 70
    32
  0
VERTEX
  8
T65SSILL
 62
13
 10
1816.110
 20
-8226.142
 30
-1239.665
 70
    32
  0
VERTEX
  8
T65SSILL
 62
13
 10
1816.145
 20
-8223.355
 30
-1239.677
 70
    32
  0
VERTEX
  8
T65SSILL
 62
13
 10
1836.471
 20
-8277.688
 30
-1239.457
 70
    32
  0
VERTEX
  8
T65SSILL
 62
13
 10
1834.800
 20
-8279.881
 30
-1239.448
 70
    32
  0
VERTEX
  8
T65SSILL
 62
13
 10
1836.601
 20
-8285.209
 30
-1239.426
 70
    32
  0
VERTEX
  8
T65SSILL
 62
13
 10
1844.312
 20
-8292.233
 30
-1239.398
 70
    32
  0
VERTEX
  8
T65SSILL
 62
13
 10
1873.037
 20
-8374.956
 30
-1239.031
 70
    32
  0
VERTEX
  8
T65SSILL
 62
13
 10
1868.890
 20
-8380.034
 30
-1239.093
 70
    32
  0
VERTEX
  8
T65SSILL
 62
13
 10
1878.236
 20
-8389.460
 30
-1238.950
 70
    32
  0
VERTEX
  8
T65SSILL
 62
13
 10
1907.717
 20
-8474.573
 30
-1238.489
 70
    32
  0
VERTEX
  8
T65SSILL
 62
13
 10
1903.930
 20
-8482.545
 30
-1238.545
 70
    32
  0
VERTEX
  8
T65SSILL
 62
13
 10
1909.915
 20
-8486.143
 30
-1238.454
 70
    32
  0
VERTEX
  8
T65SSILL
 62
13
 10
1912.806
 20
-8489.375
 30
-1238.409
 70
    32
  0
VERTEX
  8
T65SSILL
 62
13
 10
1939.817
 20
-8571.385
 30
-1238.017
 70
    32
  0
VERTEX
  8
T65SSILL
 62
13
 10
1939.817
 20
-8571.385
 30
-1238.017
 70
    32
  0
VERTEX
  8
T65SSILL
 62
13
 10
1937.294
 20
-8581.243
 30
-1241.867
 70
    32
  0
VERTEX
  8
T65SSILL
 62
13
 10
1930.497
 20
-8584.247
 30
-1241.927
 70
    32
  0
VERTEX
  8
T65SSILL
 62
13
 10
1930.497
 20
-8584.247
 30
-1238.180
 70
    32
  0
VERTEX
  8
T65SSILL
 62
13
 10
1832.066
 20
-8504.108
 30
-1239.634
 70
    32
  0
VERTEX
  8
T65SSILL
 62
13
 10
1774.254
 20
-8440.289
 30
-1239.308
 70
    32
  0
SEQEND
  8
T65SSILL
  0
POLYLINE
  8
T65SSILL
 62
13
 66
     1
 70
     9
  0
VERTEX
  8
T65SSILL
 62
13
 10
1291.187
 20
-6732.695
 30
-1236.809
 70
    32
  0
VERTEX
  8
T65SSILL
 62
13
 10
1302.851
 20
-6733.044
 30
-1236.809
 70
    32
  0
VERTEX
  8
T65SSILL
 62
13
 10
1338.720
 20
-6740.400
 30
-1236.809
 70
    32
  0
VERTEX
  8
T65SSILL
 62
13
 10
1368.980
 20
-6748.390
 30
-1236.809
 70
    32
  0
VERTEX
  8
T65SSILL
 62
13
 10
1373.404
 20
-6760.018
 30
-1236.809
 70
    32
  0
VERTEX
  8
T65SSILL
 62
13
 10
1371.824
 20
-6766.030
 30
-1236.809
 70
    32
  0
VERTEX
  8
T65SSILL
 62
13
 10
1367.598
 20
-6769.145
 30
-1236.855
 70
    32
  0
VERTEX
  8
T65SSILL
 62
13
 10
1364.559
 20
-6766.388
 30
-1236.829
 70
    32
  0
VERTEX
  8
T65SSILL
 62
13
 10
1355.520
 20
-6758.189
 30
-1236.753
 70
    32
  0
VERTEX
  8
T65SSILL
 62
13
 10
1353.804
 20
-6760.359
 30
-1236.743
 70
    32
  0
VERTEX
  8
T65SSILL
 62
13
 10
1353.136
 20
-6764.490
 30
-1236.743
 70
    32
  0
VERTEX
  8
T65SSILL
 62
13
 10
1359.693
 20
-6775.102
 30
-1236.803
 70
    32
  0
VERTEX
  8
T65SSILL
 62
13
 10
1343.782
 20
-6785.795
 30
-1236.772
 70
    32
  0
VERTEX
  8
T65SSILL
 62
13
 10
1333.827
 20
-6794.370
 30
-1236.840
 70
    32
  0
VERTEX
  8
T65SSILL
 62
13
 10
1327.330
 20
-6805.271
 30
-1236.902
 70
    32
  0
VERTEX
  8
T65SSILL
 62
13
 10
1324.583
 20
-6812.903
 30
-1236.938
 70
    32
  0
VERTEX
  8
T65SSILL
 62
13
 10
1319.471
 20
-6817.770
 30
-1236.974
 70
    32
  0
VERTEX
  8
T65SSILL
 62
13
 10
1291.656
 20
-6734.107
 30
-1236.812
 70
    32
  0
SEQEND
  8
T65SSILL
  0
POLYLINE
  8
T65SSILL
 62
13
 66
     1
 70
     9
  0
VERTEX
  8
T65SSILL
 62
13
 10
1279.520
 20
-6699.079
 30
-1236.749
 70
    32
  0
VERTEX
  8
T65SSILL
 62
13
 10
1216.452
 20
-6518.415
 30
-1236.416
 70
    32
  0
VERTEX
  8
T65SSILL
 62
13
 10
1224.502
 20
-6512.356
 30
-1236.364
 70
    32
  0
VERTEX
  8
T65SSILL
 62
13
 10
1218.956
 20
-6506.427
 30
-1236.367
 70
    32
  0
VERTEX
  8
T65SSILL
 62
13
 10
1213.389
 20
-6509.564
 30
-1236.399
 70
    32
  0
VERTEX
  8
T65SSILL
 62
13
 10
1201.982
 20
-6479.065
 30
-1236.346
 70
    32
  0
VERTEX
  8
T65SSILL
 62
13
 10
1221.832
 20
-6489.113
 30
-1236.299
 70
    32
  0
VERTEX
  8
T65SSILL
 62
13
 10
1232.525
 20
-6490.690
 30
-1236.261
 70
    32
  0
VERTEX
  8
T65SSILL
 62
13
 10
1240.694
 20
-6491.121
 30
-1236.229
 70
    32
  0
VERTEX
  8
T65SSILL
 62
13
 10
1260.502
 20
-6486.003
 30
-1236.132
 70
    32
  0
VERTEX
  8
T65SSILL
 62
13
 10
1291.224
 20
-6464.740
 30
-1235.950
 70
    32
  0
VERTEX
  8
T65SSILL
 62
13
 10
1301.770
 20
-6459.631
 30
-1236.023
 70
    32
  0
VERTEX
  8
T65SSILL
 62
13
 10
1316.872
 20
-6446.702
 30
-1236.120
 70
    32
  0
VERTEX
  8
T65SSILL
 62
13
 10
1372.541
 20
-6406.706
 30
-1236.275
 70
    32
  0
VERTEX
  8
T65SSILL
 62
13
 10
1372.541
 20
-6406.706
 30
-1235.933
 70
    32
  0
VERTEX
  8
T65SSILL
 62
13
 10
1379.804
 20
-6409.388
 30
-1235.944
 70
    32
  0
VERTEX
  8
T65SSILL
 62
13
 10
1382.767
 20
-6408.322
 30
-1235.943
 70
    32
  0
VERTEX
  8
T65SSILL
 62
13
 10
1390.283
 20
-6416.400
 30
-1235.934
 70
    32
  0
VERTEX
  8
T65SSILL
 62
13
 10
1430.677
 20
-6499.218
 30
-1235.864
 70
    32
  0
VERTEX
  8
T65SSILL
 62
13
 10
1457.604
 20
-6559.905
 30
-1235.810
 70
    32
  0
VERTEX
  8
T65SSILL
 62
13
 10
1468.152
 20
-6583.808
 30
-1235.783
 70
    32
  0
VERTEX
  8
T65SSILL
 62
13
 10
1471.786
 20
-6592.508
 30
-1235.752
 70
    32
  0
VERTEX
  8
T65SSILL
 62
13
 10
1489.607
 20
-6635.177
 30
-1235.603
 70
    32
  0
VERTEX
  8
T65SSILL
 62
13
 10
1490.496
 20
-6648.500
 30
-1235.547
 70
    32
  0
VERTEX
  8
T65SSILL
 62
13
 10
1481.152
 20
-6673.456
 30
-1236.724
 70
    32
  0
VERTEX
  8
T65SSILL
 62
13
 10
1477.879
 20
-6671.474
 30
-1236.721
 70
    32
  0
VERTEX
  8
T65SSILL
 62
13
 10
1473.393
 20
-6666.344
 30
-1236.713
 70
    32
  0
VERTEX
  8
T65SSILL
 62
13
 10
1463.688
 20
-6672.089
 30
-1236.726
 70
    32
  0
VERTEX
  8
T65SSILL
 62
13
 10
1450.745
 20
-6674.576
 30
-1236.734
 70
    32
  0
VERTEX
  8
T65SSILL
 62
13
 10
1448.074
 20
-6679.013
 30
-1236.742
 70
    32
  0
VERTEX
  8
T65SSILL
 62
13
 10
1448.116
 20
-6686.316
 30
-1236.755
 70
    32
  0
VERTEX
  8
T65SSILL
 62
13
 10
1446.328
 20
-6690.093
 30
-1236.762
 70
    32
  0
VERTEX
  8
T65SSILL
 62
13
 10
1452.621
 20
-6701.453
 30
-1236.781
 70
    32
  0
VERTEX
  8
T65SSILL
 62
13
 10
1444.206
 20
-6708.228
 30
-1236.795
 70
    32
  0
VERTEX
  8
T65SSILL
 62
13
 10
1440.843
 20
-6709.988
 30
-1236.793
 70
    32
  0
VERTEX
  8
T65SSILL
 62
13
 10
1423.420
 20
-6719.104
 30
-1236.784
 70
    32
  0
VERTEX
  8
T65SSILL
 62
13
 10
1403.933
 20
-6722.240
 30
-1236.784
 70
    32
  0
VERTEX
  8
T65SSILL
 62
13
 10
1405.325
 20
-6733.043
 30
-1236.784
 70
    32
  0
VERTEX
  8
T65SSILL
 62
13
 10
1393.842
 20
-6740.013
 30
-1236.784
 70
    32
  0
VERTEX
  8
T65SSILL
 62
13
 10
1393.842
 20
-6740.013
 30
-1236.784
 70
    32
  0
VERTEX
  8
T65SSILL
 62
13
 10
1357.999
 20
-6731.301
 30
-1236.784
 70
    32
  0
VERTEX
  8
T65SSILL
 62
13
 10
1343.036
 20
-6730.952
 30
-1236.784
 70
    32
  0
VERTEX
  8
T65SSILL
 62
13
 10
1287.914
 20
-6719.334
 30
-1236.784
 70
    32
  0
VERTEX
  8
T65SSILL
 62
13
 10
1286.088
 20
-6715.448
 30
-1236.776
 70
    32
  0
VERTEX
  8
T65SSILL
 62
13
 10
1294.928
 20
-6708.514
 30
-1236.718
 70
    32
  0
VERTEX
  8
T65SSILL
 62
13
 10
1290.510
 20
-6702.658
 30
-1236.717
 70
    32
  0
VERTEX
  8
T65SSILL
 62
13
 10
1282.771
 20
-6708.391
 30
-1236.767
 70
    32
  0
SEQEND
  8
T65SSILL
  0
POLYLINE
  8
T65SSILL
 62
13
 66
     1
 70
     9
  0
VERTEX
  8
T65SSILL
 62
13
 10
1426.567
 20
-6358.256
 30
-1235.810
 70
    32
  0
VERTEX
  8
T65SSILL
 62
13
 10
1407.502
 20
-6362.963
 30
-1235.793
 70
    32
  0
VERTEX
  8
T65SSILL
 62
13
 10
1406.782
 20
-6360.559
 30
-1235.781
 70
    32
  0
VERTEX
  8
T65SSILL
 62
13
 10
1407.651
 20
-6355.649
 30
-1235.761
 70
    32
  0
VERTEX
  8
T65SSILL
 62
13
 10
1412.856
 20
-6351.687
 30
-1235.753
 70
    32
  0
VERTEX
  8
T65SSILL
 62
13
 10
1409.571
 20
-6339.011
 30
-1235.687
 70
    32
  0
VERTEX
  8
T65SSILL
 62
13
 10
1410.503
 20
-6331.833
 30
-1235.658
 70
    32
  0
VERTEX
  8
T65SSILL
 62
13
 10
1407.922
 20
-6328.595
 30
-1235.642
 70
    32
  0
VERTEX
  8
T65SSILL
 62
13
 10
1409.160
 20
-6320.591
 30
-1235.614
 70
    32
  0
VERTEX
  8
T65SSILL
 62
13
 10
1406.698
 20
-6316.121
 30
-1235.595
 70
    32
  0
VERTEX
  8
T65SSILL
 62
13
 10
1407.351
 20
-6311.678
 30
-1235.583
 70
    32
  0
VERTEX
  8
T65SSILL
 62
13
 10
1387.514
 20
-6310.034
 30
-1235.533
 70
    32
  0
VERTEX
  8
T65SSILL
 62
13
 10
1377.050
 20
-6310.418
 30
-1235.503
 70
    32
  0
VERTEX
  8
T65SSILL
 62
13
 10
1371.969
 20
-6306.231
 30
-1235.468
 70
    32
  0
VERTEX
  8
T65SSILL
 62
13
 10
1338.137
 20
-6179.147
 30
-1235.877
 70
    32
  0
VERTEX
  8
T65SSILL
 62
13
 10
1330.857
 20
-6158.347
 30
-1235.842
 70
    32
  0
VERTEX
  8
T65SSILL
 62
13
 10
1319.061
 20
-6053.395
 30
-1235.657
 70
    32
  0
VERTEX
  8
T65SSILL
 62
13
 10
1319.513
 20
-6049.986
 30
-1235.651
 70
    32
  0
VERTEX
  8
T65SSILL
 62
13
 10
1292.877
 20
-5838.828
 30
-1235.076
 70
    32
  0
VERTEX
  8
T65SSILL
 62
13
 10
1283.946
 20
-5764.881
 30
-1233.880
 70
    32
  0
VERTEX
  8
T65SSILL
 62
13
 10
1289.109
 20
-5752.165
 30
-1233.866
 70
    32
  0
VERTEX
  8
T65SSILL
 62
13
 10
1298.392
 20
-5751.091
 30
-1234.119
 70
    32
  0
VERTEX
  8
T65SSILL
 62
13
 10
1296.920
 20
-5738.730
 30
-1233.919
 70
    32
  0
VERTEX
  8
T65SSILL
 62
13
 10
1287.748
 20
-5739.791
 30
-1233.670
 70
    32
  0
VERTEX
  8
T65SSILL
 62
13
 10
1286.687
 20
-5730.144
 30
-1233.517
 70
    32
  0
VERTEX
  8
T65SSILL
 62
13
 10
1280.816
 20
-5726.652
 30
-1233.476
 70
    32
  0
VERTEX
  8
T65SSILL
 62
13
 10
1249.649
 20
-5446.178
 30
-1234.286
 70
    32
  0
VERTEX
  8
T65SSILL
 62
13
 10
1249.607
 20
-5431.602
 30
-1234.373
 70
    32
  0
VERTEX
  8
T65SSILL
 62
13
 10
1254.867
 20
-5408.447
 30
-1234.527
 70
    32
  0
VERTEX
  8
T65SSILL
 62
13
 10
1259.976
 20
-5397.581
 30
-1234.587
 70
    32
  0
VERTEX
  8
T65SSILL
 62
13
 10
1265.976
 20
-5392.676
 30
-1234.599
 70
    32
  0
VERTEX
  8
T65SSILL
 62
13
 10
1269.965
 20
-5380.340
 30
-1234.676
 70
    32
  0
VERTEX
  8
T65SSILL
 62
13
 10
1501.813
 20
-5216.578
 30
-1234.695
 70
    32
  0
VERTEX
  8
T65SSILL
 62
13
 10
1508.174
 20
-5222.647
 30
-1234.661
 70
    32
  0
VERTEX
  8
T65SSILL
 62
13
 10
1515.629
 20
-5218.541
 30
-1234.659
 70
    32
  0
VERTEX
  8
T65SSILL
 62
13
 10
1525.255
 20
-5210.194
 30
-1234.666
 70
    32
  0
VERTEX
  8
T65SSILL
 62
13
 10
1520.228
 20
-5202.962
 30
-1234.701
 70
    32
  0
VERTEX
  8
T65SSILL
 62
13
 10
1844.056
 20
-4970.531
 30
-1234.551
 70
    32
  0
VERTEX
  8
T65SSILL
 62
13
 10
1846.452
 20
-4970.558
 30
-1234.539
 70
    32
  0
VERTEX
  8
T65SSILL
 62
13
 10
1849.734
 20
-4968.335
 30
-1234.525
 70
    32
  0
VERTEX
  8
T65SSILL
 62
13
 10
1851.656
 20
-4965.566
 30
-1234.519
 70
    32
  0
VERTEX
  8
T65SSILL
 62
13
 10
1974.678
 20
-4876.266
 30
-1234.132
 70
    32
  0
VERTEX
  8
T65SSILL
 62
13
 10
1990.469
 20
-4874.774
 30
-1234.061
 70
    32
  0
VERTEX
  8
T65SSILL
 62
13
 10
2100.378
 20
-4795.756
 30
-1233.405
 70
    32
  0
VERTEX
  8
T65SSILL
 62
13
 10
2106.020
 20
-4795.639
 30
-1233.381
 70
    32
  0
VERTEX
  8
T65SSILL
 62
13
 10
2118.854
 20
-4800.783
 30
-1233.338
 70
    32
  0
VERTEX
  8
T65SSILL
 62
13
 10
2122.459
 20
-4800.384
 30
-1233.322
 70
    32
  0
VERTEX
  8
T65SSILL
 62
13
 10
2129.067
 20
-4802.389
 30
-1233.298
 70
    32
  0
VERTEX
  8
T65SSILL
 62
13
 10
2139.239
 20
-4807.587
 30
-1233.267
 70
    32
  0
VERTEX
  8
T65SSILL
 62
13
 10
2153.423
 20
-4809.613
 30
-1233.259
 70
    32
  0
VERTEX
  8
T65SSILL
 62
13
 10
2156.999
 20
-4804.913
 30
-1233.256
 70
    32
  0
VERTEX
  8
T65SSILL
 62
13
 10
2162.557
 20
-4787.033
 30
-1233.278
 70
    32
  0
VERTEX
  8
T65SSILL
 62
13
 10
2161.753
 20
-4785.444
 30
-1233.275
 70
    32
  0
VERTEX
  8
T65SSILL
 62
13
 10
2145.497
 20
-4781.109
 30
-1233.230
 70
    32
  0
VERTEX
  8
T65SSILL
 62
13
 10
2138.531
 20
-4786.055
 30
-1233.256
 70
    32
  0
VERTEX
  8
T65SSILL
 62
13
 10
2120.902
 20
-4782.371
 30
-1233.323
 70
    32
  0
VERTEX
  8
T65SSILL
 62
13
 10
2115.301
 20
-4778.895
 30
-1233.345
 70
    32
  0
VERTEX
  8
T65SSILL
 62
13
 10
2115.309
 20
-4775.865
 30
-1233.344
 70
    32
  0
VERTEX
  8
T65SSILL
 62
13
 10
2161.658
 20
-4742.413
 30
-1233.275
 70
    32
  0
VERTEX
  8
T65SSILL
 62
13
 10
2157.252
 20
-4736.361
 30
-1233.258
 70
    32
  0
VERTEX
  8
T65SSILL
 62
13
 10
2134.097
 20
-4753.342
 30
-1233.272
 70
    32
  0
VERTEX
  8
T65SSILL
 62
13
 10
2130.598
 20
-4749.023
 30
-1233.286
 70
    32
  0
VERTEX
  8
T65SSILL
 62
13
 10
2139.481
 20
-4724.568
 30
-1233.251
 70
    32
  0
VERTEX
  8
T65SSILL
 62
13
 10
2133.303
 20
-4722.258
 30
-1233.275
 70
    32
  0
VERTEX
  8
T65SSILL
 62
13
 10
2121.205
 20
-4754.504
 30
-1233.322
 70
    32
  0
VERTEX
  8
T65SSILL
 62
13
 10
2114.939
 20
-4761.653
 30
-1233.346
 70
    32
  0
VERTEX
  8
T65SSILL
 62
13
 10
2111.899
 20
-4768.781
 30
-1233.357
 70
    32
  0
VERTEX
  8
T65SSILL
 62
13
 10
1915.367
 20
-4910.172
 30
-1234.465
 70
    32
  0
VERTEX
  8
T65SSILL
 62
13
 10
1910.667
 20
-4910.702
 30
-1234.474
 70
    32
  0
VERTEX
  8
T65SSILL
 62
13
 10
1908.923
 20
-4912.048
 30
-1234.477
 70
    32
  0
VERTEX
  8
T65SSILL
 62
13
 10
1908.803
 20
-4914.618
 30
-1234.479
 70
    32
  0
VERTEX
  8
T65SSILL
 62
13
 10
1846.020
 20
-4960.063
 30
-1234.583
 70
    32
  0
VERTEX
  8
T65SSILL
 62
13
 10
1843.916
 20
-4958.317
 30
-1234.585
 70
    32
  0
VERTEX
  8
T65SSILL
 62
13
 10
1842.860
 20
-4958.959
 30
-1234.586
 70
    32
  0
VERTEX
  8
T65SSILL
 62
13
 10
1840.255
 20
-4964.265
 30
-1234.593
 70
    32
  0
VERTEX
  8
T65SSILL
 62
13
 10
1808.310
 20
-4987.273
 30
-1234.608
 70
    32
  0
VERTEX
  8
T65SSILL
 62
13
 10
1806.602
 20
-4986.541
 30
-1234.606
 70
    32
  0
VERTEX
  8
T65SSILL
 62
13
 10
1803.858
 20
-4990.434
 30
-1234.608
 70
    32
  0
VERTEX
  8
T65SSILL
 62
13
 10
1672.765
 20
-5084.494
 30
-1234.933
 70
    32
  0
VERTEX
  8
T65SSILL
 62
13
 10
1667.605
 20
-5081.029
 30
-1234.939
 70
    32
  0
VERTEX
  8
T65SSILL
 62
13
 10
1660.585
 20
-5072.512
 30
-1234.862
 70
    32
  0
VERTEX
  8
T65SSILL
 62
13
 10
1653.763
 20
-5077.356
 30
-1234.840
 70
    32
  0
VERTEX
  8
T65SSILL
 62
13
 10
1659.432
 20
-5085.644
 30
-1234.908
 70
    32
  0
VERTEX
  8
T65SSILL
 62
13
 10
1660.148
 20
-5093.345
 30
-1234.943
 70
    32
  0
VERTEX
  8
T65SSILL
 62
13
 10
1644.853
 20
-5104.206
 30
-1234.895
 70
    32
  0
VERTEX
  8
T65SSILL
 62
13
 10
1643.771
 20
-5103.138
 30
-1234.884
 70
    32
  0
VERTEX
  8
T65SSILL
 62
13
 10
1642.212
 20
-5104.137
 30
-1234.879
 70
    32
  0
VERTEX
  8
T65SSILL
 62
13
 10
1639.970
 20
-5107.673
 30
-1234.880
 70
    32
  0
VERTEX
  8
T65SSILL
 62
13
 10
1635.671
 20
-5111.050
 30
-1234.867
 70
    32
  0
VERTEX
  8
T65SSILL
 62
13
 10
1631.071
 20
-5108.375
 30
-1234.829
 70
    32
  0
VERTEX
  8
T65SSILL
 62
13
 10
1618.436
 20
-5094.232
 30
-1234.695
 70
    32
  0
VERTEX
  8
T65SSILL
 62
13
 10
1611.747
 20
-5099.414
 30
-1234.693
 70
    32
  0
VERTEX
  8
T65SSILL
 62
13
 10
1615.537
 20
-5109.468
 30
-1234.739
 70
    32
  0
VERTEX
  8
T65SSILL
 62
13
 10
1622.007
 20
-5120.861
 30
-1234.824
 70
    32
  0
VERTEX
  8
T65SSILL
 62
13
 10
1576.892
 20
-5153.068
 30
-1234.721
 70
    32
  0
VERTEX
  8
T65SSILL
 62
13
 10
1569.123
 20
-5149.601
 30
-1234.708
 70
    32
  0
VERTEX
  8
T65SSILL
 62
13
 10
1600.163
 20
-5055.812
 30
-1234.632
 70
    32
  0
VERTEX
  8
T65SSILL
 62
13
 10
1591.619
 20
-5052.984
 30
-1234.632
 70
    32
  0
VERTEX
  8
T65SSILL
 62
13
 10
1552.684
 20
-5170.629
 30
-1234.715
 70
    32
  0
VERTEX
  8
T65SSILL
 62
13
 10
1415.032
 20
-5269.451
 30
-1234.746
 70
    32
  0
VERTEX
  8
T65SSILL
 62
13
 10
1408.785
 20
-5263.086
 30
-1234.744
 70
    32
  0
VERTEX
  8
T65SSILL
 62
13
 10
1413.438
 20
-5257.622
 30
-1234.741
 70
    32
  0
VERTEX
  8
T65SSILL
 62
13
 10
1409.583
 20
-5252.042
 30
-1234.739
 70
    32
  0
VERTEX
  8
T65SSILL
 62
13
 10
1386.234
 20
-5269.053
 30
-1234.748
 70
    32
  0
VERTEX
  8
T65SSILL
 62
13
 10
1396.126
 20
-5282.984
 30
-1234.754
 70
    32
  0
VERTEX
  8
T65SSILL
 62
13
 10
1385.212
 20
-5290.734
 30
-1234.759
 70
    32
  0
VERTEX
  8
T65SSILL
 62
13
 10
1380.959
 20
-5284.897
 30
-1234.757
 70
    32
  0
VERTEX
  8
T65SSILL
 62
13
 10
1384.732
 20
-5275.305
 30
-1234.752
 70
    32
  0
VERTEX
  8
T65SSILL
 62
13
 10
1380.453
 20
-5264.410
 30
-1234.732
 70
    32
  0
VERTEX
  8
T65SSILL
 62
13
 10
1381.031
 20
-5255.033
 30
-1234.717
 70
    32
  0
VERTEX
  8
T65SSILL
 62
13
 10
1376.253
 20
-5250.433
 30
-1234.703
 70
    32
  0
VERTEX
  8
T65SSILL
 62
13
 10
1372.463
 20
-5251.181
 30
-1234.698
 70
    32
  0
VERTEX
  8
T65SSILL
 62
13
 10
1370.289
 20
-5266.982
 30
-1234.722
 70
    32
  0
VERTEX
  8
T65SSILL
 62
13
 10
1371.642
 20
-5273.906
 30
-1234.735
 70
    32
  0
VERTEX
  8
T65SSILL
 62
13
 10
1367.717
 20
-5282.526
 30
-1234.744
 70
    32
  0
VERTEX
  8
T65SSILL
 62
13
 10
1376.266
 20
-5297.303
 30
-1234.763
 70
    32
  0
VERTEX
  8
T65SSILL
 62
13
 10
1176.169
 20
-5439.213
 30
-1234.597
 70
    32
  0
VERTEX
  8
T65SSILL
 62
13
 10
1171.834
 20
-5438.754
 30
-1234.594
 70
    32
  0
VERTEX
  8
T65SSILL
 62
13
 10
1170.448
 20
-5443.905
 30
-1234.591
 70
    32
  0
VERTEX
  8
T65SSILL
 62
13
 10
1091.411
 20
-5501.378
 30
-1234.747
 70
    32
  0
VERTEX
  8
T65SSILL
 62
13
 10
1073.129
 20
-5507.012
 30
-1234.739
 70
    32
  0
VERTEX
  8
T65SSILL
 62
13
 10
1017.956
 20
-5506.788
 30
-1234.648
 70
    32
  0
VERTEX
  8
T65SSILL
 62
13
 10
1016.786
 20
-5505.688
 30
-1234.639
 70
    32
  0
VERTEX
  8
T65SSILL
 62
13
 10
1008.062
 20
-5456.781
 30
-1234.444
 70
    32
  0
VERTEX
  8
T65SSILL
 62
13
 10
1000.701
 20
-5458.739
 30
-1234.437
 70
    32
  0
VERTEX
  8
T65SSILL
 62
13
 10
1005.284
 20
-5486.677
 30
-1234.501
 70
    32
  0
VERTEX
  8
T65SSILL
 62
13
 10
998.164
 20
-5497.083
 30
-1234.552
 70
    32
  0
VERTEX
  8
T65SSILL
 62
13
 10
997.422
 20
-5505.838
 30
-1234.605
 70
    32
  0
VERTEX
  8
T65SSILL
 62
13
 10
925.993
 20
-5504.613
 30
-1234.468
 70
    32
  0
VERTEX
  8
T65SSILL
 62
13
 10
908.210
 20
-5506.547
 30
-1234.448
 70
    32
  0
VERTEX
  8
T65SSILL
 62
13
 10
889.951
 20
-5512.938
 30
-1234.454
 70
    32
  0
VERTEX
  8
T65SSILL
 62
13
 10
871.777
 20
-5525.683
 30
-1234.445
 70
    32
  0
VERTEX
  8
T65SSILL
 62
13
 10
857.622
 20
-5532.376
 30
-1234.407
 70
    32
  0
VERTEX
  8
T65SSILL
 62
13
 10
856.984
 20
-5540.831
 30
-1234.379
 70
    32
  0
VERTEX
  8
T65SSILL
 62
13
 10
714.374
 20
-5684.011
 30
-1234.268
 70
    32
  0
VERTEX
  8
T65SSILL
 62
13
 10
703.340
 20
-5682.349
 30
-1234.276
 70
    32
  0
VERTEX
  8
T65SSILL
 62
13
 10
698.174
 20
-5686.819
 30
-1234.298
 70
    32
  0
VERTEX
  8
T65SSILL
 62
13
 10
700.596
 20
-5697.843
 30
-1234.334
 70
    32
  0
VERTEX
  8
T65SSILL
 62
13
 10
647.837
 20
-5750.813
 30
-1234.508
 70
    32
  0
VERTEX
  8
T65SSILL
 62
13
 10
632.760
 20
-5764.085
 30
-1234.527
 70
    32
  0
VERTEX
  8
T65SSILL
 62
13
 10
640.198
 20
-5771.072
 30
-1234.546
 70
    32
  0
VERTEX
  8
T65SSILL
 62
13
 10
879.076
 20
-5531.629
 30
-1234.434
 70
    32
  0
VERTEX
  8
T65SSILL
 62
13
 10
889.107
 20
-5524.316
 30
-1234.469
 70
    32
  0
VERTEX
  8
T65SSILL
 62
13
 10
904.578
 20
-5517.173
 30
-1234.507
 70
    32
  0
VERTEX
  8
T65SSILL
 62
13
 10
926.448
 20
-5513.341
 30
-1234.523
 70
    32
  0
VERTEX
  8
T65SSILL
 62
13
 10
999.331
 20
-5515.893
 30
-1234.624
 70
    32
  0
VERTEX
  8
T65SSILL
 62
13
 10
1011.671
 20
-5524.969
 30
-1234.610
 70
    32
  0
VERTEX
  8
T65SSILL
 62
13
 10
1017.904
 20
-5557.211
 30
-1234.601
 70
    32
  0
VERTEX
  8
T65SSILL
 62
13
 10
997.579
 20
-5566.678
 30
-1234.552
 70
    32
  0
VERTEX
  8
T65SSILL
 62
13
 10
1000.729
 20
-5575.037
 30
-1234.565
 70
    32
  0
VERTEX
  8
T65SSILL
 62
13
 10
1011.774
 20
-5570.333
 30
-1234.592
 70
    32
  0
VERTEX
  8
T65SSILL
 62
13
 10
1020.015
 20
-5571.793
 30
-1234.614
 70
    32
  0
VERTEX
  8
T65SSILL
 62
13
 10
1028.091
 20
-5619.668
 30
-1234.662
 70
    32
  0
VERTEX
  8
T65SSILL
 62
13
 10
973.160
 20
-5711.178
 30
-1234.568
 70
    32
  0
VERTEX
  8
T65SSILL
 62
13
 10
962.017
 20
-5706.961
 30
-1234.537
 70
    32
  0
VERTEX
  8
T65SSILL
 62
13
 10
955.176
 20
-5700.105
 30
-1234.515
 70
    32
  0
VERTEX
  8
T65SSILL
 62
13
 10
948.755
 20
-5705.564
 30
-1234.501
 70
    32
  0
VERTEX
  8
T65SSILL
 62
13
 10
967.403
 20
-5726.690
 30
-1234.562
 70
    32
  0
VERTEX
  8
T65SSILL
 62
13
 10
960.675
 20
-5749.284
 30
-1234.575
 70
    32
  0
VERTEX
  8
T65SSILL
 62
13
 10
956.130
 20
-5749.874
 30
-1234.567
 70
    32
  0
VERTEX
  8
T65SSILL
 62
13
 10
943.420
 20
-5756.820
 30
-1234.557
 70
    32
  0
VERTEX
  8
T65SSILL
 62
13
 10
941.348
 20
-5760.640
 30
-1234.560
 70
    32
  0
VERTEX
  8
T65SSILL
 62
13
 10
930.945
 20
-5781.060
 30
-1234.579
 70
    32
  0
VERTEX
  8
T65SSILL
 62
13
 10
931.210
 20
-5797.472
 30
-1234.611
 70
    32
  0
VERTEX
  8
T65SSILL
 62
13
 10
896.143
 20
-5825.005
 30
-1234.597
 70
    32
  0
VERTEX
  8
T65SSILL
 62
13
 10
884.621
 20
-5804.824
 30
-1234.538
 70
    32
  0
VERTEX
  8
T65SSILL
 62
13
 10
879.795
 20
-5808.135
 30
-1234.535
 70
    32
  0
VERTEX
  8
T65SSILL
 62
13
 10
867.122
 20
-5784.727
 30
-1234.467
 70
    32
  0
VERTEX
  8
T65SSILL
 62
13
 10
869.330
 20
-5782.644
 30
-1234.467
 70
    32
  0
VERTEX
  8
T65SSILL
 62
13
 10
863.147
 20
-5775.651
 30
-1234.442
 70
    32
  0
VERTEX
  8
T65SSILL
 62
13
 10
862.062
 20
-5776.410
 30
-1234.442
 70
    32
  0
VERTEX
  8
T65SSILL
 62
13
 10
852.456
 20
-5757.583
 30
-1234.388
 70
    32
  0
VERTEX
  8
T65SSILL
 62
13
 10
844.682
 20
-5761.725
 30
-1234.381
 70
    32
  0
VERTEX
  8
T65SSILL
 62
13
 10
848.896
 20
-5770.526
 30
-1234.406
 70
    32
  0
VERTEX
  8
T65SSILL
 62
13
 10
850.032
 20
-5794.196
 30
-1234.481
 70
    32
  0
VERTEX
  8
T65SSILL
 62
13
 10
827.587
 20
-5828.531
 30
-1234.629
 70
    32
  0
VERTEX
  8
T65SSILL
 62
13
 10
821.406
 20
-5831.559
 30
-1234.647
 70
    32
  0
VERTEX
  8
T65SSILL
 62
13
 10
861.765
 20
-5933.531
 30
-1234.952
 70
    32
  0
VERTEX
  8
T65SSILL
 62
13
 10
854.733
 20
-5942.434
 30
-1234.992
 70
    32
  0
VERTEX
  8
T65SSILL
 62
13
 10
850.341
 20
-5931.064
 30
-1234.958
 70
    32
  0
VERTEX
  8
T65SSILL
 62
13
 10
842.328
 20
-5934.402
 30
-1234.979
 70
    32
  0
VERTEX
  8
T65SSILL
 62
13
 10
849.020
 20
-5949.985
 30
-1235.025
 70
    32
  0
VERTEX
  8
T65SSILL
 62
13
 10
845.457
 20
-5953.984
 30
-1235.044
 70
    32
  0
VERTEX
  8
T65SSILL
 62
13
 10
844.189
 20
-5957.565
 30
-1235.058
 70
    32
  0
VERTEX
  8
T65SSILL
 62
13
 10
844.692
 20
-5962.602
 30
-1235.075
 70
    32
  0
VERTEX
  8
T65SSILL
 62
13
 10
846.875
 20
-5966.033
 30
-1235.084
 70
    32
  0
VERTEX
  8
T65SSILL
 62
13
 10
863.374
 20
-5965.276
 30
-1235.061
 70
    32
  0
VERTEX
  8
T65SSILL
 62
13
 10
869.776
 20
-5967.805
 30
-1235.061
 70
    32
  0
VERTEX
  8
T65SSILL
 62
13
 10
875.326
 20
-5968.344
 30
-1235.056
 70
    32
  0
VERTEX
  8
T65SSILL
 62
13
 10
908.173
 20
-6047.546
 30
-1235.291
 70
    32
  0
VERTEX
  8
T65SSILL
 62
13
 10
902.819
 20
-6058.079
 30
-1235.317
 70
    32
  0
VERTEX
  8
T65SSILL
 62
13
 10
895.151
 20
-6066.996
 30
-1235.330
 70
    32
  0
VERTEX
  8
T65SSILL
 62
13
 10
902.440
 20
-6074.186
 30
-1235.350
 70
    32
  0
VERTEX
  8
T65SSILL
 62
13
 10
914.032
 20
-6062.094
 30
-1235.332
 70
    32
  0
VERTEX
  8
T65SSILL
 62
13
 10
920.267
 20
-6078.104
 30
-1235.370
 70
    32
  0
VERTEX
  8
T65SSILL
 62
13
 10
916.729
 20
-6089.846
 30
-1235.392
 70
    32
  0
VERTEX
  8
T65SSILL
 62
13
 10
916.463
 20
-6098.869
 30
-1235.411
 70
    32
  0
VERTEX
  8
T65SSILL
 62
13
 10
911.721
 20
-6102.723
 30
-1235.416
 70
    32
  0
VERTEX
  8
T65SSILL
 62
13
 10
915.222
 20
-6105.880
 30
-1235.425
 70
    32
  0
VERTEX
  8
T65SSILL
 62
13
 10
914.417
 20
-6108.274
 30
-1235.430
 70
    32
  0
VERTEX
  8
T65SSILL
 62
13
 10
905.808
 20
-6117.849
 30
-1235.444
 70
    32
  0
VERTEX
  8
T65SSILL
 62
13
 10
899.742
 20
-6120.581
 30
-1235.446
 70
    32
  0
VERTEX
  8
T65SSILL
 62
13
 10
888.808
 20
-6121.436
 30
-1235.441
 70
    32
  0
VERTEX
  8
T65SSILL
 62
13
 10
877.304
 20
-6119.779
 30
-1235.430
 70
    32
  0
VERTEX
  8
T65SSILL
 62
13
 10
869.543
 20
-6115.614
 30
-1235.417
 70
    32
  0
VERTEX
  8
T65SSILL
 62
13
 10
859.078
 20
-6105.578
 30
-1235.389
 70
    32
  0
VERTEX
  8
T65SSILL
 62
13
 10
853.319
 20
-6092.253
 30
-1235.357
 70
    32
  0
VERTEX
  8
T65SSILL
 62
13
 10
851.609
 20
-6083.642
 30
-1235.338
 70
    32
  0
VERTEX
  8
T65SSILL
 62
13
 10
853.060
 20
-6077.239
 30
-1235.326
 70
    32
  0
VERTEX
  8
T65SSILL
 62
13
 10
868.720
 20
-6045.846
 30
-1235.269
 70
    32
  0
VERTEX
  8
T65SSILL
 62
13
 10
860.383
 20
-6041.217
 30
-1235.254
 70
    32
  0
VERTEX
  8
T65SSILL
 62
13
 10
842.321
 20
-6079.142
 30
-1235.323
 70
    32
  0
VERTEX
  8
T65SSILL
 62
13
 10
843.021
 20
-6095.250
 30
-1235.357
 70
    32
  0
VERTEX
  8
T65SSILL
 62
13
 10
846.965
 20
-6106.287
 30
-1235.383
 70
    32
  0
VERTEX
  8
T65SSILL
 62
13
 10
858.548
 20
-6121.468
 30
-1235.422
 70
    32
  0
VERTEX
  8
T65SSILL
 62
13
 10
874.462
 20
-6129.741
 30
-1235.450
 70
    32
  0
VERTEX
  8
T65SSILL
 62
13
 10
886.941
 20
-6133.410
 30
-1235.465
 70
    32
  0
VERTEX
  8
T65SSILL
 62
13
 10
900.669
 20
-6131.464
 30
-1235.470
 70
    32
  0
VERTEX
  8
T65SSILL
 62
13
 10
907.791
 20
-6128.857
 30
-1235.469
 70
    32
  0
VERTEX
  8
T65SSILL
 62
13
 10
913.669
 20
-6124.316
 30
-1235.463
 70
    32
  0
VERTEX
  8
T65SSILL
 62
13
 10
921.290
 20
-6122.114
 30
-1235.463
 70
    32
  0
VERTEX
  8
T65SSILL
 62
13
 10
956.507
 20
-6099.110
 30
-1235.410
 70
    32
  0
VERTEX
  8
T65SSILL
 62
13
 10
962.200
 20
-6101.704
 30
-1235.411
 70
    32
  0
VERTEX
  8
T65SSILL
 62
13
 10
961.257
 20
-6117.774
 30
-1235.469
 70
    32
  0
VERTEX
  8
T65SSILL
 62
13
 10
963.304
 20
-6167.103
 30
-1235.584
 70
    32
  0
VERTEX
  8
T65SSILL
 62
13
 10
971.531
 20
-6167.926
 30
-1235.591
 70
    32
  0
VERTEX
  8
T65SSILL
 62
13
 10
970.940
 20
-6151.203
 30
-1235.556
 70
    32
  0
VERTEX
  8
T65SSILL
 62
13
 10
977.971
 20
-6143.378
 30
-1235.537
 70
    32
  0
VERTEX
  8
T65SSILL
 62
13
 10
971.030
 20
-6122.042
 30
-1235.471
 70
    32
  0
VERTEX
  8
T65SSILL
 62
13
 10
971.741
 20
-6107.643
 30
-1235.420
 70
    32
  0
VERTEX
  8
T65SSILL
 62
13
 10
988.491
 20
-6109.404
 30
-1235.405
 70
    32
  0
VERTEX
  8
T65SSILL
 62
13
 10
990.874
 20
-6104.181
 30
-1235.384
 70
    32
  0
VERTEX
  8
T65SSILL
 62
13
 10
989.747
 20
-6101.952
 30
-1235.377
 70
    32
  0
VERTEX
  8
T65SSILL
 62
13
 10
987.244
 20
-6100.684
 30
-1235.376
 70
    32
  0
VERTEX
  8
T65SSILL
 62
13
 10
980.226
 20
-6099.124
 30
-1235.380
 70
    32
  0
VERTEX
  8
T65SSILL
 62
13
 10
972.430
 20
-6092.289
 30
-1235.366
 70
    32
  0
VERTEX
  8
T65SSILL
 62
13
 10
975.048
 20
-6082.160
 30
-1235.327
 70
    32
  0
VERTEX
  8
T65SSILL
 62
13
 10
981.165
 20
-6077.345
 30
-1235.303
 70
    32
  0
VERTEX
  8
T65SSILL
 62
13
 10
982.115
 20
-6073.771
 30
-1235.289
 70
    32
  0
VERTEX
  8
T65SSILL
 62
13
 10
1017.804
 20
-6047.743
 30
-1235.247
 70
    32
  0
VERTEX
  8
T65SSILL
 62
13
 10
1021.154
 20
-6048.526
 30
-1235.255
 70
    32
  0
VERTEX
  8
T65SSILL
 62
13
 10
1024.359
 20
-6046.153
 30
-1235.257
 70
    32
  0
VERTEX
  8
T65SSILL
 62
13
 10
1026.283
 20
-6062.183
 30
-1235.291
 70
    32
  0
VERTEX
  8
T65SSILL
 62
13
 10
1036.868
 20
-6076.553
 30
-1235.338
 70
    32
  0
VERTEX
  8
T65SSILL
 62
13
 10
1040.092
 20
-6082.706
 30
-1235.355
 70
    32
  0
VERTEX
  8
T65SSILL
 62
13
 10
1042.236
 20
-6091.014
 30
-1235.375
 70
    32
  0
VERTEX
  8
T65SSILL
 62
13
 10
1041.315
 20
-6094.783
 30
-1235.381
 70
    32
  0
VERTEX
  8
T65SSILL
 62
13
 10
1059.231
 20
-6136.169
 30
-1235.493
 70
    32
  0
VERTEX
  8
T65SSILL
 62
13
 10
1029.629
 20
-6177.960
 30
-1235.592
 70
    32
  0
VERTEX
  8
T65SSILL
 62
13
 10
1035.727
 20
-6182.212
 30
-1235.599
 70
    32
  0
VERTEX
  8
T65SSILL
 62
13
 10
1063.269
 20
-6143.030
 30
-1235.513
 70
    32
  0
VERTEX
  8
T65SSILL
 62
13
 10
1084.126
 20
-6197.950
 30
-1235.656
 70
    32
  0
VERTEX
  8
T65SSILL
 62
13
 10
1089.514
 20
-6201.188
 30
-1235.672
 70
    32
  0
VERTEX
  8
T65SSILL
 62
13
 10
1092.839
 20
-6195.307
 30
-1235.668
 70
    32
  0
VERTEX
  8
T65SSILL
 62
13
 10
1090.567
 20
-6183.424
 30
-1235.641
 70
    32
  0
VERTEX
  8
T65SSILL
 62
13
 10
1096.270
 20
-6180.946
 30
-1235.647
 70
    32
  0
VERTEX
  8
T65SSILL
 62
13
 10
1094.928
 20
-6174.555
 30
-1235.632
 70
    32
  0
VERTEX
  8
T65SSILL
 62
13
 10
1096.267
 20
-6163.058
 30
-1235.613
 70
    32
  0
VERTEX
  8
T65SSILL
 62
13
 10
1095.735
 20
-6144.570
 30
-1235.577
 70
    32
  0
VERTEX
  8
T65SSILL
 62
13
 10
1099.537
 20
-6127.040
 30
-1235.551
 70
    32
  0
VERTEX
  8
T65SSILL
 62
13
 10
1093.225
 20
-6119.706
 30
-1235.525
 70
    32
  0
VERTEX
  8
T65SSILL
 62
13
 10
1089.308
 20
-6105.740
 30
-1235.491
 70
    32
  0
VERTEX
  8
T65SSILL
 62
13
 10
1107.982
 20
-6077.920
 30
-1235.473
 70
    32
  0
VERTEX
  8
T65SSILL
 62
13
 10
1130.854
 20
-6210.245
 30
-1235.767
 70
    32
  0
VERTEX
  8
T65SSILL
 62
13
 10
1130.027
 20
-6214.402
 30
-1235.773
 70
    32
  0
VERTEX
  8
T65SSILL
 62
13
 10
1123.566
 20
-6227.023
 30
-1235.785
 70
    32
  0
VERTEX
  8
T65SSILL
 62
13
 10
1117.555
 20
-6235.328
 30
-1235.790
 70
    32
  0
VERTEX
  8
T65SSILL
 62
13
 10
1125.564
 20
-6240.979
 30
-1235.815
 70
    32
  0
VERTEX
  8
T65SSILL
 62
13
 10
1129.582
 20
-6235.405
 30
-1235.812
 70
    32
  0
VERTEX
  8
T65SSILL
 62
13
 10
1135.110
 20
-6234.866
 30
-1235.822
 70
    32
  0
VERTEX
  8
T65SSILL
 62
13
 10
1161.148
 20
-6385.508
 30
-1236.156
 70
    32
  0
VERTEX
  8
T65SSILL
 62
13
 10
1264.837
 20
-6678.576
 30
-1236.735
 70
    32
  0
VERTEX
  8
T65SSILL
 62
13
 10
1254.791
 20
-6683.013
 30
-1236.759
 70
    32
  0
VERTEX
  8
T65SSILL
 62
13
 10
1264.438
 20
-6703.749
 30
-1236.794
 70
    32
  0
VERTEX
  8
T65SSILL
 62
13
 10
1272.928
 20
-6700.940
 30
-1236.775
 70
    32
  0
VERTEX
  8
T65SSILL
 62
13
 10
1276.814
 20
-6712.664
 30
-1236.797
 70
    32
  0
VERTEX
  8
T65SSILL
 62
13
 10
1267.395
 20
-6720.003
 30
-1236.828
 70
    32
  0
VERTEX
  8
T65SSILL
 62
13
 10
1271.516
 20
-6725.744
 30
-1236.835
 70
    32
  0
VERTEX
  8
T65SSILL
 62
13
 10
1279.464
 20
-6720.618
 30
-1236.812
 70
    32
  0
VERTEX
  8
T65SSILL
 62
13
 10
1281.244
 20
-6725.733
 30
-1236.822
 70
    32
  0
VERTEX
  8
T65SSILL
 62
13
 10
1280.805
 20
-6726.376
 30
-1237.000
 70
    32
  0
VERTEX
  8
T65SSILL
 62
13
 10
1236.497
 20
-6763.820
 30
-1237.000
 70
    32
  0
VERTEX
  8
T65SSILL
 62
13
 10
1236.128
 20
-6764.079
 30
-1237.000
 70
    32
  0
VERTEX
  8
T65SSILL
 62
13
 10
1224.125
 20
-6770.927
 30
-1237.000
 70
    32
  0
VERTEX
  8
T65SSILL
 62
13
 10
1204.958
 20
-6769.400
 30
-1237.000
 70
    32
  0
VERTEX
  8
T65SSILL
 62
13
 10
1183.200
 20
-6764.661
 30
-1237.000
 70
    32
  0
VERTEX
  8
T65SSILL
 62
13
 10
1180.171
 20
-6775.789
 30
-1237.000
 70
    32
  0
VERTEX
  8
T65SSILL
 62
13
 10
1199.046
 20
-6781.799
 30
-1237.000
 70
    32
  0
VERTEX
  8
T65SSILL
 62
13
 10
1202.003
 20
-6781.556
 30
-1237.000
 70
    32
  0
VERTEX
  8
T65SSILL
 62
13
 10
1204.153
 20
-6784.918
 30
-1237.000
 70
    32
  0
VERTEX
  8
T65SSILL
 62
13
 10
1196.061
 20
-6796.211
 30
-1237.000
 70
    32
  0
VERTEX
  8
T65SSILL
 62
13
 10
1193.739
 20
-6801.134
 30
-1237.000
 70
    32
  0
VERTEX
  8
T65SSILL
 62
13
 10
1191.365
 20
-6809.346
 30
-1237.000
 70
    32
  0
VERTEX
  8
T65SSILL
 62
13
 10
1188.149
 20
-6819.315
 30
-1237.000
 70
    32
  0
VERTEX
  8
T65SSILL
 62
13
 10
1182.952
 20
-6835.567
 30
-1237.000
 70
    32
  0
VERTEX
  8
T65SSILL
 62
13
 10
1177.170
 20
-6843.061
 30
-1237.000
 70
    32
  0
VERTEX
  8
T65SSILL
 62
13
 10
1168.450
 20
-6852.338
 30
-1237.000
 70
    32
  0
VERTEX
  8
T65SSILL
 62
13
 10
1172.850
 20
-6857.473
 30
-1237.000
 70
    32
  0
VERTEX
  8
T65SSILL
 62
13
 10
1178.020
 20
-6861.714
 30
-1237.000
 70
    32
  0
VERTEX
  8
T65SSILL
 62
13
 10
1179.008
 20
-6860.549
 30
-1237.000
 70
    32
  0
VERTEX
  8
T65SSILL
 62
13
 10
1189.319
 20
-6849.418
 30
-1237.000
 70
    32
  0
VERTEX
  8
T65SSILL
 62
13
 10
1193.487
 20
-6849.893
 30
-1237.000
 70
    32
  0
VERTEX
  8
T65SSILL
 62
13
 10
1201.846
 20
-6864.289
 30
-1237.000
 70
    32
  0
VERTEX
  8
T65SSILL
 62
13
 10
1223.514
 20
-6890.888
 30
-1237.000
 70
    32
  0
VERTEX
  8
T65SSILL
 62
13
 10
1233.684
 20
-6885.460
 30
-1237.000
 70
    32
  0
VERTEX
  8
T65SSILL
 62
13
 10
1223.300
 20
-6870.378
 30
-1237.000
 70
    32
  0
VERTEX
  8
T65SSILL
 62
13
 10
1205.574
 20
-6846.911
 30
-1237.000
 70
    32
  0
VERTEX
  8
T65SSILL
 62
13
 10
1203.646
 20
-6843.008
 30
-1237.000
 70
    32
  0
VERTEX
  8
T65SSILL
 62
13
 10
1203.121
 20
-6824.434
 30
-1237.000
 70
    32
  0
VERTEX
  8
T65SSILL
 62
13
 10
1202.897
 20
-6815.956
 30
-1237.000
 70
    32
  0
VERTEX
  8
T65SSILL
 62
13
 10
1207.413
 20
-6805.346
 30
-1237.000
 70
    32
  0
VERTEX
  8
T65SSILL
 62
13
 10
1227.534
 20
-6782.054
 30
-1237.000
 70
    32
  0
VERTEX
  8
T65SSILL
 62
13
 10
1279.898
 20
-6744.167
 30
-1237.000
 70
    32
  0
VERTEX
  8
T65SSILL
 62
13
 10
1286.594
 20
-6743.740
 30
-1237.000
 70
    32
  0
VERTEX
  8
T65SSILL
 62
13
 10
1287.296
 20
-6743.586
 30
-1236.854
 70
    32
  0
VERTEX
  8
T65SSILL
 62
13
 10
1331.746
 20
-6871.482
 30
-1237.091
 70
    32
  0
VERTEX
  8
T65SSILL
 62
13
 10
1327.981
 20
-6881.035
 30
-1237.119
 70
    32
  0
VERTEX
  8
T65SSILL
 62
13
 10
1309.482
 20
-6892.227
 30
-1237.171
 70
    32
  0
VERTEX
  8
T65SSILL
 62
13
 10
1313.212
 20
-6899.811
 30
-1237.184
 70
    32
  0
VERTEX
  8
T65SSILL
 62
13
 10
1319.581
 20
-6897.432
 30
-1237.169
 70
    32
  0
VERTEX
  8
T65SSILL
 62
13
 10
1327.108
 20
-6901.819
 30
-1237.169
 70
    32
  0
VERTEX
  8
T65SSILL
 62
13
 10
1308.821
 20
-6993.438
 30
-1237.409
 70
    32
  0
VERTEX
  8
T65SSILL
 62
13
 10
1333.378
 20
-7184.264
 30
-1237.821
 70
    32
  0
VERTEX
  8
T65SSILL
 62
13
 10
1340.658
 20
-7183.396
 30
-1237.809
 70
    32
  0
VERTEX
  8
T65SSILL
 62
13
 10
1317.655
 20
-6999.920
 30
-1237.412
 70
    32
  0
VERTEX
  8
T65SSILL
 62
13
 10
1326.630
 20
-6991.001
 30
-1237.378
 70
    32
  0
VERTEX
  8
T65SSILL
 62
13
 10
1353.993
 20
-6979.005
 30
-1237.311
 70
    32
  0
VERTEX
  8
T65SSILL
 62
13
 10
1361.018
 20
-6954.041
 30
-1237.243
 70
    32
  0
VERTEX
  8
T65SSILL
 62
13
 10
1413.752
 20
-7105.340
 30
-1237.545
 70
    32
  0
VERTEX
  8
T65SSILL
 62
13
 10
1404.256
 20
-7113.426
 30
-1237.561
 70
    32
  0
VERTEX
  8
T65SSILL
 62
13
 10
1408.414
 20
-7118.808
 30
-1237.576
 70
    32
  0
VERTEX
  8
T65SSILL
 62
13
 10
1416.408
 20
-7112.961
 30
-1237.558
 70
    32
  0
VERTEX
  8
T65SSILL
 62
13
 10
1423.498
 20
-7133.302
 30
-1237.592
 70
    32
  0
VERTEX
  8
T65SSILL
 62
13
 10
1422.762
 20
-7137.730
 30
-1237.604
 70
    32
  0
VERTEX
  8
T65SSILL
 62
13
 10
1425.729
 20
-7139.451
 30
-1237.603
 70
    32
  0
VERTEX
  8
T65SSILL
 62
13
 10
1484.961
 20
-7303.503
 30
-1238.007
 70
    32
  0
VERTEX
  8
T65SSILL
 62
13
 10
1482.897
 20
-7306.276
 30
-1238.006
 70
    32
  0
VERTEX
  8
T65SSILL
 62
13
 10
1476.354
 20
-7307.923
 30
-1237.981
 70
    32
  0
VERTEX
  8
T65SSILL
 62
13
 10
1429.875
 20
-7306.618
 30
-1237.981
 70
    32
  0
VERTEX
  8
T65SSILL
 62
13
 10
1425.012
 20
-7310.056
 30
-1237.997
 70
    32
  0
VERTEX
  8
T65SSILL
 62
13
 10
1334.546
 20
-7304.118
 30
-1238.101
 70
    32
  0
VERTEX
  8
T65SSILL
 62
13
 10
1334.343
 20
-7312.333
 30
-1238.120
 70
    32
  0
VERTEX
  8
T65SSILL
 62
13
 10
1423.463
 20
-7316.637
 30
-1238.015
 70
    32
  0
VERTEX
  8
T65SSILL
 62
13
 10
1422.731
 20
-7324.720
 30
-1238.035
 70
    32
  0
VERTEX
  8
T65SSILL
 62
13
 10
1424.954
 20
-7329.280
 30
-1238.042
 70
    32
  0
VERTEX
  8
T65SSILL
 62
13
 10
1427.356
 20
-7330.637
 30
-1238.041
 70
    32
  0
VERTEX
  8
T65SSILL
 62
13
 10
1437.802
 20
-7322.321
 30
-1238.003
 70
    32
  0
VERTEX
  8
T65SSILL
 62
13
 10
1447.013
 20
-7321.321
 30
-1237.985
 70
    32
  0
VERTEX
  8
T65SSILL
 62
13
 10
1446.489
 20
-7319.124
 30
-1237.981
 70
    32
  0
VERTEX
  8
T65SSILL
 62
13
 10
1462.440
 20
-7316.770
 30
-1237.947
 70
    32
  0
VERTEX
  8
T65SSILL
 62
13
 10
1481.060
 20
-7319.951
 30
-1238.040
 70
    32
  0
VERTEX
  8
T65SSILL
 62
13
 10
1492.258
 20
-7325.053
 30
-1238.107
 70
    32
  0
VERTEX
  8
T65SSILL
 62
13
 10
1517.614
 20
-7398.630
 30
-1238.447
 70
    32
  0
VERTEX
  8
T65SSILL
 62
13
 10
1514.832
 20
-7404.438
 30
-1238.452
 70
    32
  0
VERTEX
  8
T65SSILL
 62
13
 10
1516.121
 20
-7407.927
 30
-1238.469
 70
    32
  0
VERTEX
  8
T65SSILL
 62
13
 10
1520.910
 20
-7407.463
 30
-1238.490
 70
    32
  0
VERTEX
  8
T65SSILL
 62
13
 10
1552.395
 20
-7498.806
 30
-1238.989
 70
    32
  0
VERTEX
  8
T65SSILL
 62
13
 10
1542.922
 20
-7506.041
 30
-1238.953
 70
    32
  0
VERTEX
  8
T65SSILL
 62
13
 10
1546.689
 20
-7511.474
 30
-1238.997
 70
    32
  0
VERTEX
  8
T65SSILL
 62
13
 10
1555.144
 20
-7505.881
 30
-1239.032
 70
    32
  0
VERTEX
  8
T65SSILL
 62
13
 10
1584.188
 20
-7593.130
 30
-1239.402
 70
    32
  0
VERTEX
  8
T65SSILL
 62
13
 10
1580.211
 20
-7599.531
 30
-1239.408
 70
    32
  0
VERTEX
  8
T65SSILL
 62
13
 10
1582.140
 20
-7603.970
 30
-1239.413
 70
    32
  0
VERTEX
  8
T65SSILL
 62
13
 10
1588.922
 20
-7605.989
 30
-1239.414
 70
    32
  0
VERTEX
  8
T65SSILL
 62
13
 10
1620.642
 20
-7695.473
 30
-1239.502
 70
    32
  0
VERTEX
  8
T65SSILL
 62
13
 10
1612.703
 20
-7701.674
 30
-1239.509
 70
    32
  0
VERTEX
  8
T65SSILL
 62
13
 10
1616.274
 20
-7706.814
 30
-1239.514
 70
    32
  0
VERTEX
  8
T65SSILL
 62
13
 10
1623.122
 20
-7702.623
 30
-1239.509
 70
    32
  0
VERTEX
  8
T65SSILL
 62
13
 10
1637.631
 20
-7743.546
 30
-1239.549
 70
    32
  0
VERTEX
  8
T65SSILL
 62
13
 10
1635.809
 20
-7755.510
 30
-1239.561
 70
    32
  0
VERTEX
  8
T65SSILL
 62
13
 10
1635.881
 20
-7764.921
 30
-1239.571
 70
    32
  0
VERTEX
  8
T65SSILL
 62
13
 10
1633.498
 20
-7772.267
 30
-1239.578
 70
    32
  0
VERTEX
  8
T65SSILL
 62
13
 10
1630.827
 20
-7775.874
 30
-1239.582
 70
    32
  0
VERTEX
  8
T65SSILL
 62
13
 10
1600.393
 20
-7814.776
 30
-1239.622
 70
    32
  0
VERTEX
  8
T65SSILL
 62
13
 10
1560.074
 20
-7861.721
 30
-1239.671
 70
    32
  0
VERTEX
  8
T65SSILL
 62
13
 10
1559.367
 20
-7866.981
 30
-1239.676
 70
    32
  0
VERTEX
  8
T65SSILL
 62
13
 10
1550.088
 20
-7878.762
 30
-1239.688
 70
    32
  0
VERTEX
  8
T65SSILL
 62
13
 10
1539.779
 20
-7875.294
 30
-1239.685
 70
    32
  0
VERTEX
  8
T65SSILL
 62
13
 10
1535.271
 20
-7878.226
 30
-1239.688
 70
    32
  0
VERTEX
  8
T65SSILL
 62
13
 10
1528.280
 20
-7888.040
 30
-1239.698
 70
    32
  0
VERTEX
  8
T65SSILL
 62
13
 10
1529.485
 20
-7894.243
 30
-1239.705
 70
    32
  0
VERTEX
  8
T65SSILL
 62
13
 10
1532.965
 20
-7900.826
 30
-1239.711
 70
    32
  0
VERTEX
  8
T65SSILL
 62
13
 10
1522.423
 20
-7914.202
 30
-1239.725
 70
    32
  0
VERTEX
  8
T65SSILL
 62
13
 10
1518.888
 20
-7920.943
 30
-1239.732
 70
    32
  0
VERTEX
  8
T65SSILL
 62
13
 10
1516.925
 20
-7929.069
 30
-1239.740
 70
    32
  0
VERTEX
  8
T65SSILL
 62
13
 10
1516.740
 20
-7945.669
 30
-1239.757
 70
    32
  0
VERTEX
  8
T65SSILL
 62
13
 10
1519.073
 20
-7957.489
 30
-1239.774
 70
    32
  0
VERTEX
  8
T65SSILL
 62
13
 10
1543.438
 20
-8013.983
 30
-1239.874
 70
    32
  0
VERTEX
  8
T65SSILL
 62
13
 10
1548.563
 20
-8021.903
 30
-1239.889
 70
    32
  0
VERTEX
  8
T65SSILL
 62
13
 10
1550.420
 20
-8036.170
 30
-1239.911
 70
    32
  0
VERTEX
  8
T65SSILL
 62
13
 10
1555.137
 20
-8045.533
 30
-1239.880
 70
    32
  0
VERTEX
  8
T65SSILL
 62
13
 10
1564.398
 20
-8054.385
 30
-1239.789
 70
    32
  0
VERTEX
  8
T65SSILL
 62
13
 10
1574.833
 20
-8058.512
 30
-1239.731
 70
    32
  0
VERTEX
  8
T65SSILL
 62
13
 10
1638.398
 20
-8146.515
 30
-1239.197
 70
    32
  0
VERTEX
  8
T65SSILL
 62
13
 10
1639.006
 20
-8160.349
 30
-1239.170
 70
    32
  0
VERTEX
  8
T65SSILL
 62
13
 10
1637.346
 20
-8170.502
 30
-1239.149
 70
    32
  0
VERTEX
  8
T65SSILL
 62
13
 10
1633.154
 20
-8175.604
 30
-1239.168
 70
    32
  0
VERTEX
  8
T65SSILL
 62
13
 10
1633.783
 20
-8177.899
 30
-1239.168
 70
    32
  0
VERTEX
  8
T65SSILL
 62
13
 10
1635.156
 20
-8178.780
 30
-1239.165
 70
    32
  0
VERTEX
  8
T65SSILL
 62
13
 10
1640.760
 20
-8178.406
 30
-1239.147
 70
    32
  0
VERTEX
  8
T65SSILL
 62
13
 10
1655.243
 20
-8170.876
 30
-1239.274
 70
    32
  0
VERTEX
  8
T65SSILL
 62
13
 10
1689.086
 20
-8218.225
 30
-1239.432
 70
    32
  0
VERTEX
  8
T65SSILL
 62
13
 10
1696.852
 20
-8237.995
 30
-1239.448
 70
    32
  0
VERTEX
  8
T65SSILL
 62
13
 10
1694.600
 20
-8293.738
 30
-1239.303
 70
    32
  0
VERTEX
  8
T65SSILL
 62
13
 10
1687.028
 20
-8312.894
 30
-1239.200
 70
    32
  0
VERTEX
  8
T65SSILL
 62
13
 10
1681.841
 20
-8320.949
 30
-1239.166
 70
    32
  0
VERTEX
  8
T65SSILL
 62
13
 10
1682.249
 20
-8324.680
 30
-1239.169
 70
    32
  0
VERTEX
  8
T65SSILL
 62
13
 10
1660.029
 20
-8340.070
 30
-1239.108
 70
    32
  0
VERTEX
  8
T65SSILL
 62
13
 10
1619.274
 20
-8364.116
 30
-1238.967
 70
    32
  0
VERTEX
  8
T65SSILL
 62
13
 10
1526.635
 20
-8430.656
 30
-1238.594
 70
    32
  0
VERTEX
  8
T65SSILL
 62
13
 10
1518.474
 20
-8426.754
 30
-1238.605
 70
    32
  0
VERTEX
  8
T65SSILL
 62
13
 10
1515.847
 20
-8427.406
 30
-1238.600
 70
    32
  0
VERTEX
  8
T65SSILL
 62
13
 10
1514.697
 20
-8429.963
 30
-1238.587
 70
    32
  0
VERTEX
  8
T65SSILL
 62
13
 10
1516.597
 20
-8437.861
 30
-1238.554
 70
    32
  0
VERTEX
  8
T65SSILL
 62
13
 10
1417.165
 20
-8509.235
 30
-1238.154
 70
    32
  0
VERTEX
  8
T65SSILL
 62
13
 10
1421.940
 20
-8515.888
 30
-1238.128
 70
    32
  0
VERTEX
  8
T65SSILL
 62
13
 10
1590.622
 20
-8394.580
 30
-1238.808
 70
    32
  0
VERTEX
  8
T65SSILL
 62
13
 10
1609.798
 20
-8386.109
 30
-1238.862
 70
    32
  0
VERTEX
  8
T65SSILL
 62
13
 10
1624.167
 20
-8372.205
 30
-1238.935
 70
    32
  0
VERTEX
  8
T65SSILL
 62
13
 10
1640.535
 20
-8362.621
 30
-1238.992
 70
    32
  0
VERTEX
  8
T65SSILL
 62
13
 10
1642.681
 20
-8363.266
 30
-1238.000
 70
    32
  0
VERTEX
  8
T65SSILL
 62
13
 10
1672.032
 20
-8373.416
 30
-1238.000
 70
    32
  0
VERTEX
  8
T65SSILL
 62
13
 10
1677.718
 20
-8375.041
 30
-1238.000
 70
    32
  0
VERTEX
  8
T65SSILL
 62
13
 10
1686.413
 20
-8378.113
 30
-1238.000
 70
    32
  0
VERTEX
  8
T65SSILL
 62
13
 10
1688.544
 20
-8379.034
 30
-1238.000
 70
    32
  0
VERTEX
  8
T65SSILL
 62
13
 10
1699.551
 20
-8381.917
 30
-1238.000
 70
    32
  0
VERTEX
  8
T65SSILL
 62
13
 10
1708.786
 20
-8384.122
 30
-1238.000
 70
    32
  0
VERTEX
  8
T65SSILL
 62
13
 10
1711.147
 20
-8384.552
 30
-1238.903
 70
    32
  0
VERTEX
  8
T65SSILL
 62
13
 10
1825.164
 20
-8511.384
 30
-1239.650
 70
    32
  0
VERTEX
  8
T65SSILL
 62
13
 10
1921.771
 20
-8590.037
 30
-1238.271
 70
    32
  0
VERTEX
  8
T65SSILL
 62
13
 10
1931.947
 20
-8602.068
 30
-1238.086
 70
    32
  0
VERTEX
  8
T65SSILL
 62
13
 10
1953.330
 20
-8615.769
 30
-1237.807
 70
    32
  0
VERTEX
  8
T65SSILL
 62
13
 10
1973.718
 20
-8672.481
 30
-1237.120
 70
    32
  0
VERTEX
  8
T65SSILL
 62
13
 10
1973.023
 20
-8676.316
 30
-1237.088
 70
    32
  0
VERTEX
  8
T65SSILL
 62
13
 10
1979.280
 20
-8679.389
 30
-1237.015
 70
    32
  0
VERTEX
  8
T65SSILL
 62
13
 10
2007.025
 20
-8758.364
 30
-1236.062
 70
    32
  0
VERTEX
  8
T65SSILL
 62
13
 10
2002.521
 20
-8764.898
 30
-1236.030
 70
    32
  0
VERTEX
  8
T65SSILL
 62
13
 10
2009.969
 20
-8767.215
 30
-1235.957
 70
    32
  0
VERTEX
  8
T65SSILL
 62
13
 10
2035.034
 20
-8838.598
 30
-1235.060
 70
    32
  0
VERTEX
  8
T65SSILL
 62
13
 10
2032.428
 20
-8855.235
 30
-1235.009
 70
    32
  0
VERTEX
  8
T65SSILL
 62
13
 10
2033.196
 20
-8860.724
 30
-1234.989
 70
    32
  0
VERTEX
  8
T65SSILL
 62
13
 10
1978.747
 20
-9233.964
 30
-1233.812
 70
    32
  0
VERTEX
  8
T65SSILL
 62
13
 10
1979.930
 20
-9251.179
 30
-1233.717
 70
    32
  0
VERTEX
  8
T65SSILL
 62
13
 10
1989.601
 20
-9274.728
 30
-1233.863
 70
    32
  0
VERTEX
  8
T65SSILL
 62
13
 10
2078.053
 20
-9441.709
 30
-1235.981
 70
    32
  0
VERTEX
  8
T65SSILL
 62
13
 10
2086.064
 20
-9437.608
 30
-1236.159
 70
    32
  0
VERTEX
  8
T65SSILL
 62
13
 10
2050.959
 20
-9366.393
 30
-1235.469
 70
    32
  0
VERTEX
  8
T65SSILL
 62
13
 10
2051.628
 20
-9362.993
 30
-1235.438
 70
    32
  0
VERTEX
  8
T65SSILL
 62
13
 10
2042.356
 20
-9353.363
 30
-1235.242
 70
    32
  0
VERTEX
  8
T65SSILL
 62
13
 10
1999.544
 20
-9271.433
 30
-1233.927
 70
    32
  0
VERTEX
  8
T65SSILL
 62
13
 10
1989.700
 20
-9248.799
 30
-1233.693
 70
    32
  0
VERTEX
  8
T65SSILL
 62
13
 10
1989.059
 20
-9235.745
 30
-1233.755
 70
    32
  0
VERTEX
  8
T65SSILL
 62
13
 10
1991.538
 20
-9222.419
 30
-1233.848
 70
    32
  0
VERTEX
  8
T65SSILL
 62
13
 10
1991.754
 20
-9220.407
 30
-1233.800
 70
    32
  0
VERTEX
  8
T65SSILL
 62
13
 10
1997.662
 20
-9218.569
 30
-1233.800
 70
    32
  0
VERTEX
  8
T65SSILL
 62
13
 10
2007.742
 20
-9234.075
 30
-1233.600
 70
    32
  0
VERTEX
  8
T65SSILL
 62
13
 10
2012.943
 20
-9243.690
 30
-1233.500
 70
    32
  0
VERTEX
  8
T65SSILL
 62
13
 10
2020.877
 20
-9252.276
 30
-1233.300
 70
    32
  0
VERTEX
  8
T65SSILL
 62
13
 10
2023.577
 20
-9255.108
 30
-1233.300
 70
    32
  0
VERTEX
  8
T65SSILL
 62
13
 10
2028.805
 20
-9263.167
 30
-1233.300
 70
    32
  0
VERTEX
  8
T65SSILL
 62
13
 10
2036.384
 20
-9262.484
 30
-1233.300
 70
    32
  0
VERTEX
  8
T65SSILL
 62
13
 10
2041.972
 20
-9265.119
 30
-1233.300
 70
    32
  0
VERTEX
  8
T65SSILL
 62
13
 10
2050.714
 20
-9262.537
 30
-1233.300
 70
    32
  0
VERTEX
  8
T65SSILL
 62
13
 10
2053.308
 20
-9252.736
 30
-1233.300
 70
    32
  0
VERTEX
  8
T65SSILL
 62
13
 10
2045.743
 20
-9248.863
 30
-1233.300
 70
    32
  0
VERTEX
  8
T65SSILL
 62
13
 10
2031.392
 20
-9242.919
 30
-1233.500
 70
    32
  0
VERTEX
  8
T65SSILL
 62
13
 10
2029.371
 20
-9241.195
 30
-1233.500
 70
    32
  0
VERTEX
  8
T65SSILL
 62
13
 10
2023.541
 20
-9239.175
 30
-1233.500
 70
    32
  0
VERTEX
  8
T65SSILL
 62
13
 10
2017.798
 20
-9233.831
 30
-1233.500
 70
    32
  0
VERTEX
  8
T65SSILL
 62
13
 10
2015.539
 20
-9226.421
 30
-1233.600
 70
    32
  0
VERTEX
  8
T65SSILL
 62
13
 10
2015.493
 20
-9219.306
 30
-1233.700
 70
    32
  0
VERTEX
  8
T65SSILL
 62
13
 10
2009.310
 20
-9214.434
 30
-1233.750
 70
    32
  0
VERTEX
  8
T65SSILL
 62
13
 10
2002.114
 20
-9206.995
 30
-1233.800
 70
    32
  0
VERTEX
  8
T65SSILL
 62
13
 10
1999.526
 20
-9198.500
 30
-1233.900
 70
    32
  0
VERTEX
  8
T65SSILL
 62
13
 10
1994.858
 20
-9189.886
 30
-1233.981
 70
    32
  0
VERTEX
  8
T65SSILL
 62
13
 10
2009.856
 20
-9085.800
 30
-1234.325
 70
    32
  0
VERTEX
  8
T65SSILL
 62
13
 10
2013.396
 20
-9082.269
 30
-1234.369
 70
    32
  0
VERTEX
  8
T65SSILL
 62
13
 10
2010.997
 20
-9077.882
 30
-1234.351
 70
    32
  0
VERTEX
  8
T65SSILL
 62
13
 10
2028.422
 20
-8956.962
 30
-1234.731
 70
    32
  0
VERTEX
  8
T65SSILL
 62
13
 10
2032.349
 20
-8957.961
 30
-1234.771
 70
    32
  0
VERTEX
  8
T65SSILL
 62
13
 10
2029.614
 20
-8948.689
 30
-1234.756
 70
    32
  0
VERTEX
  8
T65SSILL
 62
13
 10
2038.322
 20
-8888.256
 30
-1234.937
 70
    32
  0
VERTEX
  8
T65SSILL
 62
13
 10
2043.774
 20
-8881.970
 30
-1235.004
 70
    32
  0
VERTEX
  8
T65SSILL
 62
13
 10
2064.385
 20
-8880.898
 30
-1235.223
 70
    32
  0
VERTEX
  8
T65SSILL
 62
13
 10
2065.720
 20
-8879.036
 30
-1235.239
 70
    32
  0
VERTEX
  8
T65SSILL
 62
13
 10
2103.971
 20
-8890.025
 30
-1235.626
 70
    32
  0
VERTEX
  8
T65SSILL
 62
13
 10
2106.074
 20
-8881.270
 30
-1235.661
 70
    32
  0
VERTEX
  8
T65SSILL
 62
13
 10
2067.340
 20
-8869.746
 30
-1235.270
 70
    32
  0
VERTEX
  8
T65SSILL
 62
13
 10
2054.079
 20
-8858.645
 30
-1235.147
 70
    32
  0
VERTEX
  8
T65SSILL
 62
13
 10
2055.002
 20
-8857.761
 30
-1235.158
 70
    32
  0
VERTEX
  8
T65SSILL
 62
13
 10
2049.720
 20
-8852.238
 30
-1235.110
 70
    32
  0
VERTEX
  8
T65SSILL
 62
13
 10
2018.432
 20
-8764.151
 30
-1235.973
 70
    32
  0
VERTEX
  8
T65SSILL
 62
13
 10
2020.191
 20
-8758.815
 30
-1236.045
 70
    32
  0
VERTEX
  8
T65SSILL
 62
13
 10
2015.507
 20
-8755.820
 30
-1236.073
 70
    32
  0
VERTEX
  8
T65SSILL
 62
13
 10
1997.974
 20
-8702.430
 30
-1236.720
 70
    32
  0
VERTEX
  8
T65SSILL
 62
13
 10
1997.870
 20
-8695.699
 30
-1236.806
 70
    32
  0
VERTEX
  8
T65SSILL
 62
13
 10
2000.274
 20
-8693.060
 30
-1236.844
 70
    32
  0
VERTEX
  8
T65SSILL
 62
13
 10
2009.928
 20
-8696.598
 30
-1236.819
 70
    32
  0
VERTEX
  8
T65SSILL
 62
13
 10
2041.948
 20
-8715.775
 30
-1236.641
 70
    32
  0
VERTEX
  8
T65SSILL
 62
13
 10
2047.008
 20
-8712.297
 30
-1236.697
 70
    32
  0
VERTEX
  8
T65SSILL
 62
13
 10
2049.530
 20
-8707.354
 30
-1236.765
 70
    32
  0
VERTEX
  8
T65SSILL
 62
13
 10
2055.890
 20
-8701.500
 30
-1236.853
 70
    32
  0
VERTEX
  8
T65SSILL
 62
13
 10
2150.401
 20
-8710.391
 30
-1236.939
 70
    32
  0
VERTEX
  8
T65SSILL
 62
13
 10
2151.150
 20
-8702.426
 30
-1237.042
 70
    32
  0
VERTEX
  8
T65SSILL
 62
13
 10
2058.105
 20
-8693.673
 30
-1236.958
 70
    32
  0
VERTEX
  8
T65SSILL
 62
13
 10
2054.816
 20
-8688.936
 30
-1237.012
 70
    32
  0
VERTEX
  8
T65SSILL
 62
13
 10
2037.133
 20
-8688.776
 30
-1236.977
 70
    32
  0
VERTEX
  8
T65SSILL
 62
13
 10
2026.853
 20
-8683.747
 30
-1237.019
 70
    32
  0
VERTEX
  8
T65SSILL
 62
13
 10
2022.770
 20
-8685.284
 30
-1236.991
 70
    32
  0
VERTEX
  8
T65SSILL
 62
13
 10
2005.056
 20
-8681.402
 30
-1237.004
 70
    32
  0
VERTEX
  8
T65SSILL
 62
13
 10
1998.828
 20
-8677.094
 30
-1237.046
 70
    32
  0
VERTEX
  8
T65SSILL
 62
13
 10
1988.762
 20
-8664.808
 30
-1237.182
 70
    32
  0
VERTEX
  8
T65SSILL
 62
13
 10
1980.892
 20
-8662.877
 30
-1237.190
 70
    32
  0
VERTEX
  8
T65SSILL
 62
13
 10
1955.112
 20
-8591.163
 30
-1237.823
 70
    32
  0
VERTEX
  8
T65SSILL
 62
13
 10
1955.112
 20
-8591.163
 30
-1241.098
 70
    32
  0
VERTEX
  8
T65SSILL
 62
13
 10
1958.034
 20
-8580.966
 30
-1239.903
 70
    32
  0
VERTEX
  8
T65SSILL
 62
13
 10
1955.759
 20
-8569.093
 30
-1239.516
 70
    32
  0
VERTEX
  8
T65SSILL
 62
13
 10
1952.597
 20
-8568.614
 30
-1239.827
 70
    32
  0
VERTEX
  8
T65SSILL
 62
13
 10
1952.299
 20
-8568.569
 30
-1237.985
 70
    32
  0
VERTEX
  8
T65SSILL
 62
13
 10
1952.300
 20
-8567.000
 30
-1237.995
 70
    32
  0
VERTEX
  8
T65SSILL
 62
13
 10
1941.930
 20
-8542.977
 30
-1238.099
 70
    32
  0
VERTEX
  8
T65SSILL
 62
13
 10
1936.788
 20
-8538.441
 30
-1238.107
 70
    32
  0
VERTEX
  8
T65SSILL
 62
13
 10
1853.257
 20
-8292.266
 30
-1239.423
 70
    32
  0
VERTEX
  8
T65SSILL
 62
13
 10
1874.901
 20
-8279.816
 30
-1239.596
 70
    32
  0
VERTEX
  8
T65SSILL
 62
13
 10
1872.891
 20
-8274.248
 30
-1239.620
 70
    32
  0
VERTEX
  8
T65SSILL
 62
13
 10
1868.460
 20
-8275.797
 30
-1239.591
 70
    32
  0
VERTEX
  8
T65SSILL
 62
13
 10
1855.290
 20
-8283.826
 30
-1239.483
 70
    32
  0
VERTEX
  8
T65SSILL
 62
13
 10
1848.204
 20
-8284.862
 30
-1239.445
 70
    32
  0
VERTEX
  8
T65SSILL
 62
13
 10
1840.421
 20
-8266.942
 30
-1239.516
 70
    32
  0
VERTEX
  8
T65SSILL
 62
13
 10
1821.897
 20
-8215.014
 30
-1239.741
 70
    32
  0
VERTEX
  8
T65SSILL
 62
13
 10
1791.892
 20
-8150.310
 30
-1239.862
 70
    32
  0
VERTEX
  8
T65SSILL
 62
13
 10
1793.139
 20
-8145.537
 30
-1239.868
 70
    32
  0
VERTEX
  8
T65SSILL
 62
13
 10
1792.916
 20
-8140.160
 30
-1239.868
 70
    32
  0
VERTEX
  8
T65SSILL
 62
13
 10
1784.843
 20
-8134.333
 30
-1239.836
 70
    32
  0
VERTEX
  8
T65SSILL
 62
13
 10
1732.132
 20
-7988.313
 30
-1239.654
 70
    32
  0
VERTEX
  8
T65SSILL
 62
13
 10
1748.178
 20
-7980.581
 30
-1239.720
 70
    32
  0
VERTEX
  8
T65SSILL
 62
13
 10
1742.689
 20
-7968.336
 30
-1239.700
 70
    32
  0
VERTEX
  8
T65SSILL
 62
13
 10
1725.730
 20
-7969.669
 30
-1239.632
 70
    32
  0
VERTEX
  8
T65SSILL
 62
13
 10
1696.353
 20
-7884.133
 30
-1239.537
 70
    32
  0
VERTEX
  8
T65SSILL
 62
13
 10
1698.714
 20
-7877.227
 30
-1239.566
 70
    32
  0
VERTEX
  8
T65SSILL
 62
13
 10
1690.650
 20
-7853.751
 30
-1239.588
 70
    32
  0
VERTEX
  8
T65SSILL
 62
13
 10
1701.243
 20
-7850.544
 30
-1239.648
 70
    32
  0
VERTEX
  8
T65SSILL
 62
13
 10
1697.771
 20
-7840.661
 30
-1239.657
 70
    32
  0
VERTEX
  8
T65SSILL
 62
13
 10
1686.961
 20
-7844.651
 30
-1239.594
 70
    32
  0
VERTEX
  8
T65SSILL
 62
13
 10
1666.044
 20
-7783.495
 30
-1239.623
 70
    32
  0
VERTEX
  8
T65SSILL
 62
13
 10
1659.449
 20
-7779.861
 30
-1239.599
 70
    32
  0
VERTEX
  8
T65SSILL
 62
13
 10
1630.234
 20
-7698.719
 30
-1239.519
 70
    32
  0
VERTEX
  8
T65SSILL
 62
13
 10
1640.954
 20
-7690.695
 30
-1239.565
 70
    32
  0
VERTEX
  8
T65SSILL
 62
13
 10
1636.498
 20
-7685.189
 30
-1239.550
 70
    32
  0
VERTEX
  8
T65SSILL
 62
13
 10
1627.673
 20
-7691.349
 30
-1239.512
 70
    32
  0
VERTEX
  8
T65SSILL
 62
13
 10
1615.686
 20
-7658.315
 30
-1239.479
 70
    32
  0
VERTEX
  8
T65SSILL
 62
13
 10
1624.394
 20
-7664.139
 30
-1239.511
 70
    32
  0
VERTEX
  8
T65SSILL
 62
13
 10
1635.686
 20
-7668.433
 30
-1239.554
 70
    32
  0
VERTEX
  8
T65SSILL
 62
13
 10
1641.756
 20
-7669.869
 30
-1239.577
 70
    32
  0
VERTEX
  8
T65SSILL
 62
13
 10
1658.310
 20
-7670.616
 30
-1239.642
 70
    32
  0
VERTEX
  8
T65SSILL
 62
13
 10
1670.735
 20
-7667.131
 30
-1239.693
 70
    32
  0
VERTEX
  8
T65SSILL
 62
13
 10
1675.975
 20
-7664.024
 30
-1239.715
 70
    32
  0
VERTEX
  8
T65SSILL
 62
13
 10
1723.704
 20
-7631.229
 30
-1239.840
 70
    32
  0
VERTEX
  8
T65SSILL
 62
13
 10
1718.052
 20
-7626.311
 30
-1239.809
 70
    32
  0
VERTEX
  8
T65SSILL
 62
13
 10
1705.289
 20
-7635.445
 30
-1239.843
 70
    32
  0
VERTEX
  8
T65SSILL
 62
13
 10
1699.961
 20
-7630.851
 30
-1239.824
 70
    32
  0
VERTEX
  8
T65SSILL
 62
13
 10
1695.490
 20
-7633.522
 30
-1239.805
 70
    32
  0
VERTEX
  8
T65SSILL
 62
13
 10
1662.316
 20
-7639.825
 30
-1239.671
 70
    32
  0
VERTEX
  8
T65SSILL
 62
13
 10
1657.925
 20
-7638.111
 30
-1239.655
 70
    32
  0
VERTEX
  8
T65SSILL
 62
13
 10
1651.741
 20
-7652.828
 30
-1239.624
 70
    32
  0
VERTEX
  8
T65SSILL
 62
13
 10
1636.852
 20
-7662.120
 30
-1239.561
 70
    32
  0
VERTEX
  8
T65SSILL
 62
13
 10
1629.090
 20
-7659.592
 30
-1239.532
 70
    32
  0
VERTEX
  8
T65SSILL
 62
13
 10
1617.115
 20
-7650.657
 30
-1239.488
 70
    32
  0
VERTEX
  8
T65SSILL
 62
13
 10
1609.514
 20
-7641.430
 30
-1239.463
 70
    32
  0
VERTEX
  8
T65SSILL
 62
13
 10
1560.789
 20
-7500.695
 30
-1239.024
 70
    32
  0
VERTEX
  8
T65SSILL
 62
13
 10
1572.263
 20
-7492.643
 30
-1238.985
 70
    32
  0
VERTEX
  8
T65SSILL
 62
13
 10
1568.469
 20
-7487.015
 30
-1238.952
 70
    32
  0
VERTEX
  8
T65SSILL
 62
13
 10
1558.577
 20
-7493.470
 30
-1238.982
 70
    32
  0
VERTEX
  8
T65SSILL
 62
13
 10
1542.885
 20
-7450.475
 30
-1238.734
 70
    32
  0
VERTEX
  8
T65SSILL
 62
13
 10
1553.311
 20
-7457.585
 30
-1238.779
 70
    32
  0
VERTEX
  8
T65SSILL
 62
13
 10
1560.364
 20
-7460.165
 30
-1238.797
 70
    32
  0
VERTEX
  8
T65SSILL
 62
13
 10
1576.125
 20
-7463.679
 30
-1238.825
 70
    32
  0
VERTEX
  8
T65SSILL
 62
13
 10
1584.288
 20
-7463.173
 30
-1238.827
 70
    32
  0
VERTEX
  8
T65SSILL
 62
13
 10
1645.137
 20
-7449.053
 30
-1238.854
 70
    32
  0
VERTEX
  8
T65SSILL
 62
13
 10
1655.735
 20
-7451.688
 30
-1238.880
 70
    32
  0
VERTEX
  8
T65SSILL
 62
13
 10
1666.918
 20
-7444.151
 30
-1238.865
 70
    32
  0
VERTEX
  8
T65SSILL
 62
13
 10
1742.612
 20
-7426.509
 30
-1239.030
 70
    32
  0
VERTEX
  8
T65SSILL
 62
13
 10
1740.719
 20
-7419.600
 30
-1239.021
 70
    32
  0
VERTEX
  8
T65SSILL
 62
13
 10
1662.680
 20
-7437.548
 30
-1238.832
 70
    32
  0
VERTEX
  8
T65SSILL
 62
13
 10
1658.035
 20
-7432.706
 30
-1238.805
 70
    32
  0
VERTEX
  8
T65SSILL
 62
13
 10
1645.071
 20
-7436.023
 30
-1238.800
 70
    32
  0
VERTEX
  8
T65SSILL
 62
13
 10
1645.368
 20
-7441.669
 30
-1238.824
 70
    32
  0
VERTEX
  8
T65SSILL
 62
13
 10
1582.174
 20
-7456.094
 30
-1238.791
 70
    32
  0
VERTEX
  8
T65SSILL
 62
13
 10
1574.890
 20
-7456.327
 30
-1238.784
 70
    32
  0
VERTEX
  8
T65SSILL
 62
13
 10
1554.963
 20
-7450.731
 30
-1238.742
 70
    32
  0
VERTEX
  8
T65SSILL
 62
13
 10
1543.011
 20
-7441.674
 30
-1238.685
 70
    32
  0
VERTEX
  8
T65SSILL
 62
13
 10
1537.057
 20
-7434.101
 30
-1238.639
 70
    32
  0
VERTEX
  8
T65SSILL
 62
13
 10
1493.895
 20
-7310.450
 30
-1238.057
 70
    32
  0
VERTEX
  8
T65SSILL
 62
13
 10
1502.613
 20
-7303.830
 30
-1238.042
 70
    32
  0
VERTEX
  8
T65SSILL
 62
13
 10
1499.088
 20
-7298.127
 30
-1238.013
 70
    32
  0
VERTEX
  8
T65SSILL
 62
13
 10
1491.853
 20
-7303.004
 30
-1238.023
 70
    32
  0
VERTEX
  8
T65SSILL
 62
13
 10
1468.599
 20
-7239.170
 30
-1237.781
 70
    32
  0
VERTEX
  8
T65SSILL
 62
13
 10
1471.136
 20
-7238.204
 30
-1237.793
 70
    32
  0
VERTEX
  8
T65SSILL
 62
13
 10
1474.917
 20
-7241.290
 30
-1237.810
 70
    32
  0
VERTEX
  8
T65SSILL
 62
13
 10
1489.347
 20
-7247.401
 30
-1237.875
 70
    32
  0
VERTEX
  8
T65SSILL
 62
13
 10
1499.672
 20
-7249.158
 30
-1237.922
 70
    32
  0
VERTEX
  8
T65SSILL
 62
13
 10
1507.515
 20
-7248.336
 30
-1237.957
 70
    32
  0
VERTEX
  8
T65SSILL
 62
13
 10
1593.377
 20
-7230.325
 30
-1238.325
 70
    32
  0
VERTEX
  8
T65SSILL
 62
13
 10
1656.789
 20
-7215.434
 30
-1238.442
 70
    32
  0
VERTEX
  8
T65SSILL
 62
13
 10
1713.207
 20
-7176.132
 30
-1238.471
 70
    32
  0
VERTEX
  8
T65SSILL
 62
13
 10
1708.901
 20
-7170.531
 30
-1238.446
 70
    32
  0
VERTEX
  8
T65SSILL
 62
13
 10
1695.015
 20
-7180.209
 30
-1238.439
 70
    32
  0
VERTEX
  8
T65SSILL
 62
13
 10
1690.493
 20
-7180.281
 30
-1238.428
 70
    32
  0
VERTEX
  8
T65SSILL
 62
13
 10
1686.193
 20
-7175.951
 30
-1238.407
 70
    32
  0
VERTEX
  8
T65SSILL
 62
13
 10
1667.241
 20
-7189.150
 30
-1238.397
 70
    32
  0
VERTEX
  8
T65SSILL
 62
13
 10
1668.142
 20
-7198.215
 30
-1238.423
 70
    32
  0
VERTEX
  8
T65SSILL
 62
13
 10
1655.287
 20
-7208.474
 30
-1238.420
 70
    32
  0
VERTEX
  8
T65SSILL
 62
13
 10
1620.444
 20
-7216.865
 30
-1238.360
 70
    32
  0
VERTEX
  8
T65SSILL
 62
13
 10
1621.118
 20
-7214.710
 30
-1238.356
 70
    32
  0
VERTEX
  8
T65SSILL
 62
13
 10
1613.160
 20
-7207.319
 30
-1238.317
 70
    32
  0
VERTEX
  8
T65SSILL
 62
13
 10
1611.668
 20
-7207.155
 30
-1238.314
 70
    32
  0
VERTEX
  8
T65SSILL
 62
13
 10
1596.316
 20
-7216.865
 30
-1238.303
 70
    32
  0
VERTEX
  8
T65SSILL
 62
13
 10
1590.529
 20
-7223.103
 30
-1238.305
 70
    32
  0
VERTEX
  8
T65SSILL
 62
13
 10
1511.709
 20
-7241.470
 30
-1237.975
 70
    32
  0
VERTEX
  8
T65SSILL
 62
13
 10
1496.314
 20
-7242.599
 30
-1237.906
 70
    32
  0
VERTEX
  8
T65SSILL
 62
13
 10
1489.707
 20
-7241.313
 30
-1237.876
 70
    32
  0
VERTEX
  8
T65SSILL
 62
13
 10
1479.955
 20
-7236.937
 30
-1237.832
 70
    32
  0
VERTEX
  8
T65SSILL
 62
13
 10
1473.358
 20
-7232.668
 30
-1237.802
 70
    32
  0
VERTEX
  8
T65SSILL
 62
13
 10
1461.018
 20
-7219.407
 30
-1237.745
 70
    32
  0
VERTEX
  8
T65SSILL
 62
13
 10
1422.316
 20
-7108.934
 30
-1237.561
 70
    32
  0
VERTEX
  8
T65SSILL
 62
13
 10
1431.968
 20
-7101.870
 30
-1237.594
 70
    32
  0
VERTEX
  8
T65SSILL
 62
13
 10
1427.979
 20
-7096.267
 30
-1237.573
 70
    32
  0
VERTEX
  8
T65SSILL
 62
13
 10
1419.892
 20
-7101.931
 30
-1237.549
 70
    32
  0
VERTEX
  8
T65SSILL
 62
13
 10
1404.414
 20
-7057.835
 30
-1237.430
 70
    32
  0
VERTEX
  8
T65SSILL
 62
13
 10
1406.073
 20
-7057.142
 30
-1237.432
 70
    32
  0
VERTEX
  8
T65SSILL
 62
13
 10
1425.920
 20
-7066.087
 30
-1237.503
 70
    32
  0
VERTEX
  8
T65SSILL
 62
13
 10
1441.818
 20
-7067.595
 30
-1237.544
 70
    32
  0
VERTEX
  8
T65SSILL
 62
13
 10
1457.105
 20
-7064.413
 30
-1237.572
 70
    32
  0
VERTEX
  8
T65SSILL
 62
13
 10
1498.938
 20
-7051.098
 30
-1237.635
 70
    32
  0
VERTEX
  8
T65SSILL
 62
13
 10
1501.656
 20
-7052.128
 30
-1237.644
 70
    32
  0
VERTEX
  8
T65SSILL
 62
13
 10
1502.495
 20
-7058.267
 30
-1237.662
 70
    32
  0
VERTEX
  8
T65SSILL
 62
13
 10
1508.707
 20
-7073.319
 30
-1237.717
 70
    32
  0
VERTEX
  8
T65SSILL
 62
13
 10
1513.164
 20
-7099.014
 30
-1237.795
 70
    32
  0
VERTEX
  8
T65SSILL
 62
13
 10
1510.677
 20
-7114.721
 30
-1237.831
 70
    32
  0
VERTEX
  8
T65SSILL
 62
13
 10
1517.608
 20
-7117.278
 30
-1237.854
 70
    32
  0
VERTEX
  8
T65SSILL
 62
13
 10
1521.450
 20
-7113.200
 30
-1237.852
 70
    32
  0
VERTEX
  8
T65SSILL
 62
13
 10
1523.987
 20
-7107.345
 30
-1237.843
 70
    32
  0
VERTEX
  8
T65SSILL
 62
13
 10
1525.919
 20
-7097.752
 30
-1237.822
 70
    32
  0
VERTEX
  8
T65SSILL
 62
13
 10
1533.675
 20
-7084.658
 30
-1237.806
 70
    32
  0
VERTEX
  8
T65SSILL
 62
13
 10
1526.466
 20
-7061.031
 30
-1237.726
 70
    32
  0
VERTEX
  8
T65SSILL
 62
13
 10
1519.750
 20
-7057.373
 30
-1237.701
 70
    32
  0
VERTEX
  8
T65SSILL
 62
13
 10
1512.058
 20
-7049.732
 30
-1237.662
 70
    32
  0
VERTEX
  8
T65SSILL
 62
13
 10
1518.660
 20
-7045.033
 30
-1237.665
 70
    32
  0
VERTEX
  8
T65SSILL
 62
13
 10
1567.662
 20
-7027.844
 30
-1237.735
 70
    32
  0
VERTEX
  8
T65SSILL
 62
13
 10
1565.281
 20
-7021.158
 30
-1237.712
 70
    32
  0
VERTEX
  8
T65SSILL
 62
13
 10
1512.257
 20
-7039.826
 30
-1237.637
 70
    32
  0
VERTEX
  8
T65SSILL
 62
13
 10
1513.356
 20
-7035.428
 30
-1237.628
 70
    32
  0
VERTEX
  8
T65SSILL
 62
13
 10
1514.492
 20
-7032.856
 30
-1237.623
 70
    32
  0
VERTEX
  8
T65SSILL
 62
13
 10
1535.862
 20
-7028.763
 30
-1237.663
 70
    32
  0
VERTEX
  8
T65SSILL
 62
13
 10
1538.334
 20
-7024.546
 30
-1237.658
 70
    32
  0
VERTEX
  8
T65SSILL
 62
13
 10
1544.567
 20
-7019.600
 30
-1237.659
 70
    32
  0
VERTEX
  8
T65SSILL
 62
13
 10
1547.522
 20
-7004.429
 30
-1237.626
 70
    32
  0
VERTEX
  8
T65SSILL
 62
13
 10
1547.149
 20
-6998.515
 30
-1237.610
 70
    32
  0
VERTEX
  8
T65SSILL
 62
13
 10
1536.493
 20
-6994.217
 30
-1237.573
 70
    32
  0
VERTEX
  8
T65SSILL
 62
13
 10
1526.872
 20
-6996.344
 30
-1237.556
 70
    32
  0
VERTEX
  8
T65SSILL
 62
13
 10
1517.142
 20
-7005.878
 30
-1237.558
 70
    32
  0
VERTEX
  8
T65SSILL
 62
13
 10
1508.327
 20
-7007.781
 30
-1237.543
 70
    32
  0
VERTEX
  8
T65SSILL
 62
13
 10
1504.024
 20
-7012.594
 30
-1237.545
 70
    32
  0
VERTEX
  8
T65SSILL
 62
13
 10
1502.829
 20
-7018.076
 30
-1237.557
 70
    32
  0
VERTEX
  8
T65SSILL
 62
13
 10
1497.753
 20
-7029.469
 30
-1237.575
 70
    32
  0
VERTEX
  8
T65SSILL
 62
13
 10
1499.410
 20
-7043.867
 30
-1237.617
 70
    32
  0
VERTEX
  8
T65SSILL
 62
13
 10
1456.510
 20
-7058.011
 30
-1237.553
 70
    32
  0
VERTEX
  8
T65SSILL
 62
13
 10
1446.330
 20
-7060.727
 30
-1237.536
 70
    32
  0
VERTEX
  8
T65SSILL
 62
13
 10
1438.827
 20
-7061.107
 30
-1237.520
 70
    32
  0
VERTEX
  8
T65SSILL
 62
13
 10
1427.942
 20
-7059.940
 30
-1237.491
 70
    32
  0
VERTEX
  8
T65SSILL
 62
13
 10
1413.342
 20
-7054.049
 30
-1237.441
 70
    32
  0
VERTEX
  8
T65SSILL
 62
13
 10
1402.345
 20
-7044.986
 30
-1237.407
 70
    32
  0
VERTEX
  8
T65SSILL
 62
13
 10
1396.707
 20
-7037.094
 30
-1237.377
 70
    32
  0
VERTEX
  8
T65SSILL
 62
13
 10
1353.953
 20
-6911.999
 30
-1237.142
 70
    32
  0
VERTEX
  8
T65SSILL
 62
13
 10
1362.504
 20
-6906.235
 30
-1237.089
 70
    32
  0
VERTEX
  8
T65SSILL
 62
13
 10
1358.169
 20
-6899.803
 30
-1237.085
 70
    32
  0
VERTEX
  8
T65SSILL
 62
13
 10
1351.127
 20
-6904.337
 30
-1237.128
 70
    32
  0
VERTEX
  8
T65SSILL
 62
13
 10
1329.503
 20
-6837.053
 30
-1236.997
 70
    32
  0
VERTEX
  8
T65SSILL
 62
13
 10
1329.019
 20
-6824.028
 30
-1236.956
 70
    32
  0
VERTEX
  8
T65SSILL
 62
13
 10
1331.405
 20
-6814.492
 30
-1236.916
 70
    32
  0
VERTEX
  8
T65SSILL
 62
13
 10
1335.448
 20
-6805.631
 30
-1236.870
 70
    32
  0
VERTEX
  8
T65SSILL
 62
13
 10
1345.484
 20
-6794.088
 30
-1236.792
 70
    32
  0
VERTEX
  8
T65SSILL
 62
13
 10
1357.530
 20
-6785.882
 30
-1236.799
 70
    32
  0
VERTEX
  8
T65SSILL
 62
13
 10
1365.815
 20
-6786.018
 30
-1236.861
 70
    32
  0
VERTEX
  8
T65SSILL
 62
13
 10
1373.589
 20
-6780.798
 30
-1236.912
 70
    32
  0
VERTEX
  8
T65SSILL
 62
13
 10
1375.802
 20
-6772.246
 30
-1236.919
 70
    32
  0
VERTEX
  8
T65SSILL
 62
13
 10
1448.317
 20
-6720.537
 30
-1236.816
 70
    32
  0
VERTEX
  8
T65SSILL
 62
13
 10
1452.752
 20
-6718.905
 30
-1236.812
 70
    32
  0
VERTEX
  8
T65SSILL
 62
13
 10
1457.515
 20
-6724.389
 30
-1236.821
 70
    32
  0
VERTEX
  8
T65SSILL
 62
13
 10
1463.951
 20
-6724.784
 30
-1236.820
 70
    32
  0
VERTEX
  8
T65SSILL
 62
13
 10
1463.220
 20
-6735.049
 30
-1236.838
 70
    32
  0
VERTEX
  8
T65SSILL
 62
13
 10
1473.422
 20
-6735.695
 30
-1236.837
 70
    32
  0
VERTEX
  8
T65SSILL
 62
13
 10
1474.719
 20
-6720.464
 30
-1236.810
 70
    32
  0
VERTEX
  8
T65SSILL
 62
13
 10
1481.334
 20
-6718.835
 30
-1236.805
 70
    32
  0
VERTEX
  8
T65SSILL
 62
13
 10
1479.758
 20
-6710.184
 30
-1236.790
 70
    32
  0
VERTEX
  8
T65SSILL
 62
13
 10
1481.862
 20
-6696.616
 30
-1236.765
 70
    32
  0
VERTEX
  8
T65SSILL
 62
13
 10
1533.136
 20
-6658.158
 30
-1236.684
 70
    32
  0
VERTEX
  8
T65SSILL
 62
13
 10
1540.028
 20
-6649.515
 30
-1236.669
 70
    32
  0
VERTEX
  8
T65SSILL
 62
13
 10
1550.301
 20
-6647.753
 30
-1236.689
 70
    32
  0
VERTEX
  8
T65SSILL
 62
13
 10
1562.788
 20
-6652.812
 30
-1236.732
 70
    32
  0
VERTEX
  8
T65SSILL
 62
13
 10
1567.196
 20
-6664.226
 30
-1236.772
 70
    32
  0
VERTEX
  8
T65SSILL
 62
13
 10
1578.253
 20
-6663.066
 30
-1236.795
 70
    32
  0
VERTEX
  8
T65SSILL
 62
13
 10
1588.735
 20
-6657.028
 30
-1236.804
 70
    32
  0
VERTEX
  8
T65SSILL
 62
13
 10
1590.759
 20
-6645.969
 30
-1236.780
 70
    32
  0
VERTEX
  8
T65SSILL
 62
13
 10
1588.415
 20
-6627.893
 30
-1236.726
 70
    32
  0
VERTEX
  8
T65SSILL
 62
13
 10
1612.088
 20
-6619.528
 30
-1236.760
 70
    32
  0
VERTEX
  8
T65SSILL
 62
13
 10
1610.850
 20
-6611.731
 30
-1236.736
 70
    32
  0
VERTEX
  8
T65SSILL
 62
13
 10
1608.460
 20
-6606.692
 30
-1236.717
 70
    32
  0
VERTEX
  8
T65SSILL
 62
13
 10
1588.837
 20
-6617.368
 30
-1236.699
 70
    32
  0
VERTEX
  8
T65SSILL
 62
13
 10
1579.323
 20
-6618.581
 30
-1236.680
 70
    32
  0
VERTEX
  8
T65SSILL
 62
13
 10
1578.717
 20
-6600.328
 30
-1236.631
 70
    32
  0
VERTEX
  8
T65SSILL
 62
13
 10
1566.205
 20
-6589.034
 30
-1236.571
 70
    32
  0
VERTEX
  8
T65SSILL
 62
13
 10
1561.241
 20
-6571.548
 30
-1236.522
 70
    32
  0
VERTEX
  8
T65SSILL
 62
13
 10
1552.689
 20
-6571.235
 30
-1236.524
 70
    32
  0
VERTEX
  8
T65SSILL
 62
13
 10
1548.221
 20
-6578.277
 30
-1236.537
 70
    32
  0
VERTEX
  8
T65SSILL
 62
13
 10
1544.119
 20
-6577.929
 30
-1236.538
 70
    32
  0
VERTEX
  8
T65SSILL
 62
13
 10
1543.847
 20
-6558.634
 30
-1236.503
 70
    32
  0
VERTEX
  8
T65SSILL
 62
13
 10
1548.516
 20
-6555.909
 30
-1236.497
 70
    32
  0
VERTEX
  8
T65SSILL
 62
13
 10
1546.562
 20
-6545.097
 30
-1236.479
 70
    32
  0
VERTEX
  8
T65SSILL
 62
13
 10
1543.127
 20
-6540.493
 30
-1236.471
 70
    32
  0
VERTEX
  8
T65SSILL
 62
13
 10
1541.251
 20
-6374.868
 30
-1236.176
 70
    32
  0
VERTEX
  8
T65SSILL
 62
13
 10
1543.567
 20
-6326.693
 30
-1236.089
 70
    32
  0
VERTEX
  8
T65SSILL
 62
13
 10
1540.730
 20
-6315.852
 30
-1236.071
 70
    32
  0
VERTEX
  8
T65SSILL
 62
13
 10
1538.825
 20
-6186.566
 30
-1235.840
 70
    32
  0
VERTEX
  8
T65SSILL
 62
13
 10
1532.175
 20
-6186.149
 30
-1235.841
 70
    32
  0
VERTEX
  8
T65SSILL
 62
13
 10
1532.930
 20
-6277.873
 30
-1236.005
 70
    32
  0
VERTEX
  8
T65SSILL
 62
13
 10
1530.077
 20
-6281.807
 30
-1236.013
 70
    32
  0
VERTEX
  8
T65SSILL
 62
13
 10
1518.044
 20
-6292.806
 30
-1236.035
 70
    32
  0
SEQEND
  8
T65SSILL
  0
ENDSEC
  0
EOF
