999
********************************
999
*   DXF File - Entities Only   *
999
*        3D Data Format        *
999
*     Output from ENVISAGE     *
999
*     24-Dec-2007 12:26:56     *
999
********************************
  0
SECTION 
  2
HEADER
  9
$ACADVER
  1
AC1009
  9
$EXTMIN
 10
-290000.000
 20
-250000.000
 30
-4000.000
  9
$EXTMAX
 10
5000000.000
 20
600000.000
 30
6000.000
  0
ENDSEC
  0
SECTION
  2
ENTITIES
  0
TEXT
  8
T66SSILL
 62
3
 10
1240.329
 20
-6743.401
 30
-1383.613
 40
8.202
  1
U
 50
-72.355
 41
 1.0 
  0
TEXT
  8
T66SSILL
 62
3
 10
1262.944
 20
-6818.267
 30
-1385.203
 40
8.202
  1
U
 41
 1.0 
  0
TEXT
  8
T66SSILL
 62
3
 10
1449.653
 20
-7081.158
 30
-1388.464
 40
8.202
  1
U
 41
 1.0 
  0
TEXT
  8
T66SSILL
 62
3
 10
975.139
 20
-5625.736
 30
-1389.300
 40
8.202
  1
U
 41
 1.0 
  0
TEXT
  8
T66SSILL
 62
3
 10
1395.893
 20
-6485.511
 30
-1390.407
 40
8.202
  1
D
 41
 1.0 
  0
TEXT
  8
T66SSILL
 62
3
 10
1320.799
 20
-6862.242
 30
-1391.808
 40
8.202
  1
D
 41
 1.0 
  0
TEXT
  8
T66SSILL
 62
3
 10
1698.168
 20
-7385.031
 30
-1390.674
 40
8.202
  1
D
 41
 1.0 
  0
TEXT
  8
T66SSILL
 62
8
 10
2086.934
 20
-5917.020
 30
-1388.401
 40
4.101
  1
6650
 41
 1.0 
  0
TEXT
  8
T66SSILL
 62
8
 10
6321.527
 20
-9440.156
 30
-1410.901
 40
4.101
  1
6650
 41
 1.0 
  0
TEXT
  8
T66SSILL
 62
3
 10
7354.821
 20
-8532.043
 30
-1403.828
 40
8.202
  1
U
 41
 1.0 
  0
TEXT
  8
T66SSILL
 62
3
 10
7336.423
 20
-8702.980
 30
-1408.374
 40
8.202
  1
U
 41
 1.0 
  0
TEXT
  8
T66SSILL
 62
3
 10
7389.815
 20
-8716.817
 30
-1411.424
 40
8.202
  1
D
 41
 1.0 
  0
TEXT
  8
T66SSILL
 62
3
 10
7427.195
 20
-8570.583
 30
-1410.210
 40
8.202
  1
D
 41
 1.0 
  0
POLYLINE
  8
T66SSILL
 62
3
 66
     1
 70
     9
  0
VERTEX
  8
T66SSILL
 62
3
 10
1268.342
 20
-6761.639
 30
-1388.728
 70
    32
  0
VERTEX
  8
T66SSILL
 62
3
 10
1255.102
 20
-6720.014
 30
-1379.624
 70
    32
  0
VERTEX
  8
T66SSILL
 62
3
 10
1263.640
 20
-6713.150
 30
-1379.081
 70
    32
  0
VERTEX
  8
T66SSILL
 62
3
 10
1278.215
 20
-6756.993
 30
-1388.641
 70
    32
  0
SEQEND
  8
T66SSILL
  0
POLYLINE
  8
T66SSILL
 62
3
 66
     1
 70
     9
  0
VERTEX
  8
T66SSILL
 62
3
 10
1287.659
 20
-6823.906
 30
-1389.140
 70
    32
  0
VERTEX
  8
T66SSILL
 62
3
 10
1258.681
 20
-6848.762
 30
-1383.113
 70
    32
  0
VERTEX
  8
T66SSILL
 62
3
 10
1264.228
 20
-6858.126
 30
-1382.857
 70
    32
  0
VERTEX
  8
T66SSILL
 62
3
 10
1290.036
 20
-6837.953
 30
-1389.232
 70
    32
  0
SEQEND
  8
T66SSILL
  0
POLYLINE
  8
T66SSILL
 62
3
 66
     1
 70
     9
  0
VERTEX
  8
T66SSILL
 62
3
 10
1454.797
 20
-7043.841
 30
-1388.464
 70
    32
  0
VERTEX
  8
T66SSILL
 62
3
 10
1444.510
 20
-7043.089
 30
-1386.412
 70
    32
  0
VERTEX
  8
T66SSILL
 62
3
 10
1444.075
 20
-7055.809
 30
-1386.466
 70
    32
  0
VERTEX
  8
T66SSILL
 62
3
 10
1458.450
 20
-7055.343
 30
-1389.312
 70
    32
  0
VERTEX
  8
T66SSILL
 62
3
 10
1470.059
 20
-7059.773
 30
-1390.340
 70
    32
  0
VERTEX
  8
T66SSILL
 62
3
 10
1463.901
 20
-7049.387
 30
-1390.331
 70
    32
  0
VERTEX
  8
T66SSILL
 62
3
 10
1459.957
 20
-7040.511
 30
-1390.282
 70
    32
  0
SEQEND
  8
T66SSILL
  0
POLYLINE
  8
T66SSILL
 62
3
 66
     1
 70
     9
  0
VERTEX
  8
T66SSILL
 62
3
 10
985.480
 20
-5623.485
 30
-1385.788
 70
    32
  0
VERTEX
  8
T66SSILL
 62
3
 10
970.911
 20
-5605.332
 30
-1385.777
 70
    32
  0
VERTEX
  8
T66SSILL
 62
3
 10
976.764
 20
-5598.072
 30
-1383.802
 70
    32
  0
VERTEX
  8
T66SSILL
 62
3
 10
991.848
 20
-5617.827
 30
-1385.774
 70
    32
  0
SEQEND
  8
T66SSILL
  0
POLYLINE
  8
T66SSILL
 62
3
 66
     1
 70
     9
  0
VERTEX
  8
T66SSILL
 62
3
 10
1369.621
 20
-6458.359
 30
-1386.140
 70
    32
  0
VERTEX
  8
T66SSILL
 62
3
 10
1382.684
 20
-6452.821
 30
-1391.092
 70
    32
  0
VERTEX
  8
T66SSILL
 62
3
 10
1391.531
 20
-6445.263
 30
-1391.974
 70
    32
  0
VERTEX
  8
T66SSILL
 62
3
 10
1409.162
 20
-6456.063
 30
-1397.720
 70
    32
  0
VERTEX
  8
T66SSILL
 62
3
 10
1366.992
 20
-6471.505
 30
-1386.321
 70
    32
  0
SEQEND
  8
T66SSILL
  0
POLYLINE
  8
T66SSILL
 62
3
 66
     1
 70
     9
  0
VERTEX
  8
T66SSILL
 62
3
 10
1290.036
 20
-6837.953
 30
-1389.232
 70
    32
  0
VERTEX
  8
T66SSILL
 62
3
 10
1295.636
 20
-6844.294
 30
-1389.509
 70
    32
  0
VERTEX
  8
T66SSILL
 62
3
 10
1294.079
 20
-6873.746
 30
-1393.806
 70
    32
  0
VERTEX
  8
T66SSILL
 62
3
 10
1304.689
 20
-6873.747
 30
-1394.252
 70
    32
  0
VERTEX
  8
T66SSILL
 62
3
 10
1307.165
 20
-6832.656
 30
-1389.116
 70
    32
  0
SEQEND
  8
T66SSILL
  0
POLYLINE
  8
T66SSILL
 62
3
 66
     1
 70
     9
  0
VERTEX
  8
T66SSILL
 62
3
 10
1666.383
 20
-7369.882
 30
-1390.784
 70
    32
  0
VERTEX
  8
T66SSILL
 62
3
 10
1685.252
 20
-7332.739
 30
-1394.078
 70
    32
  0
VERTEX
  8
T66SSILL
 62
3
 10
1706.945
 20
-7353.492
 30
-1394.882
 70
    32
  0
VERTEX
  8
T66SSILL
 62
3
 10
1695.729
 20
-7359.594
 30
-1392.260
 70
    32
  0
VERTEX
  8
T66SSILL
 62
3
 10
1690.127
 20
-7366.639
 30
-1390.674
 70
    32
  0
VERTEX
  8
T66SSILL
 62
3
 10
1681.165
 20
-7369.335
 30
-1391.261
 70
    32
  0
VERTEX
  8
T66SSILL
 62
3
 10
1677.128
 20
-7375.379
 30
-1390.824
 70
    32
  0
SEQEND
  8
T66SSILL
  0
POLYLINE
  8
T66SSILL
 62
3
 66
     1
 70
     9
  0
VERTEX
  8
T66SSILL
 62
3
 10
7321.668
 20
-8517.945
 30
-1407.674
 70
    32
  0
VERTEX
  8
T66SSILL
 62
3
 10
7326.924
 20
-8520.877
 30
-1404.286
 70
    32
  0
VERTEX
  8
T66SSILL
 62
3
 10
7333.106
 20
-8491.367
 30
-1398.810
 70
    32
  0
VERTEX
  8
T66SSILL
 62
3
 10
7342.814
 20
-8493.572
 30
-1398.948
 70
    32
  0
VERTEX
  8
T66SSILL
 62
3
 10
7341.307
 20
-8500.798
 30
-1399.988
 70
    32
  0
VERTEX
  8
T66SSILL
 62
3
 10
7333.959
 20
-8565.350
 30
-1407.921
 70
    32
  0
SEQEND
  8
T66SSILL
  0
POLYLINE
  8
T66SSILL
 62
3
 66
     1
 70
     9
  0
VERTEX
  8
T66SSILL
 62
3
 10
7346.424
 20
-8707.967
 30
-1408.873
 70
    32
  0
VERTEX
  8
T66SSILL
 62
3
 10
7342.644
 20
-8707.654
 30
-1407.482
 70
    32
  0
VERTEX
  8
T66SSILL
 62
3
 10
7330.045
 20
-8711.933
 30
-1406.368
 70
    32
  0
VERTEX
  8
T66SSILL
 62
3
 10
7333.083
 20
-8723.010
 30
-1406.235
 70
    32
  0
VERTEX
  8
T66SSILL
 62
3
 10
7345.485
 20
-8720.276
 30
-1408.374
 70
    32
  0
SEQEND
  8
T66SSILL
  0
POLYLINE
  8
T66SSILL
 62
3
 66
     1
 70
     9
  0
VERTEX
  8
T66SSILL
 62
3
 10
7346.424
 20
-8707.967
 30
-1408.873
 70
    32
  0
VERTEX
  8
T66SSILL
 62
3
 10
7373.730
 20
-8710.867
 30
-1408.951
 70
    32
  0
VERTEX
  8
T66SSILL
 62
3
 10
7377.057
 20
-8717.508
 30
-1411.060
 70
    32
  0
VERTEX
  8
T66SSILL
 62
3
 10
7389.085
 20
-8731.000
 30
-1413.149
 70
    32
  0
VERTEX
  8
T66SSILL
 62
3
 10
7384.507
 20
-8740.999
 30
-1413.518
 70
    32
  0
VERTEX
  8
T66SSILL
 62
3
 10
7372.387
 20
-8727.361
 30
-1411.424
 70
    32
  0
VERTEX
  8
T66SSILL
 62
3
 10
7345.485
 20
-8720.276
 30
-1408.374
 70
    32
  0
SEQEND
  8
T66SSILL
  0
POLYLINE
  8
T66SSILL
 62
3
 66
     1
 70
     9
  0
VERTEX
  8
T66SSILL
 62
3
 10
7397.210
 20
-8580.888
 30
-1410.027
 70
    32
  0
VERTEX
  8
T66SSILL
 62
3
 10
7400.387
 20
-8565.082
 30
-1410.330
 70
    32
  0
VERTEX
  8
T66SSILL
 62
3
 10
7406.475
 20
-8550.841
 30
-1410.614
 70
    32
  0
VERTEX
  8
T66SSILL
 62
3
 10
7415.267
 20
-8556.366
 30
-1410.544
 70
    32
  0
VERTEX
  8
T66SSILL
 62
3
 10
7413.566
 20
-8574.908
 30
-1410.210
 70
    32
  0
VERTEX
  8
T66SSILL
 62
3
 10
7409.500
 20
-8584.764
 30
-1409.999
 70
    32
  0
SEQEND
  8
T66SSILL
  0
POLYLINE
  8
T66SSILL
 62
8
 66
     1
 70
     9
  0
VERTEX
  8
T66SSILL
 62
8
 10
1256.966
 20
-6489.244
 30
-1387.899
 70
    32
  0
VERTEX
  8
T66SSILL
 62
8
 10
1261.576
 20
-6515.452
 30
-1387.949
 70
    32
  0
VERTEX
  8
T66SSILL
 62
8
 10
1257.254
 20
-6517.430
 30
-1387.933
 70
    32
  0
VERTEX
  8
T66SSILL
 62
8
 10
1198.301
 20
-6412.860
 30
-1387.524
 70
    32
  0
VERTEX
  8
T66SSILL
 62
8
 10
1181.239
 20
-6349.620
 30
-1387.309
 70
    32
  0
VERTEX
  8
T66SSILL
 62
8
 10
1185.195
 20
-6347.866
 30
-1387.303
 70
    32
  0
VERTEX
  8
T66SSILL
 62
8
 10
1230.445
 20
-6368.516
 30
-1387.110
 70
    32
  0
VERTEX
  8
T66SSILL
 62
8
 10
1254.953
 20
-6474.800
 30
-1387.873
 70
    32
  0
VERTEX
  8
T66SSILL
 62
8
 10
1251.142
 20
-6479.331
 30
-1387.863
 70
    32
  0
VERTEX
  8
T66SSILL
 62
8
 10
1251.680
 20
-6484.671
 30
-1387.871
 70
    32
  0
SEQEND
  8
T66SSILL
  0
POLYLINE
  8
T66SSILL
 62
8
 66
     1
 70
     9
  0
VERTEX
  8
T66SSILL
 62
8
 10
1094.821
 20
-6038.087
 30
-1386.895
 70
    32
  0
VERTEX
  8
T66SSILL
 62
8
 10
1089.485
 20
-6016.275
 30
-1386.749
 70
    32
  0
VERTEX
  8
T66SSILL
 62
8
 10
1084.686
 20
-6009.288
 30
-1386.690
 70
    32
  0
VERTEX
  8
T66SSILL
 62
8
 10
1082.359
 20
-6001.506
 30
-1386.636
 70
    32
  0
VERTEX
  8
T66SSILL
 62
8
 10
1082.333
 20
-5990.875
 30
-1386.575
 70
    32
  0
VERTEX
  8
T66SSILL
 62
8
 10
1078.792
 20
-5977.770
 30
-1386.530
 70
    32
  0
VERTEX
  8
T66SSILL
 62
8
 10
1078.282
 20
-5961.620
 30
-1386.492
 70
    32
  0
VERTEX
  8
T66SSILL
 62
8
 10
1083.474
 20
-5961.587
 30
-1386.490
 70
    32
  0
VERTEX
  8
T66SSILL
 62
8
 10
1091.570
 20
-5966.206
 30
-1386.497
 70
    32
  0
VERTEX
  8
T66SSILL
 62
8
 10
1103.872
 20
-5965.633
 30
-1386.520
 70
    32
  0
VERTEX
  8
T66SSILL
 62
8
 10
1100.585
 20
-5959.843
 30
-1386.479
 70
    32
  0
VERTEX
  8
T66SSILL
 62
8
 10
1083.667
 20
-5943.846
 30
-1386.448
 70
    32
  0
VERTEX
  8
T66SSILL
 62
8
 10
1081.016
 20
-5938.034
 30
-1386.435
 70
    32
  0
VERTEX
  8
T66SSILL
 62
8
 10
1134.989
 20
-5809.641
 30
-1386.122
 70
    32
  0
VERTEX
  8
T66SSILL
 62
8
 10
1138.447
 20
-5809.766
 30
-1386.121
 70
    32
  0
VERTEX
  8
T66SSILL
 62
8
 10
1140.318
 20
-5824.179
 30
-1386.152
 70
    32
  0
VERTEX
  8
T66SSILL
 62
8
 10
1129.520
 20
-5831.387
 30
-1386.171
 70
    32
  0
VERTEX
  8
T66SSILL
 62
8
 10
1133.936
 20
-5837.236
 30
-1386.182
 70
    32
  0
VERTEX
  8
T66SSILL
 62
8
 10
1142.000
 20
-5832.425
 30
-1386.170
 70
    32
  0
VERTEX
  8
T66SSILL
 62
8
 10
1159.667
 20
-5933.618
 30
-1386.567
 70
    32
  0
VERTEX
  8
T66SSILL
 62
8
 10
1149.157
 20
-5941.380
 30
-1386.568
 70
    32
  0
VERTEX
  8
T66SSILL
 62
8
 10
1153.141
 20
-5946.778
 30
-1386.615
 70
    32
  0
VERTEX
  8
T66SSILL
 62
8
 10
1160.446
 20
-5941.968
 30
-1386.618
 70
    32
  0
VERTEX
  8
T66SSILL
 62
8
 10
1196.644
 20
-6154.490
 30
-1387.127
 70
    32
  0
VERTEX
  8
T66SSILL
 62
8
 10
1188.378
 20
-6160.533
 30
-1387.122
 70
    32
  0
VERTEX
  8
T66SSILL
 62
8
 10
1192.373
 20
-6166.249
 30
-1387.114
 70
    32
  0
VERTEX
  8
T66SSILL
 62
8
 10
1198.817
 20
-6162.058
 30
-1387.118
 70
    32
  0
VERTEX
  8
T66SSILL
 62
8
 10
1215.912
 20
-6260.184
 30
-1387.151
 70
    32
  0
VERTEX
  8
T66SSILL
 62
8
 10
1197.245
 20
-6276.410
 30
-1387.192
 70
    32
  0
VERTEX
  8
T66SSILL
 62
8
 10
1202.563
 20
-6282.154
 30
-1387.195
 70
    32
  0
VERTEX
  8
T66SSILL
 62
8
 10
1217.596
 20
-6269.189
 30
-1387.162
 70
    32
  0
VERTEX
  8
T66SSILL
 62
8
 10
1232.256
 20
-6357.871
 30
-1386.948
 70
    32
  0
VERTEX
  8
T66SSILL
 62
8
 10
1230.607
 20
-6359.055
 30
-1386.975
 70
    32
  0
VERTEX
  8
T66SSILL
 62
8
 10
1191.467
 20
-6340.104
 30
-1387.286
 70
    32
  0
VERTEX
  8
T66SSILL
 62
8
 10
1183.808
 20
-6333.976
 30
-1387.285
 70
    32
  0
VERTEX
  8
T66SSILL
 62
8
 10
1175.546
 20
-6316.111
 30
-1387.268
 70
    32
  0
VERTEX
  8
T66SSILL
 62
8
 10
1170.010
 20
-6301.287
 30
-1387.253
 70
    32
  0
VERTEX
  8
T66SSILL
 62
8
 10
1167.321
 20
-6288.005
 30
-1387.237
 70
    32
  0
VERTEX
  8
T66SSILL
 62
8
 10
1161.118
 20
-6273.008
 30
-1387.222
 70
    32
  0
VERTEX
  8
T66SSILL
 62
8
 10
1159.491
 20
-6257.877
 30
-1387.203
 70
    32
  0
VERTEX
  8
T66SSILL
 62
8
 10
1155.354
 20
-6248.786
 30
-1387.194
 70
    32
  0
VERTEX
  8
T66SSILL
 62
8
 10
1145.648
 20
-6214.681
 30
-1387.156
 70
    32
  0
VERTEX
  8
T66SSILL
 62
8
 10
1143.734
 20
-6199.755
 30
-1387.138
 70
    32
  0
VERTEX
  8
T66SSILL
 62
8
 10
1140.655
 20
-6195.012
 30
-1387.134
 70
    32
  0
VERTEX
  8
T66SSILL
 62
8
 10
1130.290
 20
-6151.817
 30
-1387.107
 70
    32
  0
VERTEX
  8
T66SSILL
 62
8
 10
1121.642
 20
-6131.296
 30
-1387.094
 70
    32
  0
VERTEX
  8
T66SSILL
 62
8
 10
1102.478
 20
-6064.645
 30
-1387.052
 70
    32
  0
VERTEX
  8
T66SSILL
 62
8
 10
1101.537
 20
-6057.280
 30
-1387.032
 70
    32
  0
VERTEX
  8
T66SSILL
 62
8
 10
1096.509
 20
-6048.611
 30
-1386.962
 70
    32
  0
VERTEX
  8
T66SSILL
 62
8
 10
1095.005
 20
-6041.976
 30
-1386.918
 70
    32
  0
SEQEND
  8
T66SSILL
  0
POLYLINE
  8
T66SSILL
 62
8
 66
     1
 70
     9
  0
VERTEX
  8
T66SSILL
 62
8
 10
1302.814
 20
-6145.421
 30
-1385.004
 70
    32
  0
VERTEX
  8
T66SSILL
 62
8
 10
1301.115
 20
-6160.006
 30
-1385.057
 70
    32
  0
VERTEX
  8
T66SSILL
 62
8
 10
1301.947
 20
-6169.188
 30
-1385.057
 70
    32
  0
VERTEX
  8
T66SSILL
 62
8
 10
1311.336
 20
-6194.828
 30
-1384.935
 70
    32
  0
VERTEX
  8
T66SSILL
 62
8
 10
1312.767
 20
-6196.518
 30
-1384.912
 70
    32
  0
VERTEX
  8
T66SSILL
 62
8
 10
1328.578
 20
-6179.190
 30
-1384.864
 70
    32
  0
VERTEX
  8
T66SSILL
 62
8
 10
1320.714
 20
-6143.110
 30
-1384.897
 70
    32
  0
VERTEX
  8
T66SSILL
 62
8
 10
1318.028
 20
-6139.823
 30
-1384.902
 70
    32
  0
VERTEX
  8
T66SSILL
 62
8
 10
1303.821
 20
-6141.981
 30
-1384.981
 70
    32
  0
SEQEND
  8
T66SSILL
  0
POLYLINE
  8
T66SSILL
 62
8
 66
     1
 70
     9
  0
VERTEX
  8
T66SSILL
 62
8
 10
1312.259
 20
-6121.798
 30
-1384.920
 70
    32
  0
VERTEX
  8
T66SSILL
 62
8
 10
1302.285
 20
-6104.727
 30
-1384.948
 70
    32
  0
VERTEX
  8
T66SSILL
 62
8
 10
1287.917
 20
-6103.633
 30
-1385.196
 70
    32
  0
VERTEX
  8
T66SSILL
 62
8
 10
1289.693
 20
-6112.463
 30
-1385.179
 70
    32
  0
VERTEX
  8
T66SSILL
 62
8
 10
1287.608
 20
-6124.392
 30
-1385.235
 70
    32
  0
VERTEX
  8
T66SSILL
 62
8
 10
1282.250
 20
-6136.605
 30
-1385.347
 70
    32
  0
VERTEX
  8
T66SSILL
 62
8
 10
1283.105
 20
-6137.947
 30
-1385.335
 70
    32
  0
VERTEX
  8
T66SSILL
 62
8
 10
1317.373
 20
-6132.252
 30
-1384.907
 70
    32
  0
VERTEX
  8
T66SSILL
 62
8
 10
1314.441
 20
-6124.686
 30
-1384.916
 70
    32
  0
SEQEND
  8
T66SSILL
  0
POLYLINE
  8
T66SSILL
 62
8
 66
     1
 70
     9
  0
VERTEX
  8
T66SSILL
 62
8
 10
1212.425
 20
-6023.060
 30
-1386.381
 70
    32
  0
VERTEX
  8
T66SSILL
 62
8
 10
1222.816
 20
-6016.178
 30
-1386.189
 70
    32
  0
VERTEX
  8
T66SSILL
 62
8
 10
1224.262
 20
-6007.056
 30
-1386.149
 70
    32
  0
VERTEX
  8
T66SSILL
 62
8
 10
1227.602
 20
-6004.891
 30
-1386.087
 70
    32
  0
VERTEX
  8
T66SSILL
 62
8
 10
1227.787
 20
-6000.567
 30
-1386.077
 70
    32
  0
VERTEX
  8
T66SSILL
 62
8
 10
1220.432
 20
-5988.216
 30
-1386.185
 70
    32
  0
VERTEX
  8
T66SSILL
 62
8
 10
1221.161
 20
-5966.632
 30
-1386.138
 70
    32
  0
VERTEX
  8
T66SSILL
 62
8
 10
1218.039
 20
-5927.656
 30
-1386.130
 70
    32
  0
VERTEX
  8
T66SSILL
 62
8
 10
1215.778
 20
-5919.321
 30
-1386.156
 70
    32
  0
VERTEX
  8
T66SSILL
 62
8
 10
1223.154
 20
-5891.889
 30
-1385.984
 70
    32
  0
VERTEX
  8
T66SSILL
 62
8
 10
1222.690
 20
-5885.075
 30
-1385.981
 70
    32
  0
VERTEX
  8
T66SSILL
 62
8
 10
1190.584
 20
-5838.561
 30
-1386.322
 70
    32
  0
VERTEX
  8
T66SSILL
 62
8
 10
1186.529
 20
-5836.083
 30
-1386.278
 70
    32
  0
VERTEX
  8
T66SSILL
 62
8
 10
1183.013
 20
-5838.159
 30
-1386.261
 70
    32
  0
VERTEX
  8
T66SSILL
 62
8
 10
1180.652
 20
-5845.320
 30
-1386.279
 70
    32
  0
VERTEX
  8
T66SSILL
 62
8
 10
1179.908
 20
-5856.120
 30
-1386.327
 70
    32
  0
VERTEX
  8
T66SSILL
 62
8
 10
1174.197
 20
-5861.599
 30
-1386.311
 70
    32
  0
VERTEX
  8
T66SSILL
 62
8
 10
1182.378
 20
-5903.956
 30
-1386.587
 70
    32
  0
VERTEX
  8
T66SSILL
 62
8
 10
1184.666
 20
-5907.314
 30
-1386.622
 70
    32
  0
VERTEX
  8
T66SSILL
 62
8
 10
1188.006
 20
-5924.317
 30
-1386.647
 70
    32
  0
VERTEX
  8
T66SSILL
 62
8
 10
1191.526
 20
-5929.177
 30
-1386.594
 70
    32
  0
VERTEX
  8
T66SSILL
 62
8
 10
1192.835
 20
-5937.122
 30
-1386.584
 70
    32
  0
VERTEX
  8
T66SSILL
 62
8
 10
1196.900
 20
-5943.889
 30
-1386.524
 70
    32
  0
VERTEX
  8
T66SSILL
 62
8
 10
1195.917
 20
-5959.825
 30
-1386.567
 70
    32
  0
VERTEX
  8
T66SSILL
 62
8
 10
1197.250
 20
-5964.116
 30
-1386.550
 70
    32
  0
VERTEX
  8
T66SSILL
 62
8
 10
1196.954
 20
-5990.555
 30
-1386.598
 70
    32
  0
VERTEX
  8
T66SSILL
 62
8
 10
1208.039
 20
-6008.490
 30
-1386.434
 70
    32
  0
SEQEND
  8
T66SSILL
  0
POLYLINE
  8
T66SSILL
 62
8
 66
     1
 70
     9
  0
VERTEX
  8
T66SSILL
 62
8
 10
1079.882
 20
-5453.028
 30
-1385.483
 70
    32
  0
VERTEX
  8
T66SSILL
 62
8
 10
1079.178
 20
-5450.382
 30
-1385.480
 70
    32
  0
VERTEX
  8
T66SSILL
 62
8
 10
1077.248
 20
-5449.812
 30
-1385.481
 70
    32
  0
VERTEX
  8
T66SSILL
 62
8
 10
1068.042
 20
-5457.725
 30
-1385.500
 70
    32
  0
VERTEX
  8
T66SSILL
 62
8
 10
1072.070
 20
-5472.871
 30
-1385.517
 70
    32
  0
VERTEX
  8
T66SSILL
 62
8
 10
1077.880
 20
-5477.936
 30
-1385.519
 70
    32
  0
VERTEX
  8
T66SSILL
 62
8
 10
1081.388
 20
-5477.374
 30
-1385.515
 70
    32
  0
VERTEX
  8
T66SSILL
 62
8
 10
1083.024
 20
-5458.161
 30
-1385.487
 70
    32
  0
VERTEX
  8
T66SSILL
 62
8
 10
1081.243
 20
-5455.529
 30
-1385.485
 70
    32
  0
SEQEND
  8
T66SSILL
  0
POLYLINE
  8
T66SSILL
 62
8
 66
     1
 70
     9
  0
VERTEX
  8
T66SSILL
 62
8
 10
1798.753
 20
-8177.591
 30
-1390.257
 70
    32
  0
VERTEX
  8
T66SSILL
 62
8
 10
1800.856
 20
-8168.652
 30
-1390.290
 70
    32
  0
VERTEX
  8
T66SSILL
 62
8
 10
1801.003
 20
-8158.521
 30
-1390.319
 70
    32
  0
VERTEX
  8
T66SSILL
 62
8
 10
1795.449
 20
-8146.545
 30
-1390.330
 70
    32
  0
VERTEX
  8
T66SSILL
 62
8
 10
1781.689
 20
-8140.213
 30
-1390.294
 70
    32
  0
VERTEX
  8
T66SSILL
 62
8
 10
1776.171
 20
-8141.614
 30
-1390.268
 70
    32
  0
VERTEX
  8
T66SSILL
 62
8
 10
1779.858
 20
-8148.628
 30
-1390.263
 70
    32
  0
VERTEX
  8
T66SSILL
 62
8
 10
1787.821
 20
-8156.127
 30
-1390.273
 70
    32
  0
VERTEX
  8
T66SSILL
 62
8
 10
1791.715
 20
-8163.426
 30
-1390.268
 70
    32
  0
VERTEX
  8
T66SSILL
 62
8
 10
1789.138
 20
-8167.372
 30
-1390.247
 70
    32
  0
VERTEX
  8
T66SSILL
 62
8
 10
1795.178
 20
-8179.865
 30
-1390.236
 70
    32
  0
VERTEX
  8
T66SSILL
 62
8
 10
1798.578
 20
-8178.699
 30
-1390.253
 70
    32
  0
SEQEND
  8
T66SSILL
  0
POLYLINE
  8
T66SSILL
 62
8
 66
     1
 70
     9
  0
VERTEX
  8
T66SSILL
 62
8
 10
5961.605
 20
-8454.376
 30
-1410.965
 70
    32
  0
VERTEX
  8
T66SSILL
 62
8
 10
5963.415
 20
-8451.628
 30
-1410.821
 70
    32
  0
VERTEX
  8
T66SSILL
 62
8
 10
5954.123
 20
-8442.765
 30
-1410.754
 70
    32
  0
VERTEX
  8
T66SSILL
 62
8
 10
5955.751
 20
-8437.377
 30
-1410.774
 70
    32
  0
VERTEX
  8
T66SSILL
 62
8
 10
5957.440
 20
-8436.901
 30
-1410.770
 70
    32
  0
VERTEX
  8
T66SSILL
 62
8
 10
5968.783
 20
-8442.628
 30
-1410.533
 70
    32
  0
VERTEX
  8
T66SSILL
 62
8
 10
5975.503
 20
-8432.318
 30
-1410.712
 70
    32
  0
VERTEX
  8
T66SSILL
 62
8
 10
5982.849
 20
-8436.770
 30
-1410.523
 70
    32
  0
VERTEX
  8
T66SSILL
 62
8
 10
5978.081
 20
-8444.282
 30
-1410.692
 70
    32
  0
VERTEX
  8
T66SSILL
 62
8
 10
6054.635
 20
-8395.568
 30
-1410.897
 70
    32
  0
VERTEX
  8
T66SSILL
 62
8
 10
6059.329
 20
-8401.759
 30
-1410.688
 70
    32
  0
VERTEX
  8
T66SSILL
 62
8
 10
5991.727
 20
-8445.483
 30
-1411.134
 70
    32
  0
VERTEX
  8
T66SSILL
 62
8
 10
5990.573
 20
-8449.506
 30
-1411.385
 70
    32
  0
VERTEX
  8
T66SSILL
 62
8
 10
5963.070
 20
-8466.251
 30
-1411.833
 70
    32
  0
VERTEX
  8
T66SSILL
 62
8
 10
5959.299
 20
-8466.549
 30
-1411.755
 70
    32
  0
VERTEX
  8
T66SSILL
 62
8
 10
5892.408
 20
-8509.912
 30
-1412.180
 70
    32
  0
VERTEX
  8
T66SSILL
 62
8
 10
5857.039
 20
-8535.647
 30
-1411.866
 70
    32
  0
VERTEX
  8
T66SSILL
 62
8
 10
5849.165
 20
-8523.325
 30
-1411.892
 70
    32
  0
VERTEX
  8
T66SSILL
 62
8
 10
5874.255
 20
-8506.652
 30
-1412.107
 70
    32
  0
VERTEX
  8
T66SSILL
 62
8
 10
5881.664
 20
-8495.786
 30
-1412.121
 70
    32
  0
VERTEX
  8
T66SSILL
 62
8
 10
5883.942
 20
-8464.897
 30
-1411.801
 70
    32
  0
VERTEX
  8
T66SSILL
 62
8
 10
5869.064
 20
-8441.579
 30
-1411.410
 70
    32
  0
VERTEX
  8
T66SSILL
 62
8
 10
5891.528
 20
-8426.523
 30
-1411.462
 70
    32
  0
VERTEX
  8
T66SSILL
 62
8
 10
5900.473
 20
-8439.513
 30
-1411.503
 70
    32
  0
VERTEX
  8
T66SSILL
 62
8
 10
5885.248
 20
-8450.029
 30
-1411.649
 70
    32
  0
VERTEX
  8
T66SSILL
 62
8
 10
5902.207
 20
-8476.196
 30
-1412.084
 70
    32
  0
VERTEX
  8
T66SSILL
 62
8
 10
5904.387
 20
-8475.504
 30
-1412.040
 70
    32
  0
VERTEX
  8
T66SSILL
 62
8
 10
5910.788
 20
-8482.049
 30
-1412.052
 70
    32
  0
VERTEX
  8
T66SSILL
 62
8
 10
5917.918
 20
-8482.639
 30
-1411.955
 70
    32
  0
VERTEX
  8
T66SSILL
 62
8
 10
5942.013
 20
-8467.051
 30
-1411.337
 70
    32
  0
SEQEND
  8
T66SSILL
  0
POLYLINE
  8
T66SSILL
 62
8
 66
     1
 70
     9
  0
VERTEX
  8
T66SSILL
 62
8
 10
5757.662
 20
-10326.059
 30
-1401.818
 70
    32
  0
VERTEX
  8
T66SSILL
 62
8
 10
5758.442
 20
-10332.589
 30
-1401.787
 70
    32
  0
VERTEX
  8
T66SSILL
 62
8
 10
5760.821
 20
-10336.844
 30
-1401.776
 70
    32
  0
VERTEX
  8
T66SSILL
 62
8
 10
5770.651
 20
-10344.230
 30
-1401.786
 70
    32
  0
VERTEX
  8
T66SSILL
 62
8
 10
5789.591
 20
-10371.341
 30
-1401.782
 70
    32
  0
VERTEX
  8
T66SSILL
 62
8
 10
5796.266
 20
-10367.502
 30
-1401.827
 70
    32
  0
VERTEX
  8
T66SSILL
 62
8
 10
5785.348
 20
-10352.283
 30
-1401.826
 70
    32
  0
VERTEX
  8
T66SSILL
 62
8
 10
5789.859
 20
-10343.593
 30
-1401.877
 70
    32
  0
VERTEX
  8
T66SSILL
 62
8
 10
5783.137
 20
-10334.347
 30
-1401.876
 70
    32
  0
VERTEX
  8
T66SSILL
 62
8
 10
5774.883
 20
-10330.279
 30
-1401.881
 70
    32
  0
VERTEX
  8
T66SSILL
 62
8
 10
5769.426
 20
-10331.032
 30
-1401.850
 70
    32
  0
VERTEX
  8
T66SSILL
 62
8
 10
5668.938
 20
-10190.898
 30
-1402.096
 70
    32
  0
VERTEX
  8
T66SSILL
 62
8
 10
5661.929
 20
-10194.875
 30
-1402.039
 70
    32
  0
VERTEX
  8
T66SSILL
 62
8
 10
5757.662
 20
-10326.059
 30
-1401.818
 70
    32
  0
SEQEND
  8
T66SSILL
  0
POLYLINE
  8
T66SSILL
 62
8
 66
     1
 70
     9
  0
VERTEX
  8
T66SSILL
 62
8
 10
7266.606
 20
-8552.003
 30
-1407.980
 70
    32
  0
VERTEX
  8
T66SSILL
 62
8
 10
7287.440
 20
-8547.580
 30
-1407.980
 70
    32
  0
VERTEX
  8
T66SSILL
 62
8
 10
7292.905
 20
-8551.929
 30
-1407.974
 70
    32
  0
VERTEX
  8
T66SSILL
 62
8
 10
7309.061
 20
-8557.575
 30
-1407.901
 70
    32
  0
VERTEX
  8
T66SSILL
 62
8
 10
7315.536
 20
-8558.630
 30
-1407.901
 70
    32
  0
VERTEX
  8
T66SSILL
 62
8
 10
7319.019
 20
-8556.447
 30
-1407.889
 70
    32
  0
VERTEX
  8
T66SSILL
 62
8
 10
7310.601
 20
-8514.813
 30
-1407.645
 70
    32
  0
VERTEX
  8
T66SSILL
 62
8
 10
7302.746
 20
-8505.638
 30
-1407.581
 70
    32
  0
VERTEX
  8
T66SSILL
 62
8
 10
7283.831
 20
-8444.691
 30
-1407.239
 70
    32
  0
VERTEX
  8
T66SSILL
 62
8
 10
7283.301
 20
-8436.871
 30
-1407.198
 70
    32
  0
VERTEX
  8
T66SSILL
 62
8
 10
7281.418
 20
-8435.053
 30
-1407.194
 70
    32
  0
VERTEX
  8
T66SSILL
 62
8
 10
7278.687
 20
-8428.155
 30
-1407.166
 70
    32
  0
VERTEX
  8
T66SSILL
 62
8
 10
7275.641
 20
-8425.036
 30
-1407.159
 70
    32
  0
VERTEX
  8
T66SSILL
 62
8
 10
7275.859
 20
-8416.490
 30
-1407.112
 70
    32
  0
VERTEX
  8
T66SSILL
 62
8
 10
7265.716
 20
-8384.444
 30
-1406.855
 70
    32
  0
VERTEX
  8
T66SSILL
 62
8
 10
7275.562
 20
-8382.400
 30
-1406.597
 70
    32
  0
VERTEX
  8
T66SSILL
 62
8
 10
7277.761
 20
-8387.652
 30
-1406.590
 70
    32
  0
VERTEX
  8
T66SSILL
 62
8
 10
7291.356
 20
-8390.374
 30
-1406.527
 70
    32
  0
VERTEX
  8
T66SSILL
 62
8
 10
7297.036
 20
-8380.839
 30
-1406.334
 70
    32
  0
VERTEX
  8
T66SSILL
 62
8
 10
7295.375
 20
-8376.353
 30
-1406.251
 70
    32
  0
VERTEX
  8
T66SSILL
 62
8
 10
7295.880
 20
-8369.089
 30
-1406.086
 70
    32
  0
VERTEX
  8
T66SSILL
 62
8
 10
7294.230
 20
-8358.195
 30
-1405.806
 70
    32
  0
VERTEX
  8
T66SSILL
 62
8
 10
7290.905
 20
-8349.653
 30
-1405.582
 70
    32
  0
VERTEX
  8
T66SSILL
 62
8
 10
7289.338
 20
-8336.756
 30
-1405.239
 70
    32
  0
VERTEX
  8
T66SSILL
 62
8
 10
7285.741
 20
-8327.444
 30
-1404.990
 70
    32
  0
VERTEX
  8
T66SSILL
 62
8
 10
7232.148
 20
-8145.312
 30
-1400.876
 70
    32
  0
VERTEX
  8
T66SSILL
 62
8
 10
7227.708
 20
-8133.570
 30
-1400.682
 70
    32
  0
VERTEX
  8
T66SSILL
 62
8
 10
7200.318
 20
-8037.501
 30
-1399.123
 70
    32
  0
VERTEX
  8
T66SSILL
 62
8
 10
7198.302
 20
-8028.790
 30
-1398.985
 70
    32
  0
VERTEX
  8
T66SSILL
 62
8
 10
7196.088
 20
-8001.410
 30
-1398.570
 70
    32
  0
VERTEX
  8
T66SSILL
 62
8
 10
7184.765
 20
-7945.613
 30
-1398.570
 70
    32
  0
VERTEX
  8
T66SSILL
 62
8
 10
7178.910
 20
-7934.326
 30
-1398.570
 70
    32
  0
VERTEX
  8
T66SSILL
 62
8
 10
7189.245
 20
-7931.852
 30
-1398.570
 70
    32
  0
VERTEX
  8
T66SSILL
 62
8
 10
7195.738
 20
-7940.438
 30
-1398.570
 70
    32
  0
VERTEX
  8
T66SSILL
 62
8
 10
7206.527
 20
-7986.626
 30
-1398.570
 70
    32
  0
VERTEX
  8
T66SSILL
 62
8
 10
7213.760
 20
-8033.668
 30
-1399.114
 70
    32
  0
VERTEX
  8
T66SSILL
 62
8
 10
7240.015
 20
-8131.716
 30
-1400.700
 70
    32
  0
VERTEX
  8
T66SSILL
 62
8
 10
7240.724
 20
-8139.234
 30
-1400.816
 70
    32
  0
VERTEX
  8
T66SSILL
 62
8
 10
7287.185
 20
-8296.626
 30
-1404.124
 70
    32
  0
VERTEX
  8
T66SSILL
 62
8
 10
7310.228
 20
-8254.433
 30
-1401.774
 70
    32
  0
VERTEX
  8
T66SSILL
 62
8
 10
7311.609
 20
-8246.083
 30
-1401.205
 70
    32
  0
VERTEX
  8
T66SSILL
 62
8
 10
7308.834
 20
-8224.037
 30
-1400.510
 70
    32
  0
VERTEX
  8
T66SSILL
 62
8
 10
7312.969
 20
-8221.767
 30
-1400.510
 70
    32
  0
VERTEX
  8
T66SSILL
 62
8
 10
7319.732
 20
-8221.753
 30
-1400.510
 70
    32
  0
VERTEX
  8
T66SSILL
 62
8
 10
7322.348
 20
-8236.991
 30
-1400.510
 70
    32
  0
VERTEX
  8
T66SSILL
 62
8
 10
7324.440
 20
-8238.533
 30
-1400.510
 70
    32
  0
VERTEX
  8
T66SSILL
 62
8
 10
7328.893
 20
-8237.320
 30
-1400.510
 70
    32
  0
VERTEX
  8
T66SSILL
 62
8
 10
7345.623
 20
-8225.662
 30
-1400.510
 70
    32
  0
VERTEX
  8
T66SSILL
 62
8
 10
7418.432
 20
-8194.365
 30
-1400.510
 70
    32
  0
VERTEX
  8
T66SSILL
 62
8
 10
7422.445
 20
-8203.386
 30
-1400.510
 70
    32
  0
VERTEX
  8
T66SSILL
 62
8
 10
7379.251
 20
-8222.172
 30
-1400.510
 70
    32
  0
VERTEX
  8
T66SSILL
 62
8
 10
7380.553
 20
-8230.804
 30
-1400.510
 70
    32
  0
VERTEX
  8
T66SSILL
 62
8
 10
7429.670
 20
-8263.192
 30
-1400.510
 70
    32
  0
VERTEX
  8
T66SSILL
 62
8
 10
7425.259
 20
-8275.521
 30
-1400.510
 70
    32
  0
VERTEX
  8
T66SSILL
 62
8
 10
7418.292
 20
-8273.153
 30
-1400.510
 70
    32
  0
VERTEX
  8
T66SSILL
 62
8
 10
7413.840
 20
-8266.471
 30
-1400.510
 70
    32
  0
VERTEX
  8
T66SSILL
 62
8
 10
7380.138
 20
-8242.509
 30
-1400.510
 70
    32
  0
VERTEX
  8
T66SSILL
 62
8
 10
7377.339
 20
-8244.171
 30
-1400.510
 70
    32
  0
VERTEX
  8
T66SSILL
 62
8
 10
7357.221
 20
-8235.509
 30
-1400.510
 70
    32
  0
VERTEX
  8
T66SSILL
 62
8
 10
7347.681
 20
-8237.106
 30
-1400.510
 70
    32
  0
VERTEX
  8
T66SSILL
 62
8
 10
7336.165
 20
-8243.843
 30
-1400.510
 70
    32
  0
VERTEX
  8
T66SSILL
 62
8
 10
7326.928
 20
-8255.298
 30
-1401.347
 70
    32
  0
VERTEX
  8
T66SSILL
 62
8
 10
7330.282
 20
-8260.316
 30
-1401.549
 70
    32
  0
VERTEX
  8
T66SSILL
 62
8
 10
7347.308
 20
-8259.050
 30
-1400.762
 70
    32
  0
VERTEX
  8
T66SSILL
 62
8
 10
7348.109
 20
-8268.550
 30
-1400.788
 70
    32
  0
VERTEX
  8
T66SSILL
 62
8
 10
7330.301
 20
-8270.424
 30
-1402.164
 70
    32
  0
VERTEX
  8
T66SSILL
 62
8
 10
7313.067
 20
-8279.003
 30
-1402.955
 70
    32
  0
VERTEX
  8
T66SSILL
 62
8
 10
7298.475
 20
-8306.848
 30
-1404.434
 70
    32
  0
VERTEX
  8
T66SSILL
 62
8
 10
7298.882
 20
-8310.114
 30
-1404.530
 70
    32
  0
VERTEX
  8
T66SSILL
 62
8
 10
7294.260
 20
-8320.886
 30
-1404.819
 70
    32
  0
VERTEX
  8
T66SSILL
 62
8
 10
7300.244
 20
-8347.627
 30
-1405.519
 70
    32
  0
VERTEX
  8
T66SSILL
 62
8
 10
7306.495
 20
-8356.416
 30
-1405.736
 70
    32
  0
VERTEX
  8
T66SSILL
 62
8
 10
7309.477
 20
-8366.231
 30
-1405.986
 70
    32
  0
VERTEX
  8
T66SSILL
 62
8
 10
7313.272
 20
-8373.613
 30
-1406.171
 70
    32
  0
VERTEX
  8
T66SSILL
 62
8
 10
7293.896
 20
-8407.515
 30
-1406.853
 70
    32
  0
VERTEX
  8
T66SSILL
 62
8
 10
7295.469
 20
-8411.268
 30
-1406.919
 70
    32
  0
VERTEX
  8
T66SSILL
 62
8
 10
7295.106
 20
-8422.478
 30
-1407.069
 70
    32
  0
VERTEX
  8
T66SSILL
 62
8
 10
7299.778
 20
-8448.249
 30
-1407.235
 70
    32
  0
VERTEX
  8
T66SSILL
 62
8
 10
7313.925
 20
-8491.393
 30
-1407.530
 70
    32
  0
VERTEX
  8
T66SSILL
 62
8
 10
7313.416
 20
-8493.291
 30
-1407.539
 70
    32
  0
VERTEX
  8
T66SSILL
 62
8
 10
7321.668
 20
-8517.946
 30
-1407.674
 70
    32
  0
VERTEX
  8
T66SSILL
 62
8
 10
7333.959
 20
-8565.350
 30
-1407.922
 70
    32
  0
VERTEX
  8
T66SSILL
 62
8
 10
7348.388
 20
-8610.393
 30
-1410.360
 70
    32
  0
VERTEX
  8
T66SSILL
 62
8
 10
7359.443
 20
-8644.903
 30
-1409.757
 70
    32
  0
VERTEX
  8
T66SSILL
 62
8
 10
7367.239
 20
-8633.418
 30
-1410.770
 70
    32
  0
VERTEX
  8
T66SSILL
 62
8
 10
7382.261
 20
-8611.286
 30
-1409.662
 70
    32
  0
VERTEX
  8
T66SSILL
 62
8
 10
7380.751
 20
-8607.084
 30
-1409.963
 70
    32
  0
VERTEX
  8
T66SSILL
 62
8
 10
7380.291
 20
-8597.989
 30
-1410.213
 70
    32
  0
VERTEX
  8
T66SSILL
 62
8
 10
7382.798
 20
-8594.710
 30
-1410.119
 70
    32
  0
VERTEX
  8
T66SSILL
 62
8
 10
7388.667
 20
-8596.309
 30
-1409.840
 70
    32
  0
VERTEX
  8
T66SSILL
 62
8
 10
7392.375
 20
-8594.915
 30
-1409.708
 70
    32
  0
VERTEX
  8
T66SSILL
 62
8
 10
7397.210
 20
-8580.888
 30
-1410.027
 70
    32
  0
VERTEX
  8
T66SSILL
 62
8
 10
7409.500
 20
-8584.764
 30
-1409.999
 70
    32
  0
VERTEX
  8
T66SSILL
 62
8
 10
7406.488
 20
-8605.848
 30
-1408.879
 70
    32
  0
VERTEX
  8
T66SSILL
 62
8
 10
7431.417
 20
-8610.819
 30
-1408.779
 70
    32
  0
VERTEX
  8
T66SSILL
 62
8
 10
7459.502
 20
-8625.108
 30
-1408.779
 70
    32
  0
VERTEX
  8
T66SSILL
 62
8
 10
7458.587
 20
-8631.379
 30
-1408.779
 70
    32
  0
VERTEX
  8
T66SSILL
 62
8
 10
7447.186
 20
-8630.392
 30
-1408.779
 70
    32
  0
VERTEX
  8
T66SSILL
 62
8
 10
7416.233
 20
-8621.543
 30
-1408.775
 70
    32
  0
VERTEX
  8
T66SSILL
 62
8
 10
7412.518
 20
-8624.107
 30
-1408.603
 70
    32
  0
VERTEX
  8
T66SSILL
 62
8
 10
7423.078
 20
-8641.386
 30
-1408.549
 70
    32
  0
VERTEX
  8
T66SSILL
 62
8
 10
7413.275
 20
-8648.645
 30
-1408.071
 70
    32
  0
VERTEX
  8
T66SSILL
 62
8
 10
7397.761
 20
-8630.122
 30
-1407.971
 70
    32
  0
VERTEX
  8
T66SSILL
 62
8
 10
7387.140
 20
-8628.538
 30
-1408.659
 70
    32
  0
VERTEX
  8
T66SSILL
 62
8
 10
7368.919
 20
-8653.338
 30
-1409.096
 70
    32
  0
VERTEX
  8
T66SSILL
 62
8
 10
7366.380
 20
-8681.649
 30
-1408.736
 70
    32
  0
VERTEX
  8
T66SSILL
 62
8
 10
7371.534
 20
-8706.005
 30
-1408.913
 70
    32
  0
VERTEX
  8
T66SSILL
 62
8
 10
7373.730
 20
-8710.867
 30
-1408.951
 70
    32
  0
VERTEX
  8
T66SSILL
 62
8
 10
7346.424
 20
-8707.967
 30
-1408.873
 70
    32
  0
VERTEX
  8
T66SSILL
 62
8
 10
7347.083
 20
-8706.552
 30
-1408.865
 70
    32
  0
VERTEX
  8
T66SSILL
 62
8
 10
7353.687
 20
-8706.235
 30
-1408.877
 70
    32
  0
VERTEX
  8
T66SSILL
 62
8
 10
7354.247
 20
-8701.049
 30
-1408.843
 70
    32
  0
VERTEX
  8
T66SSILL
 62
8
 10
7351.379
 20
-8649.230
 30
-1409.349
 70
    32
  0
VERTEX
  8
T66SSILL
 62
8
 10
7335.301
 20
-8599.041
 30
-1409.332
 70
    32
  0
VERTEX
  8
T66SSILL
 62
8
 10
7328.001
 20
-8588.278
 30
-1408.490
 70
    32
  0
VERTEX
  8
T66SSILL
 62
8
 10
7308.197
 20
-8572.175
 30
-1407.961
 70
    32
  0
VERTEX
  8
T66SSILL
 62
8
 10
7297.142
 20
-8564.824
 30
-1407.971
 70
    32
  0
VERTEX
  8
T66SSILL
 62
8
 10
7293.750
 20
-8563.111
 30
-1407.980
 70
    32
  0
VERTEX
  8
T66SSILL
 62
8
 10
7271.675
 20
-8563.442
 30
-1407.980
 70
    32
  0
SEQEND
  8
T66SSILL
  0
POLYLINE
  8
T66SSILL
 62
8
 66
     1
 70
     9
  0
VERTEX
  8
T66SSILL
 62
8
 10
1132.871
 20
-5741.939
 30
-1385.967
 70
    32
  0
VERTEX
  8
T66SSILL
 62
8
 10
1138.534
 20
-5773.411
 30
-1386.034
 70
    32
  0
VERTEX
  8
T66SSILL
 62
8
 10
1144.320
 20
-5772.843
 30
-1386.020
 70
    32
  0
VERTEX
  8
T66SSILL
 62
8
 10
1146.326
 20
-5766.405
 30
-1385.999
 70
    32
  0
VERTEX
  8
T66SSILL
 62
8
 10
1151.386
 20
-5758.317
 30
-1385.968
 70
    32
  0
VERTEX
  8
T66SSILL
 62
8
 10
1158.602
 20
-5750.963
 30
-1385.933
 70
    32
  0
VERTEX
  8
T66SSILL
 62
8
 10
1187.388
 20
-5731.275
 30
-1385.820
 70
    32
  0
VERTEX
  8
T66SSILL
 62
8
 10
1188.286
 20
-5724.655
 30
-1385.802
 70
    32
  0
VERTEX
  8
T66SSILL
 62
8
 10
1194.651
 20
-5717.477
 30
-1385.770
 70
    32
  0
VERTEX
  8
T66SSILL
 62
8
 10
1197.629
 20
-5710.123
 30
-1385.745
 70
    32
  0
VERTEX
  8
T66SSILL
 62
8
 10
1197.464
 20
-5684.163
 30
-1385.680
 70
    32
  0
VERTEX
  8
T66SSILL
 62
8
 10
1189.695
 20
-5679.092
 30
-1385.685
 70
    32
  0
VERTEX
  8
T66SSILL
 62
8
 10
1186.832
 20
-5670.716
 30
-1385.670
 70
    32
  0
VERTEX
  8
T66SSILL
 62
8
 10
1180.523
 20
-5666.885
 30
-1385.675
 70
    32
  0
VERTEX
  8
T66SSILL
 62
8
 10
1148.010
 20
-5654.346
 30
-1385.675
 70
    32
  0
VERTEX
  8
T66SSILL
 62
8
 10
1147.567
 20
-5655.092
 30
-1385.677
 70
    32
  0
VERTEX
  8
T66SSILL
 62
8
 10
1144.068
 20
-5668.058
 30
-1385.722
 70
    32
  0
VERTEX
  8
T66SSILL
 62
8
 10
1151.681
 20
-5710.295
 30
-1385.845
 70
    32
  0
VERTEX
  8
T66SSILL
 62
8
 10
1149.951
 20
-5720.447
 30
-1385.876
 70
    32
  0
VERTEX
  8
T66SSILL
 62
8
 10
1146.878
 20
-5727.217
 30
-1385.900
 70
    32
  0
VERTEX
  8
T66SSILL
 62
8
 10
1134.488
 20
-5737.959
 30
-1385.952
 70
    32
  0
SEQEND
  8
T66SSILL
  0
POLYLINE
  8
T66SSILL
 62
8
 66
     1
 70
     9
  0
VERTEX
  8
T66SSILL
 62
8
 10
1075.808
 20
-5555.269
 30
-1385.604
 70
    32
  0
VERTEX
  8
T66SSILL
 62
8
 10
1079.626
 20
-5564.371
 30
-1385.602
 70
    32
  0
VERTEX
  8
T66SSILL
 62
8
 10
1073.995
 20
-5577.868
 30
-1385.618
 70
    32
  0
VERTEX
  8
T66SSILL
 62
8
 10
1080.209
 20
-5584.707
 30
-1385.611
 70
    32
  0
VERTEX
  8
T66SSILL
 62
8
 10
1086.360
 20
-5595.395
 30
-1385.606
 70
    32
  0
VERTEX
  8
T66SSILL
 62
8
 10
1087.013
 20
-5597.969
 30
-1385.606
 70
    32
  0
VERTEX
  8
T66SSILL
 62
8
 10
1090.208
 20
-5603.933
 30
-1385.603
 70
    32
  0
VERTEX
  8
T66SSILL
 62
8
 10
1100.717
 20
-5613.122
 30
-1385.601
 70
    32
  0
VERTEX
  8
T66SSILL
 62
8
 10
1105.497
 20
-5609.655
 30
-1385.584
 70
    32
  0
VERTEX
  8
T66SSILL
 62
8
 10
1107.485
 20
-5615.435
 30
-1385.600
 70
    32
  0
VERTEX
  8
T66SSILL
 62
8
 10
1099.637
 20
-5646.278
 30
-1385.706
 70
    32
  0
VERTEX
  8
T66SSILL
 62
8
 10
1097.657
 20
-5646.396
 30
-1385.709
 70
    32
  0
VERTEX
  8
T66SSILL
 62
8
 10
1093.528
 20
-5644.579
 30
-1385.708
 70
    32
  0
VERTEX
  8
T66SSILL
 62
8
 10
1087.959
 20
-5633.039
 30
-1385.678
 70
    32
  0
VERTEX
  8
T66SSILL
 62
8
 10
1075.652
 20
-5618.621
 30
-1385.648
 70
    32
  0
VERTEX
  8
T66SSILL
 62
8
 10
1061.950
 20
-5616.940
 30
-1385.659
 70
    32
  0
VERTEX
  8
T66SSILL
 62
8
 10
1059.061
 20
-5614.884
 30
-1385.661
 70
    32
  0
VERTEX
  8
T66SSILL
 62
8
 10
1046.109
 20
-5588.216
 30
-1385.669
 70
    32
  0
SEQEND
  8
T66SSILL
  0
POLYLINE
  8
T66SSILL
 62
8
 66
     1
 70
     9
  0
VERTEX
  8
T66SSILL
 62
8
 10
1095.452
 20
-5663.060
 30
-1385.764
 70
    32
  0
VERTEX
  8
T66SSILL
 62
8
 10
1099.738
 20
-5679.565
 30
-1385.810
 70
    32
  0
VERTEX
  8
T66SSILL
 62
8
 10
1107.288
 20
-5695.985
 30
-1385.853
 70
    32
  0
VERTEX
  8
T66SSILL
 62
8
 10
1106.786
 20
-5700.583
 30
-1385.868
 70
    32
  0
VERTEX
  8
T66SSILL
 62
8
 10
1108.788
 20
-5705.339
 30
-1385.881
 70
    32
  0
VERTEX
  8
T66SSILL
 62
8
 10
1118.514
 20
-5711.543
 30
-1385.888
 70
    32
  0
VERTEX
  8
T66SSILL
 62
8
 10
1118.468
 20
-5715.341
 30
-1385.900
 70
    32
  0
VERTEX
  8
T66SSILL
 62
8
 10
1123.023
 20
-5723.806
 30
-1385.922
 70
    32
  0
VERTEX
  8
T66SSILL
 62
8
 10
1133.947
 20
-5785.941
 30
-1386.071
 70
    32
  0
VERTEX
  8
T66SSILL
 62
8
 10
1127.396
 20
-5809.660
 30
-1386.124
 70
    32
  0
VERTEX
  8
T66SSILL
 62
8
 10
1072.798
 20
-5934.155
 30
-1386.430
 70
    32
  0
VERTEX
  8
T66SSILL
 62
8
 10
1065.047
 20
-5911.250
 30
-1386.379
 70
    32
  0
VERTEX
  8
T66SSILL
 62
8
 10
1065.768
 20
-5891.065
 30
-1386.331
 70
    32
  0
VERTEX
  8
T66SSILL
 62
8
 10
1058.674
 20
-5876.491
 30
-1386.300
 70
    32
  0
VERTEX
  8
T66SSILL
 62
8
 10
1058.905
 20
-5870.457
 30
-1386.286
 70
    32
  0
VERTEX
  8
T66SSILL
 62
8
 10
1039.463
 20
-5790.098
 30
-1386.107
 70
    32
  0
VERTEX
  8
T66SSILL
 62
8
 10
1033.645
 20
-5755.809
 30
-1386.034
 70
    32
  0
VERTEX
  8
T66SSILL
 62
8
 10
1028.800
 20
-5742.553
 30
-1386.007
 70
    32
  0
VERTEX
  8
T66SSILL
 62
8
 10
1015.562
 20
-5677.951
 30
-1385.905
 70
    32
  0
VERTEX
  8
T66SSILL
 62
8
 10
1011.505
 20
-5667.607
 30
-1385.878
 70
    32
  0
VERTEX
  8
T66SSILL
 62
8
 10
1014.557
 20
-5665.199
 30
-1385.866
 70
    32
  0
VERTEX
  8
T66SSILL
 62
8
 10
1023.727
 20
-5676.761
 30
-1385.892
 70
    32
  0
VERTEX
  8
T66SSILL
 62
8
 10
1030.868
 20
-5672.178
 30
-1385.869
 70
    32
  0
VERTEX
  8
T66SSILL
 62
8
 10
1016.078
 20
-5653.241
 30
-1385.827
 70
    32
  0
VERTEX
  8
T66SSILL
 62
8
 10
1006.705
 20
-5630.197
 30
-1385.766
 70
    32
  0
VERTEX
  8
T66SSILL
 62
8
 10
1023.359
 20
-5613.133
 30
-1385.719
 70
    32
  0
VERTEX
  8
T66SSILL
 62
8
 10
1041.860
 20
-5617.563
 30
-1385.691
 70
    32
  0
VERTEX
  8
T66SSILL
 62
8
 10
1054.211
 20
-5629.015
 30
-1385.706
 70
    32
  0
VERTEX
  8
T66SSILL
 62
8
 10
1072.322
 20
-5641.983
 30
-1385.725
 70
    32
  0
SEQEND
  8
T66SSILL
  0
POLYLINE
  8
T66SSILL
 62
8
 66
     1
 70
     9
  0
VERTEX
  8
T66SSILL
 62
8
 10
1150.380
 20
-5647.336
 30
-1385.649
 70
    32
  0
VERTEX
  8
T66SSILL
 62
8
 10
1142.482
 20
-5643.709
 30
-1385.647
 70
    32
  0
VERTEX
  8
T66SSILL
 62
8
 10
1140.620
 20
-5637.827
 30
-1385.631
 70
    32
  0
VERTEX
  8
T66SSILL
 62
8
 10
1140.513
 20
-5627.690
 30
-1385.599
 70
    32
  0
VERTEX
  8
T66SSILL
 62
8
 10
1133.658
 20
-5610.119
 30
-1385.552
 70
    32
  0
VERTEX
  8
T66SSILL
 62
8
 10
1123.669
 20
-5612.400
 30
-1385.571
 70
    32
  0
VERTEX
  8
T66SSILL
 62
8
 10
1119.440
 20
-5608.785
 30
-1385.565
 70
    32
  0
VERTEX
  8
T66SSILL
 62
8
 10
1118.380
 20
-5601.854
 30
-1385.555
 70
    32
  0
VERTEX
  8
T66SSILL
 62
8
 10
1126.664
 20
-5594.929
 30
-1385.538
 70
    32
  0
VERTEX
  8
T66SSILL
 62
8
 10
1129.939
 20
-5586.927
 30
-1385.529
 70
    32
  0
VERTEX
  8
T66SSILL
 62
8
 10
1130.835
 20
-5579.548
 30
-1385.524
 70
    32
  0
VERTEX
  8
T66SSILL
 62
8
 10
1126.849
 20
-5569.152
 30
-1385.525
 70
    32
  0
VERTEX
  8
T66SSILL
 62
8
 10
1118.577
 20
-5560.204
 30
-1385.535
 70
    32
  0
VERTEX
  8
T66SSILL
 62
8
 10
1112.968
 20
-5548.910
 30
-1385.539
 70
    32
  0
VERTEX
  8
T66SSILL
 62
8
 10
1110.610
 20
-5536.695
 30
-1385.537
 70
    32
  0
VERTEX
  8
T66SSILL
 62
8
 10
1111.314
 20
-5513.913
 30
-1385.524
 70
    32
  0
VERTEX
  8
T66SSILL
 62
8
 10
1115.600
 20
-5499.753
 30
-1385.510
 70
    32
  0
VERTEX
  8
T66SSILL
 62
8
 10
1127.463
 20
-5482.979
 30
-1385.480
 70
    32
  0
VERTEX
  8
T66SSILL
 62
8
 10
1144.690
 20
-5465.504
 30
-1385.440
 70
    32
  0
VERTEX
  8
T66SSILL
 62
8
 10
1199.821
 20
-5426.359
 30
-1385.334
 70
    32
  0
VERTEX
  8
T66SSILL
 62
8
 10
1198.749
 20
-5432.888
 30
-1385.339
 70
    32
  0
VERTEX
  8
T66SSILL
 62
8
 10
1199.787
 20
-5455.069
 30
-1385.348
 70
    32
  0
VERTEX
  8
T66SSILL
 62
8
 10
1241.176
 20
-5658.323
 30
-1385.301
 70
    32
  0
VERTEX
  8
T66SSILL
 62
8
 10
1237.725
 20
-5661.236
 30
-1385.360
 70
    32
  0
VERTEX
  8
T66SSILL
 62
8
 10
1237.374
 20
-5664.530
 30
-1385.371
 70
    32
  0
VERTEX
  8
T66SSILL
 62
8
 10
1239.964
 20
-5666.474
 30
-1385.329
 70
    32
  0
VERTEX
  8
T66SSILL
 62
8
 10
1241.312
 20
-5672.134
 30
-1385.315
 70
    32
  0
VERTEX
  8
T66SSILL
 62
8
 10
1239.907
 20
-5681.075
 30
-1385.354
 70
    32
  0
VERTEX
  8
T66SSILL
 62
8
 10
1235.654
 20
-5691.952
 30
-1385.445
 70
    32
  0
VERTEX
  8
T66SSILL
 62
8
 10
1226.958
 20
-5702.542
 30
-1385.614
 70
    32
  0
VERTEX
  8
T66SSILL
 62
8
 10
1209.523
 20
-5714.733
 30
-1385.845
 70
    32
  0
VERTEX
  8
T66SSILL
 62
8
 10
1206.081
 20
-5712.966
 30
-1385.810
 70
    32
  0
VERTEX
  8
T66SSILL
 62
8
 10
1205.119
 20
-5662.586
 30
-1385.609
 70
    32
  0
VERTEX
  8
T66SSILL
 62
8
 10
1214.690
 20
-5657.453
 30
-1385.597
 70
    32
  0
VERTEX
  8
T66SSILL
 62
8
 10
1227.564
 20
-5655.709
 30
-1385.528
 70
    32
  0
VERTEX
  8
T66SSILL
 62
8
 10
1229.989
 20
-5640.168
 30
-1385.461
 70
    32
  0
VERTEX
  8
T66SSILL
 62
8
 10
1210.197
 20
-5636.665
 30
-1385.533
 70
    32
  0
VERTEX
  8
T66SSILL
 62
8
 10
1203.459
 20
-5629.550
 30
-1385.530
 70
    32
  0
VERTEX
  8
T66SSILL
 62
8
 10
1204.123
 20
-5619.728
 30
-1385.499
 70
    32
  0
VERTEX
  8
T66SSILL
 62
8
 10
1194.818
 20
-5620.541
 30
-1385.512
 70
    32
  0
VERTEX
  8
T66SSILL
 62
8
 10
1195.215
 20
-5661.656
 30
-1385.629
 70
    32
  0
VERTEX
  8
T66SSILL
 62
8
 10
1191.434
 20
-5664.261
 30
-1385.644
 70
    32
  0
VERTEX
  8
T66SSILL
 62
8
 10
1163.474
 20
-5651.953
 30
-1385.648
 70
    32
  0
VERTEX
  8
T66SSILL
 62
8
 10
1175.592
 20
-5643.253
 30
-1385.606
 70
    32
  0
VERTEX
  8
T66SSILL
 62
8
 10
1170.302
 20
-5635.476
 30
-1385.588
 70
    32
  0
VERTEX
  8
T66SSILL
 62
8
 10
1168.012
 20
-5635.476
 30
-1385.591
 70
    32
  0
VERTEX
  8
T66SSILL
 62
8
 10
1165.887
 20
-5637.140
 30
-1385.599
 70
    32
  0
VERTEX
  8
T66SSILL
 62
8
 10
1166.350
 20
-5640.218
 30
-1385.608
 70
    32
  0
SEQEND
  8
T66SSILL
  0
POLYLINE
  8
T66SSILL
 62
8
 66
     1
 70
     9
  0
VERTEX
  8
T66SSILL
 62
8
 10
1298.052
 20
-6217.947
 30
-1386.565
 70
    32
  0
VERTEX
  8
T66SSILL
 62
8
 10
1235.004
 20
-6318.410
 30
-1386.374
 70
    32
  0
VERTEX
  8
T66SSILL
 62
8
 10
1233.638
 20
-6317.870
 30
-1386.386
 70
    32
  0
VERTEX
  8
T66SSILL
 62
8
 10
1212.484
 20
-6195.927
 30
-1387.073
 70
    32
  0
VERTEX
  8
T66SSILL
 62
8
 10
1233.274
 20
-6192.194
 30
-1387.073
 70
    32
  0
VERTEX
  8
T66SSILL
 62
8
 10
1231.730
 20
-6185.805
 30
-1387.081
 70
    32
  0
VERTEX
  8
T66SSILL
 62
8
 10
1210.241
 20
-6189.171
 30
-1387.082
 70
    32
  0
VERTEX
  8
T66SSILL
 62
8
 10
1205.719
 20
-6156.233
 30
-1387.123
 70
    32
  0
VERTEX
  8
T66SSILL
 62
8
 10
1214.805
 20
-6149.819
 30
-1387.127
 70
    32
  0
VERTEX
  8
T66SSILL
 62
8
 10
1209.950
 20
-6144.720
 30
-1387.132
 70
    32
  0
VERTEX
  8
T66SSILL
 62
8
 10
1203.463
 20
-6148.399
 30
-1387.133
 70
    32
  0
VERTEX
  8
T66SSILL
 62
8
 10
1201.509
 20
-6133.720
 30
-1387.137
 70
    32
  0
VERTEX
  8
T66SSILL
 62
8
 10
1210.262
 20
-6142.431
 30
-1387.127
 70
    32
  0
VERTEX
  8
T66SSILL
 62
8
 10
1227.982
 20
-6150.464
 30
-1387.094
 70
    32
  0
VERTEX
  8
T66SSILL
 62
8
 10
1243.573
 20
-6152.202
 30
-1387.058
 70
    32
  0
VERTEX
  8
T66SSILL
 62
8
 10
1258.158
 20
-6149.663
 30
-1386.795
 70
    32
  0
VERTEX
  8
T66SSILL
 62
8
 10
1263.870
 20
-6156.863
 30
-1386.471
 70
    32
  0
VERTEX
  8
T66SSILL
 62
8
 10
1272.606
 20
-6179.930
 30
-1387.024
 70
    32
  0
VERTEX
  8
T66SSILL
 62
8
 10
1280.103
 20
-6191.281
 30
-1387.021
 70
    32
  0
VERTEX
  8
T66SSILL
 62
8
 10
1288.921
 20
-6201.141
 30
-1386.485
 70
    32
  0
VERTEX
  8
T66SSILL
 62
8
 10
1291.781
 20
-6204.520
 30
-1386.297
 70
    32
  0
SEQEND
  8
T66SSILL
  0
POLYLINE
  8
T66SSILL
 62
8
 66
     1
 70
     9
  0
VERTEX
  8
T66SSILL
 62
8
 10
1195.442
 20
-6048.066
 30
-1387.030
 70
    32
  0
VERTEX
  8
T66SSILL
 62
8
 10
1187.362
 20
-6053.472
 30
-1387.058
 70
    32
  0
VERTEX
  8
T66SSILL
 62
8
 10
1196.090
 20
-6111.641
 30
-1387.119
 70
    32
  0
VERTEX
  8
T66SSILL
 62
8
 10
1198.991
 20
-6119.012
 30
-1387.122
 70
    32
  0
VERTEX
  8
T66SSILL
 62
8
 10
1205.744
 20
-6127.964
 30
-1387.118
 70
    32
  0
VERTEX
  8
T66SSILL
 62
8
 10
1217.962
 20
-6139.837
 30
-1387.104
 70
    32
  0
VERTEX
  8
T66SSILL
 62
8
 10
1230.019
 20
-6144.221
 30
-1387.080
 70
    32
  0
VERTEX
  8
T66SSILL
 62
8
 10
1239.155
 20
-6145.594
 30
-1387.059
 70
    32
  0
VERTEX
  8
T66SSILL
 62
8
 10
1253.218
 20
-6143.539
 30
-1387.021
 70
    32
  0
VERTEX
  8
T66SSILL
 62
8
 10
1248.272
 20
-6130.899
 30
-1386.644
 70
    32
  0
VERTEX
  8
T66SSILL
 62
8
 10
1232.134
 20
-6106.301
 30
-1387.021
 70
    32
  0
VERTEX
  8
T66SSILL
 62
8
 10
1237.030
 20
-6094.202
 30
-1386.067
 70
    32
  0
VERTEX
  8
T66SSILL
 62
8
 10
1227.643
 20
-6077.796
 30
-1386.204
 70
    32
  0
VERTEX
  8
T66SSILL
 62
8
 10
1222.979
 20
-6079.624
 30
-1386.288
 70
    32
  0
VERTEX
  8
T66SSILL
 62
8
 10
1221.563
 20
-6081.886
 30
-1386.425
 70
    32
  0
VERTEX
  8
T66SSILL
 62
8
 10
1212.504
 20
-6074.774
 30
-1387.025
 70
    32
  0
VERTEX
  8
T66SSILL
 62
8
 10
1204.070
 20
-6073.805
 30
-1387.045
 70
    32
  0
VERTEX
  8
T66SSILL
 62
8
 10
1200.885
 20
-6050.706
 30
-1387.020
 70
    32
  0
SEQEND
  8
T66SSILL
  0
POLYLINE
  8
T66SSILL
 62
8
 66
     1
 70
     9
  0
VERTEX
  8
T66SSILL
 62
8
 10
1176.927
 20
-5929.810
 30
-1386.675
 70
    32
  0
VERTEX
  8
T66SSILL
 62
8
 10
1166.868
 20
-5937.140
 30
-1386.634
 70
    32
  0
VERTEX
  8
T66SSILL
 62
8
 10
1185.474
 20
-6044.939
 30
-1387.051
 70
    32
  0
VERTEX
  8
T66SSILL
 62
8
 10
1191.087
 20
-6040.801
 30
-1387.031
 70
    32
  0
VERTEX
  8
T66SSILL
 62
8
 10
1191.212
 20
-6040.670
 30
-1387.030
 70
    32
  0
VERTEX
  8
T66SSILL
 62
8
 10
1197.256
 20
-6036.375
 30
-1386.666
 70
    32
  0
VERTEX
  8
T66SSILL
 62
8
 10
1198.409
 20
-6033.200
 30
-1386.641
 70
    32
  0
VERTEX
  8
T66SSILL
 62
8
 10
1194.806
 20
-6015.843
 30
-1386.676
 70
    32
  0
VERTEX
  8
T66SSILL
 62
8
 10
1190.434
 20
-6003.798
 30
-1386.733
 70
    32
  0
VERTEX
  8
T66SSILL
 62
8
 10
1185.212
 20
-5945.791
 30
-1386.730
 70
    32
  0
VERTEX
  8
T66SSILL
 62
8
 10
1182.827
 20
-5937.880
 30
-1386.759
 70
    32
  0
SEQEND
  8
T66SSILL
  0
POLYLINE
  8
T66SSILL
 62
8
 66
     1
 70
     9
  0
VERTEX
  8
T66SSILL
 62
8
 10
1152.894
 20
-5824.089
 30
-1386.129
 70
    32
  0
VERTEX
  8
T66SSILL
 62
8
 10
1148.728
 20
-5826.508
 30
-1386.144
 70
    32
  0
VERTEX
  8
T66SSILL
 62
8
 10
1165.197
 20
-5929.213
 30
-1386.581
 70
    32
  0
VERTEX
  8
T66SSILL
 62
8
 10
1172.891
 20
-5924.341
 30
-1386.616
 70
    32
  0
VERTEX
  8
T66SSILL
 62
8
 10
1174.181
 20
-5917.460
 30
-1386.592
 70
    32
  0
VERTEX
  8
T66SSILL
 62
8
 10
1174.517
 20
-5907.736
 30
-1386.545
 70
    32
  0
VERTEX
  8
T66SSILL
 62
8
 10
1159.581
 20
-5834.514
 30
-1386.140
 70
    32
  0
SEQEND
  8
T66SSILL
  0
TEXT
  8
T66SSILL
 62
3
 10
1993.139
 20
-9047.159
 30
-1385.203
 40
8.202
  1
U
 41
 1.0 
  0
POLYLINE
  8
T66SSILL
 62
3
 66
     1
 70
     8
  0
VERTEX
  8
T66SSILL
 62
3
 10
2043.726
 20
-9016.792
 30
-1387.000
 70
    32
  0
VERTEX
  8
T66SSILL
 62
3
 10
2036.407
 20
-9017.340
 30
-1387.000
 70
    32
  0
VERTEX
  8
T66SSILL
 62
3
 10
2034.088
 20
-9023.971
 30
-1387.000
 70
    32
  0
VERTEX
  8
T66SSILL
 62
3
 10
2031.595
 20
-9042.167
 30
-1387.000
 70
    32
  0
VERTEX
  8
T66SSILL
 62
3
 10
2020.069
 20
-9038.825
 30
-1387.000
 70
    32
  0
VERTEX
  8
T66SSILL
 62
3
 10
2024.218
 20
-9016.624
 30
-1387.000
 70
    32
  0
VERTEX
  8
T66SSILL
 62
3
 10
2024.148
 20
-9008.471
 30
-1387.000
 70
    32
  0
VERTEX
  8
T66SSILL
 62
3
 10
2026.197
 20
-9002.058
 30
-1387.000
 70
    32
  0
VERTEX
  8
T66SSILL
 62
3
 10
2030.151
 20
-8986.983
 30
-1387.000
 70
    32
  0
SEQEND
  8
T66SSILL
  0
POLYLINE
  8
T66SSILL
 62
3
 66
     1
 70
     8
  0
VERTEX
  8
T66SSILL
 62
3
 10
2096.438
 20
-9253.109
 30
-1386.423
 70
    32
  0
VERTEX
  8
T66SSILL
 62
3
 10
2095.504
 20
-9255.255
 30
-1386.423
 70
    32
  0
VERTEX
  8
T66SSILL
 62
3
 10
2093.846
 20
-9262.346
 30
-1386.423
 70
    32
  0
VERTEX
  8
T66SSILL
 62
3
 10
2091.864
 20
-9266.479
 30
-1386.423
 70
    32
  0
VERTEX
  8
T66SSILL
 62
3
 10
2087.738
 20
-9270.085
 30
-1386.423
 70
    32
  0
VERTEX
  8
T66SSILL
 62
3
 10
2088.466
 20
-9272.556
 30
-1386.423
 70
    32
  0
VERTEX
  8
T66SSILL
 62
3
 10
2076.575
 20
-9282.645
 30
-1386.423
 70
    32
  0
VERTEX
  8
T66SSILL
 62
3
 10
2089.477
 20
-9289.289
 30
-1386.423
 70
    32
  0
VERTEX
  8
T66SSILL
 62
3
 10
2091.216
 20
-9287.426
 30
-1386.423
 70
    32
  0
VERTEX
  8
T66SSILL
 62
3
 10
2095.302
 20
-9284.994
 30
-1386.423
 70
    32
  0
VERTEX
  8
T66SSILL
 62
3
 10
2097.445
 20
-9285.076
 30
-1386.423
 70
    32
  0
VERTEX
  8
T66SSILL
 62
3
 10
2100.556
 20
-9287.372
 30
-1386.228
 70
    32
  0
SEQEND
  8
T66SSILL
  0
TEXT
  8
T66SSILL
 62
3
 10
2048.682
 20
-9316.937
 30
-1390.674
 40
8.202
  1
D
 41
 1.0 
  0
POLYLINE
  8
T66SSILL
 62
8
 66
     1
 70
     8
  0
VERTEX
  8
T66SSILL
 62
8
 10
2059.911
 20
-8716.244
 30
-1382.000
 70
    32
  0
VERTEX
  8
T66SSILL
 62
8
 10
2059.898
 20
-8715.939
 30
-1382.000
 70
    32
  0
VERTEX
  8
T66SSILL
 62
8
 10
2059.858
 20
-8715.636
 30
-1382.000
 70
    32
  0
VERTEX
  8
T66SSILL
 62
8
 10
2059.792
 20
-8715.338
 30
-1382.000
 70
    32
  0
VERTEX
  8
T66SSILL
 62
8
 10
2059.700
 20
-8715.047
 30
-1382.000
 70
    32
  0
VERTEX
  8
T66SSILL
 62
8
 10
2059.584
 20
-8714.765
 30
-1382.000
 70
    32
  0
VERTEX
  8
T66SSILL
 62
8
 10
2059.443
 20
-8714.494
 30
-1382.000
 70
    32
  0
VERTEX
  8
T66SSILL
 62
8
 10
2059.278
 20
-8714.236
 30
-1382.000
 70
    32
  0
VERTEX
  8
T66SSILL
 62
8
 10
2059.093
 20
-8713.994
 30
-1382.000
 70
    32
  0
VERTEX
  8
T66SSILL
 62
8
 10
2058.886
 20
-8713.769
 30
-1382.000
 70
    32
  0
VERTEX
  8
T66SSILL
 62
8
 10
2058.661
 20
-8713.563
 30
-1382.000
 70
    32
  0
VERTEX
  8
T66SSILL
 62
8
 10
2058.419
 20
-8713.377
 30
-1382.000
 70
    32
  0
VERTEX
  8
T66SSILL
 62
8
 10
2058.161
 20
-8713.213
 30
-1382.000
 70
    32
  0
VERTEX
  8
T66SSILL
 62
8
 10
2057.891
 20
-8713.072
 30
-1382.000
 70
    32
  0
VERTEX
  8
T66SSILL
 62
8
 10
2057.609
 20
-8712.955
 30
-1382.000
 70
    32
  0
VERTEX
  8
T66SSILL
 62
8
 10
2057.317
 20
-8712.863
 30
-1382.000
 70
    32
  0
VERTEX
  8
T66SSILL
 62
8
 10
2057.019
 20
-8712.797
 30
-1382.000
 70
    32
  0
VERTEX
  8
T66SSILL
 62
8
 10
2056.717
 20
-8712.757
 30
-1382.000
 70
    32
  0
VERTEX
  8
T66SSILL
 62
8
 10
2056.411
 20
-8712.744
 30
-1382.000
 70
    32
  0
VERTEX
  8
T66SSILL
 62
8
 10
2056.106
 20
-8712.757
 30
-1382.000
 70
    32
  0
VERTEX
  8
T66SSILL
 62
8
 10
2055.804
 20
-8712.797
 30
-1382.000
 70
    32
  0
VERTEX
  8
T66SSILL
 62
8
 10
2055.506
 20
-8712.863
 30
-1382.000
 70
    32
  0
VERTEX
  8
T66SSILL
 62
8
 10
2055.214
 20
-8712.955
 30
-1382.000
 70
    32
  0
VERTEX
  8
T66SSILL
 62
8
 10
2054.932
 20
-8713.072
 30
-1382.000
 70
    32
  0
VERTEX
  8
T66SSILL
 62
8
 10
2054.661
 20
-8713.213
 30
-1382.000
 70
    32
  0
VERTEX
  8
T66SSILL
 62
8
 10
2054.404
 20
-8713.377
 30
-1382.000
 70
    32
  0
VERTEX
  8
T66SSILL
 62
8
 10
2054.162
 20
-8713.563
 30
-1382.000
 70
    32
  0
VERTEX
  8
T66SSILL
 62
8
 10
2053.937
 20
-8713.769
 30
-1382.000
 70
    32
  0
VERTEX
  8
T66SSILL
 62
8
 10
2053.730
 20
-8713.994
 30
-1382.000
 70
    32
  0
VERTEX
  8
T66SSILL
 62
8
 10
2053.544
 20
-8714.236
 30
-1382.000
 70
    32
  0
VERTEX
  8
T66SSILL
 62
8
 10
2053.380
 20
-8714.494
 30
-1382.000
 70
    32
  0
VERTEX
  8
T66SSILL
 62
8
 10
2053.239
 20
-8714.765
 30
-1382.000
 70
    32
  0
VERTEX
  8
T66SSILL
 62
8
 10
2053.123
 20
-8715.047
 30
-1382.000
 70
    32
  0
VERTEX
  8
T66SSILL
 62
8
 10
2053.031
 20
-8715.338
 30
-1382.000
 70
    32
  0
VERTEX
  8
T66SSILL
 62
8
 10
2052.965
 20
-8715.636
 30
-1382.000
 70
    32
  0
VERTEX
  8
T66SSILL
 62
8
 10
2052.925
 20
-8715.939
 30
-1382.000
 70
    32
  0
VERTEX
  8
T66SSILL
 62
8
 10
2052.911
 20
-8716.244
 30
-1382.000
 70
    32
  0
VERTEX
  8
T66SSILL
 62
8
 10
2052.925
 20
-8716.549
 30
-1382.000
 70
    32
  0
VERTEX
  8
T66SSILL
 62
8
 10
2052.965
 20
-8716.851
 30
-1382.000
 70
    32
  0
VERTEX
  8
T66SSILL
 62
8
 10
2053.031
 20
-8717.150
 30
-1382.000
 70
    32
  0
VERTEX
  8
T66SSILL
 62
8
 10
2053.123
 20
-8717.441
 30
-1382.000
 70
    32
  0
VERTEX
  8
T66SSILL
 62
8
 10
2053.239
 20
-8717.723
 30
-1382.000
 70
    32
  0
VERTEX
  8
T66SSILL
 62
8
 10
2053.380
 20
-8717.994
 30
-1382.000
 70
    32
  0
VERTEX
  8
T66SSILL
 62
8
 10
2053.544
 20
-8718.251
 30
-1382.000
 70
    32
  0
VERTEX
  8
T66SSILL
 62
8
 10
2053.730
 20
-8718.493
 30
-1382.000
 70
    32
  0
VERTEX
  8
T66SSILL
 62
8
 10
2053.937
 20
-8718.719
 30
-1382.000
 70
    32
  0
VERTEX
  8
T66SSILL
 62
8
 10
2054.162
 20
-8718.925
 30
-1382.000
 70
    32
  0
VERTEX
  8
T66SSILL
 62
8
 10
2054.404
 20
-8719.111
 30
-1382.000
 70
    32
  0
VERTEX
  8
T66SSILL
 62
8
 10
2054.661
 20
-8719.275
 30
-1382.000
 70
    32
  0
VERTEX
  8
T66SSILL
 62
8
 10
2054.932
 20
-8719.416
 30
-1382.000
 70
    32
  0
VERTEX
  8
T66SSILL
 62
8
 10
2055.214
 20
-8719.533
 30
-1382.000
 70
    32
  0
VERTEX
  8
T66SSILL
 62
8
 10
2055.506
 20
-8719.624
 30
-1382.000
 70
    32
  0
VERTEX
  8
T66SSILL
 62
8
 10
2055.804
 20
-8719.691
 30
-1382.000
 70
    32
  0
VERTEX
  8
T66SSILL
 62
8
 10
2056.106
 20
-8719.730
 30
-1382.000
 70
    32
  0
VERTEX
  8
T66SSILL
 62
8
 10
2056.411
 20
-8719.744
 30
-1382.000
 70
    32
  0
VERTEX
  8
T66SSILL
 62
8
 10
2056.717
 20
-8719.730
 30
-1382.000
 70
    32
  0
VERTEX
  8
T66SSILL
 62
8
 10
2057.019
 20
-8719.691
 30
-1382.000
 70
    32
  0
VERTEX
  8
T66SSILL
 62
8
 10
2057.317
 20
-8719.624
 30
-1382.000
 70
    32
  0
VERTEX
  8
T66SSILL
 62
8
 10
2057.609
 20
-8719.533
 30
-1382.000
 70
    32
  0
VERTEX
  8
T66SSILL
 62
8
 10
2057.891
 20
-8719.416
 30
-1382.000
 70
    32
  0
VERTEX
  8
T66SSILL
 62
8
 10
2058.161
 20
-8719.275
 30
-1382.000
 70
    32
  0
VERTEX
  8
T66SSILL
 62
8
 10
2058.419
 20
-8719.111
 30
-1382.000
 70
    32
  0
VERTEX
  8
T66SSILL
 62
8
 10
2058.661
 20
-8718.925
 30
-1382.000
 70
    32
  0
VERTEX
  8
T66SSILL
 62
8
 10
2058.886
 20
-8718.719
 30
-1382.000
 70
    32
  0
VERTEX
  8
T66SSILL
 62
8
 10
2059.093
 20
-8718.493
 30
-1382.000
 70
    32
  0
VERTEX
  8
T66SSILL
 62
8
 10
2059.278
 20
-8718.251
 30
-1382.000
 70
    32
  0
VERTEX
  8
T66SSILL
 62
8
 10
2059.443
 20
-8717.994
 30
-1382.000
 70
    32
  0
VERTEX
  8
T66SSILL
 62
8
 10
2059.584
 20
-8717.723
 30
-1382.000
 70
    32
  0
VERTEX
  8
T66SSILL
 62
8
 10
2059.700
 20
-8717.441
 30
-1382.000
 70
    32
  0
VERTEX
  8
T66SSILL
 62
8
 10
2059.792
 20
-8717.150
 30
-1382.000
 70
    32
  0
VERTEX
  8
T66SSILL
 62
8
 10
2059.858
 20
-8716.851
 30
-1382.000
 70
    32
  0
VERTEX
  8
T66SSILL
 62
8
 10
2059.898
 20
-8716.549
 30
-1382.000
 70
    32
  0
VERTEX
  8
T66SSILL
 62
8
 10
2059.911
 20
-8716.244
 30
-1382.000
 70
    32
  0
SEQEND
  8
T66SSILL
  0
POLYLINE
  8
T66SSILL
 62
8
 66
     1
 70
     8
  0
VERTEX
  8
T66SSILL
 62
8
 10
2051.164
 20
-9271.561
 30
-1381.500
 70
    32
  0
VERTEX
  8
T66SSILL
 62
8
 10
2051.153
 20
-9271.299
 30
-1381.500
 70
    32
  0
VERTEX
  8
T66SSILL
 62
8
 10
2051.119
 20
-9271.040
 30
-1381.500
 70
    32
  0
VERTEX
  8
T66SSILL
 62
8
 10
2051.062
 20
-9270.784
 30
-1381.500
 70
    32
  0
VERTEX
  8
T66SSILL
 62
8
 10
2050.983
 20
-9270.535
 30
-1381.500
 70
    32
  0
VERTEX
  8
T66SSILL
 62
8
 10
2050.883
 20
-9270.293
 30
-1381.500
 70
    32
  0
VERTEX
  8
T66SSILL
 62
8
 10
2050.762
 20
-9270.061
 30
-1381.500
 70
    32
  0
VERTEX
  8
T66SSILL
 62
8
 10
2050.622
 20
-9269.840
 30
-1381.500
 70
    32
  0
VERTEX
  8
T66SSILL
 62
8
 10
2050.463
 20
-9269.632
 30
-1381.500
 70
    32
  0
VERTEX
  8
T66SSILL
 62
8
 10
2050.286
 20
-9269.439
 30
-1381.500
 70
    32
  0
VERTEX
  8
T66SSILL
 62
8
 10
2050.093
 20
-9269.263
 30
-1381.500
 70
    32
  0
VERTEX
  8
T66SSILL
 62
8
 10
2049.885
 20
-9269.103
 30
-1381.500
 70
    32
  0
VERTEX
  8
T66SSILL
 62
8
 10
2049.664
 20
-9268.963
 30
-1381.500
 70
    32
  0
VERTEX
  8
T66SSILL
 62
8
 10
2049.432
 20
-9268.842
 30
-1381.500
 70
    32
  0
VERTEX
  8
T66SSILL
 62
8
 10
2049.190
 20
-9268.742
 30
-1381.500
 70
    32
  0
VERTEX
  8
T66SSILL
 62
8
 10
2048.941
 20
-9268.663
 30
-1381.500
 70
    32
  0
VERTEX
  8
T66SSILL
 62
8
 10
2048.685
 20
-9268.606
 30
-1381.500
 70
    32
  0
VERTEX
  8
T66SSILL
 62
8
 10
2048.426
 20
-9268.572
 30
-1381.500
 70
    32
  0
VERTEX
  8
T66SSILL
 62
8
 10
2048.164
 20
-9268.561
 30
-1381.500
 70
    32
  0
VERTEX
  8
T66SSILL
 62
8
 10
2047.903
 20
-9268.572
 30
-1381.500
 70
    32
  0
VERTEX
  8
T66SSILL
 62
8
 10
2047.643
 20
-9268.606
 30
-1381.500
 70
    32
  0
VERTEX
  8
T66SSILL
 62
8
 10
2047.388
 20
-9268.663
 30
-1381.500
 70
    32
  0
VERTEX
  8
T66SSILL
 62
8
 10
2047.138
 20
-9268.742
 30
-1381.500
 70
    32
  0
VERTEX
  8
T66SSILL
 62
8
 10
2046.897
 20
-9268.842
 30
-1381.500
 70
    32
  0
VERTEX
  8
T66SSILL
 62
8
 10
2046.664
 20
-9268.963
 30
-1381.500
 70
    32
  0
VERTEX
  8
T66SSILL
 62
8
 10
2046.444
 20
-9269.103
 30
-1381.500
 70
    32
  0
VERTEX
  8
T66SSILL
 62
8
 10
2046.236
 20
-9269.263
 30
-1381.500
 70
    32
  0
VERTEX
  8
T66SSILL
 62
8
 10
2046.043
 20
-9269.439
 30
-1381.500
 70
    32
  0
VERTEX
  8
T66SSILL
 62
8
 10
2045.866
 20
-9269.632
 30
-1381.500
 70
    32
  0
VERTEX
  8
T66SSILL
 62
8
 10
2045.707
 20
-9269.840
 30
-1381.500
 70
    32
  0
VERTEX
  8
T66SSILL
 62
8
 10
2045.566
 20
-9270.061
 30
-1381.500
 70
    32
  0
VERTEX
  8
T66SSILL
 62
8
 10
2045.445
 20
-9270.293
 30
-1381.500
 70
    32
  0
VERTEX
  8
T66SSILL
 62
8
 10
2045.345
 20
-9270.535
 30
-1381.500
 70
    32
  0
VERTEX
  8
T66SSILL
 62
8
 10
2045.267
 20
-9270.784
 30
-1381.500
 70
    32
  0
VERTEX
  8
T66SSILL
 62
8
 10
2045.210
 20
-9271.040
 30
-1381.500
 70
    32
  0
VERTEX
  8
T66SSILL
 62
8
 10
2045.176
 20
-9271.299
 30
-1381.500
 70
    32
  0
VERTEX
  8
T66SSILL
 62
8
 10
2045.164
 20
-9271.561
 30
-1381.500
 70
    32
  0
VERTEX
  8
T66SSILL
 62
8
 10
2045.176
 20
-9271.822
 30
-1381.500
 70
    32
  0
VERTEX
  8
T66SSILL
 62
8
 10
2045.210
 20
-9272.082
 30
-1381.500
 70
    32
  0
VERTEX
  8
T66SSILL
 62
8
 10
2045.267
 20
-9272.337
 30
-1381.500
 70
    32
  0
VERTEX
  8
T66SSILL
 62
8
 10
2045.345
 20
-9272.587
 30
-1381.500
 70
    32
  0
VERTEX
  8
T66SSILL
 62
8
 10
2045.445
 20
-9272.829
 30
-1381.500
 70
    32
  0
VERTEX
  8
T66SSILL
 62
8
 10
2045.566
 20
-9273.061
 30
-1381.500
 70
    32
  0
VERTEX
  8
T66SSILL
 62
8
 10
2045.707
 20
-9273.281
 30
-1381.500
 70
    32
  0
VERTEX
  8
T66SSILL
 62
8
 10
2045.866
 20
-9273.489
 30
-1381.500
 70
    32
  0
VERTEX
  8
T66SSILL
 62
8
 10
2046.043
 20
-9273.682
 30
-1381.500
 70
    32
  0
VERTEX
  8
T66SSILL
 62
8
 10
2046.236
 20
-9273.859
 30
-1381.500
 70
    32
  0
VERTEX
  8
T66SSILL
 62
8
 10
2046.444
 20
-9274.018
 30
-1381.500
 70
    32
  0
VERTEX
  8
T66SSILL
 62
8
 10
2046.664
 20
-9274.159
 30
-1381.500
 70
    32
  0
VERTEX
  8
T66SSILL
 62
8
 10
2046.897
 20
-9274.280
 30
-1381.500
 70
    32
  0
VERTEX
  8
T66SSILL
 62
8
 10
2047.138
 20
-9274.380
 30
-1381.500
 70
    32
  0
VERTEX
  8
T66SSILL
 62
8
 10
2047.388
 20
-9274.458
 30
-1381.500
 70
    32
  0
VERTEX
  8
T66SSILL
 62
8
 10
2047.643
 20
-9274.515
 30
-1381.500
 70
    32
  0
VERTEX
  8
T66SSILL
 62
8
 10
2047.903
 20
-9274.549
 30
-1381.500
 70
    32
  0
VERTEX
  8
T66SSILL
 62
8
 10
2048.164
 20
-9274.561
 30
-1381.500
 70
    32
  0
VERTEX
  8
T66SSILL
 62
8
 10
2048.426
 20
-9274.549
 30
-1381.500
 70
    32
  0
VERTEX
  8
T66SSILL
 62
8
 10
2048.685
 20
-9274.515
 30
-1381.500
 70
    32
  0
VERTEX
  8
T66SSILL
 62
8
 10
2048.941
 20
-9274.458
 30
-1381.500
 70
    32
  0
VERTEX
  8
T66SSILL
 62
8
 10
2049.190
 20
-9274.380
 30
-1381.500
 70
    32
  0
VERTEX
  8
T66SSILL
 62
8
 10
2049.432
 20
-9274.280
 30
-1381.500
 70
    32
  0
VERTEX
  8
T66SSILL
 62
8
 10
2049.664
 20
-9274.159
 30
-1381.500
 70
    32
  0
VERTEX
  8
T66SSILL
 62
8
 10
2049.885
 20
-9274.018
 30
-1381.500
 70
    32
  0
VERTEX
  8
T66SSILL
 62
8
 10
2050.093
 20
-9273.859
 30
-1381.500
 70
    32
  0
VERTEX
  8
T66SSILL
 62
8
 10
2050.286
 20
-9273.682
 30
-1381.500
 70
    32
  0
VERTEX
  8
T66SSILL
 62
8
 10
2050.463
 20
-9273.489
 30
-1381.500
 70
    32
  0
VERTEX
  8
T66SSILL
 62
8
 10
2050.622
 20
-9273.281
 30
-1381.500
 70
    32
  0
VERTEX
  8
T66SSILL
 62
8
 10
2050.762
 20
-9273.061
 30
-1381.500
 70
    32
  0
VERTEX
  8
T66SSILL
 62
8
 10
2050.883
 20
-9272.829
 30
-1381.500
 70
    32
  0
VERTEX
  8
T66SSILL
 62
8
 10
2050.983
 20
-9272.587
 30
-1381.500
 70
    32
  0
VERTEX
  8
T66SSILL
 62
8
 10
2051.062
 20
-9272.337
 30
-1381.500
 70
    32
  0
VERTEX
  8
T66SSILL
 62
8
 10
2051.119
 20
-9272.082
 30
-1381.500
 70
    32
  0
VERTEX
  8
T66SSILL
 62
8
 10
2051.153
 20
-9271.822
 30
-1381.500
 70
    32
  0
VERTEX
  8
T66SSILL
 62
8
 10
2051.164
 20
-9271.561
 30
-1381.500
 70
    32
  0
SEQEND
  8
T66SSILL
  0
POLYLINE
  8
T66SSILL
 62
8
 66
     1
 70
     9
  0
VERTEX
  8
T66SSILL
 62
8
 10
1725.017
 20
-8016.053
 30
-1390.439
 70
    32
  0
VERTEX
  8
T66SSILL
 62
8
 10
1730.074
 20
-8008.778
 30
-1390.457
 70
    32
  0
VERTEX
  8
T66SSILL
 62
8
 10
1725.128
 20
-7992.547
 30
-1390.508
 70
    32
  0
VERTEX
  8
T66SSILL
 62
8
 10
1722.181
 20
-7990.442
 30
-1390.531
 70
    32
  0
VERTEX
  8
T66SSILL
 62
8
 10
1711.650
 20
-7970.429
 30
-1390.649
 70
    32
  0
VERTEX
  8
T66SSILL
 62
8
 10
1714.951
 20
-7956.696
 30
-1390.671
 70
    32
  0
VERTEX
  8
T66SSILL
 62
8
 10
1674.452
 20
-7812.980
 30
-1391.105
 70
    32
  0
VERTEX
  8
T66SSILL
 62
8
 10
1674.452
 20
-7812.979
 30
-1391.072
 70
    32
  0
VERTEX
  8
T66SSILL
 62
8
 10
1668.571
 20
-7815.940
 30
-1390.324
 70
    32
  0
VERTEX
  8
T66SSILL
 62
8
 10
1661.657
 20
-7810.012
 30
-1390.751
 70
    32
  0
VERTEX
  8
T66SSILL
 62
8
 10
1656.942
 20
-7813.502
 30
-1391.696
 70
    32
  0
VERTEX
  8
T66SSILL
 62
8
 10
1655.765
 20
-7819.482
 30
-1391.057
 70
    32
  0
VERTEX
  8
T66SSILL
 62
8
 10
1655.988
 20
-7825.620
 30
-1391.057
 70
    32
  0
VERTEX
  8
T66SSILL
 62
8
 10
1657.149
 20
-7833.326
 30
-1395.422
 70
    32
  0
VERTEX
  8
T66SSILL
 62
8
 10
1663.946
 20
-7858.970
 30
-1394.593
 70
    32
  0
VERTEX
  8
T66SSILL
 62
8
 10
1671.654
 20
-7895.473
 30
-1394.250
 70
    32
  0
VERTEX
  8
T66SSILL
 62
8
 10
1673.940
 20
-7928.455
 30
-1388.572
 70
    32
  0
VERTEX
  8
T66SSILL
 62
8
 10
1678.371
 20
-7959.104
 30
-1387.482
 70
    32
  0
VERTEX
  8
T66SSILL
 62
8
 10
1688.584
 20
-8009.223
 30
-1387.416
 70
    32
  0
VERTEX
  8
T66SSILL
 62
8
 10
1696.890
 20
-8064.021
 30
-1385.279
 70
    32
  0
VERTEX
  8
T66SSILL
 62
8
 10
1698.427
 20
-8075.333
 30
-1385.274
 70
    32
  0
VERTEX
  8
T66SSILL
 62
8
 10
1700.353
 20
-8080.973
 30
-1385.448
 70
    32
  0
VERTEX
  8
T66SSILL
 62
8
 10
1709.922
 20
-8094.450
 30
-1385.495
 70
    32
  0
VERTEX
  8
T66SSILL
 62
8
 10
1715.518
 20
-8098.880
 30
-1384.748
 70
    32
  0
VERTEX
  8
T66SSILL
 62
8
 10
1722.622
 20
-8100.602
 30
-1384.744
 70
    32
  0
VERTEX
  8
T66SSILL
 62
8
 10
1739.146
 20
-8110.054
 30
-1386.016
 70
    32
  0
VERTEX
  8
T66SSILL
 62
8
 10
1754.316
 20
-8116.929
 30
-1389.028
 70
    32
  0
VERTEX
  8
T66SSILL
 62
8
 10
1756.599
 20
-8114.704
 30
-1392.028
 70
    32
  0
VERTEX
  8
T66SSILL
 62
8
 10
1733.555
 20
-8021.499
 30
-1390.435
 70
    32
  0
VERTEX
  8
T66SSILL
 62
8
 10
1727.020
 20
-8022.550
 30
-1390.409
 70
    32
  0
SEQEND
  8
T66SSILL
  0
POLYLINE
  8
T66SSILL
 62
8
 66
     1
 70
     9
  0
VERTEX
  8
T66SSILL
 62
8
 10
1305.011
 20
-6222.948
 30
-1385.745
 70
    32
  0
VERTEX
  8
T66SSILL
 62
8
 10
1301.800
 20
-6229.200
 30
-1386.602
 70
    32
  0
VERTEX
  8
T66SSILL
 62
8
 10
1303.600
 20
-6232.700
 30
-1386.350
 70
    32
  0
VERTEX
  8
T66SSILL
 62
8
 10
1332.200
 20
-6237.500
 30
-1384.869
 70
    32
  0
VERTEX
  8
T66SSILL
 62
8
 10
1343.400
 20
-6233.300
 30
-1384.928
 70
    32
  0
VERTEX
  8
T66SSILL
 62
8
 10
1352.800
 20
-6226.500
 30
-1384.963
 70
    32
  0
VERTEX
  8
T66SSILL
 62
8
 10
1357.300
 20
-6227.000
 30
-1384.996
 70
    32
  0
VERTEX
  8
T66SSILL
 62
8
 10
1362.300
 20
-6221.800
 30
-1385.008
 70
    32
  0
VERTEX
  8
T66SSILL
 62
8
 10
1373.700
 20
-6226.000
 30
-1385.107
 70
    32
  0
VERTEX
  8
T66SSILL
 62
8
 10
1373.600
 20
-6241.300
 30
-1385.176
 70
    32
  0
VERTEX
  8
T66SSILL
 62
8
 10
1384.800
 20
-6244.900
 30
-1385.271
 70
    32
  0
VERTEX
  8
T66SSILL
 62
8
 10
1384.200
 20
-6254.800
 30
-1385.312
 70
    32
  0
VERTEX
  8
T66SSILL
 62
8
 10
1371.400
 20
-6255.700
 30
-1385.226
 70
    32
  0
VERTEX
  8
T66SSILL
 62
8
 10
1370.666
 20
-6261.664
 30
-1385.248
 70
    32
  0
VERTEX
  8
T66SSILL
 62
8
 10
1380.200
 20
-6272.600
 30
-1385.365
 70
    32
  0
VERTEX
  8
T66SSILL
 62
8
 10
1381.900
 20
-6278.900
 30
-1385.406
 70
    32
  0
VERTEX
  8
T66SSILL
 62
8
 10
1401.384
 20
-6297.153
 30
-1385.625
 70
    32
  0
VERTEX
  8
T66SSILL
 62
8
 10
1421.940
 20
-6312.220
 30
-1385.838
 70
    32
  0
VERTEX
  8
T66SSILL
 62
8
 10
1427.019
 20
-6318.410
 30
-1385.902
 70
    32
  0
VERTEX
  8
T66SSILL
 62
8
 10
1425.028
 20
-6325.350
 30
-1385.920
 70
    32
  0
VERTEX
  8
T66SSILL
 62
8
 10
1417.634
 20
-6334.047
 30
-1385.908
 70
    32
  0
VERTEX
  8
T66SSILL
 62
8
 10
1410.210
 20
-6336.937
 30
-1385.869
 70
    32
  0
VERTEX
  8
T66SSILL
 62
8
 10
1399.327
 20
-6338.435
 30
-1385.800
 70
    32
  0
VERTEX
  8
T66SSILL
 62
8
 10
1382.960
 20
-6307.052
 30
-1385.542
 70
    32
  0
VERTEX
  8
T66SSILL
 62
8
 10
1374.400
 20
-6299.800
 30
-1385.449
 70
    32
  0
VERTEX
  8
T66SSILL
 62
8
 10
1368.400
 20
-6297.800
 30
-1385.398
 70
    32
  0
VERTEX
  8
T66SSILL
 62
8
 10
1354.200
 20
-6272.900
 30
-1385.185
 70
    32
  0
VERTEX
  8
T66SSILL
 62
8
 10
1348.200
 20
-6265.100
 30
-1385.107
 70
    32
  0
VERTEX
  8
T66SSILL
 62
8
 10
1343.000
 20
-6262.800
 30
-1385.060
 70
    32
  0
VERTEX
  8
T66SSILL
 62
8
 10
1333.353
 20
-6249.107
 30
-1384.930
 70
    32
  0
VERTEX
  8
T66SSILL
 62
8
 10
1311.832
 20
-6247.281
 30
-1385.262
 70
    32
  0
VERTEX
  8
T66SSILL
 62
8
 10
1304.314
 20
-6248.767
 30
-1385.604
 70
    32
  0
VERTEX
  8
T66SSILL
 62
8
 10
1301.543
 20
-6252.929
 30
-1385.571
 70
    32
  0
VERTEX
  8
T66SSILL
 62
8
 10
1287.403
 20
-6252.758
 30
-1386.344
 70
    32
  0
VERTEX
  8
T66SSILL
 62
8
 10
1241.302
 20
-6326.276
 30
-1386.449
 70
    32
  0
VERTEX
  8
T66SSILL
 62
8
 10
1243.148
 20
-6348.218
 30
-1386.749
 70
    32
  0
VERTEX
  8
T66SSILL
 62
8
 10
1248.002
 20
-6357.523
 30
-1386.853
 70
    32
  0
VERTEX
  8
T66SSILL
 62
8
 10
1251.424
 20
-6361.903
 30
-1386.895
 70
    32
  0
VERTEX
  8
T66SSILL
 62
8
 10
1263.265
 20
-6371.015
 30
-1386.956
 70
    32
  0
VERTEX
  8
T66SSILL
 62
8
 10
1277.771
 20
-6375.652
 30
-1386.724
 70
    32
  0
VERTEX
  8
T66SSILL
 62
8
 10
1341.692
 20
-6381.934
 30
-1385.807
 70
    32
  0
VERTEX
  8
T66SSILL
 62
8
 10
1346.112
 20
-6380.858
 30
-1385.780
 70
    32
  0
VERTEX
  8
T66SSILL
 62
8
 10
1357.410
 20
-6383.554
 30
-1385.713
 70
    32
  0
VERTEX
  8
T66SSILL
 62
8
 10
1435.067
 20
-6392.733
 30
-1386.297
 70
    32
  0
VERTEX
  8
T66SSILL
 62
8
 10
1434.267
 20
-6400.798
 30
-1386.293
 70
    32
  0
VERTEX
  8
T66SSILL
 62
8
 10
1370.875
 20
-6393.893
 30
-1385.854
 70
    32
  0
VERTEX
  8
T66SSILL
 62
8
 10
1366.753
 20
-6396.917
 30
-1385.839
 70
    32
  0
VERTEX
  8
T66SSILL
 62
8
 10
1361.656
 20
-6397.924
 30
-1385.808
 70
    32
  0
VERTEX
  8
T66SSILL
 62
8
 10
1360.320
 20
-6392.399
 30
-1385.774
 70
    32
  0
VERTEX
  8
T66SSILL
 62
8
 10
1273.526
 20
-6383.081
 30
-1386.876
 70
    32
  0
VERTEX
  8
T66SSILL
 62
8
 10
1256.807
 20
-6376.230
 30
-1387.067
 70
    32
  0
VERTEX
  8
T66SSILL
 62
8
 10
1245.736
 20
-6375.533
 30
-1387.121
 70
    32
  0
VERTEX
  8
T66SSILL
 62
8
 10
1254.766
 20
-6431.647
 30
-1387.639
 70
    32
  0
VERTEX
  8
T66SSILL
 62
8
 10
1299.209
 20
-6462.282
 30
-1386.829
 70
    32
  0
VERTEX
  8
T66SSILL
 62
8
 10
1295.094
 20
-6468.215
 30
-1386.948
 70
    32
  0
VERTEX
  8
T66SSILL
 62
8
 10
1261.799
 20
-6443.728
 30
-1387.529
 70
    32
  0
VERTEX
  8
T66SSILL
 62
8
 10
1260.688
 20
-6446.888
 30
-1387.576
 70
    32
  0
VERTEX
  8
T66SSILL
 62
8
 10
1263.901
 20
-6458.757
 30
-1387.563
 70
    32
  0
VERTEX
  8
T66SSILL
 62
8
 10
1267.503
 20
-6461.714
 30
-1387.487
 70
    32
  0
VERTEX
  8
T66SSILL
 62
8
 10
1271.288
 20
-6469.508
 30
-1387.436
 70
    32
  0
VERTEX
  8
T66SSILL
 62
8
 10
1271.142
 20
-6481.053
 30
-1387.506
 70
    32
  0
VERTEX
  8
T66SSILL
 62
8
 10
1268.987
 20
-6486.248
 30
-1387.592
 70
    32
  0
VERTEX
  8
T66SSILL
 62
8
 10
1272.778
 20
-6510.229
 30
-1387.664
 70
    32
  0
VERTEX
  8
T66SSILL
 62
8
 10
1271.362
 20
-6521.809
 30
-1387.774
 70
    32
  0
VERTEX
  8
T66SSILL
 62
8
 10
1276.645
 20
-6566.215
 30
-1387.999
 70
    32
  0
VERTEX
  8
T66SSILL
 62
8
 10
1282.700
 20
-6572.944
 30
-1387.937
 70
    32
  0
VERTEX
  8
T66SSILL
 62
8
 10
1290.974
 20
-6562.666
 30
-1387.710
 70
    32
  0
VERTEX
  8
T66SSILL
 62
8
 10
1341.973
 20
-6462.154
 30
-1386.301
 70
    32
  0
VERTEX
  8
T66SSILL
 62
8
 10
1354.984
 20
-6453.384
 30
-1386.337
 70
    32
  0
VERTEX
  8
T66SSILL
 62
8
 10
1369.621
 20
-6458.359
 30
-1386.140
 70
    32
  0
VERTEX
  8
T66SSILL
 62
8
 10
1366.992
 20
-6471.505
 30
-1386.321
 70
    32
  0
VERTEX
  8
T66SSILL
 62
8
 10
1361.987
 20
-6477.949
 30
-1386.484
 70
    32
  0
VERTEX
  8
T66SSILL
 62
8
 10
1373.106
 20
-6500.494
 30
-1386.504
 70
    32
  0
VERTEX
  8
T66SSILL
 62
8
 10
1383.023
 20
-6501.751
 30
-1386.432
 70
    32
  0
VERTEX
  8
T66SSILL
 62
8
 10
1416.580
 20
-6553.876
 30
-1386.905
 70
    32
  0
VERTEX
  8
T66SSILL
 62
8
 10
1421.944
 20
-6579.527
 30
-1387.060
 70
    32
  0
VERTEX
  8
T66SSILL
 62
8
 10
1431.695
 20
-6604.544
 30
-1387.243
 70
    32
  0
VERTEX
  8
T66SSILL
 62
8
 10
1440.040
 20
-6634.104
 30
-1387.436
 70
    32
  0
VERTEX
  8
T66SSILL
 62
8
 10
1444.553
 20
-6653.693
 30
-1387.557
 70
    32
  0
VERTEX
  8
T66SSILL
 62
8
 10
1443.437
 20
-6661.683
 30
-1387.586
 70
    32
  0
VERTEX
  8
T66SSILL
 62
8
 10
1425.893
 20
-6662.708
 30
-1387.468
 70
    32
  0
VERTEX
  8
T66SSILL
 62
8
 10
1422.576
 20
-6635.394
 30
-1387.320
 70
    32
  0
VERTEX
  8
T66SSILL
 62
8
 10
1411.087
 20
-6592.584
 30
-1387.044
 70
    32
  0
VERTEX
  8
T66SSILL
 62
8
 10
1396.921
 20
-6574.237
 30
-1386.861
 70
    32
  0
VERTEX
  8
T66SSILL
 62
8
 10
1391.855
 20
-6571.482
 30
-1386.881
 70
    32
  0
VERTEX
  8
T66SSILL
 62
8
 10
1386.397
 20
-6562.555
 30
-1386.893
 70
    32
  0
VERTEX
  8
T66SSILL
 62
8
 10
1381.070
 20
-6542.575
 30
-1386.788
 70
    32
  0
VERTEX
  8
T66SSILL
 62
8
 10
1370.314
 20
-6534.818
 30
-1386.914
 70
    32
  0
VERTEX
  8
T66SSILL
 62
8
 10
1362.477
 20
-6524.351
 30
-1386.823
 70
    32
  0
VERTEX
  8
T66SSILL
 62
8
 10
1353.921
 20
-6508.160
 30
-1386.665
 70
    32
  0
VERTEX
  8
T66SSILL
 62
8
 10
1356.230
 20
-6500.185
 30
-1386.632
 70
    32
  0
VERTEX
  8
T66SSILL
 62
8
 10
1354.961
 20
-6496.570
 30
-1386.601
 70
    32
  0
VERTEX
  8
T66SSILL
 62
8
 10
1350.271
 20
-6491.613
 30
-1386.538
 70
    32
  0
VERTEX
  8
T66SSILL
 62
8
 10
1338.917
 20
-6492.165
 30
-1386.575
 70
    32
  0
VERTEX
  8
T66SSILL
 62
8
 10
1315.337
 20
-6536.368
 30
-1387.218
 70
    32
  0
VERTEX
  8
T66SSILL
 62
8
 10
1314.764
 20
-6541.078
 30
-1387.262
 70
    32
  0
VERTEX
  8
T66SSILL
 62
8
 10
1324.120
 20
-6557.622
 30
-1387.280
 70
    32
  0
VERTEX
  8
T66SSILL
 62
8
 10
1345.813
 20
-6573.544
 30
-1387.132
 70
    32
  0
VERTEX
  8
T66SSILL
 62
8
 10
1344.391
 20
-6576.699
 30
-1387.175
 70
    32
  0
VERTEX
  8
T66SSILL
 62
8
 10
1345.528
 20
-6582.557
 30
-1387.207
 70
    32
  0
VERTEX
  8
T66SSILL
 62
8
 10
1391.845
 20
-6634.035
 30
-1380.000
 70
    32
  0
VERTEX
  8
T66SSILL
 62
8
 10
1403.827
 20
-6634.261
 30
-1380.000
 70
    32
  0
VERTEX
  8
T66SSILL
 62
8
 10
1413.391
 20
-6643.828
 30
-1380.000
 70
    32
  0
VERTEX
  8
T66SSILL
 62
8
 10
1421.423
 20
-6644.699
 30
-1380.000
 70
    32
  0
VERTEX
  8
T66SSILL
 62
8
 10
1420.675
 20
-6657.158
 30
-1380.000
 70
    32
  0
VERTEX
  8
T66SSILL
 62
8
 10
1412.705
 20
-6658.500
 30
-1380.000
 70
    32
  0
VERTEX
  8
T66SSILL
 62
8
 10
1416.412
 20
-6666.623
 30
-1380.000
 70
    32
  0
VERTEX
  8
T66SSILL
 62
8
 10
1429.267
 20
-6681.599
 30
-1380.000
 70
    32
  0
VERTEX
  8
T66SSILL
 62
8
 10
1441.311
 20
-6688.443
 30
-1380.000
 70
    32
  0
VERTEX
  8
T66SSILL
 62
8
 10
1459.985
 20
-6690.381
 30
-1380.000
 70
    32
  0
VERTEX
  8
T66SSILL
 62
8
 10
1469.110
 20
-6688.545
 30
-1380.000
 70
    32
  0
VERTEX
  8
T66SSILL
 62
8
 10
1502.282
 20
-6672.700
 30
-1380.000
 70
    32
  0
VERTEX
  8
T66SSILL
 62
8
 10
1506.970
 20
-6666.266
 30
-1380.000
 70
    32
  0
VERTEX
  8
T66SSILL
 62
8
 10
1511.863
 20
-6664.523
 30
-1380.000
 70
    32
  0
VERTEX
  8
T66SSILL
 62
8
 10
1525.851
 20
-6651.184
 30
-1380.000
 70
    32
  0
VERTEX
  8
T66SSILL
 62
8
 10
1578.163
 20
-6607.716
 30
-1380.000
 70
    32
  0
VERTEX
  8
T66SSILL
 62
8
 10
1589.521
 20
-6601.290
 30
-1380.000
 70
    32
  0
VERTEX
  8
T66SSILL
 62
8
 10
1612.964
 20
-6583.088
 30
-1380.000
 70
    32
  0
VERTEX
  8
T66SSILL
 62
8
 10
1614.209
 20
-6573.609
 30
-1380.000
 70
    32
  0
VERTEX
  8
T66SSILL
 62
8
 10
1616.916
 20
-6570.296
 30
-1380.000
 70
    32
  0
VERTEX
  8
T66SSILL
 62
8
 10
1612.444
 20
-6557.448
 30
-1380.000
 70
    32
  0
VERTEX
  8
T66SSILL
 62
8
 10
1619.259
 20
-6552.195
 30
-1380.000
 70
    32
  0
VERTEX
  8
T66SSILL
 62
8
 10
1623.319
 20
-6545.024
 30
-1380.000
 70
    32
  0
VERTEX
  8
T66SSILL
 62
8
 10
1630.168
 20
-6543.616
 30
-1380.000
 70
    32
  0
VERTEX
  8
T66SSILL
 62
8
 10
1636.914
 20
-6551.630
 30
-1380.000
 70
    32
  0
VERTEX
  8
T66SSILL
 62
8
 10
1638.932
 20
-6561.164
 30
-1380.000
 70
    32
  0
VERTEX
  8
T66SSILL
 62
8
 10
1648.150
 20
-6566.140
 30
-1380.000
 70
    32
  0
VERTEX
  8
T66SSILL
 62
8
 10
1649.910
 20
-6571.665
 30
-1380.000
 70
    32
  0
VERTEX
  8
T66SSILL
 62
8
 10
1640.430
 20
-6579.986
 30
-1380.000
 70
    32
  0
VERTEX
  8
T66SSILL
 62
8
 10
1643.823
 20
-6596.929
 30
-1380.000
 70
    32
  0
VERTEX
  8
T66SSILL
 62
8
 10
1654.860
 20
-6618.614
 30
-1380.000
 70
    32
  0
VERTEX
  8
T66SSILL
 62
8
 10
1645.241
 20
-6621.465
 30
-1380.000
 70
    32
  0
VERTEX
  8
T66SSILL
 62
8
 10
1624.316
 20
-6592.142
 30
-1380.000
 70
    32
  0
VERTEX
  8
T66SSILL
 62
8
 10
1622.001
 20
-6592.061
 30
-1380.000
 70
    32
  0
VERTEX
  8
T66SSILL
 62
8
 10
1618.438
 20
-6595.227
 30
-1380.000
 70
    32
  0
VERTEX
  8
T66SSILL
 62
8
 10
1613.397
 20
-6596.000
 30
-1380.000
 70
    32
  0
VERTEX
  8
T66SSILL
 62
8
 10
1610.430
 20
-6600.464
 30
-1380.000
 70
    32
  0
VERTEX
  8
T66SSILL
 62
8
 10
1596.150
 20
-6612.934
 30
-1380.000
 70
    32
  0
VERTEX
  8
T66SSILL
 62
8
 10
1585.395
 20
-6616.569
 30
-1380.000
 70
    32
  0
VERTEX
  8
T66SSILL
 62
8
 10
1558.953
 20
-6639.796
 30
-1380.000
 70
    32
  0
VERTEX
  8
T66SSILL
 62
8
 10
1551.922
 20
-6647.780
 30
-1380.000
 70
    32
  0
VERTEX
  8
T66SSILL
 62
8
 10
1512.439
 20
-6677.334
 30
-1380.000
 70
    32
  0
VERTEX
  8
T66SSILL
 62
8
 10
1510.707
 20
-6681.568
 30
-1380.000
 70
    32
  0
VERTEX
  8
T66SSILL
 62
8
 10
1476.038
 20
-6696.968
 30
-1380.000
 70
    32
  0
VERTEX
  8
T66SSILL
 62
8
 10
1467.668
 20
-6698.808
 30
-1380.000
 70
    32
  0
VERTEX
  8
T66SSILL
 62
8
 10
1450.212
 20
-6700.414
 30
-1380.000
 70
    32
  0
VERTEX
  8
T66SSILL
 62
8
 10
1441.083
 20
-6698.599
 30
-1380.000
 70
    32
  0
VERTEX
  8
T66SSILL
 62
8
 10
1420.157
 20
-6689.228
 30
-1380.000
 70
    32
  0
VERTEX
  8
T66SSILL
 62
8
 10
1414.407
 20
-6682.013
 30
-1380.000
 70
    32
  0
VERTEX
  8
T66SSILL
 62
8
 10
1409.447
 20
-6680.472
 30
-1380.000
 70
    32
  0
VERTEX
  8
T66SSILL
 62
8
 10
1398.704
 20
-6658.306
 30
-1380.000
 70
    32
  0
VERTEX
  8
T66SSILL
 62
8
 10
1383.500
 20
-6639.403
 30
-1380.000
 70
    32
  0
VERTEX
  8
T66SSILL
 62
8
 10
1343.172
 20
-6596.691
 30
-1387.348
 70
    32
  0
VERTEX
  8
T66SSILL
 62
8
 10
1325.545
 20
-6570.841
 30
-1387.366
 70
    32
  0
VERTEX
  8
T66SSILL
 62
8
 10
1316.538
 20
-6566.607
 30
-1387.445
 70
    32
  0
VERTEX
  8
T66SSILL
 62
8
 10
1311.705
 20
-6566.031
 30
-1387.495
 70
    32
  0
VERTEX
  8
T66SSILL
 62
8
 10
1305.303
 20
-6567.968
 30
-1387.584
 70
    32
  0
VERTEX
  8
T66SSILL
 62
8
 10
1288.461
 20
-6602.763
 30
-1388.052
 70
    32
  0
VERTEX
  8
T66SSILL
 62
8
 10
1291.309
 20
-6613.811
 30
-1388.107
 70
    32
  0
VERTEX
  8
T66SSILL
 62
8
 10
1292.811
 20
-6630.128
 30
-1388.220
 70
    32
  0
VERTEX
  8
T66SSILL
 62
8
 10
1301.138
 20
-6667.848
 30
-1388.423
 70
    32
  0
VERTEX
  8
T66SSILL
 62
8
 10
1312.777
 20
-6691.784
 30
-1388.480
 70
    32
  0
VERTEX
  8
T66SSILL
 62
8
 10
1318.292
 20
-6710.876
 30
-1388.567
 70
    32
  0
VERTEX
  8
T66SSILL
 62
8
 10
1335.950
 20
-6744.695
 30
-1388.611
 70
    32
  0
VERTEX
  8
T66SSILL
 62
8
 10
1340.796
 20
-6764.368
 30
-1388.706
 70
    32
  0
VERTEX
  8
T66SSILL
 62
8
 10
1346.857
 20
-6774.006
 30
-1388.705
 70
    32
  0
VERTEX
  8
T66SSILL
 62
8
 10
1348.832
 20
-6774.661
 30
-1388.686
 70
    32
  0
VERTEX
  8
T66SSILL
 62
8
 10
1360.284
 20
-6770.555
 30
-1388.509
 70
    32
  0
VERTEX
  8
T66SSILL
 62
8
 10
1369.640
 20
-6761.347
 30
-1388.325
 70
    32
  0
VERTEX
  8
T66SSILL
 62
8
 10
1371.513
 20
-6753.006
 30
-1388.287
 70
    32
  0
VERTEX
  8
T66SSILL
 62
8
 10
1379.623
 20
-6747.378
 30
-1388.308
 70
    32
  0
VERTEX
  8
T66SSILL
 62
8
 10
1393.435
 20
-6744.626
 30
-1388.387
 70
    32
  0
VERTEX
  8
T66SSILL
 62
8
 10
1399.254
 20
-6753.463
 30
-1388.481
 70
    32
  0
VERTEX
  8
T66SSILL
 62
8
 10
1353.022
 20
-6790.048
 30
-1388.755
 70
    32
  0
VERTEX
  8
T66SSILL
 62
8
 10
1367.867
 20
-6814.091
 30
-1388.757
 70
    32
  0
VERTEX
  8
T66SSILL
 62
8
 10
1370.395
 20
-6827.739
 30
-1388.833
 70
    32
  0
VERTEX
  8
T66SSILL
 62
8
 10
1379.590
 20
-6846.386
 30
-1388.914
 70
    32
  0
VERTEX
  8
T66SSILL
 62
8
 10
1387.192
 20
-6855.151
 30
-1389.021
 70
    32
  0
VERTEX
  8
T66SSILL
 62
8
 10
1388.434
 20
-6861.181
 30
-1389.066
 70
    32
  0
VERTEX
  8
T66SSILL
 62
8
 10
1394.199
 20
-6870.705
 30
-1389.164
 70
    32
  0
VERTEX
  8
T66SSILL
 62
8
 10
1424.173
 20
-6937.048
 30
-1389.778
 70
    32
  0
VERTEX
  8
T66SSILL
 62
8
 10
1428.041
 20
-6938.091
 30
-1389.811
 70
    32
  0
VERTEX
  8
T66SSILL
 62
8
 10
1444.645
 20
-6930.126
 30
-1389.592
 70
    32
  0
VERTEX
  8
T66SSILL
 62
8
 10
1448.459
 20
-6938.115
 30
-1389.602
 70
    32
  0
VERTEX
  8
T66SSILL
 62
8
 10
1432.626
 20
-6945.643
 30
-1389.889
 70
    32
  0
VERTEX
  8
T66SSILL
 62
8
 10
1434.328
 20
-6949.728
 30
-1389.926
 70
    32
  0
VERTEX
  8
T66SSILL
 62
8
 10
1436.998
 20
-6950.755
 30
-1389.950
 70
    32
  0
VERTEX
  8
T66SSILL
 62
8
 10
1435.448
 20
-6960.163
 30
-1389.997
 70
    32
  0
VERTEX
  8
T66SSILL
 62
8
 10
1471.092
 20
-7034.370
 30
-1390.167
 70
    32
  0
VERTEX
  8
T66SSILL
 62
8
 10
1481.746
 20
-7041.192
 30
-1390.033
 70
    32
  0
VERTEX
  8
T66SSILL
 62
8
 10
1479.997
 20
-7051.388
 30
-1390.173
 70
    32
  0
VERTEX
  8
T66SSILL
 62
8
 10
1515.817
 20
-7127.522
 30
-1390.275
 70
    32
  0
VERTEX
  8
T66SSILL
 62
8
 10
1525.157
 20
-7141.866
 30
-1390.353
 70
    32
  0
VERTEX
  8
T66SSILL
 62
8
 10
1525.547
 20
-7147.843
 30
-1390.383
 70
    32
  0
VERTEX
  8
T66SSILL
 62
8
 10
1565.153
 20
-7229.179
 30
-1390.702
 70
    32
  0
VERTEX
  8
T66SSILL
 62
8
 10
1568.263
 20
-7230.218
 30
-1390.709
 70
    32
  0
VERTEX
  8
T66SSILL
 62
8
 10
1576.513
 20
-7225.247
 30
-1390.701
 70
    32
  0
VERTEX
  8
T66SSILL
 62
8
 10
1578.905
 20
-7219.777
 30
-1390.686
 70
    32
  0
VERTEX
  8
T66SSILL
 62
8
 10
1585.506
 20
-7212.626
 30
-1390.669
 70
    32
  0
VERTEX
  8
T66SSILL
 62
8
 10
1580.989
 20
-7196.930
 30
-1390.614
 70
    32
  0
VERTEX
  8
T66SSILL
 62
8
 10
1573.837
 20
-7184.070
 30
-1390.566
 70
    32
  0
VERTEX
  8
T66SSILL
 62
8
 10
1582.589
 20
-7176.908
 30
-1390.552
 70
    32
  0
VERTEX
  8
T66SSILL
 62
8
 10
1587.256
 20
-7186.560
 30
-1390.587
 70
    32
  0
VERTEX
  8
T66SSILL
 62
8
 10
1597.829
 20
-7197.541
 30
-1390.570
 70
    32
  0
VERTEX
  8
T66SSILL
 62
8
 10
1610.656
 20
-7190.952
 30
-1390.446
 70
    32
  0
VERTEX
  8
T66SSILL
 62
8
 10
1721.836
 20
-7103.036
 30
-1390.047
 70
    32
  0
VERTEX
  8
T66SSILL
 62
8
 10
1722.867
 20
-7095.183
 30
-1390.024
 70
    32
  0
VERTEX
  8
T66SSILL
 62
8
 10
1732.865
 20
-7084.442
 30
-1390.026
 70
    32
  0
VERTEX
  8
T66SSILL
 62
8
 10
1746.254
 20
-7076.052
 30
-1390.051
 70
    32
  0
VERTEX
  8
T66SSILL
 62
8
 10
1749.814
 20
-7074.829
 30
-1390.061
 70
    32
  0
VERTEX
  8
T66SSILL
 62
8
 10
1755.948
 20
-7075.565
 30
-1390.089
 70
    32
  0
VERTEX
  8
T66SSILL
 62
8
 10
1762.399
 20
-7071.866
 30
-1390.102
 70
    32
  0
VERTEX
  8
T66SSILL
 62
8
 10
1769.938
 20
-7080.998
 30
-1390.164
 70
    32
  0
VERTEX
  8
T66SSILL
 62
8
 10
1764.990
 20
-7085.145
 30
-1390.159
 70
    32
  0
VERTEX
  8
T66SSILL
 62
8
 10
1765.201
 20
-7092.768
 30
-1390.186
 70
    32
  0
VERTEX
  8
T66SSILL
 62
8
 10
1762.963
 20
-7095.862
 30
-1390.188
 70
    32
  0
VERTEX
  8
T66SSILL
 62
8
 10
1744.573
 20
-7109.085
 30
-1390.160
 70
    32
  0
VERTEX
  8
T66SSILL
 62
8
 10
1735.112
 20
-7114.480
 30
-1390.140
 70
    32
  0
VERTEX
  8
T66SSILL
 62
8
 10
1729.512
 20
-7113.583
 30
-1390.114
 70
    32
  0
VERTEX
  8
T66SSILL
 62
8
 10
1719.570
 20
-7121.047
 30
-1390.100
 70
    32
  0
VERTEX
  8
T66SSILL
 62
8
 10
1726.024
 20
-7125.441
 30
-1390.142
 70
    32
  0
VERTEX
  8
T66SSILL
 62
8
 10
1753.218
 20
-7129.093
 30
-1390.264
 70
    32
  0
VERTEX
  8
T66SSILL
 62
8
 10
1751.895
 20
-7136.074
 30
-1390.283
 70
    32
  0
VERTEX
  8
T66SSILL
 62
8
 10
1713.238
 20
-7129.951
 30
-1390.115
 70
    32
  0
VERTEX
  8
T66SSILL
 62
8
 10
1704.685
 20
-7131.898
 30
-1390.104
 70
    32
  0
VERTEX
  8
T66SSILL
 62
8
 10
1672.488
 20
-7159.635
 30
-1390.126
 70
    32
  0
VERTEX
  8
T66SSILL
 62
8
 10
1671.695
 20
-7162.787
 30
-1390.135
 70
    32
  0
VERTEX
  8
T66SSILL
 62
8
 10
1681.437
 20
-7173.815
 30
-1390.190
 70
    32
  0
VERTEX
  8
T66SSILL
 62
8
 10
1676.034
 20
-7179.148
 30
-1390.196
 70
    32
  0
VERTEX
  8
T66SSILL
 62
8
 10
1665.658
 20
-7185.854
 30
-1390.196
 70
    32
  0
VERTEX
  8
T66SSILL
 62
8
 10
1654.682
 20
-7177.194
 30
-1390.146
 70
    32
  0
VERTEX
  8
T66SSILL
 62
8
 10
1650.286
 20
-7177.388
 30
-1390.137
 70
    32
  0
VERTEX
  8
T66SSILL
 62
8
 10
1644.782
 20
-7179.985
 30
-1390.134
 70
    32
  0
VERTEX
  8
T66SSILL
 62
8
 10
1597.806
 20
-7217.960
 30
-1390.596
 70
    32
  0
VERTEX
  8
T66SSILL
 62
8
 10
1589.048
 20
-7228.471
 30
-1390.688
 70
    32
  0
VERTEX
  8
T66SSILL
 62
8
 10
1584.834
 20
-7237.928
 30
-1390.738
 70
    32
  0
VERTEX
  8
T66SSILL
 62
8
 10
1582.540
 20
-7244.300
 30
-1390.766
 70
    32
  0
VERTEX
  8
T66SSILL
 62
8
 10
1581.345
 20
-7261.230
 30
-1390.798
 70
    32
  0
VERTEX
  8
T66SSILL
 62
8
 10
1588.041
 20
-7275.276
 30
-1390.755
 70
    32
  0
VERTEX
  8
T66SSILL
 62
8
 10
1595.392
 20
-7282.922
 30
-1390.698
 70
    32
  0
VERTEX
  8
T66SSILL
 62
8
 10
1631.318
 20
-7294.647
 30
-1390.472
 70
    32
  0
VERTEX
  8
T66SSILL
 62
8
 10
1629.541
 20
-7302.056
 30
-1390.492
 70
    32
  0
VERTEX
  8
T66SSILL
 62
8
 10
1595.497
 20
-7291.160
 30
-1390.708
 70
    32
  0
VERTEX
  8
T66SSILL
 62
8
 10
1606.250
 20
-7313.995
 30
-1390.639
 70
    32
  0
VERTEX
  8
T66SSILL
 62
8
 10
1611.079
 20
-7315.329
 30
-1390.597
 70
    32
  0
VERTEX
  8
T66SSILL
 62
8
 10
1612.908
 20
-7318.678
 30
-1390.585
 70
    32
  0
VERTEX
  8
T66SSILL
 62
8
 10
1613.560
 20
-7328.147
 30
-1390.591
 70
    32
  0
VERTEX
  8
T66SSILL
 62
8
 10
1649.022
 20
-7402.545
 30
-1390.853
 70
    32
  0
VERTEX
  8
T66SSILL
 62
8
 10
1652.052
 20
-7402.525
 30
-1390.859
 70
    32
  0
VERTEX
  8
T66SSILL
 62
8
 10
1666.383
 20
-7369.882
 30
-1390.784
 70
    32
  0
VERTEX
  8
T66SSILL
 62
8
 10
1677.128
 20
-7375.379
 30
-1390.824
 70
    32
  0
VERTEX
  8
T66SSILL
 62
8
 10
1663.456
 20
-7409.561
 30
-1390.905
 70
    32
  0
VERTEX
  8
T66SSILL
 62
8
 10
1661.607
 20
-7421.943
 30
-1390.940
 70
    32
  0
VERTEX
  8
T66SSILL
 62
8
 10
1662.231
 20
-7428.989
 30
-1390.964
 70
    32
  0
VERTEX
  8
T66SSILL
 62
8
 10
1677.607
 20
-7461.230
 30
-1391.116
 70
    32
  0
VERTEX
  8
T66SSILL
 62
8
 10
1675.840
 20
-7485.534
 30
-1391.035
 70
    32
  0
VERTEX
  8
T66SSILL
 62
8
 10
1683.986
 20
-7503.880
 30
-1390.978
 70
    32
  0
VERTEX
  8
T66SSILL
 62
8
 10
1694.880
 20
-7517.051
 30
-1390.984
 70
    32
  0
VERTEX
  8
T66SSILL
 62
8
 10
1701.622
 20
-7520.988
 30
-1391.006
 70
    32
  0
VERTEX
  8
T66SSILL
 62
8
 10
1696.741
 20
-7527.607
 30
-1390.949
 70
    32
  0
VERTEX
  8
T66SSILL
 62
8
 10
1676.406
 20
-7530.888
 30
-1391.343
 70
    32
  0
VERTEX
  8
T66SSILL
 62
8
 10
1675.632
 20
-7591.889
 30
-1391.809
 70
    32
  0
VERTEX
  8
T66SSILL
 62
8
 10
1732.673
 20
-7592.565
 30
-1390.874
 70
    32
  0
VERTEX
  8
T66SSILL
 62
8
 10
1730.622
 20
-7599.737
 30
-1390.831
 70
    32
  0
VERTEX
  8
T66SSILL
 62
8
 10
1675.855
 20
-7599.072
 30
-1391.853
 70
    32
  0
VERTEX
  8
T66SSILL
 62
8
 10
1675.659
 20
-7612.279
 30
-1391.905
 70
    32
  0
VERTEX
  8
T66SSILL
 62
8
 10
1682.328
 20
-7622.845
 30
-1391.796
 70
    32
  0
VERTEX
  8
T66SSILL
 62
8
 10
1681.368
 20
-7625.278
 30
-1391.812
 70
    32
  0
VERTEX
  8
T66SSILL
 62
8
 10
1691.944
 20
-7638.801
 30
-1391.605
 70
    32
  0
VERTEX
  8
T66SSILL
 62
8
 10
1696.521
 20
-7649.295
 30
-1391.529
 70
    32
  0
VERTEX
  8
T66SSILL
 62
8
 10
1688.271
 20
-7653.453
 30
-1391.701
 70
    32
  0
VERTEX
  8
T66SSILL
 62
8
 10
1675.334
 20
-7634.286
 30
-1391.844
 70
    32
  0
VERTEX
  8
T66SSILL
 62
8
 10
1675.181
 20
-7644.669
 30
-1391.814
 70
    32
  0
VERTEX
  8
T66SSILL
 62
8
 10
1679.201
 20
-7650.354
 30
-1391.775
 70
    32
  0
VERTEX
  8
T66SSILL
 62
8
 10
1674.738
 20
-7660.527
 30
-1391.770
 70
    32
  0
VERTEX
  8
T66SSILL
 62
8
 10
1674.104
 20
-7717.368
 30
-1391.601
 70
    32
  0
VERTEX
  8
T66SSILL
 62
8
 10
1677.098
 20
-7726.775
 30
-1391.562
 70
    32
  0
VERTEX
  8
T66SSILL
 62
8
 10
1675.940
 20
-7734.917
 30
-1391.545
 70
    32
  0
VERTEX
  8
T66SSILL
 62
8
 10
1735.918
 20
-7809.712
 30
-1390.933
 70
    32
  0
VERTEX
  8
T66SSILL
 62
8
 10
1737.874
 20
-7808.507
 30
-1390.901
 70
    32
  0
VERTEX
  8
T66SSILL
 62
8
 10
1742.804
 20
-7811.239
 30
-1390.820
 70
    32
  0
VERTEX
  8
T66SSILL
 62
8
 10
1745.669
 20
-7817.872
 30
-1390.774
 70
    32
  0
VERTEX
  8
T66SSILL
 62
8
 10
1744.503
 20
-7820.463
 30
-1390.793
 70
    32
  0
VERTEX
  8
T66SSILL
 62
8
 10
1800.497
 20
-7890.530
 30
-1389.964
 70
    32
  0
VERTEX
  8
T66SSILL
 62
8
 10
1805.581
 20
-7889.881
 30
-1389.997
 70
    32
  0
VERTEX
  8
T66SSILL
 62
8
 10
1809.749
 20
-7901.449
 30
-1390.003
 70
    32
  0
VERTEX
  8
T66SSILL
 62
8
 10
1830.223
 20
-7925.994
 30
-1390.097
 70
    32
  0
VERTEX
  8
T66SSILL
 62
8
 10
1869.202
 20
-8002.775
 30
-1390.259
 70
    32
  0
VERTEX
  8
T66SSILL
 62
8
 10
1860.704
 20
-8006.670
 30
-1390.211
 70
    32
  0
VERTEX
  8
T66SSILL
 62
8
 10
1822.664
 20
-7928.334
 30
-1390.055
 70
    32
  0
VERTEX
  8
T66SSILL
 62
8
 10
1674.271
 20
-7744.304
 30
-1391.498
 70
    32
  0
VERTEX
  8
T66SSILL
 62
8
 10
1671.525
 20
-7747.718
 30
-1391.434
 70
    32
  0
VERTEX
  8
T66SSILL
 62
8
 10
1670.968
 20
-7777.650
 30
-1391.306
 70
    32
  0
VERTEX
  8
T66SSILL
 62
8
 10
1679.657
 20
-7788.543
 30
-1391.366
 70
    32
  0
VERTEX
  8
T66SSILL
 62
8
 10
1702.754
 20
-7869.254
 30
-1390.997
 70
    32
  0
VERTEX
  8
T66SSILL
 62
8
 10
1700.114
 20
-7881.199
 30
-1390.977
 70
    32
  0
VERTEX
  8
T66SSILL
 62
8
 10
1702.291
 20
-7885.389
 30
-1390.952
 70
    32
  0
VERTEX
  8
T66SSILL
 62
8
 10
1711.860
 20
-7863.500
 30
-1390.962
 70
    32
  0
VERTEX
  8
T66SSILL
 62
8
 10
1721.117
 20
-7867.986
 30
-1390.896
 70
    32
  0
VERTEX
  8
T66SSILL
 62
8
 10
1706.045
 20
-7899.982
 30
-1390.888
 70
    32
  0
VERTEX
  8
T66SSILL
 62
8
 10
1722.621
 20
-7958.852
 30
-1390.621
 70
    32
  0
VERTEX
  8
T66SSILL
 62
8
 10
1724.940
 20
-7961.740
 30
-1390.599
 70
    32
  0
VERTEX
  8
T66SSILL
 62
8
 10
1729.922
 20
-7963.345
 30
-1390.583
 70
    32
  0
VERTEX
  8
T66SSILL
 62
8
 10
1742.733
 20
-7959.689
 30
-1390.643
 70
    32
  0
VERTEX
  8
T66SSILL
 62
8
 10
1745.190
 20
-7966.509
 30
-1390.634
 70
    32
  0
VERTEX
  8
T66SSILL
 62
8
 10
1742.508
 20
-7967.916
 30
-1390.620
 70
    32
  0
VERTEX
  8
T66SSILL
 62
8
 10
1746.766
 20
-7976.912
 30
-1390.611
 70
    32
  0
VERTEX
  8
T66SSILL
 62
8
 10
1730.658
 20
-7984.274
 30
-1390.527
 70
    32
  0
VERTEX
  8
T66SSILL
 62
8
 10
1741.325
 20
-8021.583
 30
-1390.465
 70
    32
  0
VERTEX
  8
T66SSILL
 62
8
 10
1743.229
 20
-8023.616
 30
-1388.078
 70
    32
  0
VERTEX
  8
T66SSILL
 62
8
 10
1758.736
 20
-8043.704
 30
-1388.026
 70
    32
  0
VERTEX
  8
T66SSILL
 62
8
 10
1759.951
 20
-8045.278
 30
-1387.608
 70
    32
  0
VERTEX
  8
T66SSILL
 62
8
 10
1769.641
 20
-8050.642
 30
-1385.152
 70
    32
  0
VERTEX
  8
T66SSILL
 62
8
 10
1772.762
 20
-8050.963
 30
-1384.532
 70
    32
  0
VERTEX
  8
T66SSILL
 62
8
 10
1775.744
 20
-8051.270
 30
-1384.557
 70
    32
  0
VERTEX
  8
T66SSILL
 62
8
 10
1777.013
 20
-8051.401
 30
-1384.071
 70
    32
  0
VERTEX
  8
T66SSILL
 62
8
 10
1787.092
 20
-8052.439
 30
-1382.898
 70
    32
  0
VERTEX
  8
T66SSILL
 62
8
 10
1788.666
 20
-8052.601
 30
-1382.560
 70
    32
  0
VERTEX
  8
T66SSILL
 62
8
 10
1789.692
 20
-8052.706
 30
-1383.315
 70
    32
  0
VERTEX
  8
T66SSILL
 62
8
 10
1795.073
 20
-8053.260
 30
-1387.811
 70
    32
  0
VERTEX
  8
T66SSILL
 62
8
 10
1797.303
 20
-8053.490
 30
-1387.909
 70
    32
  0
VERTEX
  8
T66SSILL
 62
8
 10
1801.374
 20
-8052.305
 30
-1388.103
 70
    32
  0
VERTEX
  8
T66SSILL
 62
8
 10
1802.340
 20
-8052.024
 30
-1387.987
 70
    32
  0
VERTEX
  8
T66SSILL
 62
8
 10
1802.899
 20
-8051.861
 30
-1389.195
 70
    32
  0
VERTEX
  8
T66SSILL
 62
8
 10
1803.720
 20
-8051.622
 30
-1390.098
 70
    32
  0
VERTEX
  8
T66SSILL
 62
8
 10
1805.762
 20
-8051.028
 30
-1389.771
 70
    32
  0
VERTEX
  8
T66SSILL
 62
8
 10
1813.727
 20
-8048.710
 30
-1391.193
 70
    32
  0
VERTEX
  8
T66SSILL
 62
8
 10
1818.378
 20
-8046.920
 30
-1392.068
 70
    32
  0
VERTEX
  8
T66SSILL
 62
8
 10
1827.650
 20
-8043.351
 30
-1390.641
 70
    32
  0
VERTEX
  8
T66SSILL
 62
8
 10
1830.556
 20
-8042.233
 30
-1390.367
 70
    32
  0
VERTEX
  8
T66SSILL
 62
8
 10
1832.119
 20
-8041.631
 30
-1390.139
 70
    32
  0
VERTEX
  8
T66SSILL
 62
8
 10
1835.647
 20
-8040.273
 30
-1389.381
 70
    32
  0
VERTEX
  8
T66SSILL
 62
8
 10
1845.305
 20
-8036.556
 30
-1389.418
 70
    32
  0
VERTEX
  8
T66SSILL
 62
8
 10
1851.548
 20
-8035.756
 30
-1389.451
 70
    32
  0
VERTEX
  8
T66SSILL
 62
8
 10
1851.752
 20
-8035.730
 30
-1389.449
 70
    32
  0
VERTEX
  8
T66SSILL
 62
8
 10
1854.694
 20
-8044.548
 30
-1389.451
 70
    32
  0
VERTEX
  8
T66SSILL
 62
8
 10
1847.307
 20
-8047.428
 30
-1389.495
 70
    32
  0
VERTEX
  8
T66SSILL
 62
8
 10
1840.769
 20
-8049.977
 30
-1389.471
 70
    32
  0
VERTEX
  8
T66SSILL
 62
8
 10
1839.384
 20
-8050.516
 30
-1389.768
 70
    32
  0
VERTEX
  8
T66SSILL
 62
8
 10
1834.970
 20
-8052.237
 30
-1390.414
 70
    32
  0
VERTEX
  8
T66SSILL
 62
8
 10
1826.730
 20
-8055.450
 30
-1391.194
 70
    32
  0
VERTEX
  8
T66SSILL
 62
8
 10
1823.104
 20
-8056.863
 30
-1391.752
 70
    32
  0
VERTEX
  8
T66SSILL
 62
8
 10
1821.794
 20
-8057.374
 30
-1391.505
 70
    32
  0
VERTEX
  8
T66SSILL
 62
8
 10
1821.455
 20
-8060.436
 30
-1391.141
 70
    32
  0
VERTEX
  8
T66SSILL
 62
8
 10
1821.263
 20
-8062.173
 30
-1391.639
 70
    32
  0
VERTEX
  8
T66SSILL
 62
8
 10
1808.896
 20
-8064.526
 30
-1393.272
 70
    32
  0
VERTEX
  8
T66SSILL
 62
8
 10
1803.623
 20
-8065.529
 30
-1387.566
 70
    32
  0
VERTEX
  8
T66SSILL
 62
8
 10
1803.403
 20
-8065.571
 30
-1387.095
 70
    32
  0
VERTEX
  8
T66SSILL
 62
8
 10
1797.755
 20
-8066.645
 30
-1387.807
 70
    32
  0
VERTEX
  8
T66SSILL
 62
8
 10
1795.544
 20
-8067.066
 30
-1387.704
 70
    32
  0
VERTEX
  8
T66SSILL
 62
8
 10
1793.821
 20
-8067.394
 30
-1386.246
 70
    32
  0
VERTEX
  8
T66SSILL
 62
8
 10
1793.583
 20
-8067.439
 30
-1386.070
 70
    32
  0
VERTEX
  8
T66SSILL
 62
8
 10
1787.642
 20
-8067.586
 30
-1381.688
 70
    32
  0
VERTEX
  8
T66SSILL
 62
8
 10
1777.540
 20
-8067.835
 30
-1383.770
 70
    32
  0
VERTEX
  8
T66SSILL
 62
8
 10
1776.666
 20
-8068.297
 30
-1383.918
 70
    32
  0
VERTEX
  8
T66SSILL
 62
8
 10
1774.413
 20
-8069.489
 30
-1384.164
 70
    32
  0
VERTEX
  8
T66SSILL
 62
8
 10
1771.046
 20
-8071.270
 30
-1385.350
 70
    32
  0
VERTEX
  8
T66SSILL
 62
8
 10
1766.981
 20
-8069.073
 30
-1386.997
 70
    32
  0
VERTEX
  8
T66SSILL
 62
8
 10
1765.325
 20
-8068.177
 30
-1386.885
 70
    32
  0
VERTEX
  8
T66SSILL
 62
8
 10
1759.499
 20
-8074.693
 30
-1387.792
 70
    32
  0
VERTEX
  8
T66SSILL
 62
8
 10
1757.065
 20
-8076.728
 30
-1390.374
 70
    32
  0
VERTEX
  8
T66SSILL
 62
8
 10
1759.680
 20
-8085.406
 30
-1390.360
 70
    32
  0
VERTEX
  8
T66SSILL
 62
8
 10
1763.917
 20
-8087.335
 30
-1390.371
 70
    32
  0
VERTEX
  8
T66SSILL
 62
8
 10
1762.279
 20
-8093.321
 30
-1390.348
 70
    32
  0
VERTEX
  8
T66SSILL
 62
8
 10
1769.552
 20
-8117.992
 30
-1390.308
 70
    32
  0
VERTEX
  8
T66SSILL
 62
8
 10
1784.032
 20
-8130.555
 30
-1390.330
 70
    32
  0
VERTEX
  8
T66SSILL
 62
8
 10
1799.366
 20
-8138.901
 30
-1390.367
 70
    32
  0
VERTEX
  8
T66SSILL
 62
8
 10
1806.234
 20
-8147.741
 30
-1390.369
 70
    32
  0
VERTEX
  8
T66SSILL
 62
8
 10
1808.286
 20
-8154.597
 30
-1390.358
 70
    32
  0
VERTEX
  8
T66SSILL
 62
8
 10
1808.286
 20
-8154.597
 30
0.000
 70
    32
  0
VERTEX
  8
T66SSILL
 62
8
 10
1810.474
 20
-8157.903
 30
0.000
 70
    32
  0
VERTEX
  8
T66SSILL
 62
8
 10
1816.965
 20
-8163.190
 30
0.000
 70
    32
  0
VERTEX
  8
T66SSILL
 62
8
 10
1824.207
 20
-8175.239
 30
0.000
 70
    32
  0
VERTEX
  8
T66SSILL
 62
8
 10
1825.420
 20
-8176.176
 30
0.000
 70
    32
  0
VERTEX
  8
T66SSILL
 62
8
 10
1841.732
 20
-8184.019
 30
0.000
 70
    32
  0
VERTEX
  8
T66SSILL
 62
8
 10
1844.224
 20
-8186.644
 30
0.000
 70
    32
  0
VERTEX
  8
T66SSILL
 62
8
 10
1862.297
 20
-8185.271
 30
0.000
 70
    32
  0
VERTEX
  8
T66SSILL
 62
8
 10
1875.679
 20
-8182.212
 30
0.000
 70
    32
  0
VERTEX
  8
T66SSILL
 62
8
 10
1889.241
 20
-8177.640
 30
0.000
 70
    32
  0
VERTEX
  8
T66SSILL
 62
8
 10
1893.882
 20
-8179.413
 30
0.000
 70
    32
  0
VERTEX
  8
T66SSILL
 62
8
 10
1902.019
 20
-8176.585
 30
0.000
 70
    32
  0
VERTEX
  8
T66SSILL
 62
8
 10
1911.953
 20
-8173.058
 30
0.000
 70
    32
  0
VERTEX
  8
T66SSILL
 62
8
 10
1912.470
 20
-8178.402
 30
0.000
 70
    32
  0
VERTEX
  8
T66SSILL
 62
8
 10
1915.518
 20
-8193.336
 30
0.000
 70
    32
  0
VERTEX
  8
T66SSILL
 62
8
 10
1911.391
 20
-8199.466
 30
0.000
 70
    32
  0
VERTEX
  8
T66SSILL
 62
8
 10
1899.392
 20
-8208.672
 30
0.000
 70
    32
  0
VERTEX
  8
T66SSILL
 62
8
 10
1888.069
 20
-8202.255
 30
0.000
 70
    32
  0
VERTEX
  8
T66SSILL
 62
8
 10
1884.742
 20
-8199.604
 30
0.000
 70
    32
  0
VERTEX
  8
T66SSILL
 62
8
 10
1873.111
 20
-8194.346
 30
0.000
 70
    32
  0
VERTEX
  8
T66SSILL
 62
8
 10
1857.515
 20
-8196.379
 30
0.000
 70
    32
  0
VERTEX
  8
T66SSILL
 62
8
 10
1855.087
 20
-8198.901
 30
0.000
 70
    32
  0
VERTEX
  8
T66SSILL
 62
8
 10
1850.794
 20
-8199.837
 30
0.000
 70
    32
  0
VERTEX
  8
T66SSILL
 62
8
 10
1851.907
 20
-8201.730
 30
0.000
 70
    32
  0
VERTEX
  8
T66SSILL
 62
8
 10
1862.152
 20
-8213.520
 30
0.000
 70
    32
  0
VERTEX
  8
T66SSILL
 62
8
 10
1853.497
 20
-8222.041
 30
0.000
 70
    32
  0
VERTEX
  8
T66SSILL
 62
8
 10
1829.911
 20
-8199.694
 30
-1390.106
 70
    32
  0
VERTEX
  8
T66SSILL
 62
8
 10
1808.143
 20
-8173.870
 30
-1390.304
 70
    32
  0
VERTEX
  8
T66SSILL
 62
8
 10
1805.926
 20
-8192.092
 30
-1390.244
 70
    32
  0
VERTEX
  8
T66SSILL
 62
8
 10
1806.434
 20
-8202.074
 30
-1390.219
 70
    32
  0
VERTEX
  8
T66SSILL
 62
8
 10
1818.727
 20
-8226.906
 30
-1390.198
 70
    32
  0
VERTEX
  8
T66SSILL
 62
8
 10
1847.469
 20
-8264.611
 30
-1389.983
 70
    32
  0
VERTEX
  8
T66SSILL
 62
8
 10
1854.957
 20
-8264.720
 30
-1390.023
 70
    32
  0
VERTEX
  8
T66SSILL
 62
8
 10
1859.326
 20
-8279.409
 30
-1390.037
 70
    32
  0
VERTEX
  8
T66SSILL
 62
8
 10
1907.980
 20
-8344.031
 30
-1390.258
 70
    32
  0
VERTEX
  8
T66SSILL
 62
8
 10
1912.430
 20
-8345.804
 30
-1390.281
 70
    32
  0
VERTEX
  8
T66SSILL
 62
8
 10
1917.211
 20
-8350.279
 30
-1390.303
 70
    32
  0
VERTEX
  8
T66SSILL
 62
8
 10
1917.238
 20
-8355.707
 30
-1390.300
 70
    32
  0
VERTEX
  8
T66SSILL
 62
8
 10
1962.950
 20
-8416.585
 30
-1389.933
 70
    32
  0
VERTEX
  8
T66SSILL
 62
8
 10
1970.083
 20
-8420.548
 30
-1389.928
 70
    32
  0
VERTEX
  8
T66SSILL
 62
8
 10
1973.147
 20
-8424.311
 30
-1389.903
 70
    32
  0
VERTEX
  8
T66SSILL
 62
8
 10
1974.755
 20
-8431.312
 30
-1389.834
 70
    32
  0
VERTEX
  8
T66SSILL
 62
8
 10
1985.174
 20
-8445.632
 30
-1389.731
 70
    32
  0
VERTEX
  8
T66SSILL
 62
8
 10
1978.834
 20
-8450.245
 30
-1389.644
 70
    32
  0
VERTEX
  8
T66SSILL
 62
8
 10
1968.026
 20
-8435.991
 30
-1389.744
 70
    32
  0
VERTEX
  8
T66SSILL
 62
8
 10
1958.957
 20
-8430.713
 30
-1389.753
 70
    32
  0
VERTEX
  8
T66SSILL
 62
8
 10
1958.158
 20
-8422.578
 30
-1389.839
 70
    32
  0
VERTEX
  8
T66SSILL
 62
8
 10
1911.708
 20
-8361.584
 30
-1390.265
 70
    32
  0
VERTEX
  8
T66SSILL
 62
8
 10
1907.206
 20
-8360.937
 30
-1390.243
 70
    32
  0
VERTEX
  8
T66SSILL
 62
8
 10
1904.109
 20
-8358.178
 30
-1390.228
 70
    32
  0
VERTEX
  8
T66SSILL
 62
8
 10
1902.144
 20
-8349.039
 30
-1390.224
 70
    32
  0
VERTEX
  8
T66SSILL
 62
8
 10
1852.662
 20
-8283.278
 30
-1389.999
 70
    32
  0
VERTEX
  8
T66SSILL
 62
8
 10
1849.883
 20
-8282.903
 30
-1389.984
 70
    32
  0
VERTEX
  8
T66SSILL
 62
8
 10
1917.207
 20
-8714.305
 30
-1388.307
 70
    32
  0
VERTEX
  8
T66SSILL
 62
8
 10
1979.181
 20
-8852.040
 30
-1387.944
 70
    32
  0
VERTEX
  8
T66SSILL
 62
8
 10
2002.498
 20
-8871.358
 30
-1387.791
 70
    32
  0
VERTEX
  8
T66SSILL
 62
8
 10
2004.834
 20
-8870.259
 30
-1384.000
 70
    32
  0
VERTEX
  8
T66SSILL
 62
8
 10
2011.765
 20
-8868.846
 30
-1384.000
 70
    32
  0
VERTEX
  8
T66SSILL
 62
8
 10
2020.138
 20
-8857.276
 30
-1384.000
 70
    32
  0
VERTEX
  8
T66SSILL
 62
8
 10
2019.958
 20
-8848.514
 30
-1381.000
 70
    32
  0
VERTEX
  8
T66SSILL
 62
8
 10
2020.522
 20
-8848.414
 30
-1381.000
 70
    32
  0
VERTEX
  8
T66SSILL
 62
8
 10
2045.721
 20
-8760.725
 30
-1381.000
 70
    32
  0
VERTEX
  8
T66SSILL
 62
8
 10
2044.761
 20
-8756.990
 30
-1381.000
 70
    32
  0
VERTEX
  8
T66SSILL
 62
8
 10
2037.876
 20
-8745.090
 30
-1381.000
 70
    32
  0
VERTEX
  8
T66SSILL
 62
8
 10
2038.214
 20
-8744.944
 30
-1381.000
 70
    32
  0
VERTEX
  8
T66SSILL
 62
8
 10
2026.067
 20
-8721.171
 30
-1381.000
 70
    32
  0
VERTEX
  8
T66SSILL
 62
8
 10
2024.653
 20
-8711.048
 30
-1381.000
 70
    32
  0
VERTEX
  8
T66SSILL
 62
8
 10
2020.639
 20
-8690.708
 30
-1381.000
 70
    32
  0
VERTEX
  8
T66SSILL
 62
8
 10
2021.838
 20
-8680.244
 30
-1381.000
 70
    32
  0
VERTEX
  8
T66SSILL
 62
8
 10
2021.962
 20
-8678.946
 30
-1381.000
 70
    32
  0
VERTEX
  8
T66SSILL
 62
8
 10
2021.146
 20
-8666.282
 30
-1381.000
 70
    32
  0
VERTEX
  8
T66SSILL
 62
8
 10
2021.637
 20
-8665.882
 30
-1381.000
 70
    32
  0
VERTEX
  8
T66SSILL
 62
8
 10
2022.199
 20
-8659.535
 30
-1381.000
 70
    32
  0
VERTEX
  8
T66SSILL
 62
8
 10
2018.606
 20
-8631.848
 30
-1381.000
 70
    32
  0
VERTEX
  8
T66SSILL
 62
8
 10
2031.976
 20
-8626.578
 30
-1381.000
 70
    32
  0
VERTEX
  8
T66SSILL
 62
8
 10
2035.032
 20
-8648.462
 30
-1381.000
 70
    32
  0
VERTEX
  8
T66SSILL
 62
8
 10
2035.126
 20
-8648.427
 30
-1381.000
 70
    32
  0
VERTEX
  8
T66SSILL
 62
8
 10
2040.591
 20
-8652.508
 30
-1381.000
 70
    32
  0
VERTEX
  8
T66SSILL
 62
8
 10
2044.292
 20
-8658.876
 30
-1381.000
 70
    32
  0
VERTEX
  8
T66SSILL
 62
8
 10
2040.654
 20
-8666.570
 30
-1381.000
 70
    32
  0
VERTEX
  8
T66SSILL
 62
8
 10
2036.712
 20
-8670.103
 30
-1381.000
 70
    32
  0
VERTEX
  8
T66SSILL
 62
8
 10
2032.003
 20
-8677.301
 30
-1381.000
 70
    32
  0
VERTEX
  8
T66SSILL
 62
8
 10
2032.580
 20
-8684.680
 30
-1381.000
 70
    32
  0
VERTEX
  8
T66SSILL
 62
8
 10
2033.616
 20
-8690.465
 30
-1381.000
 70
    32
  0
VERTEX
  8
T66SSILL
 62
8
 10
2036.732
 20
-8707.858
 30
-1381.000
 70
    32
  0
VERTEX
  8
T66SSILL
 62
8
 10
2039.191
 20
-8724.380
 30
-1381.000
 70
    32
  0
VERTEX
  8
T66SSILL
 62
8
 10
2047.919
 20
-8739.473
 30
-1381.000
 70
    32
  0
VERTEX
  8
T66SSILL
 62
8
 10
2050.666
 20
-8738.976
 30
-1381.000
 70
    32
  0
VERTEX
  8
T66SSILL
 62
8
 10
2051.408
 20
-8738.622
 30
-1381.000
 70
    32
  0
VERTEX
  8
T66SSILL
 62
8
 10
2052.273
 20
-8737.923
 30
-1381.000
 70
    32
  0
VERTEX
  8
T66SSILL
 62
8
 10
2054.354
 20
-8730.683
 30
-1381.000
 70
    32
  0
VERTEX
  8
T66SSILL
 62
8
 10
2051.315
 20
-8720.569
 30
-1381.000
 70
    32
  0
VERTEX
  8
T66SSILL
 62
8
 10
2053.243
 20
-8711.797
 30
-1381.000
 70
    32
  0
VERTEX
  8
T66SSILL
 62
8
 10
2068.283
 20
-8715.797
 30
-1381.000
 70
    32
  0
VERTEX
  8
T66SSILL
 62
8
 10
2035.625
 20
-8849.305
 30
-1381.000
 70
    32
  0
VERTEX
  8
T66SSILL
 62
8
 10
2038.041
 20
-8849.984
 30
-1381.000
 70
    32
  0
VERTEX
  8
T66SSILL
 62
8
 10
2035.746
 20
-8862.609
 30
-1384.000
 70
    32
  0
VERTEX
  8
T66SSILL
 62
8
 10
2036.733
 20
-8864.049
 30
-1384.000
 70
    32
  0
VERTEX
  8
T66SSILL
 62
8
 10
2036.471
 20
-8872.987
 30
-1384.000
 70
    32
  0
VERTEX
  8
T66SSILL
 62
8
 10
2046.619
 20
-8876.356
 30
-1384.000
 70
    32
  0
VERTEX
  8
T66SSILL
 62
8
 10
2043.050
 20
-8886.294
 30
-1384.000
 70
    32
  0
VERTEX
  8
T66SSILL
 62
8
 10
2023.916
 20
-8881.740
 30
-1385.000
 70
    32
  0
VERTEX
  8
T66SSILL
 62
8
 10
2012.220
 20
-8880.108
 30
-1385.000
 70
    32
  0
VERTEX
  8
T66SSILL
 62
8
 10
2005.656
 20
-8883.352
 30
-1385.000
 70
    32
  0
VERTEX
  8
T66SSILL
 62
8
 10
2000.081
 20
-8881.131
 30
-1385.000
 70
    32
  0
VERTEX
  8
T66SSILL
 62
8
 10
1993.607
 20
-8882.948
 30
-1387.853
 70
    32
  0
VERTEX
  8
T66SSILL
 62
8
 10
2103.618
 20
-9131.993
 30
-1387.217
 70
    32
  0
VERTEX
  8
T66SSILL
 62
8
 10
2118.420
 20
-9147.000
 30
-1387.166
 70
    32
  0
VERTEX
  8
T66SSILL
 62
8
 10
2125.706
 20
-9150.959
 30
-1387.169
 70
    32
  0
VERTEX
  8
T66SSILL
 62
8
 10
2149.306
 20
-9154.873
 30
-1387.252
 70
    32
  0
VERTEX
  8
T66SSILL
 62
8
 10
2147.424
 20
-9166.402
 30
-1387.148
 70
    32
  0
VERTEX
  8
T66SSILL
 62
8
 10
2131.296
 20
-9160.685
 30
-1387.116
 70
    32
  0
VERTEX
  8
T66SSILL
 62
8
 10
2118.323
 20
-9160.708
 30
-1387.052
 70
    32
  0
VERTEX
  8
T66SSILL
 62
8
 10
2116.471
 20
-9162.799
 30
-1387.026
 70
    32
  0
VERTEX
  8
T66SSILL
 62
8
 10
2152.932
 20
-9242.219
 30
-1386.635
 70
    32
  0
VERTEX
  8
T66SSILL
 62
8
 10
2184.911
 20
-9277.341
 30
-1386.744
 70
    32
  0
VERTEX
  8
T66SSILL
 62
8
 10
2185.497
 20
-9277.795
 30
-1384.000
 70
    32
  0
VERTEX
  8
T66SSILL
 62
8
 10
2193.815
 20
-9283.850
 30
-1384.000
 70
    32
  0
VERTEX
  8
T66SSILL
 62
8
 10
2202.750
 20
-9286.057
 30
-1384.000
 70
    32
  0
VERTEX
  8
T66SSILL
 62
8
 10
2207.692
 20
-9292.062
 30
-1384.000
 70
    32
  0
VERTEX
  8
T66SSILL
 62
8
 10
2217.037
 20
-9309.526
 30
-1384.000
 70
    32
  0
VERTEX
  8
T66SSILL
 62
8
 10
2224.363
 20
-9331.464
 30
-1384.000
 70
    32
  0
VERTEX
  8
T66SSILL
 62
8
 10
2225.352
 20
-9333.996
 30
-1384.000
 70
    32
  0
VERTEX
  8
T66SSILL
 62
8
 10
2225.502
 20
-9334.669
 30
-1384.000
 70
    32
  0
VERTEX
  8
T66SSILL
 62
8
 10
2232.424
 20
-9348.657
 30
-1384.000
 70
    32
  0
VERTEX
  8
T66SSILL
 62
8
 10
2240.626
 20
-9361.194
 30
-1384.000
 70
    32
  0
VERTEX
  8
T66SSILL
 62
8
 10
2246.907
 20
-9375.264
 30
-1384.000
 70
    32
  0
VERTEX
  8
T66SSILL
 62
8
 10
2247.826
 20
-9378.767
 30
-1384.000
 70
    32
  0
VERTEX
  8
T66SSILL
 62
8
 10
2254.644
 20
-9392.290
 30
-1384.000
 70
    32
  0
VERTEX
  8
T66SSILL
 62
8
 10
2257.527
 20
-9399.287
 30
-1384.000
 70
    32
  0
VERTEX
  8
T66SSILL
 62
8
 10
2264.324
 20
-9404.850
 30
-1384.000
 70
    32
  0
VERTEX
  8
T66SSILL
 62
8
 10
2272.850
 20
-9417.770
 30
-1384.000
 70
    32
  0
VERTEX
  8
T66SSILL
 62
8
 10
2286.348
 20
-9432.950
 30
-1384.000
 70
    32
  0
VERTEX
  8
T66SSILL
 62
8
 10
2291.368
 20
-9449.716
 30
-1384.000
 70
    32
  0
VERTEX
  8
T66SSILL
 62
8
 10
2287.009
 20
-9455.944
 30
-1384.000
 70
    32
  0
VERTEX
  8
T66SSILL
 62
8
 10
2277.838
 20
-9443.896
 30
-1384.000
 70
    32
  0
VERTEX
  8
T66SSILL
 62
8
 10
2269.404
 20
-9435.528
 30
-1384.000
 70
    32
  0
VERTEX
  8
T66SSILL
 62
8
 10
2262.135
 20
-9430.401
 30
-1384.000
 70
    32
  0
VERTEX
  8
T66SSILL
 62
8
 10
2257.298
 20
-9430.362
 30
-1384.000
 70
    32
  0
VERTEX
  8
T66SSILL
 62
8
 10
2246.283
 20
-9424.870
 30
-1384.000
 70
    32
  0
VERTEX
  8
T66SSILL
 62
8
 10
2237.615
 20
-9398.429
 30
-1384.000
 70
    32
  0
VERTEX
  8
T66SSILL
 62
8
 10
2231.142
 20
-9386.293
 30
-1384.000
 70
    32
  0
VERTEX
  8
T66SSILL
 62
8
 10
2219.172
 20
-9363.372
 30
-1384.000
 70
    32
  0
VERTEX
  8
T66SSILL
 62
8
 10
2206.582
 20
-9343.312
 30
-1384.000
 70
    32
  0
VERTEX
  8
T66SSILL
 62
8
 10
2204.952
 20
-9338.397
 30
-1384.000
 70
    32
  0
VERTEX
  8
T66SSILL
 62
8
 10
2201.530
 20
-9328.589
 30
-1384.000
 70
    32
  0
VERTEX
  8
T66SSILL
 62
8
 10
2197.428
 20
-9328.998
 30
-1384.000
 70
    32
  0
VERTEX
  8
T66SSILL
 62
8
 10
2196.081
 20
-9322.152
 30
-1384.000
 70
    32
  0
VERTEX
  8
T66SSILL
 62
8
 10
2192.667
 20
-9314.782
 30
-1384.000
 70
    32
  0
VERTEX
  8
T66SSILL
 62
8
 10
2192.209
 20
-9308.892
 30
-1384.000
 70
    32
  0
VERTEX
  8
T66SSILL
 62
8
 10
2188.558
 20
-9298.274
 30
-1384.000
 70
    32
  0
VERTEX
  8
T66SSILL
 62
8
 10
2185.233
 20
-9293.642
 30
-1384.000
 70
    32
  0
VERTEX
  8
T66SSILL
 62
8
 10
2178.608
 20
-9285.040
 30
-1384.000
 70
    32
  0
VERTEX
  8
T66SSILL
 62
8
 10
2178.368
 20
-9284.647
 30
-1386.683
 70
    32
  0
VERTEX
  8
T66SSILL
 62
8
 10
2158.523
 20
-9264.284
 30
-1386.612
 70
    32
  0
VERTEX
  8
T66SSILL
 62
8
 10
2142.397
 20
-9244.277
 30
-1386.569
 70
    32
  0
VERTEX
  8
T66SSILL
 62
8
 10
2125.985
 20
-9205.965
 30
-1386.735
 70
    32
  0
VERTEX
  8
T66SSILL
 62
8
 10
2122.896
 20
-9204.832
 30
-1386.739
 70
    32
  0
VERTEX
  8
T66SSILL
 62
8
 10
2118.482
 20
-9207.574
 30
-1386.717
 70
    32
  0
VERTEX
  8
T66SSILL
 62
8
 10
2105.778
 20
-9250.704
 30
-1386.422
 70
    32
  0
VERTEX
  8
T66SSILL
 62
8
 10
2104.691
 20
-9264.692
 30
-1386.330
 70
    32
  0
VERTEX
  8
T66SSILL
 62
8
 10
2107.649
 20
-9281.291
 30
-1386.223
 70
    32
  0
VERTEX
  8
T66SSILL
 62
8
 10
2169.011
 20
-9444.225
 30
-1386.260
 70
    32
  0
VERTEX
  8
T66SSILL
 62
8
 10
2196.966
 20
-9470.444
 30
-1386.306
 70
    32
  0
VERTEX
  8
T66SSILL
 62
8
 10
2214.957
 20
-9477.094
 30
-1386.402
 70
    32
  0
VERTEX
  8
T66SSILL
 62
8
 10
2223.959
 20
-9477.871
 30
-1386.457
 70
    32
  0
VERTEX
  8
T66SSILL
 62
8
 10
2225.541
 20
-9486.691
 30
-1386.474
 70
    32
  0
VERTEX
  8
T66SSILL
 62
8
 10
2205.609
 20
-9485.768
 30
-1386.326
 70
    32
  0
VERTEX
  8
T66SSILL
 62
8
 10
2183.867
 20
-9478.569
 30
-1386.202
 70
    32
  0
VERTEX
  8
T66SSILL
 62
8
 10
2182.355
 20
-9481.281
 30
-1386.185
 70
    32
  0
VERTEX
  8
T66SSILL
 62
8
 10
2254.876
 20
-9678.837
 30
-1386.945
 70
    32
  0
VERTEX
  8
T66SSILL
 62
8
 10
2260.634
 20
-9683.679
 30
-1386.994
 70
    32
  0
VERTEX
  8
T66SSILL
 62
8
 10
2271.806
 20
-9700.864
 30
-1387.099
 70
    32
  0
VERTEX
  8
T66SSILL
 62
8
 10
2274.530
 20
-9708.863
 30
-1387.130
 70
    32
  0
VERTEX
  8
T66SSILL
 62
8
 10
2277.358
 20
-9711.591
 30
-1387.154
 70
    32
  0
VERTEX
  8
T66SSILL
 62
8
 10
2283.746
 20
-9715.655
 30
-1387.207
 70
    32
  0
VERTEX
  8
T66SSILL
 62
8
 10
2303.826
 20
-9717.988
 30
-1387.358
 70
    32
  0
VERTEX
  8
T66SSILL
 62
8
 10
2310.712
 20
-9718.230
 30
-1387.409
 70
    32
  0
VERTEX
  8
T66SSILL
 62
8
 10
2324.736
 20
-9714.852
 30
-1387.508
 70
    32
  0
VERTEX
  8
T66SSILL
 62
8
 10
2445.947
 20
-9624.836
 30
-1388.284
 70
    32
  0
VERTEX
  8
T66SSILL
 62
8
 10
2438.934
 20
-9614.185
 30
-1388.218
 70
    32
  0
VERTEX
  8
T66SSILL
 62
8
 10
2462.554
 20
-9602.930
 30
-1388.378
 70
    32
  0
VERTEX
  8
T66SSILL
 62
8
 10
2466.463
 20
-9607.912
 30
-1388.413
 70
    32
  0
VERTEX
  8
T66SSILL
 62
8
 10
2469.714
 20
-9608.820
 30
-1388.438
 70
    32
  0
VERTEX
  8
T66SSILL
 62
8
 10
2476.194
 20
-9603.834
 30
-1388.479
 70
    32
  0
VERTEX
  8
T66SSILL
 62
8
 10
2481.582
 20
-9611.323
 30
-1388.529
 70
    32
  0
VERTEX
  8
T66SSILL
 62
8
 10
2383.340
 20
-9682.109
 30
-1387.898
 70
    32
  0
VERTEX
  8
T66SSILL
 62
8
 10
2382.646
 20
-9685.206
 30
-1387.897
 70
    32
  0
VERTEX
  8
T66SSILL
 62
8
 10
2335.897
 20
-9722.843
 30
-1387.601
 70
    32
  0
VERTEX
  8
T66SSILL
 62
8
 10
2310.859
 20
-9728.516
 30
-1387.424
 70
    32
  0
VERTEX
  8
T66SSILL
 62
8
 10
2279.347
 20
-9725.640
 30
-1387.188
 70
    32
  0
VERTEX
  8
T66SSILL
 62
8
 10
2273.610
 20
-9733.014
 30
-1387.155
 70
    32
  0
VERTEX
  8
T66SSILL
 62
8
 10
2290.713
 20
-9779.056
 30
-1387.342
 70
    32
  0
VERTEX
  8
T66SSILL
 62
8
 10
2282.796
 20
-9782.045
 30
-1387.288
 70
    32
  0
VERTEX
  8
T66SSILL
 62
8
 10
2099.199
 20
-9283.689
 30
-1386.220
 70
    32
  0
VERTEX
  8
T66SSILL
 62
8
 10
2096.418
 20
-9252.891
 30
-1386.424
 70
    32
  0
VERTEX
  8
T66SSILL
 62
8
 10
2098.837
 20
-9237.295
 30
-1386.519
 70
    32
  0
VERTEX
  8
T66SSILL
 62
8
 10
2096.617
 20
-9236.514
 30
-1387.000
 70
    32
  0
VERTEX
  8
T66SSILL
 62
8
 10
2080.035
 20
-9246.271
 30
-1387.000
 70
    32
  0
VERTEX
  8
T66SSILL
 62
8
 10
2074.407
 20
-9248.716
 30
-1381.500
 70
    32
  0
VERTEX
  8
T66SSILL
 62
8
 10
2064.007
 20
-9261.226
 30
-1381.500
 70
    32
  0
VERTEX
  8
T66SSILL
 62
8
 10
2054.555
 20
-9271.728
 30
-1381.500
 70
    32
  0
VERTEX
  8
T66SSILL
 62
8
 10
2051.917
 20
-9272.285
 30
-1381.500
 70
    32
  0
VERTEX
  8
T66SSILL
 62
8
 10
2047.928
 20
-9268.781
 30
-1381.500
 70
    32
  0
VERTEX
  8
T66SSILL
 62
8
 10
2045.708
 20
-9263.468
 30
-1381.500
 70
    32
  0
VERTEX
  8
T66SSILL
 62
8
 10
2045.368
 20
-9262.153
 30
-1381.500
 70
    32
  0
VERTEX
  8
T66SSILL
 62
8
 10
2043.170
 20
-9248.593
 30
-1381.500
 70
    32
  0
VERTEX
  8
T66SSILL
 62
8
 10
2055.827
 20
-9242.244
 30
-1381.500
 70
    32
  0
VERTEX
  8
T66SSILL
 62
8
 10
2063.644
 20
-9236.291
 30
-1381.500
 70
    32
  0
VERTEX
  8
T66SSILL
 62
8
 10
2067.341
 20
-9233.161
 30
-1387.000
 70
    32
  0
VERTEX
  8
T66SSILL
 62
8
 10
2073.668
 20
-9234.362
 30
-1387.000
 70
    32
  0
VERTEX
  8
T66SSILL
 62
8
 10
2076.727
 20
-9233.798
 30
-1387.000
 70
    32
  0
VERTEX
  8
T66SSILL
 62
8
 10
2078.077
 20
-9233.694
 30
-1387.000
 70
    32
  0
VERTEX
  8
T66SSILL
 62
8
 10
2097.295
 20
-9222.156
 30
-1387.000
 70
    32
  0
VERTEX
  8
T66SSILL
 62
8
 10
2100.786
 20
-9217.327
 30
-1387.000
 70
    32
  0
VERTEX
  8
T66SSILL
 62
8
 10
2107.187
 20
-9213.342
 30
-1386.672
 70
    32
  0
VERTEX
  8
T66SSILL
 62
8
 10
2109.511
 20
-9206.992
 30
-1386.713
 70
    32
  0
VERTEX
  8
T66SSILL
 62
8
 10
2108.371
 20
-9198.936
 30
-1386.765
 70
    32
  0
VERTEX
  8
T66SSILL
 62
8
 10
2111.833
 20
-9183.888
 30
-1386.867
 70
    32
  0
VERTEX
  8
T66SSILL
 62
8
 10
2111.823
 20
-9174.694
 30
-1386.927
 70
    32
  0
VERTEX
  8
T66SSILL
 62
8
 10
2103.770
 20
-9152.650
 30
-1387.065
 70
    32
  0
VERTEX
  8
T66SSILL
 62
8
 10
1909.746
 20
-8716.030
 30
-1388.308
 70
    32
  0
VERTEX
  8
T66SSILL
 62
8
 10
1897.805
 20
-8644.962
 30
-1388.387
 70
    32
  0
VERTEX
  8
T66SSILL
 62
8
 10
1894.486
 20
-8635.609
 30
-1388.393
 70
    32
  0
VERTEX
  8
T66SSILL
 62
8
 10
1888.754
 20
-8634.768
 30
-1388.394
 70
    32
  0
VERTEX
  8
T66SSILL
 62
8
 10
1882.788
 20
-8603.807
 30
-1388.411
 70
    32
  0
VERTEX
  8
T66SSILL
 62
8
 10
1888.775
 20
-8584.633
 30
-1388.427
 70
    32
  0
VERTEX
  8
T66SSILL
 62
8
 10
1839.634
 20
-8273.908
 30
-1390.111
 70
    32
  0
VERTEX
  8
T66SSILL
 62
8
 10
1835.155
 20
-8260.714
 30
-1390.164
 70
    32
  0
VERTEX
  8
T66SSILL
 62
8
 10
1812.114
 20
-8230.845
 30
-1390.161
 70
    32
  0
VERTEX
  8
T66SSILL
 62
8
 10
1808.392
 20
-8222.725
 30
-1390.000
 70
    32
  0
VERTEX
  8
T66SSILL
 62
8
 10
1798.011
 20
-8241.968
 30
-1393.936
 70
    32
  0
VERTEX
  8
T66SSILL
 62
8
 10
1789.894
 20
-8257.992
 30
-1397.169
 70
    32
  0
VERTEX
  8
T66SSILL
 62
8
 10
1782.398
 20
-8257.214
 30
-1397.169
 70
    32
  0
VERTEX
  8
T66SSILL
 62
8
 10
1788.866
 20
-8239.161
 30
-1393.717
 70
    32
  0
VERTEX
  8
T66SSILL
 62
8
 10
1789.268
 20
-8238.176
 30
-1393.500
 70
    32
  0
VERTEX
  8
T66SSILL
 62
8
 10
1780.827
 20
-8234.109
 30
-1392.900
 70
    32
  0
VERTEX
  8
T66SSILL
 62
8
 10
1781.642
 20
-8221.836
 30
-1392.000
 70
    32
  0
VERTEX
  8
T66SSILL
 62
8
 10
1787.418
 20
-8215.754
 30
-1391.500
 70
    32
  0
VERTEX
  8
T66SSILL
 62
8
 10
1788.416
 20
-8214.400
 30
-1391.200
 70
    32
  0
VERTEX
  8
T66SSILL
 62
8
 10
1788.329
 20
-8213.350
 30
-1390.800
 70
    32
  0
VERTEX
  8
T66SSILL
 62
8
 10
1792.641
 20
-8210.136
 30
-1390.000
 70
    32
  0
VERTEX
  8
T66SSILL
 62
8
 10
1798.404
 20
-8200.939
 30
-1390.000
 70
    32
  0
VERTEX
  8
T66SSILL
 62
8
 10
1795.971
 20
-8195.631
 30
-1390.195
 70
    32
  0
VERTEX
  8
T66SSILL
 62
8
 10
1790.212
 20
-8192.957
 30
-1390.180
 70
    32
  0
VERTEX
  8
T66SSILL
 62
8
 10
1789.880
 20
-8185.463
 30
-1390.200
 70
    32
  0
VERTEX
  8
T66SSILL
 62
8
 10
1781.501
 20
-8166.609
 30
-1390.219
 70
    32
  0
VERTEX
  8
T66SSILL
 62
8
 10
1776.311
 20
-8161.124
 30
-1390.214
 70
    32
  0
VERTEX
  8
T66SSILL
 62
8
 10
1771.226
 20
-8162.932
 30
-1390.189
 70
    32
  0
VERTEX
  8
T66SSILL
 62
8
 10
1767.806
 20
-8162.105
 30
-1390.178
 70
    32
  0
VERTEX
  8
T66SSILL
 62
8
 10
1768.463
 20
-8159.966
 30
-1390.186
 70
    32
  0
VERTEX
  8
T66SSILL
 62
8
 10
1771.381
 20
-8158.391
 30
-1390.202
 70
    32
  0
VERTEX
  8
T66SSILL
 62
8
 10
1772.456
 20
-8154.777
 30
-1390.216
 70
    32
  0
VERTEX
  8
T66SSILL
 62
8
 10
1765.760
 20
-8131.834
 30
-1390.254
 70
    32
  0
VERTEX
  8
T66SSILL
 62
8
 10
1765.759
 20
-8131.834
 30
-1390.252
 70
    32
  0
VERTEX
  8
T66SSILL
 62
8
 10
1764.760
 20
-8131.071
 30
-1392.858
 70
    32
  0
VERTEX
  8
T66SSILL
 62
8
 10
1742.743
 20
-8122.342
 30
-1387.246
 70
    32
  0
VERTEX
  8
T66SSILL
 62
8
 10
1736.721
 20
-8121.455
 30
-1387.214
 70
    32
  0
VERTEX
  8
T66SSILL
 62
8
 10
1713.020
 20
-8110.118
 30
-1384.707
 70
    32
  0
VERTEX
  8
T66SSILL
 62
8
 10
1709.421
 20
-8112.184
 30
-1385.488
 70
    32
  0
VERTEX
  8
T66SSILL
 62
8
 10
1708.033
 20
-8120.296
 30
-1385.453
 70
    32
  0
VERTEX
  8
T66SSILL
 62
8
 10
1698.328
 20
-8121.148
 30
-1385.005
 70
    32
  0
VERTEX
  8
T66SSILL
 62
8
 10
1694.388
 20
-8104.804
 30
-1385.409
 70
    32
  0
VERTEX
  8
T66SSILL
 62
8
 10
1675.541
 20
-7997.232
 30
-1393.433
 70
    32
  0
VERTEX
  8
T66SSILL
 62
8
 10
1681.418
 20
-8030.775
 30
-1386.303
 70
    32
  0
VERTEX
  8
T66SSILL
 62
8
 10
1675.541
 20
-7997.232
 30
-1391.690
 70
    32
  0
VERTEX
  8
T66SSILL
 62
8
 10
1668.240
 20
-7963.141
 30
-1393.475
 70
    32
  0
VERTEX
  8
T66SSILL
 62
8
 10
1664.300
 20
-7961.122
 30
-1393.522
 70
    32
  0
VERTEX
  8
T66SSILL
 62
8
 10
1665.542
 20
-7942.967
 30
-1394.144
 70
    32
  0
VERTEX
  8
T66SSILL
 62
8
 10
1662.286
 20
-7929.406
 30
-1394.382
 70
    32
  0
VERTEX
  8
T66SSILL
 62
8
 10
1661.558
 20
-7909.089
 30
-1393.959
 70
    32
  0
VERTEX
  8
T66SSILL
 62
8
 10
1654.417
 20
-7867.364
 30
-1394.508
 70
    32
  0
VERTEX
  8
T66SSILL
 62
8
 10
1646.998
 20
-7846.472
 30
-1395.287
 70
    32
  0
VERTEX
  8
T66SSILL
 62
8
 10
1645.454
 20
-7840.161
 30
-1395.530
 70
    32
  0
VERTEX
  8
T66SSILL
 62
8
 10
1645.289
 20
-7837.723
 30
-1391.057
 70
    32
  0
VERTEX
  8
T66SSILL
 62
8
 10
1644.032
 20
-7828.233
 30
-1391.057
 70
    32
  0
VERTEX
  8
T66SSILL
 62
8
 10
1644.525
 20
-7822.696
 30
-1406.363
 70
    32
  0
VERTEX
  8
T66SSILL
 62
8
 10
1644.525
 20
-7822.696
 30
-1393.186
 70
    32
  0
VERTEX
  8
T66SSILL
 62
8
 10
1637.632
 20
-7827.799
 30
-1395.568
 70
    32
  0
VERTEX
  8
T66SSILL
 62
8
 10
1632.348
 20
-7819.322
 30
-1395.506
 70
    32
  0
VERTEX
  8
T66SSILL
 62
8
 10
1639.622
 20
-7813.954
 30
-1394.047
 70
    32
  0
VERTEX
  8
T66SSILL
 62
8
 10
1656.043
 20
-7790.644
 30
-1389.798
 70
    32
  0
VERTEX
  8
T66SSILL
 62
8
 10
1666.368
 20
-7768.083
 30
-1391.258
 70
    32
  0
VERTEX
  8
T66SSILL
 62
8
 10
1666.388
 20
-7768.039
 30
-1391.259
 70
    32
  0
VERTEX
  8
T66SSILL
 62
8
 10
1668.004
 20
-7675.019
 30
-1391.654
 70
    32
  0
VERTEX
  8
T66SSILL
 62
8
 10
1663.984
 20
-7674.033
 30
-1391.584
 70
    32
  0
VERTEX
  8
T66SSILL
 62
8
 10
1658.692
 20
-7677.226
 30
-1391.473
 70
    32
  0
VERTEX
  8
T66SSILL
 62
8
 10
1631.133
 20
-7735.988
 30
-1390.733
 70
    32
  0
VERTEX
  8
T66SSILL
 62
8
 10
1621.126
 20
-7731.990
 30
-1390.564
 70
    32
  0
VERTEX
  8
T66SSILL
 62
8
 10
1635.304
 20
-7704.815
 30
-1390.933
 70
    32
  0
VERTEX
  8
T66SSILL
 62
8
 10
1661.353
 20
-7642.187
 30
-1391.660
 70
    32
  0
VERTEX
  8
T66SSILL
 62
8
 10
1661.893
 20
-7606.624
 30
-1391.810
 70
    32
  0
VERTEX
  8
T66SSILL
 62
8
 10
1665.470
 20
-7582.214
 30
-1391.972
 70
    32
  0
VERTEX
  8
T66SSILL
 62
8
 10
1666.264
 20
-7475.637
 30
-1391.205
 70
    32
  0
VERTEX
  8
T66SSILL
 62
8
 10
1652.033
 20
-7436.557
 30
-1391.016
 70
    32
  0
VERTEX
  8
T66SSILL
 62
8
 10
1566.655
 20
-7256.688
 30
-1390.830
 70
    32
  0
VERTEX
  8
T66SSILL
 62
8
 10
1559.607
 20
-7233.113
 30
-1390.722
 70
    32
  0
VERTEX
  8
T66SSILL
 62
8
 10
1553.494
 20
-7220.478
 30
-1390.674
 70
    32
  0
VERTEX
  8
T66SSILL
 62
8
 10
1550.757
 20
-7218.744
 30
-1390.695
 70
    32
  0
VERTEX
  8
T66SSILL
 62
8
 10
1547.091
 20
-7220.581
 30
-1390.736
 70
    32
  0
VERTEX
  8
T66SSILL
 62
8
 10
1543.935
 20
-7229.398
 30
-1390.792
 70
    32
  0
VERTEX
  8
T66SSILL
 62
8
 10
1533.749
 20
-7243.078
 30
-1390.869
 70
    32
  0
VERTEX
  8
T66SSILL
 62
8
 10
1490.773
 20
-7277.963
 30
-1390.054
 70
    32
  0
VERTEX
  8
T66SSILL
 62
8
 10
1479.379
 20
-7289.636
 30
-1389.908
 70
    32
  0
VERTEX
  8
T66SSILL
 62
8
 10
1472.475
 20
-7292.844
 30
-1389.831
 70
    32
  0
VERTEX
  8
T66SSILL
 62
8
 10
1471.266
 20
-7290.530
 30
-1389.825
 70
    32
  0
VERTEX
  8
T66SSILL
 62
8
 10
1461.682
 20
-7288.881
 30
-1389.733
 70
    32
  0
VERTEX
  8
T66SSILL
 62
8
 10
1375.539
 20
-7338.674
 30
-1388.736
 70
    32
  0
VERTEX
  8
T66SSILL
 62
8
 10
1371.204
 20
-7332.240
 30
-1388.710
 70
    32
  0
VERTEX
  8
T66SSILL
 62
8
 10
1455.133
 20
-7283.784
 30
-1389.681
 70
    32
  0
VERTEX
  8
T66SSILL
 62
8
 10
1474.874
 20
-7270.793
 30
-1389.914
 70
    32
  0
VERTEX
  8
T66SSILL
 62
8
 10
1491.085
 20
-7263.646
 30
-1390.096
 70
    32
  0
VERTEX
  8
T66SSILL
 62
8
 10
1523.197
 20
-7236.400
 30
-1390.700
 70
    32
  0
VERTEX
  8
T66SSILL
 62
8
 10
1530.199
 20
-7228.749
 30
-1390.845
 70
    32
  0
VERTEX
  8
T66SSILL
 62
8
 10
1539.868
 20
-7214.031
 30
-1390.735
 70
    32
  0
VERTEX
  8
T66SSILL
 62
8
 10
1538.136
 20
-7209.751
 30
-1390.721
 70
    32
  0
VERTEX
  8
T66SSILL
 62
8
 10
1540.424
 20
-7202.303
 30
-1390.667
 70
    32
  0
VERTEX
  8
T66SSILL
 62
8
 10
1513.421
 20
-7147.028
 30
-1390.461
 70
    32
  0
VERTEX
  8
T66SSILL
 62
8
 10
1509.723
 20
-7142.411
 30
-1390.465
 70
    32
  0
VERTEX
  8
T66SSILL
 62
8
 10
1500.377
 20
-7120.955
 30
-1390.416
 70
    32
  0
VERTEX
  8
T66SSILL
 62
8
 10
1491.576
 20
-7105.915
 30
-1390.402
 70
    32
  0
VERTEX
  8
T66SSILL
 62
8
 10
1486.755
 20
-7091.621
 30
-1390.376
 70
    32
  0
VERTEX
  8
T66SSILL
 62
8
 10
1484.537
 20
-7092.758
 30
-1390.388
 70
    32
  0
VERTEX
  8
T66SSILL
 62
8
 10
1483.884
 20
-7105.418
 30
-1390.441
 70
    32
  0
VERTEX
  8
T66SSILL
 62
8
 10
1473.777
 20
-7104.254
 30
-1390.353
 70
    32
  0
VERTEX
  8
T66SSILL
 62
8
 10
1475.083
 20
-7068.249
 30
-1390.348
 70
    32
  0
VERTEX
  8
T66SSILL
 62
8
 10
1463.901
 20
-7049.387
 30
-1390.331
 70
    32
  0
VERTEX
  8
T66SSILL
 62
8
 10
1452.587
 20
-7023.926
 30
-1390.190
 70
    32
  0
VERTEX
  8
T66SSILL
 62
8
 10
1448.056
 20
-7006.837
 30
-1390.201
 70
    32
  0
VERTEX
  8
T66SSILL
 62
8
 10
1436.808
 20
-6984.675
 30
-1389.988
 70
    32
  0
VERTEX
  8
T66SSILL
 62
8
 10
1423.672
 20
-6963.202
 30
-1389.687
 70
    32
  0
VERTEX
  8
T66SSILL
 62
8
 10
1419.158
 20
-6964.451
 30
-1389.639
 70
    32
  0
VERTEX
  8
T66SSILL
 62
8
 10
1411.592
 20
-6948.106
 30
-1389.543
 70
    32
  0
VERTEX
  8
T66SSILL
 62
8
 10
1416.083
 20
-6945.145
 30
-1389.580
 70
    32
  0
VERTEX
  8
T66SSILL
 62
8
 10
1396.409
 20
-6902.065
 30
-1389.258
 70
    32
  0
VERTEX
  8
T66SSILL
 62
8
 10
1372.712
 20
-6864.744
 30
-1389.055
 70
    32
  0
VERTEX
  8
T66SSILL
 62
8
 10
1359.471
 20
-6826.181
 30
-1388.901
 70
    32
  0
VERTEX
  8
T66SSILL
 62
8
 10
1343.055
 20
-6802.818
 30
-1388.828
 70
    32
  0
VERTEX
  8
T66SSILL
 62
8
 10
1338.440
 20
-6803.923
 30
-1388.813
 70
    32
  0
VERTEX
  8
T66SSILL
 62
8
 10
1314.936
 20
-6821.368
 30
-1388.985
 70
    32
  0
VERTEX
  8
T66SSILL
 62
8
 10
1314.396
 20
-6827.230
 30
-1389.036
 70
    32
  0
VERTEX
  8
T66SSILL
 62
8
 10
1307.165
 20
-6832.656
 30
-1389.116
 70
    32
  0
VERTEX
  8
T66SSILL
 62
8
 10
1290.036
 20
-6837.953
 30
-1389.232
 70
    32
  0
VERTEX
  8
T66SSILL
 62
8
 10
1287.659
 20
-6823.906
 30
-1389.140
 70
    32
  0
VERTEX
  8
T66SSILL
 62
8
 10
1288.270
 20
-6814.960
 30
-1389.064
 70
    32
  0
VERTEX
  8
T66SSILL
 62
8
 10
1285.316
 20
-6800.573
 30
-1388.961
 70
    32
  0
VERTEX
  8
T66SSILL
 62
8
 10
1268.342
 20
-6761.639
 30
-1388.728
 70
    32
  0
VERTEX
  8
T66SSILL
 62
8
 10
1278.215
 20
-6756.993
 30
-1388.641
 70
    32
  0
VERTEX
  8
T66SSILL
 62
8
 10
1297.816
 20
-6798.462
 30
-1388.883
 70
    32
  0
VERTEX
  8
T66SSILL
 62
8
 10
1313.603
 20
-6806.644
 30
-1388.872
 70
    32
  0
VERTEX
  8
T66SSILL
 62
8
 10
1323.893
 20
-6796.940
 30
-1388.757
 70
    32
  0
VERTEX
  8
T66SSILL
 62
8
 10
1332.365
 20
-6792.892
 30
-1388.784
 70
    32
  0
VERTEX
  8
T66SSILL
 62
8
 10
1322.335
 20
-6768.789
 30
-1388.732
 70
    32
  0
VERTEX
  8
T66SSILL
 62
8
 10
1326.606
 20
-6762.314
 30
-1388.742
 70
    32
  0
VERTEX
  8
T66SSILL
 62
8
 10
1320.018
 20
-6740.635
 30
-1388.704
 70
    32
  0
VERTEX
  8
T66SSILL
 62
8
 10
1308.547
 20
-6720.143
 30
-1388.650
 70
    32
  0
VERTEX
  8
T66SSILL
 62
8
 10
1305.404
 20
-6710.815
 30
-1388.629
 70
    32
  0
VERTEX
  8
T66SSILL
 62
8
 10
1294.547
 20
-6699.280
 30
-1388.578
 70
    32
  0
VERTEX
  8
T66SSILL
 62
8
 10
1294.391
 20
-6690.970
 30
-1388.546
 70
    32
  0
VERTEX
  8
T66SSILL
 62
8
 10
1285.867
 20
-6664.724
 30
-1388.441
 70
    32
  0
VERTEX
  8
T66SSILL
 62
8
 10
1272.467
 20
-6596.480
 30
-1388.190
 70
    32
  0
VERTEX
  8
T66SSILL
 62
8
 10
1269.158
 20
-6594.395
 30
-1388.180
 70
    32
  0
VERTEX
  8
T66SSILL
 62
8
 10
1269.535
 20
-6590.350
 30
-1388.168
 70
    32
  0
VERTEX
  8
T66SSILL
 62
8
 10
1273.398
 20
-6585.891
 30
-1388.158
 70
    32
  0
VERTEX
  8
T66SSILL
 62
8
 10
1268.831
 20
-6556.846
 30
-1388.062
 70
    32
  0
VERTEX
  8
T66SSILL
 62
8
 10
1262.768
 20
-6549.799
 30
-1388.033
 70
    32
  0
VERTEX
  8
T66SSILL
 62
8
 10
1257.460
 20
-6534.663
 30
-1387.980
 70
    32
  0
VERTEX
  8
T66SSILL
 62
8
 10
1190.579
 20
-6416.594
 30
-1387.529
 70
    32
  0
VERTEX
  8
T66SSILL
 62
8
 10
1160.350
 20
-6308.113
 30
-1387.268
 70
    32
  0
VERTEX
  8
T66SSILL
 62
8
 10
1155.171
 20
-6300.748
 30
-1387.259
 70
    32
  0
VERTEX
  8
T66SSILL
 62
8
 10
1145.875
 20
-6266.457
 30
-1387.221
 70
    32
  0
VERTEX
  8
T66SSILL
 62
8
 10
1141.802
 20
-6258.515
 30
-1387.212
 70
    32
  0
VERTEX
  8
T66SSILL
 62
8
 10
1136.570
 20
-6241.843
 30
-1387.193
 70
    32
  0
VERTEX
  8
T66SSILL
 62
8
 10
1130.129
 20
-6212.891
 30
-1387.162
 70
    32
  0
VERTEX
  8
T66SSILL
 62
8
 10
1122.692
 20
-6196.933
 30
-1387.143
 70
    32
  0
VERTEX
  8
T66SSILL
 62
8
 10
1108.393
 20
-6151.890
 30
-1387.105
 70
    32
  0
VERTEX
  8
T66SSILL
 62
8
 10
1113.815
 20
-6149.302
 30
-1387.104
 70
    32
  0
VERTEX
  8
T66SSILL
 62
8
 10
1085.398
 20
-6062.346
 30
-1386.994
 70
    32
  0
VERTEX
  8
T66SSILL
 62
8
 10
1085.432
 20
-6054.825
 30
-1386.952
 70
    32
  0
VERTEX
  8
T66SSILL
 62
8
 10
1077.449
 20
-6037.954
 30
-1386.823
 70
    32
  0
VERTEX
  8
T66SSILL
 62
8
 10
1076.398
 20
-6027.409
 30
-1386.759
 70
    32
  0
VERTEX
  8
T66SSILL
 62
8
 10
1074.515
 20
-6025.392
 30
-1386.740
 70
    32
  0
VERTEX
  8
T66SSILL
 62
8
 10
1067.033
 20
-5994.688
 30
-1386.575
 70
    32
  0
VERTEX
  8
T66SSILL
 62
8
 10
1065.515
 20
-5969.265
 30
-1386.516
 70
    32
  0
VERTEX
  8
T66SSILL
 62
8
 10
1058.275
 20
-5970.986
 30
-1386.523
 70
    32
  0
VERTEX
  8
T66SSILL
 62
8
 10
1055.243
 20
-5977.509
 30
-1386.539
 70
    32
  0
VERTEX
  8
T66SSILL
 62
8
 10
1056.368
 20
-5988.762
 30
-1386.565
 70
    32
  0
VERTEX
  8
T66SSILL
 62
8
 10
1056.180
 20
-5991.831
 30
-1386.573
 70
    32
  0
VERTEX
  8
T66SSILL
 62
8
 10
1052.874
 20
-5995.399
 30
-1386.582
 70
    32
  0
VERTEX
  8
T66SSILL
 62
8
 10
1052.696
 20
-6020.886
 30
-1386.643
 70
    32
  0
VERTEX
  8
T66SSILL
 62
8
 10
1042.212
 20
-6020.886
 30
-1386.647
 70
    32
  0
VERTEX
  8
T66SSILL
 62
8
 10
1042.007
 20
-5990.705
 30
-1386.576
 70
    32
  0
VERTEX
  8
T66SSILL
 62
8
 10
1040.384
 20
-5981.331
 30
-1386.555
 70
    32
  0
VERTEX
  8
T66SSILL
 62
8
 10
1007.661
 20
-6015.363
 30
-1386.648
 70
    32
  0
VERTEX
  8
T66SSILL
 62
8
 10
1020.979
 20
-6027.860
 30
-1386.672
 70
    32
  0
VERTEX
  8
T66SSILL
 62
8
 10
1010.547
 20
-6037.848
 30
-1386.700
 70
    32
  0
VERTEX
  8
T66SSILL
 62
8
 10
997.712
 20
-6025.874
 30
-1386.677
 70
    32
  0
VERTEX
  8
T66SSILL
 62
8
 10
981.954
 20
-6044.032
 30
-1386.727
 70
    32
  0
VERTEX
  8
T66SSILL
 62
8
 10
981.509
 20
-6046.742
 30
-1386.733
 70
    32
  0
VERTEX
  8
T66SSILL
 62
8
 10
984.954
 20
-6052.251
 30
-1386.745
 70
    32
  0
VERTEX
  8
T66SSILL
 62
8
 10
985.048
 20
-6055.698
 30
-1386.753
 70
    32
  0
VERTEX
  8
T66SSILL
 62
8
 10
982.680
 20
-6055.880
 30
-1386.754
 70
    32
  0
VERTEX
  8
T66SSILL
 62
8
 10
977.076
 20
-6051.011
 30
-1386.745
 70
    32
  0
VERTEX
  8
T66SSILL
 62
8
 10
974.291
 20
-6053.337
 30
-1386.752
 70
    32
  0
VERTEX
  8
T66SSILL
 62
8
 10
966.518
 20
-6046.748
 30
-1386.740
 70
    32
  0
VERTEX
  8
T66SSILL
 62
8
 10
1060.406
 20
-5948.375
 30
-1386.468
 70
    32
  0
VERTEX
  8
T66SSILL
 62
8
 10
1049.525
 20
-5903.704
 30
-1386.368
 70
    32
  0
VERTEX
  8
T66SSILL
 62
8
 10
1050.540
 20
-5899.064
 30
-1386.356
 70
    32
  0
VERTEX
  8
T66SSILL
 62
8
 10
1047.071
 20
-5877.432
 30
-1386.307
 70
    32
  0
VERTEX
  8
T66SSILL
 62
8
 10
1041.103
 20
-5866.395
 30
-1386.284
 70
    32
  0
VERTEX
  8
T66SSILL
 62
8
 10
1040.873
 20
-5860.475
 30
-1386.270
 70
    32
  0
VERTEX
  8
T66SSILL
 62
8
 10
1035.369
 20
-5845.846
 30
-1386.238
 70
    32
  0
VERTEX
  8
T66SSILL
 62
8
 10
1033.069
 20
-5828.264
 30
-1386.197
 70
    32
  0
VERTEX
  8
T66SSILL
 62
8
 10
1022.559
 20
-5788.650
 30
-1386.109
 70
    32
  0
VERTEX
  8
T66SSILL
 62
8
 10
1015.461
 20
-5793.747
 30
-1386.123
 70
    32
  0
VERTEX
  8
T66SSILL
 62
8
 10
1010.632
 20
-5816.989
 30
-1386.180
 70
    32
  0
VERTEX
  8
T66SSILL
 62
8
 10
1011.461
 20
-5824.652
 30
-1386.198
 70
    32
  0
VERTEX
  8
T66SSILL
 62
8
 10
1005.552
 20
-5837.914
 30
-1386.231
 70
    32
  0
VERTEX
  8
T66SSILL
 62
8
 10
996.953
 20
-5850.607
 30
-1386.265
 70
    32
  0
VERTEX
  8
T66SSILL
 62
8
 10
990.518
 20
-5854.357
 30
-1386.276
 70
    32
  0
VERTEX
  8
T66SSILL
 62
8
 10
987.266
 20
-5854.519
 30
-1386.278
 70
    32
  0
VERTEX
  8
T66SSILL
 62
8
 10
980.013
 20
-5850.924
 30
-1386.273
 70
    32
  0
VERTEX
  8
T66SSILL
 62
8
 10
978.353
 20
-5843.315
 30
-1386.256
 70
    32
  0
VERTEX
  8
T66SSILL
 62
8
 10
1003.506
 20
-5797.982
 30
-1386.138
 70
    32
  0
VERTEX
  8
T66SSILL
 62
8
 10
1015.908
 20
-5766.369
 30
-1386.062
 70
    32
  0
VERTEX
  8
T66SSILL
 62
8
 10
1015.149
 20
-5753.658
 30
-1386.035
 70
    32
  0
VERTEX
  8
T66SSILL
 62
8
 10
1006.010
 20
-5733.814
 30
-1385.994
 70
    32
  0
VERTEX
  8
T66SSILL
 62
8
 10
988.907
 20
-5760.544
 30
-1386.057
 70
    32
  0
VERTEX
  8
T66SSILL
 62
8
 10
980.768
 20
-5755.413
 30
-1386.048
 70
    32
  0
VERTEX
  8
T66SSILL
 62
8
 10
1004.996
 20
-5713.028
 30
-1385.961
 70
    32
  0
VERTEX
  8
T66SSILL
 62
8
 10
999.898
 20
-5683.981
 30
-1385.917
 70
    32
  0
VERTEX
  8
T66SSILL
 62
8
 10
1000.768
 20
-5674.446
 30
-1385.902
 70
    32
  0
VERTEX
  8
T66SSILL
 62
8
 10
998.032
 20
-5659.133
 30
-1385.867
 70
    32
  0
VERTEX
  8
T66SSILL
 62
8
 10
991.574
 20
-5648.775
 30
-1385.842
 70
    32
  0
VERTEX
  8
T66SSILL
 62
8
 10
976.904
 20
-5668.665
 30
-1385.898
 70
    32
  0
VERTEX
  8
T66SSILL
 62
8
 10
968.036
 20
-5675.017
 30
-1385.910
 70
    32
  0
VERTEX
  8
T66SSILL
 62
8
 10
835.455
 20
-5735.537
 30
-1386.047
 70
    32
  0
VERTEX
  8
T66SSILL
 62
8
 10
832.100
 20
-5727.080
 30
-1386.035
 70
    32
  0
VERTEX
  8
T66SSILL
 62
8
 10
964.621
 20
-5666.929
 30
-1385.898
 70
    32
  0
VERTEX
  8
T66SSILL
 62
8
 10
990.658
 20
-5639.326
 30
-1385.814
 70
    32
  0
VERTEX
  8
T66SSILL
 62
8
 10
985.480
 20
-5623.485
 30
-1385.788
 70
    32
  0
VERTEX
  8
T66SSILL
 62
8
 10
991.848
 20
-5617.827
 30
-1385.774
 70
    32
  0
VERTEX
  8
T66SSILL
 62
8
 10
1003.949
 20
-5623.482
 30
-1385.757
 70
    32
  0
VERTEX
  8
T66SSILL
 62
8
 10
1073.286
 20
-5543.280
 30
-1385.602
 70
    32
  0
VERTEX
  8
T66SSILL
 62
8
 10
1069.927
 20
-5537.541
 30
-1385.605
 70
    32
  0
VERTEX
  8
T66SSILL
 62
8
 10
1068.024
 20
-5527.172
 30
-1385.595
 70
    32
  0
VERTEX
  8
T66SSILL
 62
8
 10
1075.540
 20
-5516.452
 30
-1385.573
 70
    32
  0
VERTEX
  8
T66SSILL
 62
8
 10
1075.290
 20
-5514.893
 30
-1385.572
 70
    32
  0
VERTEX
  8
T66SSILL
 62
8
 10
1063.824
 20
-5495.742
 30
-1385.556
 70
    32
  0
VERTEX
  8
T66SSILL
 62
8
 10
1035.761
 20
-5466.340
 30
-1385.542
 70
    32
  0
VERTEX
  8
T66SSILL
 62
8
 10
1031.926
 20
-5458.879
 30
-1385.536
 70
    32
  0
VERTEX
  8
T66SSILL
 62
8
 10
1026.027
 20
-5437.797
 30
-1385.512
 70
    32
  0
VERTEX
  8
T66SSILL
 62
8
 10
1025.326
 20
-5423.956
 30
-1385.494
 70
    32
  0
VERTEX
  8
T66SSILL
 62
8
 10
1022.148
 20
-5416.350
 30
-1385.487
 70
    32
  0
VERTEX
  8
T66SSILL
 62
8
 10
1020.513
 20
-5406.657
 30
-1385.475
 70
    32
  0
VERTEX
  8
T66SSILL
 62
8
 10
1025.924
 20
-5403.751
 30
-1385.466
 70
    32
  0
VERTEX
  8
T66SSILL
 62
8
 10
1037.656
 20
-5409.346
 30
-1385.463
 70
    32
  0
VERTEX
  8
T66SSILL
 62
8
 10
1042.212
 20
-5405.097
 30
-1385.453
 70
    32
  0
VERTEX
  8
T66SSILL
 62
8
 10
1049.776
 20
-5401.405
 30
-1385.441
 70
    32
  0
VERTEX
  8
T66SSILL
 62
8
 10
1051.259
 20
-5395.450
 30
-1385.431
 70
    32
  0
VERTEX
  8
T66SSILL
 62
8
 10
1057.990
 20
-5395.290
 30
-1385.425
 70
    32
  0
VERTEX
  8
T66SSILL
 62
8
 10
1063.351
 20
-5405.785
 30
-1385.434
 70
    32
  0
VERTEX
  8
T66SSILL
 62
8
 10
1072.130
 20
-5416.651
 30
-1385.441
 70
    32
  0
VERTEX
  8
T66SSILL
 62
8
 10
1083.363
 20
-5441.076
 30
-1385.464
 70
    32
  0
VERTEX
  8
T66SSILL
 62
8
 10
1087.715
 20
-5441.537
 30
-1385.460
 70
    32
  0
VERTEX
  8
T66SSILL
 62
8
 10
1094.142
 20
-5451.701
 30
-1385.468
 70
    32
  0
VERTEX
  8
T66SSILL
 62
8
 10
1099.146
 20
-5475.926
 30
-1385.496
 70
    32
  0
VERTEX
  8
T66SSILL
 62
8
 10
1096.300
 20
-5482.859
 30
-1385.508
 70
    32
  0
VERTEX
  8
T66SSILL
 62
8
 10
1097.215
 20
-5496.545
 30
-1385.526
 70
    32
  0
VERTEX
  8
T66SSILL
 62
8
 10
1098.649
 20
-5503.991
 30
-1385.535
 70
    32
  0
VERTEX
  8
T66SSILL
 62
8
 10
1103.946
 20
-5509.098
 30
-1385.534
 70
    32
  0
VERTEX
  8
T66SSILL
 62
8
 10
1121.815
 20
-5476.928
 30
-1385.477
 70
    32
  0
VERTEX
  8
T66SSILL
 62
8
 10
1144.054
 20
-5457.050
 30
-1385.429
 70
    32
  0
VERTEX
  8
T66SSILL
 62
8
 10
1276.558
 20
-5365.312
 30
-1385.249
 70
    32
  0
VERTEX
  8
T66SSILL
 62
8
 10
1363.950
 20
-5301.686
 30
-1385.177
 70
    32
  0
VERTEX
  8
T66SSILL
 62
8
 10
1370.761
 20
-5310.204
 30
-1385.256
 70
    32
  0
VERTEX
  8
T66SSILL
 62
8
 10
1492.677
 20
-5223.802
 30
-1385.007
 70
    32
  0
VERTEX
  8
T66SSILL
 62
8
 10
1488.992
 20
-5207.966
 30
-1384.951
 70
    32
  0
VERTEX
  8
T66SSILL
 62
8
 10
1501.015
 20
-5200.431
 30
-1384.924
 70
    32
  0
VERTEX
  8
T66SSILL
 62
8
 10
1509.711
 20
-5191.636
 30
-1384.893
 70
    32
  0
VERTEX
  8
T66SSILL
 62
8
 10
1515.157
 20
-5197.557
 30
-1384.912
 70
    32
  0
VERTEX
  8
T66SSILL
 62
8
 10
1526.559
 20
-5198.226
 30
-1384.912
 70
    32
  0
VERTEX
  8
T66SSILL
 62
8
 10
1648.010
 20
-5107.039
 30
-1384.589
 70
    32
  0
VERTEX
  8
T66SSILL
 62
8
 10
1633.296
 20
-5086.441
 30
-1384.550
 70
    32
  0
VERTEX
  8
T66SSILL
 62
8
 10
1643.159
 20
-5078.641
 30
-1384.531
 70
    32
  0
VERTEX
  8
T66SSILL
 62
8
 10
1657.650
 20
-5098.639
 30
-1384.560
 70
    32
  0
VERTEX
  8
T66SSILL
 62
8
 10
1683.266
 20
-5081.106
 30
-1384.505
 70
    32
  0
VERTEX
  8
T66SSILL
 62
8
 10
1682.920
 20
-5076.779
 30
-1384.499
 70
    32
  0
VERTEX
  8
T66SSILL
 62
8
 10
1676.340
 20
-5067.981
 30
-1384.491
 70
    32
  0
VERTEX
  8
T66SSILL
 62
8
 10
1685.096
 20
-5062.086
 30
-1384.475
 70
    32
  0
VERTEX
  8
T66SSILL
 62
8
 10
1692.242
 20
-5070.467
 30
-1384.482
 70
    32
  0
VERTEX
  8
T66SSILL
 62
8
 10
1695.768
 20
-5071.256
 30
-1384.475
 70
    32
  0
VERTEX
  8
T66SSILL
 62
8
 10
1702.721
 20
-5066.469
 30
-1384.446
 70
    32
  0
VERTEX
  8
T66SSILL
 62
8
 10
1701.787
 20
-5061.047
 30
-1384.461
 70
    32
  0
VERTEX
  8
T66SSILL
 62
8
 10
1706.068
 20
-5058.116
 30
-1384.444
 70
    32
  0
VERTEX
  8
T66SSILL
 62
8
 10
1710.583
 20
-5060.250
 30
-1384.414
 70
    32
  0
VERTEX
  8
T66SSILL
 62
8
 10
2002.919
 20
-4840.280
 30
-1383.505
 70
    32
  0
VERTEX
  8
T66SSILL
 62
8
 10
1992.483
 20
-4814.542
 30
-1383.526
 70
    32
  0
VERTEX
  8
T66SSILL
 62
8
 10
2014.564
 20
-4803.014
 30
-1383.489
 70
    32
  0
VERTEX
  8
T66SSILL
 62
8
 10
2029.224
 20
-4820.984
 30
-1383.462
 70
    32
  0
VERTEX
  8
T66SSILL
 62
8
 10
2124.471
 20
-4748.725
 30
-1383.789
 70
    32
  0
VERTEX
  8
T66SSILL
 62
8
 10
2129.810
 20
-4754.945
 30
-1383.824
 70
    32
  0
VERTEX
  8
T66SSILL
 62
8
 10
2109.360
 20
-4770.750
 30
-1383.703
 70
    32
  0
VERTEX
  8
T66SSILL
 62
8
 10
2108.693
 20
-4776.369
 30
-1383.701
 70
    32
  0
VERTEX
  8
T66SSILL
 62
8
 10
2114.676
 20
-4781.241
 30
-1383.740
 70
    32
  0
VERTEX
  8
T66SSILL
 62
8
 10
2144.171
 20
-4789.460
 30
-1383.927
 70
    32
  0
VERTEX
  8
T66SSILL
 62
8
 10
2141.458
 20
-4799.565
 30
-1383.914
 70
    32
  0
VERTEX
  8
T66SSILL
 62
8
 10
2132.455
 20
-4797.402
 30
-1383.857
 70
    32
  0
VERTEX
  8
T66SSILL
 62
8
 10
2128.307
 20
-4801.107
 30
-1383.833
 70
    32
  0
VERTEX
  8
T66SSILL
 62
8
 10
2100.693
 20
-4795.454
 30
-1383.659
 70
    32
  0
VERTEX
  8
T66SSILL
 62
8
 10
2085.349
 20
-4797.139
 30
-1383.564
 70
    32
  0
VERTEX
  8
T66SSILL
 62
8
 10
1957.104
 20
-4891.251
 30
-1383.583
 70
    32
  0
VERTEX
  8
T66SSILL
 62
8
 10
1934.394
 20
-4902.500
 30
-1383.629
 70
    32
  0
VERTEX
  8
T66SSILL
 62
8
 10
1527.433
 20
-5208.166
 30
-1384.934
 70
    32
  0
VERTEX
  8
T66SSILL
 62
8
 10
1528.079
 20
-5210.527
 30
-1384.928
 70
    32
  0
VERTEX
  8
T66SSILL
 62
8
 10
1520.144
 20
-5218.873
 30
-1384.958
 70
    32
  0
VERTEX
  8
T66SSILL
 62
8
 10
1505.647
 20
-5227.790
 30
-1385.019
 70
    32
  0
VERTEX
  8
T66SSILL
 62
8
 10
1499.677
 20
-5229.018
 30
-1385.046
 70
    32
  0
VERTEX
  8
T66SSILL
 62
8
 10
1446.151
 20
-5268.825
 30
-1385.263
 70
    32
  0
VERTEX
  8
T66SSILL
 62
8
 10
1441.486
 20
-5280.875
 30
-1385.272
 70
    32
  0
VERTEX
  8
T66SSILL
 62
8
 10
1422.578
 20
-5297.292
 30
-1385.319
 70
    32
  0
VERTEX
  8
T66SSILL
 62
8
 10
1397.099
 20
-5315.160
 30
-1385.307
 70
    32
  0
VERTEX
  8
T66SSILL
 62
8
 10
1392.263
 20
-5309.771
 30
-1385.292
 70
    32
  0
VERTEX
  8
T66SSILL
 62
8
 10
1383.819
 20
-5316.091
 30
-1385.285
 70
    32
  0
VERTEX
  8
T66SSILL
 62
8
 10
1363.185
 20
-5321.559
 30
-1385.257
 70
    32
  0
VERTEX
  8
T66SSILL
 62
8
 10
1355.116
 20
-5329.130
 30
-1385.253
 70
    32
  0
VERTEX
  8
T66SSILL
 62
8
 10
1344.714
 20
-5326.854
 30
-1385.232
 70
    32
  0
VERTEX
  8
T66SSILL
 62
8
 10
1220.430
 20
-5411.021
 30
-1385.297
 70
    32
  0
VERTEX
  8
T66SSILL
 62
8
 10
1209.920
 20
-5427.258
 30
-1385.318
 70
    32
  0
VERTEX
  8
T66SSILL
 62
8
 10
1207.199
 20
-5443.446
 30
-1385.330
 70
    32
  0
VERTEX
  8
T66SSILL
 62
8
 10
1248.672
 20
-5656.202
 30
-1385.294
 70
    32
  0
VERTEX
  8
T66SSILL
 62
8
 10
1249.958
 20
-5670.708
 30
-1385.283
 70
    32
  0
VERTEX
  8
T66SSILL
 62
8
 10
1246.573
 20
-5692.480
 30
-1385.273
 70
    32
  0
VERTEX
  8
T66SSILL
 62
8
 10
1249.673
 20
-5701.338
 30
-1385.263
 70
    32
  0
VERTEX
  8
T66SSILL
 62
8
 10
1253.820
 20
-5706.510
 30
-1385.255
 70
    32
  0
VERTEX
  8
T66SSILL
 62
8
 10
1251.156
 20
-5708.096
 30
-1385.257
 70
    32
  0
VERTEX
  8
T66SSILL
 62
8
 10
1250.785
 20
-5711.514
 30
-1385.256
 70
    32
  0
VERTEX
  8
T66SSILL
 62
8
 10
1246.277
 20
-5714.316
 30
-1385.296
 70
    32
  0
VERTEX
  8
T66SSILL
 62
8
 10
1240.574
 20
-5715.150
 30
-1385.397
 70
    32
  0
VERTEX
  8
T66SSILL
 62
8
 10
1232.059
 20
-5720.394
 30
-1385.554
 70
    32
  0
VERTEX
  8
T66SSILL
 62
8
 10
1226.970
 20
-5712.095
 30
-1385.629
 70
    32
  0
VERTEX
  8
T66SSILL
 62
8
 10
1172.597
 20
-5750.478
 30
-1385.901
 70
    32
  0
VERTEX
  8
T66SSILL
 62
8
 10
1163.651
 20
-5759.509
 30
-1385.944
 70
    32
  0
VERTEX
  8
T66SSILL
 62
8
 10
1149.164
 20
-5781.862
 30
-1386.032
 70
    32
  0
VERTEX
  8
T66SSILL
 62
8
 10
1148.899
 20
-5799.655
 30
-1386.077
 70
    32
  0
VERTEX
  8
T66SSILL
 62
8
 10
1145.779
 20
-5807.871
 30
-1386.104
 70
    32
  0
VERTEX
  8
T66SSILL
 62
8
 10
1146.463
 20
-5819.116
 30
-1386.131
 70
    32
  0
VERTEX
  8
T66SSILL
 62
8
 10
1152.488
 20
-5814.257
 30
-1386.105
 70
    32
  0
VERTEX
  8
T66SSILL
 62
8
 10
1153.165
 20
-5792.161
 30
-1386.048
 70
    32
  0
VERTEX
  8
T66SSILL
 62
8
 10
1160.758
 20
-5790.233
 30
-1386.027
 70
    32
  0
VERTEX
  8
T66SSILL
 62
8
 10
1164.533
 20
-5791.599
 30
-1386.022
 70
    32
  0
VERTEX
  8
T66SSILL
 62
8
 10
1170.959
 20
-5799.907
 30
-1386.028
 70
    32
  0
VERTEX
  8
T66SSILL
 62
8
 10
1175.691
 20
-5799.016
 30
-1386.016
 70
    32
  0
VERTEX
  8
T66SSILL
 62
8
 10
1178.239
 20
-5795.790
 30
-1386.011
 70
    32
  0
VERTEX
  8
T66SSILL
 62
8
 10
1179.810
 20
-5786.245
 30
-1385.975
 70
    32
  0
VERTEX
  8
T66SSILL
 62
8
 10
1178.963
 20
-5767.270
 30
-1385.929
 70
    32
  0
VERTEX
  8
T66SSILL
 62
8
 10
1194.753
 20
-5761.422
 30
-1385.966
 70
    32
  0
VERTEX
  8
T66SSILL
 62
8
 10
1207.263
 20
-5762.981
 30
-1386.053
 70
    32
  0
VERTEX
  8
T66SSILL
 62
8
 10
1205.986
 20
-5775.722
 30
-1386.096
 70
    32
  0
VERTEX
  8
T66SSILL
 62
8
 10
1210.393
 20
-5788.402
 30
-1386.040
 70
    32
  0
VERTEX
  8
T66SSILL
 62
8
 10
1203.290
 20
-5792.166
 30
-1386.169
 70
    32
  0
VERTEX
  8
T66SSILL
 62
8
 10
1201.961
 20
-5804.395
 30
-1386.212
 70
    32
  0
VERTEX
  8
T66SSILL
 62
8
 10
1203.609
 20
-5820.018
 30
-1386.208
 70
    32
  0
VERTEX
  8
T66SSILL
 62
8
 10
1206.736
 20
-5828.037
 30
-1386.167
 70
    32
  0
VERTEX
  8
T66SSILL
 62
8
 10
1238.268
 20
-5869.802
 30
-1385.685
 70
    32
  0
VERTEX
  8
T66SSILL
 62
8
 10
1240.145
 20
-5876.001
 30
-1385.662
 70
    32
  0
VERTEX
  8
T66SSILL
 62
8
 10
1236.337
 20
-5883.142
 30
-1385.740
 70
    32
  0
VERTEX
  8
T66SSILL
 62
8
 10
1233.215
 20
-5900.786
 30
-1385.823
 70
    32
  0
VERTEX
  8
T66SSILL
 62
8
 10
1235.120
 20
-5920.734
 30
-1385.822
 70
    32
  0
VERTEX
  8
T66SSILL
 62
8
 10
1245.226
 20
-5933.672
 30
-1385.666
 70
    32
  0
VERTEX
  8
T66SSILL
 62
8
 10
1254.731
 20
-5966.448
 30
-1385.554
 70
    32
  0
VERTEX
  8
T66SSILL
 62
8
 10
1263.824
 20
-5983.338
 30
-1385.422
 70
    32
  0
VERTEX
  8
T66SSILL
 62
8
 10
1267.369
 20
-5984.986
 30
-1385.363
 70
    32
  0
VERTEX
  8
T66SSILL
 62
8
 10
1274.643
 20
-5983.958
 30
-1385.235
 70
    32
  0
VERTEX
  8
T66SSILL
 62
8
 10
1277.699
 20
-5992.030
 30
-1385.195
 70
    32
  0
VERTEX
  8
T66SSILL
 62
8
 10
1274.445
 20
-5995.342
 30
-1385.257
 70
    32
  0
VERTEX
  8
T66SSILL
 62
8
 10
1273.502
 20
-5999.241
 30
-1385.279
 70
    32
  0
VERTEX
  8
T66SSILL
 62
8
 10
1277.015
 20
-6017.656
 30
-1385.248
 70
    32
  0
VERTEX
  8
T66SSILL
 62
8
 10
1271.995
 20
-6021.847
 30
-1385.342
 70
    32
  0
VERTEX
  8
T66SSILL
 62
8
 10
1263.817
 20
-6025.203
 30
-1385.490
 70
    32
  0
VERTEX
  8
T66SSILL
 62
8
 10
1254.988
 20
-6017.809
 30
-1385.631
 70
    32
  0
VERTEX
  8
T66SSILL
 62
8
 10
1238.564
 20
-6032.392
 30
-1385.941
 70
    32
  0
VERTEX
  8
T66SSILL
 62
8
 10
1224.105
 20
-6034.272
 30
-1386.195
 70
    32
  0
VERTEX
  8
T66SSILL
 62
8
 10
1219.825
 20
-6039.453
 30
-1386.278
 70
    32
  0
VERTEX
  8
T66SSILL
 62
8
 10
1214.886
 20
-6055.335
 30
-1386.390
 70
    32
  0
VERTEX
  8
T66SSILL
 62
8
 10
1220.780
 20
-6057.188
 30
-1386.290
 70
    32
  0
VERTEX
  8
T66SSILL
 62
8
 10
1227.171
 20
-6056.403
 30
-1386.178
 70
    32
  0
VERTEX
  8
T66SSILL
 62
8
 10
1230.870
 20
-6058.529
 30
-1386.117
 70
    32
  0
VERTEX
  8
T66SSILL
 62
8
 10
1251.535
 20
-6087.918
 30
-1385.804
 70
    32
  0
VERTEX
  8
T66SSILL
 62
8
 10
1264.130
 20
-6090.176
 30
-1385.588
 70
    32
  0
VERTEX
  8
T66SSILL
 62
8
 10
1280.048
 20
-6104.175
 30
-1385.334
 70
    32
  0
VERTEX
  8
T66SSILL
 62
8
 10
1267.299
 20
-6042.372
 30
-1385.457
 70
    32
  0
VERTEX
  8
T66SSILL
 62
8
 10
1276.720
 20
-6034.305
 30
-1385.280
 70
    32
  0
VERTEX
  8
T66SSILL
 62
8
 10
1282.383
 20
-6033.717
 30
-1385.180
 70
    32
  0
VERTEX
  8
T66SSILL
 62
8
 10
1314.133
 20
-6064.927
 30
-1384.954
 70
    32
  0
VERTEX
  8
T66SSILL
 62
8
 10
1334.318
 20
-6112.264
 30
-1384.900
 70
    32
  0
VERTEX
  8
T66SSILL
 62
8
 10
1339.274
 20
-6120.984
 30
-1384.877
 70
    32
  0
VERTEX
  8
T66SSILL
 62
8
 10
1347.571
 20
-6127.849
 30
-1384.833
 70
    32
  0
VERTEX
  8
T66SSILL
 62
8
 10
1346.187
 20
-6136.667
 30
-1384.831
 70
    32
  0
VERTEX
  8
T66SSILL
 62
8
 10
1340.401
 20
-6137.235
 30
-1384.855
 70
    32
  0
VERTEX
  8
T66SSILL
 62
8
 10
1351.562
 20
-6174.425
 30
-1384.773
 70
    32
  0
VERTEX
  8
T66SSILL
 62
8
 10
1358.174
 20
-6206.187
 30
-1384.907
 70
    32
  0
VERTEX
  8
T66SSILL
 62
8
 10
1353.146
 20
-6210.232
 30
-1384.891
 70
    32
  0
VERTEX
  8
T66SSILL
 62
8
 10
1337.441
 20
-6212.271
 30
-1384.800
 70
    32
  0
VERTEX
  8
T66SSILL
 62
8
 10
1334.761
 20
-6207.023
 30
-1384.814
 70
    32
  0
VERTEX
  8
T66SSILL
 62
8
 10
1330.976
 20
-6190.399
 30
-1384.844
 70
    32
  0
VERTEX
  8
T66SSILL
 62
8
 10
1311.205
 20
-6212.959
 30
-1384.966
 70
    32
  0
VERTEX
  8
T66SSILL
 62
8
 10
1308.516
 20
-6216.629
 30
-1385.019
 70
    32
  0
VERTEX
  8
T66SSILL
 62
8
 10
1307.604
 20
-6221.413
 30
-1385.057
 70
    32
  0
SEQEND
  8
T66SSILL
  0
ENDSEC
  0
EOF
