999
********************************
999
*   DXF File - Entities Only   *
999
*        3D Data Format        *
999
*     Output from ENVISAGE     *
999
*     24-Dec-2007 12:28:06     *
999
********************************
  0
SECTION 
  2
HEADER
  9
$ACADVER
  1
AC1009
  9
$EXTMIN
 10
-290000.000
 20
-250000.000
 30
-4000.000
  9
$EXTMAX
 10
5000000.000
 20
600000.000
 30
6000.000
  0
ENDSEC
  0
SECTION
  2
ENTITIES
  0
POLYLINE
  8
T69SSILL
 62
3
 66
     1
 70
     9
  0
VERTEX
  8
T69SSILL
 62
3
 10
1521.826
 20
-6397.795
 30
-1672.702
 70
    32
  0
VERTEX
  8
T69SSILL
 62
3
 10
1523.316
 20
-6400.735
 30
-1672.692
 70
    32
  0
VERTEX
  8
T69SSILL
 62
3
 10
1473.209
 20
-6448.644
 30
-1672.360
 70
    32
  0
VERTEX
  8
T69SSILL
 62
3
 10
1470.220
 20
-6451.501
 30
-1672.381
 70
    32
  0
VERTEX
  8
T69SSILL
 62
3
 10
1458.144
 20
-6437.496
 30
-1672.410
 70
    32
  0
VERTEX
  8
T69SSILL
 62
3
 10
1458.263
 20
-6432.303
 30
-1672.399
 70
    32
  0
VERTEX
  8
T69SSILL
 62
3
 10
1458.915
 20
-6403.794
 30
-1672.528
 70
    32
  0
SEQEND
  8
T69SSILL
  0
POLYLINE
  8
T69SSILL
 62
3
 66
     1
 70
     9
  0
VERTEX
  8
T69SSILL
 62
3
 10
5872.010
 20
-8475.175
 30
-1681.706
 70
    32
  0
VERTEX
  8
T69SSILL
 62
3
 10
5863.551
 20
-8481.378
 30
-1681.673
 70
    32
  0
VERTEX
  8
T69SSILL
 62
3
 10
5827.706
 20
-8496.828
 30
-1681.446
 70
    32
  0
VERTEX
  8
T69SSILL
 62
3
 10
5821.879
 20
-8492.530
 30
-1681.355
 70
    32
  0
VERTEX
  8
T69SSILL
 62
3
 10
5824.662
 20
-8488.552
 30
-1681.351
 70
    32
  0
VERTEX
  8
T69SSILL
 62
3
 10
5866.575
 20
-8461.038
 30
-1681.541
 70
    32
  0
VERTEX
  8
T69SSILL
 62
3
 10
5873.223
 20
-8470.931
 30
-1681.684
 70
    32
  0
SEQEND
  8
T69SSILL
  0
POLYLINE
  8
T69SSILL
 62
3
 66
     1
 70
     9
  0
VERTEX
  8
T69SSILL
 62
3
 10
5968.753
 20
-8583.686
 30
-1684.938
 70
    32
  0
VERTEX
  8
T69SSILL
 62
3
 10
5967.249
 20
-8576.203
 30
-1685.107
 70
    32
  0
VERTEX
  8
T69SSILL
 62
3
 10
5967.126
 20
-8575.934
 30
-1685.114
 70
    32
  0
VERTEX
  8
T69SSILL
 62
3
 10
5965.751
 20
-8572.913
 30
-1685.074
 70
    32
  0
VERTEX
  8
T69SSILL
 62
3
 10
5960.979
 20
-8562.431
 30
-1685.040
 70
    32
  0
VERTEX
  8
T69SSILL
 62
3
 10
5948.106
 20
-8534.157
 30
-1684.305
 70
    32
  0
VERTEX
  8
T69SSILL
 62
3
 10
5906.135
 20
-8472.744
 30
-1682.443
 70
    32
  0
VERTEX
  8
T69SSILL
 62
3
 10
5904.049
 20
-8469.372
 30
-1682.345
 70
    32
  0
VERTEX
  8
T69SSILL
 62
3
 10
5897.438
 20
-8458.683
 30
-1682.029
 70
    32
  0
VERTEX
  8
T69SSILL
 62
3
 10
5896.806
 20
-8455.917
 30
-1681.974
 70
    32
  0
VERTEX
  8
T69SSILL
 62
3
 10
5892.202
 20
-8451.777
 30
-1681.800
 70
    32
  0
VERTEX
  8
T69SSILL
 62
3
 10
5892.623
 20
-8447.711
 30
-1681.753
 70
    32
  0
VERTEX
  8
T69SSILL
 62
3
 10
5892.999
 20
-8444.075
 30
-1681.697
 70
    32
  0
VERTEX
  8
T69SSILL
 62
3
 10
5892.481
 20
-8442.683
 30
-1681.663
 70
    32
  0
VERTEX
  8
T69SSILL
 62
3
 10
5891.786
 20
-8440.816
 30
-1681.634
 70
    32
  0
VERTEX
  8
T69SSILL
 62
3
 10
5890.789
 20
-8438.137
 30
-1681.629
 70
    32
  0
VERTEX
  8
T69SSILL
 62
3
 10
5886.763
 20
-8433.150
 30
-1681.611
 70
    32
  0
VERTEX
  8
T69SSILL
 62
3
 10
5863.131
 20
-8430.728
 30
-1681.527
 70
    32
  0
VERTEX
  8
T69SSILL
 62
3
 10
5858.833
 20
-8431.977
 30
-1681.513
 70
    32
  0
VERTEX
  8
T69SSILL
 62
3
 10
5815.749
 20
-8365.347
 30
-1681.320
 70
    32
  0
VERTEX
  8
T69SSILL
 62
3
 10
5865.306
 20
-8379.349
 30
-1681.503
 70
    32
  0
VERTEX
  8
T69SSILL
 62
3
 10
5922.634
 20
-8392.287
 30
-1681.712
 70
    32
  0
VERTEX
  8
T69SSILL
 62
3
 10
5930.315
 20
-8394.021
 30
-1681.858
 70
    32
  0
VERTEX
  8
T69SSILL
 62
3
 10
5968.518
 20
-8415.509
 30
-1682.701
 70
    32
  0
VERTEX
  8
T69SSILL
 62
3
 10
5973.552
 20
-8423.022
 30
-1682.855
 70
    32
  0
VERTEX
  8
T69SSILL
 62
3
 10
5977.709
 20
-8429.225
 30
-1683.042
 70
    32
  0
VERTEX
  8
T69SSILL
 62
3
 10
5989.747
 20
-8447.189
 30
-1683.021
 70
    32
  0
VERTEX
  8
T69SSILL
 62
3
 10
6028.662
 20
-8505.265
 30
-1683.235
 70
    32
  0
VERTEX
  8
T69SSILL
 62
3
 10
6033.665
 20
-8520.786
 30
-1683.290
 70
    32
  0
VERTEX
  8
T69SSILL
 62
3
 10
6035.127
 20
-8541.208
 30
-1683.360
 70
    32
  0
VERTEX
  8
T69SSILL
 62
3
 10
6033.813
 20
-8548.000
 30
-1683.383
 70
    32
  0
VERTEX
  8
T69SSILL
 62
3
 10
6032.365
 20
-8555.488
 30
-1683.505
 70
    32
  0
VERTEX
  8
T69SSILL
 62
3
 10
6031.744
 20
-8556.906
 30
-1683.536
 70
    32
  0
VERTEX
  8
T69SSILL
 62
3
 10
6026.279
 20
-8569.399
 30
-1683.904
 70
    32
  0
VERTEX
  8
T69SSILL
 62
3
 10
6021.133
 20
-8579.227
 30
-1684.209
 70
    32
  0
VERTEX
  8
T69SSILL
 62
3
 10
6016.424
 20
-8583.005
 30
-1684.376
 70
    32
  0
VERTEX
  8
T69SSILL
 62
3
 10
6013.680
 20
-8585.043
 30
-1684.470
 70
    32
  0
VERTEX
  8
T69SSILL
 62
3
 10
5971.534
 20
-8616.334
 30
-1684.235
 70
    32
  0
VERTEX
  8
T69SSILL
 62
3
 10
5969.123
 20
-8615.403
 30
-1684.278
 70
    32
  0
VERTEX
  8
T69SSILL
 62
3
 10
5970.399
 20
-8607.024
 30
-1684.439
 70
    32
  0
VERTEX
  8
T69SSILL
 62
3
 10
5970.130
 20
-8591.865
 30
-1684.755
 70
    32
  0
SEQEND
  8
T69SSILL
  0
POLYLINE
  8
T69SSILL
 62
3
 66
     1
 70
     9
  0
VERTEX
  8
T69SSILL
 62
3
 10
1311.542
 20
-5831.634
 30
-1671.187
 70
    32
  0
VERTEX
  8
T69SSILL
 62
3
 10
1313.975
 20
-5824.223
 30
-1671.044
 70
    32
  0
VERTEX
  8
T69SSILL
 62
3
 10
1333.901
 20
-5801.021
 30
-1670.377
 70
    32
  0
VERTEX
  8
T69SSILL
 62
3
 10
1340.671
 20
-5793.138
 30
-1670.349
 70
    32
  0
VERTEX
  8
T69SSILL
 62
3
 10
1343.789
 20
-5793.426
 30
-1670.331
 70
    32
  0
VERTEX
  8
T69SSILL
 62
3
 10
1346.231
 20
-5795.042
 30
-1670.314
 70
    32
  0
VERTEX
  8
T69SSILL
 62
3
 10
1346.183
 20
-5801.782
 30
-1670.305
 70
    32
  0
VERTEX
  8
T69SSILL
 62
3
 10
1352.009
 20
-5813.747
 30
-1670.255
 70
    32
  0
VERTEX
  8
T69SSILL
 62
3
 10
1355.203
 20
-5817.972
 30
-1670.230
 70
    32
  0
VERTEX
  8
T69SSILL
 62
3
 10
1358.439
 20
-5822.252
 30
-1670.231
 70
    32
  0
VERTEX
  8
T69SSILL
 62
3
 10
1364.396
 20
-5833.598
 30
-1670.279
 70
    32
  0
VERTEX
  8
T69SSILL
 62
3
 10
1371.006
 20
-5840.895
 30
-1670.261
 70
    32
  0
VERTEX
  8
T69SSILL
 62
3
 10
1372.031
 20
-5847.076
 30
-1670.326
 70
    32
  0
VERTEX
  8
T69SSILL
 62
3
 10
1372.213
 20
-5848.175
 30
-1670.340
 70
    32
  0
VERTEX
  8
T69SSILL
 62
3
 10
1370.121
 20
-5851.707
 30
-1670.423
 70
    32
  0
VERTEX
  8
T69SSILL
 62
3
 10
1344.574
 20
-5894.823
 30
-1671.458
 70
    32
  0
VERTEX
  8
T69SSILL
 62
3
 10
1338.518
 20
-5896.961
 30
-1671.594
 70
    32
  0
VERTEX
  8
T69SSILL
 62
3
 10
1309.583
 20
-5837.624
 30
-1671.303
 70
    32
  0
SEQEND
  8
T69SSILL
  0
POLYLINE
  8
T69SSILL
 62
3
 66
     1
 70
     9
  0
VERTEX
  8
T69SSILL
 62
3
 10
1255.836
 20
-5402.054
 30
-1669.945
 70
    32
  0
VERTEX
  8
T69SSILL
 62
3
 10
1253.248
 20
-5426.320
 30
-1669.926
 70
    32
  0
VERTEX
  8
T69SSILL
 62
3
 10
1254.505
 20
-5449.731
 30
-1669.889
 70
    32
  0
VERTEX
  8
T69SSILL
 62
3
 10
1257.461
 20
-5467.950
 30
-1669.851
 70
    32
  0
VERTEX
  8
T69SSILL
 62
3
 10
1262.201
 20
-5481.008
 30
-1669.811
 70
    32
  0
VERTEX
  8
T69SSILL
 62
3
 10
1290.665
 20
-5521.681
 30
-1669.622
 70
    32
  0
VERTEX
  8
T69SSILL
 62
3
 10
1289.386
 20
-5529.775
 30
-1669.617
 70
    32
  0
VERTEX
  8
T69SSILL
 62
3
 10
1287.594
 20
-5537.382
 30
-1669.616
 70
    32
  0
VERTEX
  8
T69SSILL
 62
3
 10
1274.751
 20
-5558.769
 30
-1669.649
 70
    32
  0
VERTEX
  8
T69SSILL
 62
3
 10
1270.994
 20
-5565.026
 30
-1669.903
 70
    32
  0
VERTEX
  8
T69SSILL
 62
3
 10
1258.961
 20
-5547.955
 30
-1669.739
 70
    32
  0
VERTEX
  8
T69SSILL
 62
3
 10
1249.735
 20
-5534.867
 30
-1669.800
 70
    32
  0
VERTEX
  8
T69SSILL
 62
3
 10
1247.471
 20
-5530.655
 30
-1669.816
 70
    32
  0
VERTEX
  8
T69SSILL
 62
3
 10
1246.579
 20
-5520.934
 30
-1669.833
 70
    32
  0
VERTEX
  8
T69SSILL
 62
3
 10
1242.257
 20
-5515.940
 30
-1669.861
 70
    32
  0
VERTEX
  8
T69SSILL
 62
3
 10
1235.288
 20
-5511.045
 30
-1669.900
 70
    32
  0
VERTEX
  8
T69SSILL
 62
3
 10
1213.691
 20
-5479.070
 30
-1670.045
 70
    32
  0
VERTEX
  8
T69SSILL
 62
3
 10
1194.492
 20
-5491.019
 30
-1670.121
 70
    32
  0
VERTEX
  8
T69SSILL
 62
3
 10
1206.560
 20
-5512.067
 30
-1670.036
 70
    32
  0
VERTEX
  8
T69SSILL
 62
3
 10
1214.901
 20
-5526.616
 30
-1670.221
 70
    32
  0
VERTEX
  8
T69SSILL
 62
3
 10
1215.245
 20
-5529.761
 30
-1670.296
 70
    32
  0
VERTEX
  8
T69SSILL
 62
3
 10
1211.994
 20
-5531.272
 30
-1670.413
 70
    32
  0
VERTEX
  8
T69SSILL
 62
3
 10
1213.336
 20
-5540.399
 30
-1670.622
 70
    32
  0
VERTEX
  8
T69SSILL
 62
3
 10
1218.178
 20
-5550.465
 30
-1670.772
 70
    32
  0
VERTEX
  8
T69SSILL
 62
3
 10
1225.464
 20
-5556.381
 30
-1670.755
 70
    32
  0
VERTEX
  8
T69SSILL
 62
3
 10
1228.456
 20
-5556.857
 30
-1670.697
 70
    32
  0
VERTEX
  8
T69SSILL
 62
3
 10
1235.550
 20
-5552.335
 30
-1670.409
 70
    32
  0
VERTEX
  8
T69SSILL
 62
3
 10
1236.903
 20
-5555.076
 30
-1670.449
 70
    32
  0
VERTEX
  8
T69SSILL
 62
3
 10
1234.342
 20
-5562.257
 30
-1670.699
 70
    32
  0
VERTEX
  8
T69SSILL
 62
3
 10
1220.069
 20
-5570.691
 30
-1671.260
 70
    32
  0
VERTEX
  8
T69SSILL
 62
3
 10
1215.156
 20
-5571.721
 30
-1671.403
 70
    32
  0
VERTEX
  8
T69SSILL
 62
3
 10
1217.775
 20
-5579.165
 30
-1671.537
 70
    32
  0
VERTEX
  8
T69SSILL
 62
3
 10
1222.941
 20
-5581.914
 30
-1671.487
 70
    32
  0
VERTEX
  8
T69SSILL
 62
3
 10
1232.193
 20
-5589.866
 30
-1671.477
 70
    32
  0
VERTEX
  8
T69SSILL
 62
3
 10
1251.337
 20
-5578.812
 30
-1670.732
 70
    32
  0
VERTEX
  8
T69SSILL
 62
3
 10
1255.414
 20
-5587.829
 30
-1670.873
 70
    32
  0
VERTEX
  8
T69SSILL
 62
3
 10
1222.266
 20
-5643.725
 30
-1673.131
 70
    32
  0
VERTEX
  8
T69SSILL
 62
3
 10
1222.148
 20
-5643.925
 30
-1673.131
 70
    32
  0
VERTEX
  8
T69SSILL
 62
3
 10
1217.134
 20
-5647.451
 30
-1673.215
 70
    32
  0
VERTEX
  8
T69SSILL
 62
3
 10
1214.844
 20
-5652.732
 30
-1673.191
 70
    32
  0
VERTEX
  8
T69SSILL
 62
3
 10
1210.707
 20
-5654.897
 30
-1673.273
 70
    32
  0
VERTEX
  8
T69SSILL
 62
3
 10
1206.293
 20
-5653.108
 30
-1673.430
 70
    32
  0
VERTEX
  8
T69SSILL
 62
3
 10
1202.393
 20
-5646.019
 30
-1673.663
 70
    32
  0
VERTEX
  8
T69SSILL
 62
3
 10
1193.745
 20
-5630.299
 30
-1673.454
 70
    32
  0
VERTEX
  8
T69SSILL
 62
3
 10
1157.123
 20
-5563.730
 30
-1671.571
 70
    32
  0
VERTEX
  8
T69SSILL
 62
3
 10
1148.869
 20
-5536.573
 30
-1670.993
 70
    32
  0
VERTEX
  8
T69SSILL
 62
3
 10
1147.603
 20
-5520.252
 30
-1670.752
 70
    32
  0
VERTEX
  8
T69SSILL
 62
3
 10
1145.397
 20
-5514.525
 30
-1670.617
 70
    32
  0
VERTEX
  8
T69SSILL
 62
3
 10
1149.297
 20
-5496.430
 30
-1670.500
 70
    32
  0
VERTEX
  8
T69SSILL
 62
3
 10
1154.300
 20
-5485.721
 30
-1670.508
 70
    32
  0
VERTEX
  8
T69SSILL
 62
3
 10
1155.307
 20
-5484.240
 30
-1670.518
 70
    32
  0
VERTEX
  8
T69SSILL
 62
3
 10
1158.683
 20
-5479.277
 30
-1670.308
 70
    32
  0
VERTEX
  8
T69SSILL
 62
3
 10
1165.146
 20
-5469.776
 30
-1670.289
 70
    32
  0
VERTEX
  8
T69SSILL
 62
3
 10
1172.308
 20
-5461.874
 30
-1670.265
 70
    32
  0
SEQEND
  8
T69SSILL
  0
POLYLINE
  8
T69SSILL
 62
3
 66
     1
 70
     9
  0
VERTEX
  8
T69SSILL
 62
3
 10
2021.217
 20
-8015.780
 30
-1666.132
 70
    32
  0
VERTEX
  8
T69SSILL
 62
3
 10
2021.029
 20
-8009.953
 30
-1666.127
 70
    32
  0
VERTEX
  8
T69SSILL
 62
3
 10
2012.349
 20
-8003.626
 30
-1666.106
 70
    32
  0
VERTEX
  8
T69SSILL
 62
3
 10
2010.515
 20
-7994.781
 30
-1666.095
 70
    32
  0
VERTEX
  8
T69SSILL
 62
3
 10
2029.366
 20
-7990.684
 30
-1666.129
 70
    32
  0
VERTEX
  8
T69SSILL
 62
3
 10
2044.858
 20
-7998.578
 30
-1666.165
 70
    32
  0
VERTEX
  8
T69SSILL
 62
3
 10
2052.079
 20
-7998.456
 30
-1666.179
 70
    32
  0
SEQEND
  8
T69SSILL
  0
POLYLINE
  8
T69SSILL
 62
3
 66
     1
 70
     9
  0
VERTEX
  8
T69SSILL
 62
3
 10
1980.657
 20
-7965.837
 30
-1666.015
 70
    32
  0
VERTEX
  8
T69SSILL
 62
3
 10
1981.165
 20
-7966.352
 30
-1666.017
 70
    32
  0
VERTEX
  8
T69SSILL
 62
3
 10
1986.004
 20
-7971.260
 30
-1666.030
 70
    32
  0
VERTEX
  8
T69SSILL
 62
3
 10
1983.680
 20
-7983.561
 30
-1666.035
 70
    32
  0
VERTEX
  8
T69SSILL
 62
3
 10
1982.615
 20
-7989.194
 30
-1666.031
 70
    32
  0
VERTEX
  8
T69SSILL
 62
3
 10
1977.230
 20
-8000.319
 30
-1666.006
 70
    32
  0
VERTEX
  8
T69SSILL
 62
3
 10
1980.161
 20
-8009.221
 30
-1666.023
 70
    32
  0
VERTEX
  8
T69SSILL
 62
3
 10
1987.509
 20
-8009.765
 30
-1666.062
 70
    32
  0
VERTEX
  8
T69SSILL
 62
3
 10
2004.565
 20
-8011.029
 30
-1666.096
 70
    32
  0
VERTEX
  8
T69SSILL
 62
3
 10
2005.117
 20
-8015.308
 30
-1666.100
 70
    32
  0
VERTEX
  8
T69SSILL
 62
3
 10
2003.020
 20
-8026.046
 30
-1666.104
 70
    32
  0
VERTEX
  8
T69SSILL
 62
3
 10
1992.262
 20
-8040.205
 30
-1666.093
 70
    32
  0
VERTEX
  8
T69SSILL
 62
3
 10
1991.998
 20
-8040.488
 30
-1666.093
 70
    32
  0
VERTEX
  8
T69SSILL
 62
3
 10
1989.490
 20
-8043.180
 30
-1666.081
 70
    32
  0
VERTEX
  8
T69SSILL
 62
3
 10
1982.196
 20
-8051.007
 30
-1666.084
 70
    32
  0
VERTEX
  8
T69SSILL
 62
3
 10
1959.297
 20
-8071.902
 30
-1666.086
 70
    32
  0
VERTEX
  8
T69SSILL
 62
3
 10
1952.310
 20
-8073.392
 30
-1666.073
 70
    32
  0
VERTEX
  8
T69SSILL
 62
3
 10
1950.835
 20
-8071.156
 30
-1666.064
 70
    32
  0
VERTEX
  8
T69SSILL
 62
3
 10
1941.082
 20
-7986.184
 30
-1665.814
 70
    32
  0
VERTEX
  8
T69SSILL
 62
3
 10
1939.011
 20
-7968.139
 30
-1665.798
 70
    32
  0
VERTEX
  8
T69SSILL
 62
3
 10
1942.716
 20
-7966.543
 30
-1665.817
 70
    32
  0
SEQEND
  8
T69SSILL
  0
POLYLINE
  8
T69SSILL
 62
3
 66
     1
 70
     9
  0
VERTEX
  8
T69SSILL
 62
3
 10
1300.000
 20
-6575.000
 30
-1673.395
 70
    32
  0
VERTEX
  8
T69SSILL
 62
3
 10
1300.919
 20
-6577.986
 30
-1673.452
 70
    32
  0
VERTEX
  8
T69SSILL
 62
3
 10
1301.588
 20
-6580.161
 30
-1673.461
 70
    32
  0
VERTEX
  8
T69SSILL
 62
3
 10
1302.165
 20
-6582.035
 30
-1673.471
 70
    32
  0
VERTEX
  8
T69SSILL
 62
3
 10
1320.000
 20
-6640.000
 30
-1672.983
 70
    32
  0
VERTEX
  8
T69SSILL
 62
3
 10
1330.358
 20
-6667.189
 30
-1672.731
 70
    32
  0
VERTEX
  8
T69SSILL
 62
3
 10
1331.454
 20
-6670.067
 30
-1672.656
 70
    32
  0
VERTEX
  8
T69SSILL
 62
3
 10
1360.000
 20
-6745.000
 30
-1671.929
 70
    32
  0
VERTEX
  8
T69SSILL
 62
3
 10
1367.661
 20
-6760.052
 30
-1671.783
 70
    32
  0
VERTEX
  8
T69SSILL
 62
3
 10
1369.191
 20
-6763.057
 30
-1671.752
 70
    32
  0
VERTEX
  8
T69SSILL
 62
3
 10
1369.340
 20
-6763.350
 30
-1671.750
 70
    32
  0
VERTEX
  8
T69SSILL
 62
3
 10
1369.652
 20
-6764.130
 30
-1671.742
 70
    32
  0
VERTEX
  8
T69SSILL
 62
3
 10
1406.475
 20
-6856.188
 30
-1670.679
 70
    32
  0
VERTEX
  8
T69SSILL
 62
3
 10
1408.424
 20
-6861.061
 30
-1670.638
 70
    32
  0
VERTEX
  8
T69SSILL
 62
3
 10
1443.053
 20
-6947.632
 30
-1670.904
 70
    32
  0
VERTEX
  8
T69SSILL
 62
3
 10
1444.508
 20
-6951.269
 30
-1670.895
 70
    32
  0
VERTEX
  8
T69SSILL
 62
3
 10
1440.379
 20
-6962.273
 30
-1670.802
 70
    32
  0
VERTEX
  8
T69SSILL
 62
3
 10
1453.465
 20
-6992.142
 30
-1670.734
 70
    32
  0
VERTEX
  8
T69SSILL
 62
3
 10
1462.273
 20
-6995.001
 30
-1670.784
 70
    32
  0
VERTEX
  8
T69SSILL
 62
3
 10
1482.753
 20
-7043.826
 30
-1670.666
 70
    32
  0
VERTEX
  8
T69SSILL
 62
3
 10
1486.584
 20
-7052.960
 30
-1670.636
 70
    32
  0
VERTEX
  8
T69SSILL
 62
3
 10
1390.240
 20
-7005.370
 30
-1670.186
 70
    32
  0
VERTEX
  8
T69SSILL
 62
3
 10
1336.307
 20
-6978.730
 30
-1669.930
 70
    32
  0
VERTEX
  8
T69SSILL
 62
3
 10
1321.641
 20
-6971.002
 30
-1669.863
 70
    32
  0
VERTEX
  8
T69SSILL
 62
3
 10
1316.122
 20
-6968.093
 30
-1669.817
 70
    32
  0
VERTEX
  8
T69SSILL
 62
3
 10
1299.023
 20
-6959.083
 30
-1669.901
 70
    32
  0
VERTEX
  8
T69SSILL
 62
3
 10
1257.455
 20
-6937.179
 30
-1670.133
 70
    32
  0
VERTEX
  8
T69SSILL
 62
3
 10
1247.274
 20
-6926.945
 30
-1670.224
 70
    32
  0
VERTEX
  8
T69SSILL
 62
3
 10
1237.160
 20
-6912.570
 30
-1670.344
 70
    32
  0
VERTEX
  8
T69SSILL
 62
3
 10
1225.041
 20
-6885.991
 30
-1670.554
 70
    32
  0
VERTEX
  8
T69SSILL
 62
3
 10
1224.446
 20
-6880.044
 30
-1670.597
 70
    32
  0
VERTEX
  8
T69SSILL
 62
3
 10
1223.674
 20
-6872.326
 30
-1670.661
 70
    32
  0
VERTEX
  8
T69SSILL
 62
3
 10
1223.322
 20
-6868.809
 30
-1670.700
 70
    32
  0
VERTEX
  8
T69SSILL
 62
3
 10
1218.633
 20
-6821.930
 30
-1671.130
 70
    32
  0
VERTEX
  8
T69SSILL
 62
3
 10
1208.876
 20
-6724.396
 30
-1672.128
 70
    32
  0
VERTEX
  8
T69SSILL
 62
3
 10
1208.548
 20
-6721.118
 30
-1672.160
 70
    32
  0
VERTEX
  8
T69SSILL
 62
3
 10
1202.320
 20
-6658.866
 30
-1673.669
 70
    32
  0
VERTEX
  8
T69SSILL
 62
3
 10
1200.652
 20
-6625.845
 30
-1674.460
 70
    32
  0
VERTEX
  8
T69SSILL
 62
3
 10
1200.441
 20
-6621.682
 30
-1674.483
 70
    32
  0
VERTEX
  8
T69SSILL
 62
3
 10
1199.542
 20
-6603.888
 30
-1674.354
 70
    32
  0
VERTEX
  8
T69SSILL
 62
3
 10
1197.468
 20
-6586.620
 30
-1674.237
 70
    32
  0
VERTEX
  8
T69SSILL
 62
3
 10
1200.432
 20
-6574.671
 30
-1674.126
 70
    32
  0
VERTEX
  8
T69SSILL
 62
3
 10
1202.372
 20
-6566.848
 30
-1674.063
 70
    32
  0
VERTEX
  8
T69SSILL
 62
3
 10
1214.577
 20
-6539.076
 30
-1673.804
 70
    32
  0
VERTEX
  8
T69SSILL
 62
3
 10
1216.301
 20
-6535.154
 30
-1673.686
 70
    32
  0
VERTEX
  8
T69SSILL
 62
3
 10
1217.242
 20
-6533.010
 30
-1673.687
 70
    32
  0
VERTEX
  8
T69SSILL
 62
3
 10
1250.445
 20
-6492.630
 30
-1673.416
 70
    32
  0
VERTEX
  8
T69SSILL
 62
3
 10
1259.916
 20
-6482.605
 30
-1673.326
 70
    32
  0
VERTEX
  8
T69SSILL
 62
3
 10
1265.048
 20
-6477.173
 30
-1673.434
 70
    32
  0
VERTEX
  8
T69SSILL
 62
3
 10
1272.950
 20
-6479.407
 30
-1673.373
 70
    32
  0
VERTEX
  8
T69SSILL
 62
3
 10
1276.801
 20
-6493.170
 30
-1673.071
 70
    32
  0
VERTEX
  8
T69SSILL
 62
3
 10
1282.335
 20
-6512.688
 30
-1672.644
 70
    32
  0
VERTEX
  8
T69SSILL
 62
3
 10
1286.218
 20
-6526.384
 30
-1672.452
 70
    32
  0
SEQEND
  8
T69SSILL
  0
POLYLINE
  8
T69SSILL
 62
3
 66
     1
 70
     9
  0
VERTEX
  8
T69SSILL
 62
3
 10
1475.000
 20
-6605.000
 30
-1672.671
 70
    32
  0
VERTEX
  8
T69SSILL
 62
3
 10
1470.000
 20
-6610.000
 30
-1672.705
 70
    32
  0
VERTEX
  8
T69SSILL
 62
3
 10
1466.402
 20
-6620.795
 30
-1672.744
 70
    32
  0
VERTEX
  8
T69SSILL
 62
3
 10
1465.000
 20
-6625.000
 30
-1672.715
 70
    32
  0
VERTEX
  8
T69SSILL
 62
3
 10
1440.000
 20
-6640.000
 30
-1672.654
 70
    32
  0
VERTEX
  8
T69SSILL
 62
3
 10
1437.236
 20
-6640.000
 30
-1672.660
 70
    32
  0
VERTEX
  8
T69SSILL
 62
3
 10
1424.681
 20
-6617.423
 30
-1672.867
 70
    32
  0
VERTEX
  8
T69SSILL
 62
3
 10
1421.169
 20
-6609.386
 30
-1672.938
 70
    32
  0
VERTEX
  8
T69SSILL
 62
3
 10
1414.828
 20
-6594.873
 30
-1672.939
 70
    32
  0
VERTEX
  8
T69SSILL
 62
3
 10
1410.732
 20
-6569.916
 30
-1672.908
 70
    32
  0
VERTEX
  8
T69SSILL
 62
3
 10
1411.225
 20
-6557.771
 30
-1672.880
 70
    32
  0
VERTEX
  8
T69SSILL
 62
3
 10
1409.932
 20
-6540.529
 30
-1672.851
 70
    32
  0
VERTEX
  8
T69SSILL
 62
3
 10
1419.028
 20
-6518.855
 30
-1672.764
 70
    32
  0
VERTEX
  8
T69SSILL
 62
3
 10
1429.117
 20
-6503.212
 30
-1672.683
 70
    32
  0
VERTEX
  8
T69SSILL
 62
3
 10
1459.779
 20
-6474.373
 30
-1672.477
 70
    32
  0
VERTEX
  8
T69SSILL
 62
3
 10
1463.017
 20
-6475.018
 30
-1672.463
 70
    32
  0
VERTEX
  8
T69SSILL
 62
3
 10
1466.033
 20
-6478.338
 30
-1672.455
 70
    32
  0
VERTEX
  8
T69SSILL
 62
3
 10
1465.365
 20
-6486.526
 30
-1672.475
 70
    32
  0
VERTEX
  8
T69SSILL
 62
3
 10
1460.710
 20
-6494.205
 30
-1672.513
 70
    32
  0
VERTEX
  8
T69SSILL
 62
3
 10
1454.567
 20
-6498.943
 30
-1672.552
 70
    32
  0
VERTEX
  8
T69SSILL
 62
3
 10
1456.218
 20
-6516.648
 30
-1672.581
 70
    32
  0
VERTEX
  8
T69SSILL
 62
3
 10
1460.080
 20
-6532.549
 30
-1672.595
 70
    32
  0
VERTEX
  8
T69SSILL
 62
3
 10
1460.000
 20
-6565.000
 30
-1672.661
 70
    32
  0
VERTEX
  8
T69SSILL
 62
3
 10
1465.000
 20
-6570.000
 30
-1672.647
 70
    32
  0
VERTEX
  8
T69SSILL
 62
3
 10
1465.000
 20
-6575.000
 30
-1672.658
 70
    32
  0
VERTEX
  8
T69SSILL
 62
3
 10
1470.000
 20
-6590.000
 30
-1672.664
 70
    32
  0
SEQEND
  8
T69SSILL
  0
POLYLINE
  8
T69SSILL
 62
3
 66
     1
 70
     9
  0
VERTEX
  8
T69SSILL
 62
3
 10
2001.877
 20
-7956.581
 30
-1666.050
 70
    32
  0
VERTEX
  8
T69SSILL
 62
3
 10
2008.143
 20
-7984.285
 30
-1666.083
 70
    32
  0
VERTEX
  8
T69SSILL
 62
3
 10
2026.283
 20
-7980.051
 30
-1666.115
 70
    32
  0
VERTEX
  8
T69SSILL
 62
3
 10
2026.394
 20
-7951.543
 30
-1666.094
 70
    32
  0
SEQEND
  8
T69SSILL
  0
POLYLINE
  8
T69SSILL
 62
3
 66
     1
 70
     9
  0
VERTEX
  8
T69SSILL
 62
3
 10
2023.439
 20
-7920.057
 30
-1666.066
 70
    32
  0
VERTEX
  8
T69SSILL
 62
3
 10
2028.227
 20
-7934.098
 30
-1666.085
 70
    32
  0
VERTEX
  8
T69SSILL
 62
3
 10
2026.811
 20
-7941.087
 30
-1666.088
 70
    32
  0
VERTEX
  8
T69SSILL
 62
3
 10
2000.264
 20
-7947.988
 30
-1666.041
 70
    32
  0
VERTEX
  8
T69SSILL
 62
3
 10
1998.337
 20
-7945.058
 30
-1666.035
 70
    32
  0
VERTEX
  8
T69SSILL
 62
3
 10
1992.913
 20
-7922.200
 30
-1666.008
 70
    32
  0
VERTEX
  8
T69SSILL
 62
3
 10
2025.450
 20
-7914.700
 30
-1666.066
 70
    32
  0
SEQEND
  8
T69SSILL
  0
POLYLINE
  8
T69SSILL
 62
3
 66
     1
 70
     9
  0
VERTEX
  8
T69SSILL
 62
3
 10
2030.587
 20
-7891.824
 30
-1666.059
 70
    32
  0
VERTEX
  8
T69SSILL
 62
3
 10
2031.153
 20
-7896.638
 30
-1666.063
 70
    32
  0
VERTEX
  8
T69SSILL
 62
3
 10
2028.354
 20
-7904.726
 30
-1666.064
 70
    32
  0
VERTEX
  8
T69SSILL
 62
3
 10
2025.312
 20
-7906.891
 30
-1666.060
 70
    32
  0
VERTEX
  8
T69SSILL
 62
3
 10
1991.052
 20
-7914.556
 30
-1665.998
 70
    32
  0
VERTEX
  8
T69SSILL
 62
3
 10
1976.240
 20
-7851.989
 30
-1665.924
 70
    32
  0
VERTEX
  8
T69SSILL
 62
3
 10
1989.027
 20
-7850.102
 30
-1665.947
 70
    32
  0
SEQEND
  8
T69SSILL
  0
POLYLINE
  8
T69SSILL
 62
3
 66
     1
 70
     9
  0
VERTEX
  8
T69SSILL
 62
3
 10
1959.726
 20
-7820.544
 30
-1665.868
 70
    32
  0
VERTEX
  8
T69SSILL
 62
3
 10
1959.903
 20
-7820.854
 30
-1665.869
 70
    32
  0
VERTEX
  8
T69SSILL
 62
3
 10
1961.103
 20
-7822.961
 30
-1665.873
 70
    32
  0
VERTEX
  8
T69SSILL
 62
3
 10
1960.680
 20
-7826.173
 30
-1665.874
 70
    32
  0
VERTEX
  8
T69SSILL
 62
3
 10
1959.806
 20
-7832.813
 30
-1665.871
 70
    32
  0
VERTEX
  8
T69SSILL
 62
3
 10
1961.901
 20
-7834.526
 30
-1665.883
 70
    32
  0
VERTEX
  8
T69SSILL
 62
3
 10
1963.382
 20
-7835.737
 30
-1665.887
 70
    32
  0
VERTEX
  8
T69SSILL
 62
3
 10
1987.002
 20
-7937.091
 30
-1666.007
 70
    32
  0
VERTEX
  8
T69SSILL
 62
3
 10
1980.281
 20
-7947.951
 30
-1666.002
 70
    32
  0
VERTEX
  8
T69SSILL
 62
3
 10
1978.505
 20
-7948.154
 30
-1665.999
 70
    32
  0
VERTEX
  8
T69SSILL
 62
3
 10
1967.954
 20
-7949.360
 30
-1665.944
 70
    32
  0
VERTEX
  8
T69SSILL
 62
3
 10
1942.895
 20
-7949.651
 30
-1665.814
 70
    32
  0
VERTEX
  8
T69SSILL
 62
3
 10
1939.214
 20
-7949.386
 30
-1665.794
 70
    32
  0
VERTEX
  8
T69SSILL
 62
3
 10
1936.710
 20
-7947.243
 30
-1665.781
 70
    32
  0
VERTEX
  8
T69SSILL
 62
3
 10
1924.158
 20
-7833.289
 30
-1665.686
 70
    32
  0
VERTEX
  8
T69SSILL
 62
3
 10
1921.468
 20
-7808.866
 30
-1666.932
 70
    32
  0
VERTEX
  8
T69SSILL
 62
3
 10
1920.917
 20
-7803.856
 30
-1666.955
 70
    32
  0
VERTEX
  8
T69SSILL
 62
3
 10
1924.043
 20
-7801.924
 30
-1666.868
 70
    32
  0
VERTEX
  8
T69SSILL
 62
3
 10
1924.834
 20
-7787.964
 30
-1666.866
 70
    32
  0
VERTEX
  8
T69SSILL
 62
3
 10
1950.328
 20
-7811.472
 30
-1666.100
 70
    32
  0
VERTEX
  8
T69SSILL
 62
3
 10
1954.131
 20
-7814.979
 30
-1665.837
 70
    32
  0
VERTEX
  8
T69SSILL
 62
3
 10
1959.098
 20
-7819.559
 30
-1665.864
 70
    32
  0
SEQEND
  8
T69SSILL
  0
POLYLINE
  8
T69SSILL
 62
3
 66
     1
 70
     9
  0
VERTEX
  8
T69SSILL
 62
3
 10
1289.699
 20
-5863.657
 30
-1671.611
 70
    32
  0
VERTEX
  8
T69SSILL
 62
3
 10
1293.717
 20
-5840.087
 30
-1671.482
 70
    32
  0
VERTEX
  8
T69SSILL
 62
3
 10
1300.142
 20
-5839.057
 30
-1671.466
 70
    32
  0
VERTEX
  8
T69SSILL
 62
3
 10
1334.566
 20
-5910.280
 30
-1671.781
 70
    32
  0
VERTEX
  8
T69SSILL
 62
3
 10
1332.019
 20
-5916.222
 30
-1671.816
 70
    32
  0
VERTEX
  8
T69SSILL
 62
3
 10
1331.837
 20
-5917.865
 30
-1671.825
 70
    32
  0
VERTEX
  8
T69SSILL
 62
3
 10
1331.302
 20
-5922.694
 30
-1671.897
 70
    32
  0
VERTEX
  8
T69SSILL
 62
3
 10
1330.745
 20
-5927.713
 30
-1671.947
 70
    32
  0
VERTEX
  8
T69SSILL
 62
3
 10
1324.885
 20
-5933.181
 30
-1672.023
 70
    32
  0
VERTEX
  8
T69SSILL
 62
3
 10
1326.043
 20
-5936.315
 30
-1672.047
 70
    32
  0
VERTEX
  8
T69SSILL
 62
3
 10
1328.753
 20
-5938.355
 30
-1672.056
 70
    32
  0
VERTEX
  8
T69SSILL
 62
3
 10
1337.665
 20
-5938.389
 30
-1672.020
 70
    32
  0
VERTEX
  8
T69SSILL
 62
3
 10
1343.786
 20
-5941.622
 30
-1672.025
 70
    32
  0
VERTEX
  8
T69SSILL
 62
3
 10
1350.135
 20
-5942.585
 30
-1672.009
 70
    32
  0
VERTEX
  8
T69SSILL
 62
3
 10
1377.720
 20
-6000.843
 30
-1672.447
 70
    32
  0
VERTEX
  8
T69SSILL
 62
3
 10
1378.522
 20
-6002.536
 30
-1672.460
 70
    32
  0
VERTEX
  8
T69SSILL
 62
3
 10
1422.385
 20
-6095.173
 30
-1672.699
 70
    32
  0
VERTEX
  8
T69SSILL
 62
3
 10
1424.913
 20
-6100.512
 30
-1672.685
 70
    32
  0
VERTEX
  8
T69SSILL
 62
3
 10
1426.882
 20
-6104.670
 30
-1672.658
 70
    32
  0
VERTEX
  8
T69SSILL
 62
3
 10
1441.402
 20
-6135.337
 30
-1672.777
 70
    32
  0
VERTEX
  8
T69SSILL
 62
3
 10
1443.489
 20
-6143.127
 30
-1672.798
 70
    32
  0
VERTEX
  8
T69SSILL
 62
3
 10
1440.062
 20
-6169.270
 30
-1672.802
 70
    32
  0
VERTEX
  8
T69SSILL
 62
3
 10
1435.208
 20
-6171.000
 30
-1672.773
 70
    32
  0
VERTEX
  8
T69SSILL
 62
3
 10
1417.703
 20
-6172.898
 30
-1672.667
 70
    32
  0
VERTEX
  8
T69SSILL
 62
3
 10
1413.777
 20
-6171.993
 30
-1672.642
 70
    32
  0
VERTEX
  8
T69SSILL
 62
3
 10
1381.453
 20
-6164.539
 30
-1672.960
 70
    32
  0
VERTEX
  8
T69SSILL
 62
3
 10
1380.343
 20
-6163.317
 30
-1672.973
 70
    32
  0
VERTEX
  8
T69SSILL
 62
3
 10
1347.419
 20
-6127.061
 30
-1673.167
 70
    32
  0
VERTEX
  8
T69SSILL
 62
3
 10
1350.298
 20
-6114.975
 30
-1673.147
 70
    32
  0
VERTEX
  8
T69SSILL
 62
3
 10
1339.369
 20
-6104.725
 30
-1673.211
 70
    32
  0
VERTEX
  8
T69SSILL
 62
3
 10
1336.496
 20
-6095.925
 30
-1673.227
 70
    32
  0
VERTEX
  8
T69SSILL
 62
3
 10
1335.765
 20
-6093.687
 30
-1673.219
 70
    32
  0
VERTEX
  8
T69SSILL
 62
3
 10
1330.245
 20
-6095.980
 30
-1673.265
 70
    32
  0
VERTEX
  8
T69SSILL
 62
3
 10
1314.367
 20
-6102.576
 30
-1673.364
 70
    32
  0
VERTEX
  8
T69SSILL
 62
3
 10
1311.553
 20
-6106.955
 30
-1673.383
 70
    32
  0
VERTEX
  8
T69SSILL
 62
3
 10
1312.647
 20
-6114.036
 30
-1673.378
 70
    32
  0
VERTEX
  8
T69SSILL
 62
3
 10
1271.727
 20
-6112.182
 30
-1673.629
 70
    32
  0
VERTEX
  8
T69SSILL
 62
3
 10
1254.577
 20
-6106.310
 30
-1673.733
 70
    32
  0
VERTEX
  8
T69SSILL
 62
3
 10
1249.293
 20
-6099.369
 30
-1673.763
 70
    32
  0
VERTEX
  8
T69SSILL
 62
3
 10
1248.452
 20
-6096.696
 30
-1673.768
 70
    32
  0
VERTEX
  8
T69SSILL
 62
3
 10
1242.565
 20
-6077.985
 30
-1673.702
 70
    32
  0
VERTEX
  8
T69SSILL
 62
3
 10
1245.890
 20
-6062.863
 30
-1673.599
 70
    32
  0
VERTEX
  8
T69SSILL
 62
3
 10
1260.050
 20
-5998.477
 30
-1672.902
 70
    32
  0
VERTEX
  8
T69SSILL
 62
3
 10
1271.636
 20
-5945.794
 30
-1672.358
 70
    32
  0
VERTEX
  8
T69SSILL
 62
3
 10
1278.255
 20
-5915.693
 30
-1671.899
 70
    32
  0
SEQEND
  8
T69SSILL
  0
POLYLINE
  8
T69SSILL
 62
3
 66
     1
 70
     9
  0
VERTEX
  8
T69SSILL
 62
3
 10
1229.201
 20
-6077.838
 30
-1673.782
 70
    32
  0
VERTEX
  8
T69SSILL
 62
3
 10
1235.654
 20
-6096.808
 30
-1673.847
 70
    32
  0
VERTEX
  8
T69SSILL
 62
3
 10
1236.748
 20
-6100.024
 30
-1673.841
 70
    32
  0
VERTEX
  8
T69SSILL
 62
3
 10
1283.666
 20
-6159.198
 30
-1673.566
 70
    32
  0
VERTEX
  8
T69SSILL
 62
3
 10
1333.647
 20
-6229.118
 30
-1673.275
 70
    32
  0
VERTEX
  8
T69SSILL
 62
3
 10
1351.117
 20
-6253.557
 30
-1673.061
 70
    32
  0
VERTEX
  8
T69SSILL
 62
3
 10
1356.868
 20
-6293.583
 30
-1672.925
 70
    32
  0
VERTEX
  8
T69SSILL
 62
3
 10
1354.020
 20
-6296.572
 30
-1672.945
 70
    32
  0
VERTEX
  8
T69SSILL
 62
3
 10
1352.591
 20
-6303.032
 30
-1672.945
 70
    32
  0
VERTEX
  8
T69SSILL
 62
3
 10
1358.473
 20
-6309.343
 30
-1672.877
 70
    32
  0
VERTEX
  8
T69SSILL
 62
3
 10
1360.799
 20
-6307.757
 30
-1672.858
 70
    32
  0
VERTEX
  8
T69SSILL
 62
3
 10
1361.620
 20
-6308.376
 30
-1672.849
 70
    32
  0
VERTEX
  8
T69SSILL
 62
3
 10
1367.427
 20
-6347.420
 30
-1672.714
 70
    32
  0
VERTEX
  8
T69SSILL
 62
3
 10
1368.951
 20
-6357.664
 30
-1672.717
 70
    32
  0
VERTEX
  8
T69SSILL
 62
3
 10
1370.206
 20
-6366.108
 30
-1672.573
 70
    32
  0
VERTEX
  8
T69SSILL
 62
3
 10
1371.313
 20
-6373.551
 30
-1672.696
 70
    32
  0
VERTEX
  8
T69SSILL
 62
3
 10
1385.799
 20
-6470.954
 30
-1672.825
 70
    32
  0
VERTEX
  8
T69SSILL
 62
3
 10
1375.841
 20
-6482.432
 30
-1672.896
 70
    32
  0
VERTEX
  8
T69SSILL
 62
3
 10
1370.780
 20
-6483.639
 30
-1672.923
 70
    32
  0
VERTEX
  8
T69SSILL
 62
3
 10
1358.166
 20
-6483.082
 30
-1672.983
 70
    32
  0
VERTEX
  8
T69SSILL
 62
3
 10
1352.608
 20
-6491.310
 30
-1673.026
 70
    32
  0
VERTEX
  8
T69SSILL
 62
3
 10
1394.774
 20
-6522.362
 30
-1672.887
 70
    32
  0
VERTEX
  8
T69SSILL
 62
3
 10
1386.291
 20
-6528.130
 30
-1672.940
 70
    32
  0
VERTEX
  8
T69SSILL
 62
3
 10
1375.260
 20
-6533.208
 30
-1673.003
 70
    32
  0
VERTEX
  8
T69SSILL
 62
3
 10
1354.648
 20
-6537.740
 30
-1673.111
 70
    32
  0
VERTEX
  8
T69SSILL
 62
3
 10
1331.488
 20
-6534.683
 30
-1673.216
 70
    32
  0
VERTEX
  8
T69SSILL
 62
3
 10
1323.222
 20
-6531.045
 30
-1673.248
 70
    32
  0
VERTEX
  8
T69SSILL
 62
3
 10
1322.083
 20
-6530.230
 30
-1673.252
 70
    32
  0
VERTEX
  8
T69SSILL
 62
3
 10
1309.494
 20
-6521.224
 30
-1672.787
 70
    32
  0
VERTEX
  8
T69SSILL
 62
3
 10
1301.506
 20
-6509.485
 30
-1672.417
 70
    32
  0
VERTEX
  8
T69SSILL
 62
3
 10
1301.045
 20
-6507.208
 30
-1672.376
 70
    32
  0
VERTEX
  8
T69SSILL
 62
3
 10
1299.421
 20
-6499.188
 30
-1672.523
 70
    32
  0
VERTEX
  8
T69SSILL
 62
3
 10
1286.532
 20
-6489.306
 30
-1672.971
 70
    32
  0
VERTEX
  8
T69SSILL
 62
3
 10
1283.757
 20
-6485.186
 30
-1673.094
 70
    32
  0
VERTEX
  8
T69SSILL
 62
3
 10
1275.167
 20
-6453.903
 30
-1673.724
 70
    32
  0
VERTEX
  8
T69SSILL
 62
3
 10
1248.290
 20
-6356.028
 30
-1673.814
 70
    32
  0
VERTEX
  8
T69SSILL
 62
3
 10
1246.977
 20
-6351.248
 30
-1673.836
 70
    32
  0
VERTEX
  8
T69SSILL
 62
3
 10
1196.772
 20
-6168.419
 30
-1674.102
 70
    32
  0
VERTEX
  8
T69SSILL
 62
3
 10
1198.795
 20
-6160.026
 30
-1674.088
 70
    32
  0
VERTEX
  8
T69SSILL
 62
3
 10
1196.406
 20
-6142.922
 30
-1674.098
 70
    32
  0
VERTEX
  8
T69SSILL
 62
3
 10
1185.710
 20
-6118.119
 30
-1674.158
 70
    32
  0
VERTEX
  8
T69SSILL
 62
3
 10
1180.403
 20
-6111.433
 30
-1674.189
 70
    32
  0
VERTEX
  8
T69SSILL
 62
3
 10
1176.355
 20
-6097.328
 30
-1674.211
 70
    32
  0
VERTEX
  8
T69SSILL
 62
3
 10
1175.634
 20
-6094.819
 30
-1674.202
 70
    32
  0
VERTEX
  8
T69SSILL
 62
3
 10
1147.334
 20
-5996.211
 30
-1673.338
 70
    32
  0
VERTEX
  8
T69SSILL
 62
3
 10
1146.742
 20
-5994.148
 30
-1673.321
 70
    32
  0
VERTEX
  8
T69SSILL
 62
3
 10
1129.595
 20
-5934.402
 30
-1672.471
 70
    32
  0
VERTEX
  8
T69SSILL
 62
3
 10
1129.890
 20
-5927.563
 30
-1672.369
 70
    32
  0
VERTEX
  8
T69SSILL
 62
3
 10
1133.187
 20
-5923.499
 30
-1672.302
 70
    32
  0
VERTEX
  8
T69SSILL
 62
3
 10
1129.245
 20
-5909.655
 30
-1672.105
 70
    32
  0
VERTEX
  8
T69SSILL
 62
3
 10
1126.134
 20
-5898.729
 30
-1672.054
 70
    32
  0
VERTEX
  8
T69SSILL
 62
3
 10
1124.523
 20
-5893.072
 30
-1672.049
 70
    32
  0
VERTEX
  8
T69SSILL
 62
3
 10
1121.634
 20
-5887.979
 30
-1672.053
 70
    32
  0
VERTEX
  8
T69SSILL
 62
3
 10
1115.236
 20
-5883.342
 30
-1672.078
 70
    32
  0
VERTEX
  8
T69SSILL
 62
3
 10
1093.833
 20
-5807.746
 30
-1672.017
 70
    32
  0
VERTEX
  8
T69SSILL
 62
3
 10
1074.498
 20
-5739.456
 30
-1671.836
 70
    32
  0
VERTEX
  8
T69SSILL
 62
3
 10
1071.848
 20
-5730.097
 30
-1671.808
 70
    32
  0
VERTEX
  8
T69SSILL
 62
3
 10
1072.304
 20
-5728.735
 30
-1671.803
 70
    32
  0
VERTEX
  8
T69SSILL
 62
3
 10
1073.530
 20
-5725.070
 30
-1671.783
 70
    32
  0
VERTEX
  8
T69SSILL
 62
3
 10
1070.886
 20
-5718.459
 30
-1671.769
 70
    32
  0
VERTEX
  8
T69SSILL
 62
3
 10
1073.324
 20
-5705.397
 30
-1671.705
 70
    32
  0
VERTEX
  8
T69SSILL
 62
3
 10
1074.042
 20
-5701.553
 30
-1671.835
 70
    32
  0
VERTEX
  8
T69SSILL
 62
3
 10
1077.685
 20
-5682.038
 30
-1671.596
 70
    32
  0
VERTEX
  8
T69SSILL
 62
3
 10
1101.957
 20
-5617.490
 30
-1671.088
 70
    32
  0
VERTEX
  8
T69SSILL
 62
3
 10
1110.422
 20
-5594.977
 30
-1670.837
 70
    32
  0
VERTEX
  8
T69SSILL
 62
3
 10
1118.049
 20
-5593.042
 30
-1670.968
 70
    32
  0
VERTEX
  8
T69SSILL
 62
3
 10
1123.754
 20
-5577.370
 30
-1670.789
 70
    32
  0
VERTEX
  8
T69SSILL
 62
3
 10
1124.166
 20
-5576.239
 30
-1670.787
 70
    32
  0
VERTEX
  8
T69SSILL
 62
3
 10
1118.832
 20
-5572.271
 30
-1670.585
 70
    32
  0
VERTEX
  8
T69SSILL
 62
3
 10
1128.699
 20
-5546.616
 30
-1670.544
 70
    32
  0
VERTEX
  8
T69SSILL
 62
3
 10
1136.724
 20
-5548.367
 30
-1670.795
 70
    32
  0
VERTEX
  8
T69SSILL
 62
3
 10
1138.424
 20
-5549.626
 30
-1670.859
 70
    32
  0
VERTEX
  8
T69SSILL
 62
3
 10
1187.304
 20
-5636.550
 30
-1673.349
 70
    32
  0
VERTEX
  8
T69SSILL
 62
3
 10
1191.868
 20
-5644.667
 30
-1673.608
 70
    32
  0
VERTEX
  8
T69SSILL
 62
3
 10
1193.932
 20
-5648.337
 30
-1673.716
 70
    32
  0
VERTEX
  8
T69SSILL
 62
3
 10
1239.677
 20
-5729.687
 30
-1671.013
 70
    32
  0
VERTEX
  8
T69SSILL
 62
3
 10
1241.285
 20
-5732.546
 30
-1671.017
 70
    32
  0
VERTEX
  8
T69SSILL
 62
3
 10
1242.416
 20
-5734.558
 30
-1671.016
 70
    32
  0
VERTEX
  8
T69SSILL
 62
3
 10
1278.508
 20
-5798.739
 30
-1671.291
 70
    32
  0
VERTEX
  8
T69SSILL
 62
3
 10
1280.317
 20
-5820.547
 30
-1671.402
 70
    32
  0
VERTEX
  8
T69SSILL
 62
3
 10
1278.080
 20
-5828.921
 30
-1671.449
 70
    32
  0
VERTEX
  8
T69SSILL
 62
3
 10
1279.369
 20
-5833.801
 30
-1671.472
 70
    32
  0
VERTEX
  8
T69SSILL
 62
3
 10
1282.634
 20
-5837.230
 30
-1671.485
 70
    32
  0
VERTEX
  8
T69SSILL
 62
3
 10
1280.248
 20
-5862.514
 30
-1671.620
 70
    32
  0
VERTEX
  8
T69SSILL
 62
3
 10
1267.742
 20
-5915.267
 30
-1671.914
 70
    32
  0
VERTEX
  8
T69SSILL
 62
3
 10
1259.380
 20
-5950.539
 30
-1672.452
 70
    32
  0
VERTEX
  8
T69SSILL
 62
3
 10
1248.072
 20
-5998.236
 30
-1672.948
 70
    32
  0
VERTEX
  8
T69SSILL
 62
3
 10
1231.163
 20
-6069.562
 30
-1673.725
 70
    32
  0
SEQEND
  8
T69SSILL
  0
POLYLINE
  8
T69SSILL
 62
3
 66
     1
 70
     9
  0
VERTEX
  8
T69SSILL
 62
3
 10
1570.846
 20
-6582.074
 30
-1672.164
 70
    32
  0
VERTEX
  8
T69SSILL
 62
3
 10
1574.931
 20
-6592.992
 30
-1672.167
 70
    32
  0
VERTEX
  8
T69SSILL
 62
3
 10
1574.840
 20
-6595.494
 30
-1672.173
 70
    32
  0
VERTEX
  8
T69SSILL
 62
3
 10
1565.767
 20
-6602.429
 30
-1672.230
 70
    32
  0
VERTEX
  8
T69SSILL
 62
3
 10
1561.178
 20
-6605.408
 30
-1672.258
 70
    32
  0
VERTEX
  8
T69SSILL
 62
3
 10
1540.858
 20
-6567.851
 30
-1672.279
 70
    32
  0
VERTEX
  8
T69SSILL
 62
3
 10
1540.823
 20
-6562.674
 30
-1672.269
 70
    32
  0
VERTEX
  8
T69SSILL
 62
3
 10
1542.005
 20
-6560.768
 30
-1672.259
 70
    32
  0
VERTEX
  8
T69SSILL
 62
3
 10
1547.872
 20
-6559.394
 30
-1672.228
 70
    32
  0
VERTEX
  8
T69SSILL
 62
3
 10
1555.593
 20
-6559.841
 30
-1672.192
 70
    32
  0
SEQEND
  8
T69SSILL
  0
POLYLINE
  8
T69SSILL
 62
3
 66
     1
 70
     9
  0
VERTEX
  8
T69SSILL
 62
3
 10
1538.762
 20
-6597.304
 30
-1672.349
 70
    32
  0
VERTEX
  8
T69SSILL
 62
3
 10
1537.772
 20
-6608.484
 30
-1672.377
 70
    32
  0
VERTEX
  8
T69SSILL
 62
3
 10
1541.114
 20
-6616.120
 30
-1672.376
 70
    32
  0
VERTEX
  8
T69SSILL
 62
3
 10
1539.089
 20
-6619.776
 30
-1672.394
 70
    32
  0
VERTEX
  8
T69SSILL
 62
3
 10
1529.902
 20
-6627.514
 30
-1672.454
 70
    32
  0
VERTEX
  8
T69SSILL
 62
3
 10
1526.454
 20
-6628.196
 30
-1672.471
 70
    32
  0
VERTEX
  8
T69SSILL
 62
3
 10
1516.982
 20
-6626.155
 30
-1672.513
 70
    32
  0
VERTEX
  8
T69SSILL
 62
3
 10
1515.086
 20
-6623.943
 30
-1672.517
 70
    32
  0
VERTEX
  8
T69SSILL
 62
3
 10
1513.153
 20
-6613.548
 30
-1672.505
 70
    32
  0
VERTEX
  8
T69SSILL
 62
3
 10
1503.598
 20
-6597.672
 30
-1672.519
 70
    32
  0
VERTEX
  8
T69SSILL
 62
3
 10
1499.751
 20
-6588.627
 30
-1672.519
 70
    32
  0
VERTEX
  8
T69SSILL
 62
3
 10
1506.480
 20
-6584.947
 30
-1672.479
 70
    32
  0
VERTEX
  8
T69SSILL
 62
3
 10
1510.117
 20
-6576.729
 30
-1672.445
 70
    32
  0
VERTEX
  8
T69SSILL
 62
3
 10
1514.903
 20
-6575.233
 30
-1672.419
 70
    32
  0
VERTEX
  8
T69SSILL
 62
3
 10
1518.120
 20
-6582.446
 30
-1672.418
 70
    32
  0
VERTEX
  8
T69SSILL
 62
3
 10
1529.787
 20
-6586.904
 30
-1672.371
 70
    32
  0
VERTEX
  8
T69SSILL
 62
3
 10
1537.607
 20
-6595.370
 30
-1672.351
 70
    32
  0
SEQEND
  8
T69SSILL
  0
POLYLINE
  8
T69SSILL
 62
3
 66
     1
 70
     9
  0
VERTEX
  8
T69SSILL
 62
3
 10
1460.000
 20
-6700.000
 30
-1672.110
 70
    32
  0
VERTEX
  8
T69SSILL
 62
3
 10
1456.921
 20
-6693.842
 30
-1672.171
 70
    32
  0
VERTEX
  8
T69SSILL
 62
3
 10
1462.276
 20
-6687.662
 30
-1672.213
 70
    32
  0
VERTEX
  8
T69SSILL
 62
3
 10
1482.097
 20
-6687.586
 30
-1672.168
 70
    32
  0
VERTEX
  8
T69SSILL
 62
3
 10
1487.021
 20
-6689.380
 30
-1672.141
 70
    32
  0
VERTEX
  8
T69SSILL
 62
3
 10
1509.178
 20
-6722.344
 30
-1671.802
 70
    32
  0
VERTEX
  8
T69SSILL
 62
3
 10
1508.419
 20
-6723.189
 30
-1671.796
 70
    32
  0
VERTEX
  8
T69SSILL
 62
3
 10
1507.164
 20
-6724.587
 30
-1671.785
 70
    32
  0
VERTEX
  8
T69SSILL
 62
3
 10
1505.090
 20
-6724.131
 30
-1671.796
 70
    32
  0
VERTEX
  8
T69SSILL
 62
3
 10
1474.204
 20
-6717.352
 30
-1671.926
 70
    32
  0
VERTEX
  8
T69SSILL
 62
3
 10
1472.718
 20
-6713.704
 30
-1671.961
 70
    32
  0
VERTEX
  8
T69SSILL
 62
3
 10
1467.902
 20
-6710.374
 30
-1672.001
 70
    32
  0
VERTEX
  8
T69SSILL
 62
3
 10
1464.732
 20
-6704.082
 30
-1672.063
 70
    32
  0
SEQEND
  8
T69SSILL
  0
POLYLINE
  8
T69SSILL
 62
3
 66
     1
 70
     9
  0
VERTEX
  8
T69SSILL
 62
3
 10
1503.221
 20
-6689.105
 30
-1672.107
 70
    32
  0
VERTEX
  8
T69SSILL
 62
3
 10
1497.316
 20
-6679.961
 30
-1672.200
 70
    32
  0
VERTEX
  8
T69SSILL
 62
3
 10
1489.645
 20
-6671.334
 30
-1672.293
 70
    32
  0
VERTEX
  8
T69SSILL
 62
3
 10
1486.349
 20
-6667.628
 30
-1672.330
 70
    32
  0
VERTEX
  8
T69SSILL
 62
3
 10
1482.204
 20
-6671.204
 30
-1672.311
 70
    32
  0
VERTEX
  8
T69SSILL
 62
3
 10
1478.292
 20
-6674.579
 30
-1672.291
 70
    32
  0
VERTEX
  8
T69SSILL
 62
3
 10
1464.640
 20
-6675.476
 30
-1672.314
 70
    32
  0
VERTEX
  8
T69SSILL
 62
3
 10
1457.006
 20
-6677.561
 30
-1672.313
 70
    32
  0
VERTEX
  8
T69SSILL
 62
3
 10
1447.598
 20
-6670.601
 30
-1672.396
 70
    32
  0
VERTEX
  8
T69SSILL
 62
3
 10
1443.952
 20
-6667.904
 30
-1672.425
 70
    32
  0
VERTEX
  8
T69SSILL
 62
3
 10
1440.000
 20
-6660.000
 30
-1672.497
 70
    32
  0
VERTEX
  8
T69SSILL
 62
3
 10
1445.000
 20
-6650.000
 30
-1672.564
 70
    32
  0
VERTEX
  8
T69SSILL
 62
3
 10
1475.000
 20
-6635.000
 30
-1672.613
 70
    32
  0
VERTEX
  8
T69SSILL
 62
3
 10
1480.000
 20
-6635.000
 30
-1672.601
 70
    32
  0
VERTEX
  8
T69SSILL
 62
3
 10
1485.000
 20
-6645.000
 30
-1672.511
 70
    32
  0
VERTEX
  8
T69SSILL
 62
3
 10
1490.000
 20
-6660.000
 30
-1672.382
 70
    32
  0
VERTEX
  8
T69SSILL
 62
3
 10
1490.000
 20
-6665.000
 30
-1672.342
 70
    32
  0
VERTEX
  8
T69SSILL
 62
3
 10
1495.000
 20
-6670.000
 30
-1672.291
 70
    32
  0
VERTEX
  8
T69SSILL
 62
3
 10
1500.000
 20
-6670.000
 30
-1672.280
 70
    32
  0
VERTEX
  8
T69SSILL
 62
3
 10
1500.508
 20
-6671.523
 30
-1672.267
 70
    32
  0
VERTEX
  8
T69SSILL
 62
3
 10
1505.000
 20
-6685.000
 30
-1672.139
 70
    32
  0
SEQEND
  8
T69SSILL
  0
POLYLINE
  8
T69SSILL
 62
3
 66
     1
 70
     9
  0
VERTEX
  8
T69SSILL
 62
3
 10
1263.500
 20
-5598.254
 30
-1670.956
 70
    32
  0
VERTEX
  8
T69SSILL
 62
3
 10
1268.426
 20
-5601.207
 30
-1670.917
 70
    32
  0
VERTEX
  8
T69SSILL
 62
3
 10
1292.638
 20
-5635.602
 30
-1671.249
 70
    32
  0
VERTEX
  8
T69SSILL
 62
3
 10
1295.862
 20
-5640.184
 30
-1671.078
 70
    32
  0
VERTEX
  8
T69SSILL
 62
3
 10
1301.831
 20
-5653.287
 30
-1670.683
 70
    32
  0
VERTEX
  8
T69SSILL
 62
3
 10
1285.243
 20
-5681.018
 30
-1670.687
 70
    32
  0
VERTEX
  8
T69SSILL
 62
3
 10
1276.606
 20
-5674.312
 30
-1671.049
 70
    32
  0
VERTEX
  8
T69SSILL
 62
3
 10
1270.355
 20
-5663.021
 30
-1671.421
 70
    32
  0
VERTEX
  8
T69SSILL
 62
3
 10
1267.592
 20
-5654.532
 30
-1671.645
 70
    32
  0
VERTEX
  8
T69SSILL
 62
3
 10
1260.624
 20
-5639.298
 30
-1672.105
 70
    32
  0
VERTEX
  8
T69SSILL
 62
3
 10
1254.157
 20
-5625.161
 30
-1671.886
 70
    32
  0
VERTEX
  8
T69SSILL
 62
3
 10
1251.474
 20
-5613.379
 30
-1671.639
 70
    32
  0
VERTEX
  8
T69SSILL
 62
3
 10
1260.867
 20
-5598.541
 30
-1671.026
 70
    32
  0
SEQEND
  8
T69SSILL
  0
POLYLINE
  8
T69SSILL
 62
3
 66
     1
 70
     9
  0
VERTEX
  8
T69SSILL
 62
3
 10
1236.932
 20
-5648.813
 30
-1672.623
 70
    32
  0
VERTEX
  8
T69SSILL
 62
3
 10
1243.435
 20
-5654.924
 30
-1672.332
 70
    32
  0
VERTEX
  8
T69SSILL
 62
3
 10
1248.025
 20
-5670.256
 30
-1671.939
 70
    32
  0
VERTEX
  8
T69SSILL
 62
3
 10
1271.346
 20
-5706.172
 30
-1670.657
 70
    32
  0
VERTEX
  8
T69SSILL
 62
3
 10
1268.410
 20
-5711.686
 30
-1670.647
 70
    32
  0
VERTEX
  8
T69SSILL
 62
3
 10
1262.567
 20
-5722.656
 30
-1670.783
 70
    32
  0
VERTEX
  8
T69SSILL
 62
3
 10
1258.172
 20
-5734.171
 30
-1670.910
 70
    32
  0
VERTEX
  8
T69SSILL
 62
3
 10
1257.620
 20
-5735.616
 30
-1670.911
 70
    32
  0
VERTEX
  8
T69SSILL
 62
3
 10
1254.274
 20
-5736.954
 30
-1670.929
 70
    32
  0
VERTEX
  8
T69SSILL
 62
3
 10
1251.590
 20
-5732.299
 30
-1670.951
 70
    32
  0
VERTEX
  8
T69SSILL
 62
3
 10
1248.874
 20
-5727.586
 30
-1670.937
 70
    32
  0
VERTEX
  8
T69SSILL
 62
3
 10
1224.293
 20
-5684.946
 30
-1672.370
 70
    32
  0
VERTEX
  8
T69SSILL
 62
3
 10
1223.622
 20
-5670.150
 30
-1672.642
 70
    32
  0
VERTEX
  8
T69SSILL
 62
3
 10
1224.449
 20
-5666.489
 30
-1672.680
 70
    32
  0
VERTEX
  8
T69SSILL
 62
3
 10
1230.121
 20
-5651.609
 30
-1672.771
 70
    32
  0
VERTEX
  8
T69SSILL
 62
3
 10
1234.834
 20
-5648.478
 30
-1672.689
 70
    32
  0
SEQEND
  8
T69SSILL
  0
POLYLINE
  8
T69SSILL
 62
3
 66
     1
 70
     9
  0
VERTEX
  8
T69SSILL
 62
3
 10
1309.828
 20
-5666.836
 30
-1670.222
 70
    32
  0
VERTEX
  8
T69SSILL
 62
3
 10
1307.935
 20
-5664.469
 30
-1670.317
 70
    32
  0
VERTEX
  8
T69SSILL
 62
3
 10
1292.915
 20
-5691.741
 30
-1670.283
 70
    32
  0
VERTEX
  8
T69SSILL
 62
3
 10
1291.152
 20
-5694.942
 30
-1670.323
 70
    32
  0
VERTEX
  8
T69SSILL
 62
3
 10
1292.457
 20
-5699.627
 30
-1670.349
 70
    32
  0
VERTEX
  8
T69SSILL
 62
3
 10
1302.984
 20
-5712.458
 30
-1670.361
 70
    32
  0
VERTEX
  8
T69SSILL
 62
3
 10
1305.922
 20
-5720.750
 30
-1670.402
 70
    32
  0
VERTEX
  8
T69SSILL
 62
3
 10
1321.916
 20
-5746.069
 30
-1670.466
 70
    32
  0
VERTEX
  8
T69SSILL
 62
3
 10
1330.060
 20
-5752.469
 30
-1670.448
 70
    32
  0
VERTEX
  8
T69SSILL
 62
3
 10
1337.008
 20
-5756.596
 30
-1670.422
 70
    32
  0
VERTEX
  8
T69SSILL
 62
3
 10
1339.870
 20
-5758.297
 30
-1670.403
 70
    32
  0
VERTEX
  8
T69SSILL
 62
3
 10
1341.323
 20
-5757.905
 30
-1670.395
 70
    32
  0
VERTEX
  8
T69SSILL
 62
3
 10
1341.350
 20
-5757.831
 30
-1670.395
 70
    32
  0
VERTEX
  8
T69SSILL
 62
3
 10
1342.090
 20
-5755.800
 30
-1670.373
 70
    32
  0
VERTEX
  8
T69SSILL
 62
3
 10
1336.819
 20
-5744.275
 30
-1670.327
 70
    32
  0
VERTEX
  8
T69SSILL
 62
3
 10
1336.199
 20
-5736.570
 30
-1670.271
 70
    32
  0
VERTEX
  8
T69SSILL
 62
3
 10
1334.111
 20
-5730.874
 30
-1670.244
 70
    32
  0
VERTEX
  8
T69SSILL
 62
3
 10
1324.938
 20
-5718.353
 30
-1670.223
 70
    32
  0
VERTEX
  8
T69SSILL
 62
3
 10
1326.245
 20
-5713.570
 30
-1670.174
 70
    32
  0
VERTEX
  8
T69SSILL
 62
3
 10
1318.362
 20
-5697.883
 30
-1670.117
 70
    32
  0
VERTEX
  8
T69SSILL
 62
3
 10
1317.612
 20
-5689.852
 30
-1670.060
 70
    32
  0
VERTEX
  8
T69SSILL
 62
3
 10
1314.936
 20
-5683.159
 30
-1670.030
 70
    32
  0
VERTEX
  8
T69SSILL
 62
3
 10
1312.606
 20
-5675.714
 30
-1669.991
 70
    32
  0
SEQEND
  8
T69SSILL
  0
POLYLINE
  8
T69SSILL
 62
3
 66
     1
 70
     9
  0
VERTEX
  8
T69SSILL
 62
3
 10
1332.522
 20
-5781.589
 30
-1670.413
 70
    32
  0
VERTEX
  8
T69SSILL
 62
3
 10
1334.490
 20
-5785.736
 30
-1670.396
 70
    32
  0
VERTEX
  8
T69SSILL
 62
3
 10
1326.031
 20
-5794.758
 30
-1670.432
 70
    32
  0
VERTEX
  8
T69SSILL
 62
3
 10
1307.528
 20
-5814.494
 30
-1671.026
 70
    32
  0
VERTEX
  8
T69SSILL
 62
3
 10
1293.818
 20
-5808.616
 30
-1671.189
 70
    32
  0
VERTEX
  8
T69SSILL
 62
3
 10
1269.141
 20
-5764.901
 30
-1671.034
 70
    32
  0
VERTEX
  8
T69SSILL
 62
3
 10
1270.066
 20
-5750.224
 30
-1670.819
 70
    32
  0
VERTEX
  8
T69SSILL
 62
3
 10
1270.851
 20
-5737.778
 30
-1670.832
 70
    32
  0
VERTEX
  8
T69SSILL
 62
3
 10
1271.577
 20
-5726.248
 30
-1670.735
 70
    32
  0
VERTEX
  8
T69SSILL
 62
3
 10
1277.063
 20
-5717.238
 30
-1670.618
 70
    32
  0
VERTEX
  8
T69SSILL
 62
3
 10
1278.577
 20
-5717.366
 30
-1670.606
 70
    32
  0
VERTEX
  8
T69SSILL
 62
3
 10
1282.416
 20
-5726.363
 30
-1670.644
 70
    32
  0
VERTEX
  8
T69SSILL
 62
3
 10
1289.173
 20
-5734.264
 30
-1670.650
 70
    32
  0
VERTEX
  8
T69SSILL
 62
3
 10
1295.735
 20
-5744.856
 30
-1670.678
 70
    32
  0
VERTEX
  8
T69SSILL
 62
3
 10
1308.398
 20
-5765.296
 30
-1670.575
 70
    32
  0
VERTEX
  8
T69SSILL
 62
3
 10
1327.251
 20
-5772.905
 30
-1670.456
 70
    32
  0
VERTEX
  8
T69SSILL
 62
3
 10
1330.335
 20
-5776.594
 30
-1670.432
 70
    32
  0
SEQEND
  8
T69SSILL
  0
POLYLINE
  8
T69SSILL
 62
3
 66
     1
 70
     9
  0
VERTEX
  8
T69SSILL
 62
3
 10
1356.425
 20
-5892.262
 30
-1671.222
 70
    32
  0
VERTEX
  8
T69SSILL
 62
3
 10
1361.485
 20
-5890.712
 30
-1671.124
 70
    32
  0
VERTEX
  8
T69SSILL
 62
3
 10
1372.569
 20
-5879.368
 30
-1670.791
 70
    32
  0
VERTEX
  8
T69SSILL
 62
3
 10
1378.017
 20
-5870.859
 30
-1670.585
 70
    32
  0
VERTEX
  8
T69SSILL
 62
3
 10
1380.145
 20
-5867.535
 30
-1670.560
 70
    32
  0
VERTEX
  8
T69SSILL
 62
3
 10
1383.099
 20
-5868.057
 30
-1670.596
 70
    32
  0
VERTEX
  8
T69SSILL
 62
3
 10
1386.935
 20
-5871.257
 30
-1670.679
 70
    32
  0
VERTEX
  8
T69SSILL
 62
3
 10
1400.467
 20
-5866.035
 30
-1670.740
 70
    32
  0
VERTEX
  8
T69SSILL
 62
3
 10
1404.972
 20
-5867.358
 30
-1670.803
 70
    32
  0
VERTEX
  8
T69SSILL
 62
3
 10
1412.855
 20
-5877.364
 30
-1671.020
 70
    32
  0
VERTEX
  8
T69SSILL
 62
3
 10
1391.993
 20
-5889.115
 30
-1670.977
 70
    32
  0
VERTEX
  8
T69SSILL
 62
3
 10
1392.694
 20
-5899.154
 30
-1671.123
 70
    32
  0
VERTEX
  8
T69SSILL
 62
3
 10
1398.161
 20
-5905.961
 30
-1671.271
 70
    32
  0
VERTEX
  8
T69SSILL
 62
3
 10
1412.755
 20
-5899.841
 30
-1671.331
 70
    32
  0
VERTEX
  8
T69SSILL
 62
3
 10
1422.222
 20
-5897.475
 30
-1671.391
 70
    32
  0
VERTEX
  8
T69SSILL
 62
3
 10
1432.733
 20
-5912.396
 30
-1671.702
 70
    32
  0
VERTEX
  8
T69SSILL
 62
3
 10
1424.359
 20
-5919.626
 30
-1671.720
 70
    32
  0
VERTEX
  8
T69SSILL
 62
3
 10
1408.606
 20
-5927.345
 30
-1671.671
 70
    32
  0
VERTEX
  8
T69SSILL
 62
3
 10
1409.878
 20
-5937.629
 30
-1671.827
 70
    32
  0
VERTEX
  8
T69SSILL
 62
3
 10
1417.598
 20
-5946.754
 30
-1672.030
 70
    32
  0
VERTEX
  8
T69SSILL
 62
3
 10
1429.417
 20
-5939.377
 30
-1672.044
 70
    32
  0
VERTEX
  8
T69SSILL
 62
3
 10
1438.738
 20
-5935.461
 30
-1672.082
 70
    32
  0
VERTEX
  8
T69SSILL
 62
3
 10
1444.957
 20
-5934.678
 30
-1672.133
 70
    32
  0
VERTEX
  8
T69SSILL
 62
3
 10
1453.231
 20
-5947.558
 30
-1672.393
 70
    32
  0
VERTEX
  8
T69SSILL
 62
3
 10
1451.533
 20
-5956.568
 30
-1672.501
 70
    32
  0
VERTEX
  8
T69SSILL
 62
3
 10
1433.022
 20
-5963.781
 30
-1672.418
 70
    32
  0
VERTEX
  8
T69SSILL
 62
3
 10
1425.921
 20
-5965.200
 30
-1672.368
 70
    32
  0
VERTEX
  8
T69SSILL
 62
3
 10
1380.499
 20
-5950.884
 30
-1671.720
 70
    32
  0
VERTEX
  8
T69SSILL
 62
3
 10
1372.302
 20
-5948.301
 30
-1671.805
 70
    32
  0
VERTEX
  8
T69SSILL
 62
3
 10
1365.839
 20
-5938.767
 30
-1671.762
 70
    32
  0
VERTEX
  8
T69SSILL
 62
3
 10
1356.829
 20
-5935.175
 30
-1671.845
 70
    32
  0
VERTEX
  8
T69SSILL
 62
3
 10
1348.652
 20
-5918.753
 30
-1671.727
 70
    32
  0
VERTEX
  8
T69SSILL
 62
3
 10
1347.690
 20
-5914.689
 30
-1671.681
 70
    32
  0
VERTEX
  8
T69SSILL
 62
3
 10
1350.449
 20
-5902.414
 30
-1671.460
 70
    32
  0
SEQEND
  8
T69SSILL
  0
POLYLINE
  8
T69SSILL
 62
3
 66
     1
 70
     9
  0
VERTEX
  8
T69SSILL
 62
3
 10
1367.061
 20
-5956.739
 30
-1672.007
 70
    32
  0
VERTEX
  8
T69SSILL
 62
3
 10
1380.807
 20
-5960.809
 30
-1671.861
 70
    32
  0
VERTEX
  8
T69SSILL
 62
3
 10
1424.190
 20
-5973.655
 30
-1672.468
 70
    32
  0
VERTEX
  8
T69SSILL
 62
3
 10
1428.258
 20
-5979.005
 30
-1672.583
 70
    32
  0
VERTEX
  8
T69SSILL
 62
3
 10
1444.559
 20
-6000.443
 30
-1672.655
 70
    32
  0
VERTEX
  8
T69SSILL
 62
3
 10
1443.154
 20
-6006.401
 30
-1672.654
 70
    32
  0
VERTEX
  8
T69SSILL
 62
3
 10
1437.261
 20
-6011.314
 30
-1672.636
 70
    32
  0
VERTEX
  8
T69SSILL
 62
3
 10
1433.457
 20
-6020.030
 30
-1672.628
 70
    32
  0
VERTEX
  8
T69SSILL
 62
3
 10
1432.581
 20
-6047.712
 30
-1672.643
 70
    32
  0
VERTEX
  8
T69SSILL
 62
3
 10
1435.574
 20
-6071.010
 30
-1672.669
 70
    32
  0
VERTEX
  8
T69SSILL
 62
3
 10
1430.670
 20
-6083.862
 30
-1672.660
 70
    32
  0
VERTEX
  8
T69SSILL
 62
3
 10
1429.144
 20
-6084.192
 30
-1672.654
 70
    32
  0
VERTEX
  8
T69SSILL
 62
3
 10
1422.646
 20
-6072.029
 30
-1672.623
 70
    32
  0
VERTEX
  8
T69SSILL
 62
3
 10
1387.191
 20
-5998.491
 30
-1672.447
 70
    32
  0
VERTEX
  8
T69SSILL
 62
3
 10
1381.618
 20
-5986.931
 30
-1672.231
 70
    32
  0
SEQEND
  8
T69SSILL
  0
POLYLINE
  8
T69SSILL
 62
3
 66
     1
 70
     9
  0
VERTEX
  8
T69SSILL
 62
3
 10
1475.182
 20
-5990.375
 30
-1672.759
 70
    32
  0
VERTEX
  8
T69SSILL
 62
3
 10
1474.965
 20
-6036.945
 30
-1672.789
 70
    32
  0
VERTEX
  8
T69SSILL
 62
3
 10
1473.528
 20
-6039.507
 30
-1672.785
 70
    32
  0
VERTEX
  8
T69SSILL
 62
3
 10
1466.950
 20
-6044.126
 30
-1672.765
 70
    32
  0
VERTEX
  8
T69SSILL
 62
3
 10
1458.641
 20
-6049.626
 30
-1672.738
 70
    32
  0
VERTEX
  8
T69SSILL
 62
3
 10
1456.323
 20
-6049.512
 30
-1672.730
 70
    32
  0
VERTEX
  8
T69SSILL
 62
3
 10
1452.977
 20
-6045.169
 30
-1672.715
 70
    32
  0
VERTEX
  8
T69SSILL
 62
3
 10
1451.557
 20
-6039.962
 30
-1672.706
 70
    32
  0
VERTEX
  8
T69SSILL
 62
3
 10
1453.386
 20
-6034.119
 30
-1672.709
 70
    32
  0
VERTEX
  8
T69SSILL
 62
3
 10
1453.584
 20
-6016.620
 30
-1672.699
 70
    32
  0
VERTEX
  8
T69SSILL
 62
3
 10
1458.025
 20
-6004.999
 30
-1672.707
 70
    32
  0
VERTEX
  8
T69SSILL
 62
3
 10
1458.678
 20
-5999.531
 30
-1672.706
 70
    32
  0
VERTEX
  8
T69SSILL
 62
3
 10
1453.259
 20
-5996.870
 30
-1672.684
 70
    32
  0
VERTEX
  8
T69SSILL
 62
3
 10
1436.831
 20
-5974.937
 30
-1672.611
 70
    32
  0
VERTEX
  8
T69SSILL
 62
3
 10
1434.980
 20
-5972.465
 30
-1672.558
 70
    32
  0
VERTEX
  8
T69SSILL
 62
3
 10
1459.775
 20
-5963.685
 30
-1672.682
 70
    32
  0
VERTEX
  8
T69SSILL
 62
3
 10
1460.073
 20
-5963.909
 30
-1672.688
 70
    32
  0
VERTEX
  8
T69SSILL
 62
3
 10
1464.743
 20
-5967.419
 30
-1672.707
 70
    32
  0
VERTEX
  8
T69SSILL
 62
3
 10
1473.576
 20
-5981.343
 30
-1672.748
 70
    32
  0
SEQEND
  8
T69SSILL
  0
POLYLINE
  8
T69SSILL
 62
3
 66
     1
 70
     9
  0
VERTEX
  8
T69SSILL
 62
3
 10
1348.143
 20
-6176.160
 30
-1673.174
 70
    32
  0
VERTEX
  8
T69SSILL
 62
3
 10
1339.790
 20
-6185.241
 30
-1673.227
 70
    32
  0
VERTEX
  8
T69SSILL
 62
3
 10
1329.150
 20
-6202.361
 30
-1673.297
 70
    32
  0
VERTEX
  8
T69SSILL
 62
3
 10
1324.427
 20
-6201.131
 30
-1673.326
 70
    32
  0
VERTEX
  8
T69SSILL
 62
3
 10
1272.173
 20
-6129.422
 30
-1673.630
 70
    32
  0
VERTEX
  8
T69SSILL
 62
3
 10
1273.010
 20
-6128.156
 30
-1673.624
 70
    32
  0
VERTEX
  8
T69SSILL
 62
3
 10
1276.607
 20
-6124.177
 30
-1673.601
 70
    32
  0
VERTEX
  8
T69SSILL
 62
3
 10
1321.836
 20
-6125.753
 30
-1673.324
 70
    32
  0
VERTEX
  8
T69SSILL
 62
3
 10
1331.919
 20
-6137.115
 30
-1673.265
 70
    32
  0
VERTEX
  8
T69SSILL
 62
3
 10
1337.535
 20
-6134.699
 30
-1673.230
 70
    32
  0
VERTEX
  8
T69SSILL
 62
3
 10
1354.799
 20
-6151.582
 30
-1673.127
 70
    32
  0
VERTEX
  8
T69SSILL
 62
3
 10
1355.127
 20
-6157.109
 30
-1673.127
 70
    32
  0
VERTEX
  8
T69SSILL
 62
3
 10
1359.636
 20
-6160.433
 30
-1673.100
 70
    32
  0
VERTEX
  8
T69SSILL
 62
3
 10
1356.895
 20
-6166.019
 30
-1673.118
 70
    32
  0
SEQEND
  8
T69SSILL
  0
POLYLINE
  8
T69SSILL
 62
3
 66
     1
 70
     9
  0
VERTEX
  8
T69SSILL
 62
3
 10
1420.787
 20
-6187.732
 30
-1672.700
 70
    32
  0
VERTEX
  8
T69SSILL
 62
3
 10
1422.307
 20
-6188.474
 30
-1672.710
 70
    32
  0
VERTEX
  8
T69SSILL
 62
3
 10
1408.655
 20
-6198.307
 30
-1672.635
 70
    32
  0
VERTEX
  8
T69SSILL
 62
3
 10
1401.530
 20
-6203.440
 30
-1672.692
 70
    32
  0
VERTEX
  8
T69SSILL
 62
3
 10
1398.119
 20
-6199.267
 30
-1672.732
 70
    32
  0
VERTEX
  8
T69SSILL
 62
3
 10
1384.345
 20
-6209.390
 30
-1672.841
 70
    32
  0
VERTEX
  8
T69SSILL
 62
3
 10
1386.877
 20
-6214.030
 30
-1672.807
 70
    32
  0
VERTEX
  8
T69SSILL
 62
3
 10
1346.599
 20
-6211.471
 30
-1673.190
 70
    32
  0
VERTEX
  8
T69SSILL
 62
3
 10
1346.433
 20
-6211.101
 30
-1673.193
 70
    32
  0
VERTEX
  8
T69SSILL
 62
3
 10
1343.636
 20
-6204.863
 30
-1673.208
 70
    32
  0
VERTEX
  8
T69SSILL
 62
3
 10
1343.956
 20
-6200.196
 30
-1673.205
 70
    32
  0
VERTEX
  8
T69SSILL
 62
3
 10
1350.447
 20
-6190.135
 30
-1673.163
 70
    32
  0
VERTEX
  8
T69SSILL
 62
3
 10
1358.454
 20
-6181.108
 30
-1673.112
 70
    32
  0
VERTEX
  8
T69SSILL
 62
3
 10
1367.828
 20
-6172.911
 30
-1673.052
 70
    32
  0
VERTEX
  8
T69SSILL
 62
3
 10
1372.754
 20
-6174.010
 30
-1673.022
 70
    32
  0
VERTEX
  8
T69SSILL
 62
3
 10
1411.694
 20
-6182.699
 30
-1672.639
 70
    32
  0
VERTEX
  8
T69SSILL
 62
3
 10
1412.352
 20
-6182.846
 30
-1672.643
 70
    32
  0
VERTEX
  8
T69SSILL
 62
3
 10
1420.056
 20
-6187.416
 30
-1672.695
 70
    32
  0
SEQEND
  8
T69SSILL
  0
POLYLINE
  8
T69SSILL
 62
3
 66
     1
 70
     9
  0
VERTEX
  8
T69SSILL
 62
3
 10
1347.028
 20
-6222.503
 30
-1673.164
 70
    32
  0
VERTEX
  8
T69SSILL
 62
3
 10
1381.779
 20
-6224.055
 30
-1672.834
 70
    32
  0
VERTEX
  8
T69SSILL
 62
3
 10
1385.492
 20
-6226.942
 30
-1672.794
 70
    32
  0
VERTEX
  8
T69SSILL
 62
3
 10
1393.716
 20
-6227.716
 30
-1672.715
 70
    32
  0
VERTEX
  8
T69SSILL
 62
3
 10
1398.050
 20
-6229.781
 30
-1672.670
 70
    32
  0
VERTEX
  8
T69SSILL
 62
3
 10
1401.590
 20
-6234.606
 30
-1672.627
 70
    32
  0
VERTEX
  8
T69SSILL
 62
3
 10
1404.406
 20
-6238.445
 30
-1672.648
 70
    32
  0
VERTEX
  8
T69SSILL
 62
3
 10
1411.553
 20
-6234.934
 30
-1672.689
 70
    32
  0
VERTEX
  8
T69SSILL
 62
3
 10
1413.421
 20
-6215.181
 30
-1672.681
 70
    32
  0
VERTEX
  8
T69SSILL
 62
3
 10
1408.970
 20
-6210.511
 30
-1672.649
 70
    32
  0
VERTEX
  8
T69SSILL
 62
3
 10
1428.363
 20
-6196.074
 30
-1672.755
 70
    32
  0
VERTEX
  8
T69SSILL
 62
3
 10
1429.975
 20
-6203.058
 30
-1672.772
 70
    32
  0
VERTEX
  8
T69SSILL
 62
3
 10
1424.711
 20
-6251.111
 30
-1672.786
 70
    32
  0
VERTEX
  8
T69SSILL
 62
3
 10
1394.269
 20
-6272.215
 30
-1672.618
 70
    32
  0
VERTEX
  8
T69SSILL
 62
3
 10
1382.309
 20
-6280.507
 30
-1672.713
 70
    32
  0
VERTEX
  8
T69SSILL
 62
3
 10
1376.462
 20
-6271.080
 30
-1672.787
 70
    32
  0
VERTEX
  8
T69SSILL
 62
3
 10
1370.344
 20
-6268.835
 30
-1672.849
 70
    32
  0
VERTEX
  8
T69SSILL
 62
3
 10
1359.580
 20
-6246.955
 30
-1672.995
 70
    32
  0
VERTEX
  8
T69SSILL
 62
3
 10
1356.778
 20
-6244.992
 30
-1673.026
 70
    32
  0
VERTEX
  8
T69SSILL
 62
3
 10
1344.144
 20
-6228.609
 30
-1673.178
 70
    32
  0
SEQEND
  8
T69SSILL
  0
POLYLINE
  8
T69SSILL
 62
3
 66
     1
 70
     9
  0
VERTEX
  8
T69SSILL
 62
3
 10
1444.555
 20
-6233.864
 30
-1672.892
 70
    32
  0
VERTEX
  8
T69SSILL
 62
3
 10
1441.606
 20
-6232.011
 30
-1672.872
 70
    32
  0
VERTEX
  8
T69SSILL
 62
3
 10
1454.458
 20
-6182.607
 30
-1672.904
 70
    32
  0
VERTEX
  8
T69SSILL
 62
3
 10
1461.556
 20
-6174.758
 30
-1672.940
 70
    32
  0
VERTEX
  8
T69SSILL
 62
3
 10
1468.338
 20
-6174.539
 30
-1672.982
 70
    32
  0
VERTEX
  8
T69SSILL
 62
3
 10
1473.776
 20
-6176.299
 30
-1673.017
 70
    32
  0
VERTEX
  8
T69SSILL
 62
3
 10
1488.675
 20
-6187.398
 30
-1673.120
 70
    32
  0
VERTEX
  8
T69SSILL
 62
3
 10
1497.872
 20
-6198.497
 30
-1673.188
 70
    32
  0
VERTEX
  8
T69SSILL
 62
3
 10
1446.522
 20
-6235.174
 30
-1672.905
 70
    32
  0
SEQEND
  8
T69SSILL
  0
POLYLINE
  8
T69SSILL
 62
3
 66
     1
 70
     9
  0
VERTEX
  8
T69SSILL
 62
3
 10
1534.591
 20
-6221.534
 30
-1673.437
 70
    32
  0
VERTEX
  8
T69SSILL
 62
3
 10
1542.948
 20
-6231.368
 30
-1673.498
 70
    32
  0
VERTEX
  8
T69SSILL
 62
3
 10
1546.956
 20
-6236.084
 30
-1673.486
 70
    32
  0
VERTEX
  8
T69SSILL
 62
3
 10
1558.506
 20
-6254.802
 30
-1673.429
 70
    32
  0
VERTEX
  8
T69SSILL
 62
3
 10
1565.357
 20
-6280.449
 30
-1673.330
 70
    32
  0
VERTEX
  8
T69SSILL
 62
3
 10
1562.440
 20
-6342.741
 30
-1673.044
 70
    32
  0
VERTEX
  8
T69SSILL
 62
3
 10
1545.929
 20
-6378.883
 30
-1672.843
 70
    32
  0
VERTEX
  8
T69SSILL
 62
3
 10
1538.659
 20
-6374.997
 30
-1672.844
 70
    32
  0
VERTEX
  8
T69SSILL
 62
3
 10
1517.247
 20
-6389.033
 30
-1672.731
 70
    32
  0
VERTEX
  8
T69SSILL
 62
3
 10
1477.200
 20
-6392.755
 30
-1672.620
 70
    32
  0
VERTEX
  8
T69SSILL
 62
3
 10
1458.410
 20
-6381.749
 30
-1672.626
 70
    32
  0
VERTEX
  8
T69SSILL
 62
3
 10
1457.762
 20
-6352.670
 30
-1672.755
 70
    32
  0
VERTEX
  8
T69SSILL
 62
3
 10
1462.161
 20
-6348.225
 30
-1672.785
 70
    32
  0
VERTEX
  8
T69SSILL
 62
3
 10
1457.299
 20
-6340.387
 30
-1672.809
 70
    32
  0
VERTEX
  8
T69SSILL
 62
3
 10
1453.676
 20
-6294.382
 30
-1673.007
 70
    32
  0
VERTEX
  8
T69SSILL
 62
3
 10
1453.165
 20
-6287.889
 30
-1672.997
 70
    32
  0
VERTEX
  8
T69SSILL
 62
3
 10
1443.760
 20
-6247.479
 30
-1672.900
 70
    32
  0
VERTEX
  8
T69SSILL
 62
3
 10
1507.468
 20
-6201.551
 30
-1673.250
 70
    32
  0
SEQEND
  8
T69SSILL
  0
POLYLINE
  8
T69SSILL
 62
3
 66
     1
 70
     9
  0
VERTEX
  8
T69SSILL
 62
3
 10
1448.706
 20
-6368.104
 30
-1672.664
 70
    32
  0
VERTEX
  8
T69SSILL
 62
3
 10
1449.911
 20
-6423.173
 30
-1672.420
 70
    32
  0
VERTEX
  8
T69SSILL
 62
3
 10
1450.305
 20
-6441.163
 30
-1672.455
 70
    32
  0
VERTEX
  8
T69SSILL
 62
3
 10
1459.769
 20
-6460.989
 30
-1672.450
 70
    32
  0
VERTEX
  8
T69SSILL
 62
3
 10
1426.658
 20
-6492.775
 30
-1672.674
 70
    32
  0
VERTEX
  8
T69SSILL
 62
3
 10
1409.119
 20
-6500.180
 30
-1672.773
 70
    32
  0
VERTEX
  8
T69SSILL
 62
3
 10
1403.921
 20
-6492.239
 30
-1672.782
 70
    32
  0
VERTEX
  8
T69SSILL
 62
3
 10
1402.417
 20
-6487.547
 30
-1672.779
 70
    32
  0
VERTEX
  8
T69SSILL
 62
3
 10
1397.376
 20
-6482.690
 30
-1672.794
 70
    32
  0
VERTEX
  8
T69SSILL
 62
3
 10
1380.179
 20
-6362.723
 30
-1672.631
 70
    32
  0
VERTEX
  8
T69SSILL
 62
3
 10
1382.272
 20
-6353.800
 30
-1672.603
 70
    32
  0
VERTEX
  8
T69SSILL
 62
3
 10
1384.754
 20
-6351.937
 30
-1672.587
 70
    32
  0
VERTEX
  8
T69SSILL
 62
3
 10
1390.277
 20
-6347.793
 30
-1672.619
 70
    32
  0
VERTEX
  8
T69SSILL
 62
3
 10
1389.145
 20
-6340.088
 30
-1672.651
 70
    32
  0
VERTEX
  8
T69SSILL
 62
3
 10
1389.690
 20
-6339.548
 30
-1672.654
 70
    32
  0
VERTEX
  8
T69SSILL
 62
3
 10
1394.516
 20
-6334.771
 30
-1672.680
 70
    32
  0
VERTEX
  8
T69SSILL
 62
3
 10
1385.212
 20
-6330.420
 30
-1672.618
 70
    32
  0
VERTEX
  8
T69SSILL
 62
3
 10
1382.678
 20
-6331.764
 30
-1672.604
 70
    32
  0
VERTEX
  8
T69SSILL
 62
3
 10
1376.643
 20
-6334.966
 30
-1672.654
 70
    32
  0
VERTEX
  8
T69SSILL
 62
3
 10
1372.072
 20
-6298.889
 30
-1672.771
 70
    32
  0
VERTEX
  8
T69SSILL
 62
3
 10
1391.822
 20
-6284.787
 30
-1672.615
 70
    32
  0
VERTEX
  8
T69SSILL
 62
3
 10
1419.649
 20
-6264.918
 30
-1672.768
 70
    32
  0
VERTEX
  8
T69SSILL
 62
3
 10
1428.189
 20
-6271.860
 30
-1672.827
 70
    32
  0
VERTEX
  8
T69SSILL
 62
3
 10
1434.296
 20
-6300.484
 30
-1672.893
 70
    32
  0
VERTEX
  8
T69SSILL
 62
3
 10
1435.700
 20
-6307.071
 30
-1672.908
 70
    32
  0
SEQEND
  8
T69SSILL
  0
POLYLINE
  8
T69SSILL
 62
3
 66
     1
 70
     9
  0
VERTEX
  8
T69SSILL
 62
3
 10
1671.007
 20
-6375.097
 30
-1673.248
 70
    32
  0
VERTEX
  8
T69SSILL
 62
3
 10
1673.982
 20
-6377.905
 30
-1673.252
 70
    32
  0
VERTEX
  8
T69SSILL
 62
3
 10
1674.691
 20
-6385.157
 30
-1673.221
 70
    32
  0
VERTEX
  8
T69SSILL
 62
3
 10
1671.172
 20
-6392.337
 30
-1673.164
 70
    32
  0
VERTEX
  8
T69SSILL
 62
3
 10
1670.708
 20
-6396.068
 30
-1673.143
 70
    32
  0
VERTEX
  8
T69SSILL
 62
3
 10
1680.851
 20
-6409.875
 30
-1673.136
 70
    32
  0
VERTEX
  8
T69SSILL
 62
3
 10
1682.021
 20
-6427.439
 30
-1673.057
 70
    32
  0
VERTEX
  8
T69SSILL
 62
3
 10
1676.580
 20
-6429.189
 30
-1673.016
 70
    32
  0
VERTEX
  8
T69SSILL
 62
3
 10
1649.308
 20
-6413.867
 30
-1672.928
 70
    32
  0
VERTEX
  8
T69SSILL
 62
3
 10
1630.620
 20
-6403.367
 30
-1672.932
 70
    32
  0
VERTEX
  8
T69SSILL
 62
3
 10
1647.058
 20
-6394.705
 30
-1673.009
 70
    32
  0
VERTEX
  8
T69SSILL
 62
3
 10
1652.370
 20
-6391.906
 30
-1673.054
 70
    32
  0
VERTEX
  8
T69SSILL
 62
3
 10
1653.663
 20
-6387.611
 30
-1673.083
 70
    32
  0
SEQEND
  8
T69SSILL
  0
POLYLINE
  8
T69SSILL
 62
3
 66
     1
 70
     9
  0
VERTEX
  8
T69SSILL
 62
3
 10
1487.879
 20
-6534.511
 30
-1672.465
 70
    32
  0
VERTEX
  8
T69SSILL
 62
3
 10
1489.580
 20
-6524.442
 30
-1672.437
 70
    32
  0
VERTEX
  8
T69SSILL
 62
3
 10
1483.270
 20
-6511.940
 30
-1672.441
 70
    32
  0
VERTEX
  8
T69SSILL
 62
3
 10
1479.348
 20
-6493.114
 30
-1672.422
 70
    32
  0
VERTEX
  8
T69SSILL
 62
3
 10
1479.286
 20
-6474.424
 30
-1672.384
 70
    32
  0
VERTEX
  8
T69SSILL
 62
3
 10
1484.877
 20
-6461.400
 30
-1672.330
 70
    32
  0
VERTEX
  8
T69SSILL
 62
3
 10
1493.136
 20
-6442.158
 30
-1672.436
 70
    32
  0
VERTEX
  8
T69SSILL
 62
3
 10
1556.327
 20
-6380.968
 30
-1672.858
 70
    32
  0
VERTEX
  8
T69SSILL
 62
3
 10
1559.883
 20
-6381.967
 30
-1672.862
 70
    32
  0
VERTEX
  8
T69SSILL
 62
3
 10
1558.516
 20
-6407.116
 30
-1672.746
 70
    32
  0
VERTEX
  8
T69SSILL
 62
3
 10
1563.049
 20
-6408.231
 30
-1672.752
 70
    32
  0
VERTEX
  8
T69SSILL
 62
3
 10
1594.518
 20
-6483.460
 30
-1672.488
 70
    32
  0
VERTEX
  8
T69SSILL
 62
3
 10
1592.065
 20
-6486.663
 30
-1672.468
 70
    32
  0
VERTEX
  8
T69SSILL
 62
3
 10
1586.294
 20
-6489.584
 30
-1672.441
 70
    32
  0
VERTEX
  8
T69SSILL
 62
3
 10
1585.217
 20
-6499.095
 30
-1672.396
 70
    32
  0
VERTEX
  8
T69SSILL
 62
3
 10
1578.134
 20
-6508.695
 30
-1672.336
 70
    32
  0
VERTEX
  8
T69SSILL
 62
3
 10
1571.422
 20
-6513.699
 30
-1672.298
 70
    32
  0
VERTEX
  8
T69SSILL
 62
3
 10
1555.000
 20
-6510.000
 30
-1672.276
 70
    32
  0
VERTEX
  8
T69SSILL
 62
3
 10
1545.000
 20
-6515.000
 30
-1672.231
 70
    32
  0
VERTEX
  8
T69SSILL
 62
3
 10
1530.000
 20
-6500.000
 30
-1672.263
 70
    32
  0
VERTEX
  8
T69SSILL
 62
3
 10
1525.000
 20
-6505.000
 30
-1672.229
 70
    32
  0
VERTEX
  8
T69SSILL
 62
3
 10
1524.757
 20
-6505.000
 30
-1672.228
 70
    32
  0
VERTEX
  8
T69SSILL
 62
3
 10
1520.000
 20
-6505.000
 30
-1672.251
 70
    32
  0
VERTEX
  8
T69SSILL
 62
3
 10
1515.000
 20
-6510.000
 30
-1672.285
 70
    32
  0
VERTEX
  8
T69SSILL
 62
3
 10
1510.000
 20
-6520.000
 30
-1672.330
 70
    32
  0
VERTEX
  8
T69SSILL
 62
3
 10
1510.000
 20
-6525.000
 30
-1672.340
 70
    32
  0
VERTEX
  8
T69SSILL
 62
3
 10
1515.000
 20
-6525.000
 30
-1672.316
 70
    32
  0
VERTEX
  8
T69SSILL
 62
3
 10
1520.000
 20
-6535.000
 30
-1672.312
 70
    32
  0
VERTEX
  8
T69SSILL
 62
3
 10
1525.000
 20
-6540.000
 30
-1672.298
 70
    32
  0
VERTEX
  8
T69SSILL
 62
3
 10
1525.000
 20
-6550.000
 30
-1672.319
 70
    32
  0
VERTEX
  8
T69SSILL
 62
3
 10
1520.000
 20
-6555.000
 30
-1672.353
 70
    32
  0
VERTEX
  8
T69SSILL
 62
3
 10
1510.000
 20
-6560.000
 30
-1672.411
 70
    32
  0
VERTEX
  8
T69SSILL
 62
3
 10
1500.000
 20
-6560.000
 30
-1672.459
 70
    32
  0
VERTEX
  8
T69SSILL
 62
3
 10
1489.432
 20
-6554.259
 30
-1672.498
 70
    32
  0
VERTEX
  8
T69SSILL
 62
3
 10
1488.449
 20
-6539.513
 30
-1672.473
 70
    32
  0
SEQEND
  8
T69SSILL
  0
POLYLINE
  8
T69SSILL
 62
3
 66
     1
 70
     9
  0
VERTEX
  8
T69SSILL
 62
3
 10
1721.266
 20
-7232.855
 30
-1669.750
 70
    32
  0
VERTEX
  8
T69SSILL
 62
3
 10
1820.087
 20
-7279.975
 30
-1669.037
 70
    32
  0
VERTEX
  8
T69SSILL
 62
3
 10
1819.131
 20
-7289.897
 30
-1668.987
 70
    32
  0
VERTEX
  8
T69SSILL
 62
3
 10
1821.565
 20
-7296.936
 30
-1668.937
 70
    32
  0
VERTEX
  8
T69SSILL
 62
3
 10
1810.759
 20
-7317.849
 30
-1668.871
 70
    32
  0
VERTEX
  8
T69SSILL
 62
3
 10
1812.069
 20
-7325.430
 30
-1668.824
 70
    32
  0
VERTEX
  8
T69SSILL
 62
3
 10
1806.446
 20
-7342.610
 30
-1668.755
 70
    32
  0
VERTEX
  8
T69SSILL
 62
3
 10
1774.251
 20
-7440.978
 30
-1668.872
 70
    32
  0
VERTEX
  8
T69SSILL
 62
3
 10
1754.771
 20
-7500.498
 30
-1668.883
 70
    32
  0
VERTEX
  8
T69SSILL
 62
3
 10
1746.178
 20
-7508.151
 30
-1668.938
 70
    32
  0
VERTEX
  8
T69SSILL
 62
3
 10
1741.134
 20
-7512.644
 30
-1668.999
 70
    32
  0
VERTEX
  8
T69SSILL
 62
3
 10
1735.155
 20
-7522.154
 30
-1669.089
 70
    32
  0
VERTEX
  8
T69SSILL
 62
3
 10
1735.461
 20
-7527.525
 30
-1669.108
 70
    32
  0
VERTEX
  8
T69SSILL
 62
3
 10
1732.480
 20
-7533.301
 30
-1669.157
 70
    32
  0
VERTEX
  8
T69SSILL
 62
3
 10
1727.795
 20
-7535.669
 30
-1669.207
 70
    32
  0
VERTEX
  8
T69SSILL
 62
3
 10
1722.860
 20
-7536.081
 30
-1669.252
 70
    32
  0
VERTEX
  8
T69SSILL
 62
3
 10
1614.165
 20
-7508.085
 30
-1670.094
 70
    32
  0
VERTEX
  8
T69SSILL
 62
3
 10
1607.543
 20
-7506.379
 30
-1670.157
 70
    32
  0
VERTEX
  8
T69SSILL
 62
3
 10
1598.561
 20
-7503.266
 30
-1670.244
 70
    32
  0
VERTEX
  8
T69SSILL
 62
3
 10
1597.790
 20
-7502.998
 30
-1670.251
 70
    32
  0
VERTEX
  8
T69SSILL
 62
3
 10
1589.516
 20
-7499.145
 30
-1670.326
 70
    32
  0
VERTEX
  8
T69SSILL
 62
3
 10
1587.307
 20
-7497.422
 30
-1670.347
 70
    32
  0
VERTEX
  8
T69SSILL
 62
3
 10
1583.736
 20
-7494.637
 30
-1670.357
 70
    32
  0
VERTEX
  8
T69SSILL
 62
3
 10
1578.721
 20
-7490.728
 30
-1670.341
 70
    32
  0
VERTEX
  8
T69SSILL
 62
3
 10
1565.566
 20
-7469.949
 30
-1670.309
 70
    32
  0
VERTEX
  8
T69SSILL
 62
3
 10
1565.334
 20
-7469.583
 30
-1670.309
 70
    32
  0
VERTEX
  8
T69SSILL
 62
3
 10
1565.369
 20
-7469.564
 30
-1670.309
 70
    32
  0
VERTEX
  8
T69SSILL
 62
3
 10
1580.565
 20
-7461.224
 30
-1670.375
 70
    32
  0
VERTEX
  8
T69SSILL
 62
3
 10
1597.071
 20
-7452.164
 30
-1670.336
 70
    32
  0
VERTEX
  8
T69SSILL
 62
3
 10
1606.174
 20
-7447.169
 30
-1670.267
 70
    32
  0
VERTEX
  8
T69SSILL
 62
3
 10
1648.338
 20
-7430.018
 30
-1669.941
 70
    32
  0
VERTEX
  8
T69SSILL
 62
3
 10
1679.135
 20
-7413.575
 30
-1669.709
 70
    32
  0
VERTEX
  8
T69SSILL
 62
3
 10
1704.475
 20
-7322.173
 30
-1669.639
 70
    32
  0
VERTEX
  8
T69SSILL
 62
3
 10
1765.373
 20
-7337.759
 30
-1669.106
 70
    32
  0
VERTEX
  8
T69SSILL
 62
3
 10
1771.361
 20
-7318.668
 30
-1669.085
 70
    32
  0
VERTEX
  8
T69SSILL
 62
3
 10
1709.755
 20
-7299.307
 30
-1669.630
 70
    32
  0
VERTEX
  8
T69SSILL
 62
3
 10
1713.336
 20
-7281.687
 30
-1669.627
 70
    32
  0
VERTEX
  8
T69SSILL
 62
3
 10
1714.026
 20
-7262.222
 30
-1669.652
 70
    32
  0
VERTEX
  8
T69SSILL
 62
3
 10
1712.446
 20
-7253.143
 30
-1669.679
 70
    32
  0
VERTEX
  8
T69SSILL
 62
3
 10
1709.896
 20
-7238.484
 30
-1669.772
 70
    32
  0
SEQEND
  8
T69SSILL
  0
POLYLINE
  8
T69SSILL
 62
3
 66
     1
 70
     9
  0
VERTEX
  8
T69SSILL
 62
3
 10
1513.524
 20
-5152.070
 30
-1669.664
 70
    32
  0
VERTEX
  8
T69SSILL
 62
3
 10
1512.626
 20
-5148.449
 30
-1669.659
 70
    32
  0
VERTEX
  8
T69SSILL
 62
3
 10
1523.169
 20
-5139.597
 30
-1669.713
 70
    32
  0
VERTEX
  8
T69SSILL
 62
3
 10
1521.986
 20
-5131.285
 30
-1669.707
 70
    32
  0
VERTEX
  8
T69SSILL
 62
3
 10
1521.852
 20
-5130.341
 30
-1669.708
 70
    32
  0
VERTEX
  8
T69SSILL
 62
3
 10
1536.221
 20
-5119.013
 30
-1669.787
 70
    32
  0
VERTEX
  8
T69SSILL
 62
3
 10
1538.986
 20
-5119.692
 30
-1669.795
 70
    32
  0
VERTEX
  8
T69SSILL
 62
3
 10
1545.933
 20
-5121.397
 30
-1669.831
 70
    32
  0
VERTEX
  8
T69SSILL
 62
3
 10
1551.492
 20
-5115.702
 30
-1669.860
 70
    32
  0
VERTEX
  8
T69SSILL
 62
3
 10
1563.517
 20
-5107.494
 30
-1669.922
 70
    32
  0
VERTEX
  8
T69SSILL
 62
3
 10
1566.056
 20
-5103.411
 30
-1669.935
 70
    32
  0
VERTEX
  8
T69SSILL
 62
3
 10
1566.667
 20
-5100.816
 30
-1669.938
 70
    32
  0
VERTEX
  8
T69SSILL
 62
3
 10
1567.970
 20
-5095.272
 30
-1669.956
 70
    32
  0
VERTEX
  8
T69SSILL
 62
3
 10
1607.529
 20
-5067.637
 30
-1670.163
 70
    32
  0
VERTEX
  8
T69SSILL
 62
3
 10
1617.969
 20
-5065.831
 30
-1670.204
 70
    32
  0
VERTEX
  8
T69SSILL
 62
3
 10
1626.692
 20
-5064.322
 30
-1670.249
 70
    32
  0
VERTEX
  8
T69SSILL
 62
3
 10
1640.753
 20
-5061.890
 30
-1670.207
 70
    32
  0
VERTEX
  8
T69SSILL
 62
3
 10
1698.108
 20
-5051.968
 30
-1670.130
 70
    32
  0
VERTEX
  8
T69SSILL
 62
3
 10
1700.053
 20
-5055.961
 30
-1670.098
 70
    32
  0
VERTEX
  8
T69SSILL
 62
3
 10
1679.050
 20
-5073.040
 30
-1670.035
 70
    32
  0
VERTEX
  8
T69SSILL
 62
3
 10
1600.243
 20
-5137.123
 30
-1670.115
 70
    32
  0
VERTEX
  8
T69SSILL
 62
3
 10
1594.862
 20
-5141.498
 30
-1670.087
 70
    32
  0
VERTEX
  8
T69SSILL
 62
3
 10
1592.229
 20
-5141.272
 30
-1670.074
 70
    32
  0
VERTEX
  8
T69SSILL
 62
3
 10
1587.875
 20
-5143.737
 30
-1670.051
 70
    32
  0
VERTEX
  8
T69SSILL
 62
3
 10
1584.811
 20
-5147.826
 30
-1670.035
 70
    32
  0
VERTEX
  8
T69SSILL
 62
3
 10
1581.380
 20
-5152.403
 30
-1670.092
 70
    32
  0
VERTEX
  8
T69SSILL
 62
3
 10
1521.638
 20
-5197.339
 30
-1670.415
 70
    32
  0
VERTEX
  8
T69SSILL
 62
3
 10
1470.204
 20
-5236.026
 30
-1670.411
 70
    32
  0
VERTEX
  8
T69SSILL
 62
3
 10
1466.315
 20
-5232.182
 30
-1670.313
 70
    32
  0
VERTEX
  8
T69SSILL
 62
3
 10
1454.949
 20
-5237.537
 30
-1670.266
 70
    32
  0
VERTEX
  8
T69SSILL
 62
3
 10
1451.953
 20
-5240.033
 30
-1670.269
 70
    32
  0
VERTEX
  8
T69SSILL
 62
3
 10
1446.859
 20
-5244.277
 30
-1670.286
 70
    32
  0
VERTEX
  8
T69SSILL
 62
3
 10
1450.296
 20
-5250.470
 30
-1670.402
 70
    32
  0
VERTEX
  8
T69SSILL
 62
3
 10
1450.539
 20
-5250.909
 30
-1670.411
 70
    32
  0
VERTEX
  8
T69SSILL
 62
3
 10
1450.186
 20
-5251.167
 30
-1670.411
 70
    32
  0
VERTEX
  8
T69SSILL
 62
3
 10
1438.436
 20
-5259.753
 30
-1670.433
 70
    32
  0
VERTEX
  8
T69SSILL
 62
3
 10
1342.863
 20
-5329.594
 30
-1670.019
 70
    32
  0
VERTEX
  8
T69SSILL
 62
3
 10
1293.893
 20
-5364.472
 30
-1669.805
 70
    32
  0
VERTEX
  8
T69SSILL
 62
3
 10
1291.372
 20
-5366.267
 30
-1669.809
 70
    32
  0
VERTEX
  8
T69SSILL
 62
3
 10
1269.831
 20
-5381.610
 30
-1669.889
 70
    32
  0
VERTEX
  8
T69SSILL
 62
3
 10
1258.091
 20
-5374.265
 30
-1669.905
 70
    32
  0
VERTEX
  8
T69SSILL
 62
3
 10
1235.493
 20
-5406.015
 30
-1670.016
 70
    32
  0
VERTEX
  8
T69SSILL
 62
3
 10
1170.549
 20
-5451.651
 30
-1670.255
 70
    32
  0
VERTEX
  8
T69SSILL
 62
3
 10
1165.488
 20
-5447.735
 30
-1670.261
 70
    32
  0
VERTEX
  8
T69SSILL
 62
3
 10
1186.443
 20
-5391.114
 30
-1670.111
 70
    32
  0
VERTEX
  8
T69SSILL
 62
3
 10
1193.501
 20
-5377.285
 30
-1670.070
 70
    32
  0
VERTEX
  8
T69SSILL
 62
3
 10
1200.013
 20
-5367.877
 30
-1670.037
 70
    32
  0
VERTEX
  8
T69SSILL
 62
3
 10
1265.782
 20
-5320.599
 30
-1669.793
 70
    32
  0
VERTEX
  8
T69SSILL
 62
3
 10
1273.220
 20
-5315.252
 30
-1669.782
 70
    32
  0
VERTEX
  8
T69SSILL
 62
3
 10
1282.021
 20
-5316.704
 30
-1669.775
 70
    32
  0
VERTEX
  8
T69SSILL
 62
3
 10
1303.714
 20
-5300.574
 30
-1669.742
 70
    32
  0
VERTEX
  8
T69SSILL
 62
3
 10
1325.466
 20
-5284.399
 30
-1669.835
 70
    32
  0
VERTEX
  8
T69SSILL
 62
3
 10
1437.069
 20
-5201.414
 30
-1669.603
 70
    32
  0
VERTEX
  8
T69SSILL
 62
3
 10
1460.737
 20
-5184.691
 30
-1669.566
 70
    32
  0
VERTEX
  8
T69SSILL
 62
3
 10
1472.943
 20
-5176.068
 30
-1669.575
 70
    32
  0
VERTEX
  8
T69SSILL
 62
3
 10
1485.470
 20
-5167.217
 30
-1669.518
 70
    32
  0
VERTEX
  8
T69SSILL
 62
3
 10
1503.813
 20
-5154.257
 30
-1669.613
 70
    32
  0
VERTEX
  8
T69SSILL
 62
3
 10
1504.507
 20
-5154.710
 30
-1669.617
 70
    32
  0
SEQEND
  8
T69SSILL
  0
POLYLINE
  8
T69SSILL
 62
3
 66
     1
 70
     9
  0
VERTEX
  8
T69SSILL
 62
3
 10
1301.064
 20
-5534.733
 30
-1669.555
 70
    32
  0
VERTEX
  8
T69SSILL
 62
3
 10
1340.791
 20
-5589.581
 30
-1669.294
 70
    32
  0
VERTEX
  8
T69SSILL
 62
3
 10
1334.477
 20
-5599.675
 30
-1669.310
 70
    32
  0
VERTEX
  8
T69SSILL
 62
3
 10
1316.941
 20
-5627.710
 30
-1670.465
 70
    32
  0
VERTEX
  8
T69SSILL
 62
3
 10
1312.762
 20
-5623.761
 30
-1670.460
 70
    32
  0
VERTEX
  8
T69SSILL
 62
3
 10
1310.487
 20
-5623.985
 30
-1670.520
 70
    32
  0
VERTEX
  8
T69SSILL
 62
3
 10
1275.622
 20
-5575.476
 30
-1670.069
 70
    32
  0
VERTEX
  8
T69SSILL
 62
3
 10
1275.642
 20
-5571.748
 30
-1669.970
 70
    32
  0
VERTEX
  8
T69SSILL
 62
3
 10
1280.910
 20
-5562.988
 30
-1669.614
 70
    32
  0
VERTEX
  8
T69SSILL
 62
3
 10
1297.733
 20
-5535.013
 30
-1669.571
 70
    32
  0
VERTEX
  8
T69SSILL
 62
3
 10
1299.885
 20
-5534.540
 30
-1669.561
 70
    32
  0
SEQEND
  8
T69SSILL
  0
POLYLINE
  8
T69SSILL
 62
3
 66
     1
 70
     9
  0
VERTEX
  8
T69SSILL
 62
3
 10
1345.889
 20
-5685.078
 30
-1669.784
 70
    32
  0
VERTEX
  8
T69SSILL
 62
3
 10
1338.897
 20
-5678.518
 30
-1669.791
 70
    32
  0
VERTEX
  8
T69SSILL
 62
3
 10
1331.829
 20
-5660.069
 30
-1669.706
 70
    32
  0
VERTEX
  8
T69SSILL
 62
3
 10
1323.102
 20
-5637.292
 30
-1670.345
 70
    32
  0
VERTEX
  8
T69SSILL
 62
3
 10
1326.611
 20
-5631.681
 30
-1670.340
 70
    32
  0
VERTEX
  8
T69SSILL
 62
3
 10
1342.982
 20
-5605.499
 30
-1669.262
 70
    32
  0
VERTEX
  8
T69SSILL
 62
3
 10
1346.633
 20
-5599.660
 30
-1669.252
 70
    32
  0
VERTEX
  8
T69SSILL
 62
3
 10
1358.962
 20
-5616.444
 30
-1669.172
 70
    32
  0
VERTEX
  8
T69SSILL
 62
3
 10
1366.751
 20
-5627.047
 30
-1669.266
 70
    32
  0
VERTEX
  8
T69SSILL
 62
3
 10
1368.865
 20
-5629.925
 30
-1669.156
 70
    32
  0
VERTEX
  8
T69SSILL
 62
3
 10
1374.863
 20
-5638.091
 30
-1669.170
 70
    32
  0
VERTEX
  8
T69SSILL
 62
3
 10
1426.730
 20
-5708.700
 30
-1669.293
 70
    32
  0
VERTEX
  8
T69SSILL
 62
3
 10
1427.741
 20
-5713.123
 30
-1669.319
 70
    32
  0
VERTEX
  8
T69SSILL
 62
3
 10
1435.706
 20
-5724.044
 30
-1669.339
 70
    32
  0
VERTEX
  8
T69SSILL
 62
3
 10
1437.204
 20
-5727.368
 30
-1669.352
 70
    32
  0
VERTEX
  8
T69SSILL
 62
3
 10
1439.900
 20
-5733.349
 30
-1669.475
 70
    32
  0
VERTEX
  8
T69SSILL
 62
3
 10
1414.154
 20
-5776.684
 30
-1670.229
 70
    32
  0
VERTEX
  8
T69SSILL
 62
3
 10
1410.057
 20
-5776.618
 30
-1670.215
 70
    32
  0
VERTEX
  8
T69SSILL
 62
3
 10
1400.640
 20
-5767.509
 30
-1670.013
 70
    32
  0
VERTEX
  8
T69SSILL
 62
3
 10
1398.443
 20
-5766.109
 30
-1669.980
 70
    32
  0
VERTEX
  8
T69SSILL
 62
3
 10
1391.875
 20
-5761.926
 30
-1670.001
 70
    32
  0
VERTEX
  8
T69SSILL
 62
3
 10
1390.944
 20
-5762.288
 30
-1670.012
 70
    32
  0
VERTEX
  8
T69SSILL
 62
3
 10
1383.272
 20
-5765.271
 30
-1670.100
 70
    32
  0
VERTEX
  8
T69SSILL
 62
3
 10
1381.014
 20
-5769.114
 30
-1670.150
 70
    32
  0
VERTEX
  8
T69SSILL
 62
3
 10
1379.272
 20
-5772.077
 30
-1670.155
 70
    32
  0
VERTEX
  8
T69SSILL
 62
3
 10
1385.164
 20
-5778.999
 30
-1670.112
 70
    32
  0
VERTEX
  8
T69SSILL
 62
3
 10
1389.632
 20
-5783.022
 30
-1670.080
 70
    32
  0
VERTEX
  8
T69SSILL
 62
3
 10
1398.777
 20
-5791.259
 30
-1670.226
 70
    32
  0
VERTEX
  8
T69SSILL
 62
3
 10
1399.641
 20
-5800.286
 30
-1670.266
 70
    32
  0
VERTEX
  8
T69SSILL
 62
3
 10
1385.911
 20
-5824.899
 30
-1670.165
 70
    32
  0
VERTEX
  8
T69SSILL
 62
3
 10
1381.025
 20
-5818.358
 30
-1670.080
 70
    32
  0
VERTEX
  8
T69SSILL
 62
3
 10
1377.962
 20
-5814.256
 30
-1670.104
 70
    32
  0
VERTEX
  8
T69SSILL
 62
3
 10
1372.659
 20
-5803.123
 30
-1670.150
 70
    32
  0
VERTEX
  8
T69SSILL
 62
3
 10
1363.633
 20
-5790.260
 30
-1670.220
 70
    32
  0
VERTEX
  8
T69SSILL
 62
3
 10
1364.434
 20
-5782.555
 30
-1670.227
 70
    32
  0
VERTEX
  8
T69SSILL
 62
3
 10
1361.316
 20
-5770.738
 30
-1670.261
 70
    32
  0
VERTEX
  8
T69SSILL
 62
3
 10
1366.436
 20
-5764.967
 30
-1670.240
 70
    32
  0
VERTEX
  8
T69SSILL
 62
3
 10
1388.125
 20
-5740.520
 30
-1669.864
 70
    32
  0
VERTEX
  8
T69SSILL
 62
3
 10
1410.912
 20
-5714.835
 30
-1669.473
 70
    32
  0
VERTEX
  8
T69SSILL
 62
3
 10
1404.416
 20
-5708.061
 30
-1669.474
 70
    32
  0
VERTEX
  8
T69SSILL
 62
3
 10
1386.463
 20
-5727.681
 30
-1669.777
 70
    32
  0
VERTEX
  8
T69SSILL
 62
3
 10
1361.792
 20
-5754.643
 30
-1670.198
 70
    32
  0
VERTEX
  8
T69SSILL
 62
3
 10
1359.393
 20
-5751.721
 30
-1670.195
 70
    32
  0
VERTEX
  8
T69SSILL
 62
3
 10
1359.214
 20
-5742.988
 30
-1670.128
 70
    32
  0
VERTEX
  8
T69SSILL
 62
3
 10
1357.337
 20
-5740.425
 30
-1670.123
 70
    32
  0
VERTEX
  8
T69SSILL
 62
3
 10
1355.641
 20
-5725.767
 30
-1670.022
 70
    32
  0
VERTEX
  8
T69SSILL
 62
3
 10
1348.235
 20
-5691.168
 30
-1669.812
 70
    32
  0
SEQEND
  8
T69SSILL
  0
POLYLINE
  8
T69SSILL
 62
3
 66
     1
 70
     9
  0
VERTEX
  8
T69SSILL
 62
3
 10
1370.000
 20
-6550.000
 30
-1673.062
 70
    32
  0
VERTEX
  8
T69SSILL
 62
3
 10
1340.000
 20
-6580.000
 30
-1673.268
 70
    32
  0
VERTEX
  8
T69SSILL
 62
3
 10
1334.378
 20
-6587.496
 30
-1673.310
 70
    32
  0
VERTEX
  8
T69SSILL
 62
3
 10
1325.000
 20
-6600.000
 30
-1673.233
 70
    32
  0
VERTEX
  8
T69SSILL
 62
3
 10
1316.704
 20
-6599.977
 30
-1673.252
 70
    32
  0
VERTEX
  8
T69SSILL
 62
3
 10
1311.365
 20
-6581.692
 30
-1673.408
 70
    32
  0
VERTEX
  8
T69SSILL
 62
3
 10
1308.740
 20
-6572.698
 30
-1673.403
 70
    32
  0
VERTEX
  8
T69SSILL
 62
3
 10
1297.523
 20
-6534.282
 30
-1672.612
 70
    32
  0
VERTEX
  8
T69SSILL
 62
3
 10
1301.559
 20
-6532.403
 30
-1672.702
 70
    32
  0
VERTEX
  8
T69SSILL
 62
3
 10
1311.700
 20
-6536.525
 30
-1673.038
 70
    32
  0
VERTEX
  8
T69SSILL
 62
3
 10
1318.538
 20
-6541.513
 30
-1673.292
 70
    32
  0
VERTEX
  8
T69SSILL
 62
3
 10
1319.968
 20
-6542.555
 30
-1673.287
 70
    32
  0
VERTEX
  8
T69SSILL
 62
3
 10
1334.537
 20
-6546.932
 30
-1673.226
 70
    32
  0
VERTEX
  8
T69SSILL
 62
3
 10
1369.571
 20
-6547.559
 30
-1673.059
 70
    32
  0
SEQEND
  8
T69SSILL
  0
POLYLINE
  8
T69SSILL
 62
3
 66
     1
 70
     9
  0
VERTEX
  8
T69SSILL
 62
3
 10
1268.785
 20
-5397.992
 30
-1669.889
 70
    32
  0
VERTEX
  8
T69SSILL
 62
3
 10
1276.908
 20
-5387.289
 30
-1669.864
 70
    32
  0
VERTEX
  8
T69SSILL
 62
3
 10
1297.371
 20
-5406.942
 30
-1667.616
 70
    32
  0
VERTEX
  8
T69SSILL
 62
3
 10
1291.644
 20
-5417.864
 30
-1667.497
 70
    32
  0
SEQEND
  8
T69SSILL
  0
POLYLINE
  8
T69SSILL
 62
3
 66
     1
 70
     9
  0
VERTEX
  8
T69SSILL
 62
3
 10
1957.306
 20
-6925.703
 30
-1668.318
 70
    32
  0
VERTEX
  8
T69SSILL
 62
3
 10
1951.862
 20
-6872.871
 30
-1665.018
 70
    32
  0
VERTEX
  8
T69SSILL
 62
3
 10
1963.397
 20
-6865.044
 30
-1665.977
 70
    32
  0
VERTEX
  8
T69SSILL
 62
3
 10
1970.946
 20
-6917.969
 30
-1668.504
 70
    32
  0
SEQEND
  8
T69SSILL
  0
POLYLINE
  8
T69SSILL
 62
3
 66
     1
 70
     9
  0
VERTEX
  8
T69SSILL
 62
3
 10
1281.504
 20
-6161.349
 30
-1668.786
 70
    32
  0
VERTEX
  8
T69SSILL
 62
3
 10
1237.043
 20
-6100.610
 30
-1667.894
 70
    32
  0
VERTEX
  8
T69SSILL
 62
3
 10
1225.379
 20
-6077.461
 30
-1665.704
 70
    32
  0
VERTEX
  8
T69SSILL
 62
3
 10
1232.523
 20
-6071.367
 30
-1664.977
 70
    32
  0
VERTEX
  8
T69SSILL
 62
3
 10
1231.645
 20
-6014.244
 30
-1657.133
 70
    32
  0
VERTEX
  8
T69SSILL
 62
3
 10
1243.038
 20
-6002.943
 30
-1655.702
 70
    32
  0
VERTEX
  8
T69SSILL
 62
3
 10
1244.853
 20
-6070.800
 30
-1665.184
 70
    32
  0
VERTEX
  8
T69SSILL
 62
3
 10
1242.632
 20
-6077.687
 30
-1666.091
 70
    32
  0
VERTEX
  8
T69SSILL
 62
3
 10
1249.835
 20
-6098.073
 30
-1667.690
 70
    32
  0
VERTEX
  8
T69SSILL
 62
3
 10
1263.070
 20
-6116.269
 30
-1667.944
 70
    32
  0
VERTEX
  8
T69SSILL
 62
3
 10
1291.779
 20
-6155.741
 30
-1668.811
 70
    32
  0
SEQEND
  8
T69SSILL
  0
POLYLINE
  8
T69SSILL
 62
3
 66
     1
 70
     9
  0
VERTEX
  8
T69SSILL
 62
3
 10
1417.360
 20
-6709.838
 30
-1672.121
 70
    32
  0
VERTEX
  8
T69SSILL
 62
3
 10
1423.818
 20
-6729.279
 30
-1678.922
 70
    32
  0
VERTEX
  8
T69SSILL
 62
3
 10
1424.012
 20
-6737.526
 30
-1680.347
 70
    32
  0
VERTEX
  8
T69SSILL
 62
3
 10
1427.071
 20
-6739.248
 30
-1680.825
 70
    32
  0
VERTEX
  8
T69SSILL
 62
3
 10
1437.057
 20
-6734.899
 30
-1680.307
 70
    32
  0
VERTEX
  8
T69SSILL
 62
3
 10
1423.313
 20
-6694.910
 30
-1672.238
 70
    32
  0
SEQEND
  8
T69SSILL
  0
POLYLINE
  8
T69SSILL
 62
3
 66
     1
 70
     9
  0
VERTEX
  8
T69SSILL
 62
3
 10
1957.306
 20
-6925.703
 30
-1668.318
 70
    32
  0
VERTEX
  8
T69SSILL
 62
3
 10
1958.256
 20
-6907.064
 30
-1672.181
 70
    32
  0
VERTEX
  8
T69SSILL
 62
3
 10
1949.412
 20
-6876.985
 30
-1676.807
 70
    32
  0
VERTEX
  8
T69SSILL
 62
3
 10
1962.867
 20
-6874.213
 30
-1676.096
 70
    32
  0
VERTEX
  8
T69SSILL
 62
3
 10
1967.427
 20
-6886.038
 30
-1674.776
 70
    32
  0
VERTEX
  8
T69SSILL
 62
3
 10
1971.603
 20
-6905.559
 30
-1671.781
 70
    32
  0
VERTEX
  8
T69SSILL
 62
3
 10
1970.946
 20
-6917.969
 30
-1668.504
 70
    32
  0
SEQEND
  8
T69SSILL
  0
POLYLINE
  8
T69SSILL
 62
3
 66
     1
 70
     8
  0
VERTEX
  8
T69SSILL
 62
3
 10
1895.863
 20
-7561.808
 30
-1667.384
 70
    32
  0
VERTEX
  8
T69SSILL
 62
3
 10
1902.247
 20
-7570.204
 30
-1665.932
 70
    32
  0
VERTEX
  8
T69SSILL
 62
3
 10
1906.195
 20
-7575.062
 30
-1665.023
 70
    32
  0
VERTEX
  8
T69SSILL
 62
3
 10
1921.106
 20
-7584.263
 30
-1661.303
 70
    32
  0
VERTEX
  8
T69SSILL
 62
3
 10
1927.613
 20
-7591.025
 30
-1659.766
 70
    32
  0
VERTEX
  8
T69SSILL
 62
3
 10
1929.226
 20
-7592.857
 30
-1659.390
 70
    32
  0
VERTEX
  8
T69SSILL
 62
3
 10
1935.561
 20
-7600.053
 30
-1656.535
 70
    32
  0
VERTEX
  8
T69SSILL
 62
3
 10
1926.765
 20
-7606.348
 30
-1657.327
 70
    32
  0
VERTEX
  8
T69SSILL
 62
3
 10
1918.867
 20
-7597.588
 30
-1660.846
 70
    32
  0
VERTEX
  8
T69SSILL
 62
3
 10
1911.010
 20
-7589.687
 30
-1664.188
 70
    32
  0
VERTEX
  8
T69SSILL
 62
3
 10
1908.710
 20
-7587.373
 30
-1664.734
 70
    32
  0
VERTEX
  8
T69SSILL
 62
3
 10
1904.007
 20
-7584.947
 30
-1665.922
 70
    32
  0
VERTEX
  8
T69SSILL
 62
3
 10
1901.148
 20
-7582.422
 30
-1666.611
 70
    32
  0
VERTEX
  8
T69SSILL
 62
3
 10
1896.923
 20
-7585.096
 30
-1667.831
 70
    32
  0
SEQEND
  8
T69SSILL
  0
POLYLINE
  8
T69SSILL
 62
3
 66
     1
 70
     9
  0
VERTEX
  8
T69SSILL
 62
3
 10
1823.877
 20
-7160.046
 30
-1666.164
 70
    32
  0
VERTEX
  8
T69SSILL
 62
3
 10
1822.051
 20
-7158.288
 30
-1666.729
 70
    32
  0
VERTEX
  8
T69SSILL
 62
3
 10
1826.412
 20
-7148.625
 30
-1667.381
 70
    32
  0
VERTEX
  8
T69SSILL
 62
3
 10
1828.671
 20
-7150.527
 30
-1666.463
 70
    32
  0
SEQEND
  8
T69SSILL
  0
POLYLINE
  8
T69SSILL
 62
3
 66
     1
 70
     9
  0
VERTEX
  8
T69SSILL
 62
3
 10
1825.370
 20
-7212.181
 30
-1666.400
 70
    32
  0
VERTEX
  8
T69SSILL
 62
3
 10
1832.946
 20
-7202.312
 30
-1666.400
 70
    32
  0
VERTEX
  8
T69SSILL
 62
3
 10
1830.692
 20
-7200.992
 30
-1666.400
 70
    32
  0
VERTEX
  8
T69SSILL
 62
3
 10
1823.461
 20
-7210.735
 30
-1666.400
 70
    32
  0
SEQEND
  8
T69SSILL
  0
POLYLINE
  8
T69SSILL
 62
3
 66
     1
 70
     8
  0
VERTEX
  8
T69SSILL
 62
3
 10
1828.751
 20
-7150.594
 30
-1666.430
 70
    32
  0
VERTEX
  8
T69SSILL
 62
3
 10
1823.967
 20
-7146.566
 30
-1668.375
 70
    32
  0
VERTEX
  8
T69SSILL
 62
3
 10
1819.521
 20
-7143.516
 30
-1668.062
 70
    32
  0
VERTEX
  8
T69SSILL
 62
3
 10
1814.835
 20
-7122.924
 30
-1668.018
 70
    32
  0
VERTEX
  8
T69SSILL
 62
3
 10
1809.309
 20
-7106.132
 30
-1667.843
 70
    32
  0
VERTEX
  8
T69SSILL
 62
3
 10
1799.334
 20
-7109.241
 30
-1666.977
 70
    32
  0
VERTEX
  8
T69SSILL
 62
3
 10
1803.534
 20
-7124.893
 30
-1667.063
 70
    32
  0
VERTEX
  8
T69SSILL
 62
3
 10
1796.993
 20
-7128.063
 30
-1666.477
 70
    32
  0
VERTEX
  8
T69SSILL
 62
3
 10
1772.795
 20
-7109.818
 30
-1664.802
 70
    32
  0
VERTEX
  8
T69SSILL
 62
3
 10
1770.715
 20
-7107.748
 30
-1664.666
 70
    32
  0
VERTEX
  8
T69SSILL
 62
3
 10
1761.812
 20
-7098.890
 30
-1665.284
 70
    32
  0
VERTEX
  8
T69SSILL
 62
3
 10
1752.272
 20
-7079.838
 30
-1666.538
 70
    32
  0
VERTEX
  8
T69SSILL
 62
3
 10
1750.755
 20
-7065.421
 30
-1667.441
 70
    32
  0
VERTEX
  8
T69SSILL
 62
3
 10
1743.726
 20
-7026.683
 30
-1669.891
 70
    32
  0
VERTEX
  8
T69SSILL
 62
3
 10
1748.207
 20
-7022.344
 30
-1670.124
 70
    32
  0
VERTEX
  8
T69SSILL
 62
3
 10
1751.144
 20
-7019.500
 30
-1670.127
 70
    32
  0
VERTEX
  8
T69SSILL
 62
3
 10
1747.672
 20
-7004.136
 30
-1670.197
 70
    32
  0
VERTEX
  8
T69SSILL
 62
3
 10
1734.771
 20
-6985.223
 30
-1670.304
 70
    32
  0
VERTEX
  8
T69SSILL
 62
3
 10
1717.586
 20
-6906.480
 30
-1670.658
 70
    32
  0
VERTEX
  8
T69SSILL
 62
3
 10
1707.878
 20
-6908.748
 30
-1670.674
 70
    32
  0
VERTEX
  8
T69SSILL
 62
3
 10
1717.296
 20
-6957.113
 30
-1670.460
 70
    32
  0
VERTEX
  8
T69SSILL
 62
3
 10
1708.043
 20
-6960.982
 30
-1670.469
 70
    32
  0
VERTEX
  8
T69SSILL
 62
3
 10
1702.152
 20
-6959.428
 30
-1670.490
 70
    32
  0
VERTEX
  8
T69SSILL
 62
3
 10
1699.759
 20
-6954.653
 30
-1670.515
 70
    32
  0
VERTEX
  8
T69SSILL
 62
3
 10
1670.000
 20
-6930.000
 30
-1670.689
 70
    32
  0
VERTEX
  8
T69SSILL
 62
3
 10
1655.000
 20
-6920.000
 30
-1670.767
 70
    32
  0
VERTEX
  8
T69SSILL
 62
3
 10
1650.000
 20
-6910.000
 30
-1670.819
 70
    32
  0
VERTEX
  8
T69SSILL
 62
3
 10
1630.000
 20
-6890.000
 30
-1670.950
 70
    32
  0
VERTEX
  8
T69SSILL
 62
3
 10
1630.000
 20
-6885.000
 30
-1670.969
 70
    32
  0
VERTEX
  8
T69SSILL
 62
3
 10
1626.553
 20
-6879.830
 30
-1670.999
 70
    32
  0
VERTEX
  8
T69SSILL
 62
3
 10
1620.000
 20
-6870.000
 30
-1671.023
 70
    32
  0
VERTEX
  8
T69SSILL
 62
3
 10
1615.000
 20
-6860.000
 30
-1671.048
 70
    32
  0
VERTEX
  8
T69SSILL
 62
3
 10
1625.000
 20
-6850.000
 30
-1671.065
 70
    32
  0
VERTEX
  8
T69SSILL
 62
3
 10
1617.272
 20
-6836.185
 30
-1671.099
 70
    32
  0
VERTEX
  8
T69SSILL
 62
3
 10
1615.602
 20
-6833.200
 30
-1671.089
 70
    32
  0
VERTEX
  8
T69SSILL
 62
3
 10
1605.577
 20
-6809.542
 30
-1671.019
 70
    32
  0
VERTEX
  8
T69SSILL
 62
3
 10
1603.857
 20
-6808.617
 30
-1671.013
 70
    32
  0
VERTEX
  8
T69SSILL
 62
3
 10
1588.272
 20
-6809.361
 30
-1670.980
 70
    32
  0
VERTEX
  8
T69SSILL
 62
3
 10
1586.283
 20
-6808.088
 30
-1670.973
 70
    32
  0
VERTEX
  8
T69SSILL
 62
3
 10
1585.090
 20
-6807.325
 30
-1670.978
 70
    32
  0
VERTEX
  8
T69SSILL
 62
3
 10
1582.513
 20
-6802.417
 30
-1671.010
 70
    32
  0
VERTEX
  8
T69SSILL
 62
3
 10
1581.393
 20
-6793.359
 30
-1671.069
 70
    32
  0
VERTEX
  8
T69SSILL
 62
3
 10
1572.662
 20
-6777.791
 30
-1671.171
 70
    32
  0
VERTEX
  8
T69SSILL
 62
3
 10
1573.481
 20
-6772.088
 30
-1671.208
 70
    32
  0
VERTEX
  8
T69SSILL
 62
3
 10
1572.602
 20
-6767.909
 30
-1671.235
 70
    32
  0
VERTEX
  8
T69SSILL
 62
3
 10
1565.382
 20
-6752.342
 30
-1671.336
 70
    32
  0
VERTEX
  8
T69SSILL
 62
3
 10
1564.961
 20
-6751.435
 30
-1671.347
 70
    32
  0
VERTEX
  8
T69SSILL
 62
3
 10
1556.239
 20
-6747.139
 30
-1671.416
 70
    32
  0
VERTEX
  8
T69SSILL
 62
3
 10
1547.656
 20
-6737.449
 30
-1671.540
 70
    32
  0
VERTEX
  8
T69SSILL
 62
3
 10
1544.932
 20
-6729.669
 30
-1671.629
 70
    32
  0
VERTEX
  8
T69SSILL
 62
3
 10
1539.269
 20
-6727.738
 30
-1671.664
 70
    32
  0
VERTEX
  8
T69SSILL
 62
3
 10
1535.910
 20
-6724.416
 30
-1671.708
 70
    32
  0
VERTEX
  8
T69SSILL
 62
3
 10
1532.412
 20
-6716.399
 30
-1671.801
 70
    32
  0
VERTEX
  8
T69SSILL
 62
3
 10
1531.259
 20
-6713.755
 30
-1671.827
 70
    32
  0
VERTEX
  8
T69SSILL
 62
3
 10
1531.212
 20
-6706.601
 30
-1671.890
 70
    32
  0
VERTEX
  8
T69SSILL
 62
3
 10
1521.548
 20
-6696.037
 30
-1672.004
 70
    32
  0
VERTEX
  8
T69SSILL
 62
3
 10
1519.921
 20
-6695.616
 30
-1672.012
 70
    32
  0
VERTEX
  8
T69SSILL
 62
3
 10
1520.000
 20
-6680.000
 30
-1672.148
 70
    32
  0
VERTEX
  8
T69SSILL
 62
3
 10
1525.000
 20
-6675.000
 30
-1672.180
 70
    32
  0
VERTEX
  8
T69SSILL
 62
3
 10
1523.978
 20
-6671.933
 30
-1672.210
 70
    32
  0
VERTEX
  8
T69SSILL
 62
3
 10
1520.000
 20
-6660.000
 30
-1672.313
 70
    32
  0
VERTEX
  8
T69SSILL
 62
3
 10
1535.000
 20
-6645.000
 30
-1672.396
 70
    32
  0
VERTEX
  8
T69SSILL
 62
3
 10
1545.000
 20
-6645.000
 30
-1672.373
 70
    32
  0
VERTEX
  8
T69SSILL
 62
3
 10
1558.770
 20
-6672.539
 30
-1672.125
 70
    32
  0
VERTEX
  8
T69SSILL
 62
3
 10
1560.000
 20
-6675.000
 30
-1672.101
 70
    32
  0
VERTEX
  8
T69SSILL
 62
3
 10
1565.000
 20
-6700.000
 30
-1671.870
 70
    32
  0
VERTEX
  8
T69SSILL
 62
3
 10
1570.000
 20
-6700.000
 30
-1671.859
 70
    32
  0
VERTEX
  8
T69SSILL
 62
3
 10
1590.000
 20
-6695.000
 30
-1671.857
 70
    32
  0
VERTEX
  8
T69SSILL
 62
3
 10
1595.000
 20
-6695.000
 30
-1671.846
 70
    32
  0
VERTEX
  8
T69SSILL
 62
3
 10
1595.000
 20
-6680.000
 30
-1671.977
 70
    32
  0
VERTEX
  8
T69SSILL
 62
3
 10
1591.555
 20
-6673.111
 30
-1672.045
 70
    32
  0
VERTEX
  8
T69SSILL
 62
3
 10
1590.000
 20
-6670.000
 30
-1672.073
 70
    32
  0
VERTEX
  8
T69SSILL
 62
3
 10
1590.000
 20
-6660.000
 30
-1672.152
 70
    32
  0
VERTEX
  8
T69SSILL
 62
3
 10
1580.000
 20
-6650.000
 30
-1672.254
 70
    32
  0
VERTEX
  8
T69SSILL
 62
3
 10
1580.000
 20
-6649.446
 30
-1672.258
 70
    32
  0
VERTEX
  8
T69SSILL
 62
3
 10
1580.000
 20
-6645.000
 30
-1672.249
 70
    32
  0
VERTEX
  8
T69SSILL
 62
3
 10
1576.797
 20
-6634.445
 30
-1672.243
 70
    32
  0
VERTEX
  8
T69SSILL
 62
3
 10
1569.765
 20
-6620.358
 30
-1672.248
 70
    32
  0
VERTEX
  8
T69SSILL
 62
3
 10
1588.934
 20
-6609.029
 30
-1672.133
 70
    32
  0
VERTEX
  8
T69SSILL
 62
3
 10
1595.247
 20
-6612.987
 30
-1672.110
 70
    32
  0
VERTEX
  8
T69SSILL
 62
3
 10
1597.856
 20
-6618.565
 30
-1672.109
 70
    32
  0
VERTEX
  8
T69SSILL
 62
3
 10
1601.880
 20
-6630.399
 30
-1672.114
 70
    32
  0
VERTEX
  8
T69SSILL
 62
3
 10
1602.165
 20
-6636.496
 30
-1672.125
 70
    32
  0
VERTEX
  8
T69SSILL
 62
3
 10
1605.000
 20
-6645.000
 30
-1672.129
 70
    32
  0
VERTEX
  8
T69SSILL
 62
3
 10
1605.000
 20
-6655.000
 30
-1672.149
 70
    32
  0
VERTEX
  8
T69SSILL
 62
3
 10
1606.006
 20
-6656.006
 30
-1672.147
 70
    32
  0
VERTEX
  8
T69SSILL
 62
3
 10
1615.000
 20
-6665.000
 30
-1672.055
 70
    32
  0
VERTEX
  8
T69SSILL
 62
3
 10
1623.941
 20
-6660.529
 30
-1672.070
 70
    32
  0
VERTEX
  8
T69SSILL
 62
3
 10
1625.000
 20
-6660.000
 30
-1672.064
 70
    32
  0
VERTEX
  8
T69SSILL
 62
3
 10
1640.000
 20
-6650.000
 30
-1671.971
 70
    32
  0
VERTEX
  8
T69SSILL
 62
3
 10
1635.000
 20
-6640.000
 30
-1671.975
 70
    32
  0
VERTEX
  8
T69SSILL
 62
3
 10
1630.021
 20
-6620.084
 30
-1671.958
 70
    32
  0
VERTEX
  8
T69SSILL
 62
3
 10
1625.000
 20
-6600.000
 30
-1672.036
 70
    32
  0
VERTEX
  8
T69SSILL
 62
3
 10
1619.176
 20
-6594.707
 30
-1672.047
 70
    32
  0
VERTEX
  8
T69SSILL
 62
3
 10
1612.729
 20
-6591.356
 30
-1672.046
 70
    32
  0
VERTEX
  8
T69SSILL
 62
3
 10
1608.350
 20
-6586.243
 30
-1672.059
 70
    32
  0
VERTEX
  8
T69SSILL
 62
3
 10
1602.000
 20
-6575.605
 30
-1672.092
 70
    32
  0
VERTEX
  8
T69SSILL
 62
3
 10
1591.376
 20
-6562.334
 30
-1672.127
 70
    32
  0
VERTEX
  8
T69SSILL
 62
3
 10
1585.983
 20
-6549.893
 30
-1672.170
 70
    32
  0
VERTEX
  8
T69SSILL
 62
3
 10
1575.000
 20
-6540.000
 30
-1672.189
 70
    32
  0
VERTEX
  8
T69SSILL
 62
3
 10
1575.470
 20
-6529.153
 30
-1672.238
 70
    32
  0
VERTEX
  8
T69SSILL
 62
3
 10
1580.518
 20
-6526.345
 30
-1672.263
 70
    32
  0
VERTEX
  8
T69SSILL
 62
3
 10
1582.377
 20
-6521.124
 30
-1672.291
 70
    32
  0
VERTEX
  8
T69SSILL
 62
3
 10
1598.920
 20
-6509.283
 30
-1672.382
 70
    32
  0
VERTEX
  8
T69SSILL
 62
3
 10
1604.795
 20
-6509.330
 30
-1672.396
 70
    32
  0
VERTEX
  8
T69SSILL
 62
3
 10
1632.258
 20
-6577.044
 30
-1672.156
 70
    32
  0
VERTEX
  8
T69SSILL
 62
3
 10
1633.028
 20
-6579.377
 30
-1672.148
 70
    32
  0
VERTEX
  8
T69SSILL
 62
3
 10
1635.000
 20
-6590.000
 30
-1672.105
 70
    32
  0
VERTEX
  8
T69SSILL
 62
3
 10
1640.000
 20
-6590.000
 30
-1672.116
 70
    32
  0
VERTEX
  8
T69SSILL
 62
3
 10
1670.102
 20
-6663.105
 30
-1671.859
 70
    32
  0
VERTEX
  8
T69SSILL
 62
3
 10
1670.279
 20
-6664.097
 30
-1671.855
 70
    32
  0
VERTEX
  8
T69SSILL
 62
3
 10
1671.795
 20
-6672.599
 30
-1671.865
 70
    32
  0
VERTEX
  8
T69SSILL
 62
3
 10
1672.137
 20
-6674.515
 30
-1671.849
 70
    32
  0
VERTEX
  8
T69SSILL
 62
3
 10
1672.153
 20
-6674.606
 30
-1671.848
 70
    32
  0
VERTEX
  8
T69SSILL
 62
3
 10
1669.623
 20
-6676.077
 30
-1671.841
 70
    32
  0
VERTEX
  8
T69SSILL
 62
3
 10
1670.194
 20
-6677.407
 30
-1671.828
 70
    32
  0
VERTEX
  8
T69SSILL
 62
3
 10
1671.473
 20
-6680.389
 30
-1671.794
 70
    32
  0
VERTEX
  8
T69SSILL
 62
3
 10
1674.399
 20
-6687.208
 30
-1671.749
 70
    32
  0
VERTEX
  8
T69SSILL
 62
3
 10
1677.397
 20
-6686.174
 30
-1671.756
 70
    32
  0
VERTEX
  8
T69SSILL
 62
3
 10
1679.922
 20
-6696.814
 30
-1671.686
 70
    32
  0
VERTEX
  8
T69SSILL
 62
3
 10
1700.000
 20
-6745.000
 30
-1671.372
 70
    32
  0
VERTEX
  8
T69SSILL
 62
3
 10
1703.438
 20
-6775.940
 30
-1671.171
 70
    32
  0
VERTEX
  8
T69SSILL
 62
3
 10
1703.871
 20
-6779.835
 30
-1671.180
 70
    32
  0
VERTEX
  8
T69SSILL
 62
3
 10
1704.460
 20
-6785.141
 30
-1671.168
 70
    32
  0
VERTEX
  8
T69SSILL
 62
3
 10
1705.000
 20
-6790.000
 30
-1671.148
 70
    32
  0
VERTEX
  8
T69SSILL
 62
3
 10
1720.000
 20
-6795.000
 30
-1671.089
 70
    32
  0
VERTEX
  8
T69SSILL
 62
3
 10
1750.000
 20
-6865.000
 30
-1670.737
 70
    32
  0
VERTEX
  8
T69SSILL
 62
3
 10
1747.338
 20
-6869.342
 30
-1670.726
 70
    32
  0
VERTEX
  8
T69SSILL
 62
3
 10
1747.624
 20
-6870.731
 30
-1670.720
 70
    32
  0
VERTEX
  8
T69SSILL
 62
3
 10
1755.000
 20
-6875.000
 30
-1670.684
 70
    32
  0
VERTEX
  8
T69SSILL
 62
3
 10
1780.000
 20
-6940.000
 30
-1670.364
 70
    32
  0
VERTEX
  8
T69SSILL
 62
3
 10
1780.000
 20
-6965.000
 30
-1670.266
 70
    32
  0
VERTEX
  8
T69SSILL
 62
3
 10
1800.000
 20
-6990.000
 30
-1670.116
 70
    32
  0
VERTEX
  8
T69SSILL
 62
3
 10
1811.027
 20
-7016.464
 30
-1669.984
 70
    32
  0
VERTEX
  8
T69SSILL
 62
3
 10
1813.693
 20
-7022.863
 30
-1669.567
 70
    32
  0
VERTEX
  8
T69SSILL
 62
3
 10
1818.137
 20
-7033.528
 30
-1669.755
 70
    32
  0
VERTEX
  8
T69SSILL
 62
3
 10
1825.000
 20
-7050.000
 30
-1669.416
 70
    32
  0
VERTEX
  8
T69SSILL
 62
3
 10
1825.000
 20
-7060.000
 30
-1669.305
 70
    32
  0
VERTEX
  8
T69SSILL
 62
3
 10
1831.872
 20
-7067.204
 30
-1668.488
 70
    32
  0
SEQEND
  8
T69SSILL
  0
POLYLINE
  8
T69SSILL
 62
3
 66
     1
 70
     8
  0
VERTEX
  8
T69SSILL
 62
3
 10
1828.751
 20
-7150.594
 30
-1666.430
 70
    32
  0
VERTEX
  8
T69SSILL
 62
3
 10
1836.850
 20
-7146.227
 30
-1666.615
 70
    32
  0
VERTEX
  8
T69SSILL
 62
3
 10
1836.674
 20
-7141.468
 30
-1666.761
 70
    32
  0
VERTEX
  8
T69SSILL
 62
3
 10
1836.405
 20
-7134.191
 30
-1666.953
 70
    32
  0
VERTEX
  8
T69SSILL
 62
3
 10
1836.096
 20
-7125.819
 30
-1667.348
 70
    32
  0
VERTEX
  8
T69SSILL
 62
3
 10
1835.913
 20
-7120.871
 30
-1667.593
 70
    32
  0
VERTEX
  8
T69SSILL
 62
3
 10
1832.336
 20
-7103.631
 30
-1668.457
 70
    32
  0
VERTEX
  8
T69SSILL
 62
3
 10
1831.763
 20
-7096.283
 30
-1668.822
 70
    32
  0
VERTEX
  8
T69SSILL
 62
3
 10
1830.559
 20
-7080.849
 30
-1668.631
 70
    32
  0
VERTEX
  8
T69SSILL
 62
3
 10
1830.713
 20
-7079.249
 30
-1668.611
 70
    32
  0
VERTEX
  8
T69SSILL
 62
3
 10
1830.916
 20
-7077.138
 30
-1668.588
 70
    32
  0
VERTEX
  8
T69SSILL
 62
3
 10
1831.041
 20
-7075.841
 30
-1668.579
 70
    32
  0
VERTEX
  8
T69SSILL
 62
3
 10
1831.872
 20
-7067.204
 30
-1668.488
 70
    32
  0
SEQEND
  8
T69SSILL
  0
POLYLINE
  8
T69SSILL
 62
3
 66
     1
 70
     9
  0
VERTEX
  8
T69SSILL
 62
3
 10
1855.042
 20
-7279.847
 30
-1668.632
 70
    32
  0
VERTEX
  8
T69SSILL
 62
3
 10
1854.385
 20
-7271.088
 30
-1668.533
 70
    32
  0
VERTEX
  8
T69SSILL
 62
3
 10
1852.184
 20
-7241.753
 30
-1668.020
 70
    32
  0
VERTEX
  8
T69SSILL
 62
3
 10
1849.749
 20
-7236.244
 30
-1667.905
 70
    32
  0
VERTEX
  8
T69SSILL
 62
3
 10
1848.114
 20
-7232.547
 30
-1667.447
 70
    32
  0
VERTEX
  8
T69SSILL
 62
3
 10
1846.547
 20
-7229.002
 30
-1667.134
 70
    32
  0
VERTEX
  8
T69SSILL
 62
3
 10
1838.068
 20
-7220.155
 30
-1666.297
 70
    32
  0
VERTEX
  8
T69SSILL
 62
3
 10
1832.689
 20
-7216.796
 30
-1665.951
 70
    32
  0
VERTEX
  8
T69SSILL
 62
3
 10
1825.477
 20
-7212.293
 30
-1666.251
 70
    32
  0
VERTEX
  8
T69SSILL
 62
3
 10
1833.255
 20
-7202.318
 30
-1666.912
 70
    32
  0
VERTEX
  8
T69SSILL
 62
3
 10
1842.965
 20
-7201.383
 30
-1666.974
 70
    32
  0
VERTEX
  8
T69SSILL
 62
3
 10
1842.750
 20
-7199.694
 30
-1667.086
 70
    32
  0
VERTEX
  8
T69SSILL
 62
3
 10
1841.987
 20
-7193.708
 30
-1667.453
 70
    32
  0
VERTEX
  8
T69SSILL
 62
3
 10
1841.883
 20
-7193.422
 30
-1667.471
 70
    32
  0
VERTEX
  8
T69SSILL
 62
3
 10
1839.681
 20
-7187.369
 30
-1667.133
 70
    32
  0
VERTEX
  8
T69SSILL
 62
3
 10
1836.536
 20
-7178.726
 30
-1666.721
 70
    32
  0
VERTEX
  8
T69SSILL
 62
3
 10
1826.771
 20
-7164.239
 30
-1665.996
 70
    32
  0
VERTEX
  8
T69SSILL
 62
3
 10
1824.070
 20
-7160.232
 30
-1666.104
 70
    32
  0
VERTEX
  8
T69SSILL
 62
3
 10
1816.628
 20
-7153.070
 30
-1668.406
 70
    32
  0
VERTEX
  8
T69SSILL
 62
3
 10
1767.523
 20
-7119.369
 30
-1665.052
 70
    32
  0
VERTEX
  8
T69SSILL
 62
3
 10
1763.380
 20
-7115.641
 30
-1664.695
 70
    32
  0
VERTEX
  8
T69SSILL
 62
3
 10
1760.513
 20
-7113.062
 30
-1664.658
 70
    32
  0
VERTEX
  8
T69SSILL
 62
3
 10
1755.812
 20
-7108.832
 30
-1664.718
 70
    32
  0
VERTEX
  8
T69SSILL
 62
3
 10
1751.746
 20
-7105.174
 30
-1664.977
 70
    32
  0
VERTEX
  8
T69SSILL
 62
3
 10
1747.191
 20
-7096.786
 30
-1665.532
 70
    32
  0
VERTEX
  8
T69SSILL
 62
3
 10
1743.399
 20
-7086.135
 30
-1666.220
 70
    32
  0
VERTEX
  8
T69SSILL
 62
3
 10
1737.533
 20
-7056.190
 30
-1668.118
 70
    32
  0
VERTEX
  8
T69SSILL
 62
3
 10
1735.907
 20
-7053.359
 30
-1668.306
 70
    32
  0
VERTEX
  8
T69SSILL
 62
3
 10
1728.589
 20
-7024.180
 30
-1670.167
 70
    32
  0
VERTEX
  8
T69SSILL
 62
3
 10
1727.880
 20
-7021.353
 30
-1670.180
 70
    32
  0
VERTEX
  8
T69SSILL
 62
3
 10
1722.453
 20
-7016.666
 30
-1670.213
 70
    32
  0
VERTEX
  8
T69SSILL
 62
3
 10
1718.101
 20
-7017.462
 30
-1670.221
 70
    32
  0
VERTEX
  8
T69SSILL
 62
3
 10
1717.507
 20
-7009.103
 30
-1670.255
 70
    32
  0
VERTEX
  8
T69SSILL
 62
3
 10
1719.862
 20
-7008.665
 30
-1670.251
 70
    32
  0
VERTEX
  8
T69SSILL
 62
3
 10
1724.719
 20
-6998.662
 30
-1670.278
 70
    32
  0
VERTEX
  8
T69SSILL
 62
3
 10
1726.131
 20
-6989.524
 30
-1670.310
 70
    32
  0
VERTEX
  8
T69SSILL
 62
3
 10
1725.132
 20
-6984.790
 30
-1670.331
 70
    32
  0
VERTEX
  8
T69SSILL
 62
3
 10
1719.481
 20
-6977.283
 30
-1670.375
 70
    32
  0
VERTEX
  8
T69SSILL
 62
3
 10
1714.783
 20
-6974.754
 30
-1670.397
 70
    32
  0
VERTEX
  8
T69SSILL
 62
3
 10
1705.890
 20
-6973.373
 30
-1670.426
 70
    32
  0
VERTEX
  8
T69SSILL
 62
3
 10
1695.886
 20
-6977.328
 30
-1670.436
 70
    32
  0
VERTEX
  8
T69SSILL
 62
3
 10
1690.568
 20
-6972.699
 30
-1670.468
 70
    32
  0
VERTEX
  8
T69SSILL
 62
3
 10
1679.983
 20
-6978.571
 30
-1670.472
 70
    32
  0
VERTEX
  8
T69SSILL
 62
3
 10
1678.278
 20
-6978.593
 30
-1670.477
 70
    32
  0
VERTEX
  8
T69SSILL
 62
3
 10
1675.915
 20
-6975.100
 30
-1670.497
 70
    32
  0
VERTEX
  8
T69SSILL
 62
3
 10
1671.631
 20
-6974.365
 30
-1670.511
 70
    32
  0
VERTEX
  8
T69SSILL
 62
3
 10
1660.796
 20
-6979.123
 30
-1670.520
 70
    32
  0
VERTEX
  8
T69SSILL
 62
3
 10
1654.793
 20
-6978.850
 30
-1670.537
 70
    32
  0
VERTEX
  8
T69SSILL
 62
3
 10
1648.506
 20
-6980.607
 30
-1670.546
 70
    32
  0
VERTEX
  8
T69SSILL
 62
3
 10
1645.416
 20
-6979.888
 30
-1670.557
 70
    32
  0
VERTEX
  8
T69SSILL
 62
3
 10
1640.778
 20
-6976.068
 30
-1670.584
 70
    32
  0
VERTEX
  8
T69SSILL
 62
3
 10
1633.971
 20
-6973.136
 30
-1670.613
 70
    32
  0
VERTEX
  8
T69SSILL
 62
3
 10
1621.860
 20
-6971.374
 30
-1670.651
 70
    32
  0
VERTEX
  8
T69SSILL
 62
3
 10
1617.591
 20
-6973.855
 30
-1670.653
 70
    32
  0
VERTEX
  8
T69SSILL
 62
3
 10
1615.467
 20
-6978.154
 30
-1670.641
 70
    32
  0
VERTEX
  8
T69SSILL
 62
3
 10
1613.627
 20
-6978.594
 30
-1670.644
 70
    32
  0
VERTEX
  8
T69SSILL
 62
3
 10
1606.439
 20
-6987.443
 30
-1670.628
 70
    32
  0
VERTEX
  8
T69SSILL
 62
3
 10
1604.822
 20
-6988.048
 30
-1670.630
 70
    32
  0
VERTEX
  8
T69SSILL
 62
3
 10
1599.462
 20
-6983.663
 30
-1670.661
 70
    32
  0
VERTEX
  8
T69SSILL
 62
3
 10
1591.604
 20
-6974.376
 30
-1670.718
 70
    32
  0
VERTEX
  8
T69SSILL
 62
3
 10
1587.578
 20
-6966.250
 30
-1670.760
 70
    32
  0
VERTEX
  8
T69SSILL
 62
3
 10
1593.460
 20
-6959.508
 30
-1670.772
 70
    32
  0
VERTEX
  8
T69SSILL
 62
3
 10
1603.268
 20
-6938.695
 30
-1670.828
 70
    32
  0
VERTEX
  8
T69SSILL
 62
3
 10
1594.441
 20
-6918.860
 30
-1670.929
 70
    32
  0
VERTEX
  8
T69SSILL
 62
3
 10
1591.216
 20
-6911.612
 30
-1670.946
 70
    32
  0
VERTEX
  8
T69SSILL
 62
3
 10
1582.118
 20
-6909.548
 30
-1670.955
 70
    32
  0
VERTEX
  8
T69SSILL
 62
3
 10
1570.276
 20
-6911.360
 30
-1670.957
 70
    32
  0
VERTEX
  8
T69SSILL
 62
3
 10
1568.195
 20
-6906.593
 30
-1670.969
 70
    32
  0
VERTEX
  8
T69SSILL
 62
3
 10
1570.893
 20
-6897.478
 30
-1670.987
 70
    32
  0
VERTEX
  8
T69SSILL
 62
3
 10
1569.652
 20
-6887.813
 30
-1671.009
 70
    32
  0
VERTEX
  8
T69SSILL
 62
3
 10
1570.660
 20
-6873.115
 30
-1671.041
 70
    32
  0
VERTEX
  8
T69SSILL
 62
3
 10
1568.559
 20
-6867.882
 30
-1671.053
 70
    32
  0
VERTEX
  8
T69SSILL
 62
3
 10
1561.477
 20
-6850.242
 30
-1671.002
 70
    32
  0
VERTEX
  8
T69SSILL
 62
3
 10
1561.551
 20
-6847.608
 30
-1670.997
 70
    32
  0
VERTEX
  8
T69SSILL
 62
3
 10
1553.315
 20
-6822.483
 30
-1670.928
 70
    32
  0
VERTEX
  8
T69SSILL
 62
3
 10
1552.613
 20
-6817.327
 30
-1670.916
 70
    32
  0
VERTEX
  8
T69SSILL
 62
3
 10
1550.084
 20
-6798.737
 30
-1671.037
 70
    32
  0
VERTEX
  8
T69SSILL
 62
3
 10
1549.434
 20
-6785.160
 30
-1671.125
 70
    32
  0
VERTEX
  8
T69SSILL
 62
3
 10
1544.991
 20
-6776.455
 30
-1671.182
 70
    32
  0
VERTEX
  8
T69SSILL
 62
3
 10
1540.241
 20
-6770.828
 30
-1671.219
 70
    32
  0
VERTEX
  8
T69SSILL
 62
3
 10
1539.214
 20
-6770.090
 30
-1671.223
 70
    32
  0
VERTEX
  8
T69SSILL
 62
3
 10
1532.619
 20
-6765.348
 30
-1671.291
 70
    32
  0
VERTEX
  8
T69SSILL
 62
3
 10
1524.766
 20
-6741.657
 30
-1671.559
 70
    32
  0
VERTEX
  8
T69SSILL
 62
3
 10
1519.921
 20
-6738.041
 30
-1671.610
 70
    32
  0
VERTEX
  8
T69SSILL
 62
3
 10
1505.597
 20
-6736.696
 30
-1671.664
 70
    32
  0
VERTEX
  8
T69SSILL
 62
3
 10
1485.562
 20
-6730.371
 30
-1671.785
 70
    32
  0
VERTEX
  8
T69SSILL
 62
3
 10
1473.499
 20
-6735.436
 30
-1671.765
 70
    32
  0
VERTEX
  8
T69SSILL
 62
3
 10
1482.151
 20
-6755.460
 30
-1671.533
 70
    32
  0
VERTEX
  8
T69SSILL
 62
3
 10
1473.849
 20
-6761.418
 30
-1671.494
 70
    32
  0
VERTEX
  8
T69SSILL
 62
3
 10
1463.254
 20
-6737.117
 30
-1671.776
 70
    32
  0
VERTEX
  8
T69SSILL
 62
3
 10
1462.607
 20
-6736.154
 30
-1671.787
 70
    32
  0
VERTEX
  8
T69SSILL
 62
3
 10
1453.317
 20
-6722.313
 30
-1671.930
 70
    32
  0
VERTEX
  8
T69SSILL
 62
3
 10
1450.000
 20
-6715.000
 30
-1672.001
 70
    32
  0
VERTEX
  8
T69SSILL
 62
3
 10
1445.000
 20
-6710.000
 30
-1672.057
 70
    32
  0
VERTEX
  8
T69SSILL
 62
3
 10
1446.532
 20
-6708.468
 30
-1672.067
 70
    32
  0
VERTEX
  8
T69SSILL
 62
3
 10
1433.480
 20
-6671.069
 30
-1672.424
 70
    32
  0
VERTEX
  8
T69SSILL
 62
3
 10
1426.501
 20
-6673.137
 30
-1672.422
 70
    32
  0
VERTEX
  8
T69SSILL
 62
3
 10
1423.647
 20
-6679.578
 30
-1672.372
 70
    32
  0
VERTEX
  8
T69SSILL
 62
3
 10
1423.313
 20
-6694.910
 30
-1672.238
 70
    32
  0
VERTEX
  8
T69SSILL
 62
3
 10
1417.360
 20
-6709.838
 30
-1672.121
 70
    32
  0
VERTEX
  8
T69SSILL
 62
3
 10
1406.548
 20
-6679.883
 30
-1672.408
 70
    32
  0
VERTEX
  8
T69SSILL
 62
3
 10
1411.902
 20
-6669.979
 30
-1672.483
 70
    32
  0
VERTEX
  8
T69SSILL
 62
3
 10
1417.954
 20
-6658.784
 30
-1672.557
 70
    32
  0
VERTEX
  8
T69SSILL
 62
3
 10
1416.929
 20
-6656.347
 30
-1672.578
 70
    32
  0
VERTEX
  8
T69SSILL
 62
3
 10
1417.562
 20
-6646.402
 30
-1672.655
 70
    32
  0
VERTEX
  8
T69SSILL
 62
3
 10
1402.799
 20
-6604.753
 30
-1673.017
 70
    32
  0
VERTEX
  8
T69SSILL
 62
3
 10
1401.552
 20
-6601.237
 30
-1673.016
 70
    32
  0
VERTEX
  8
T69SSILL
 62
3
 10
1395.771
 20
-6576.339
 30
-1672.993
 70
    32
  0
VERTEX
  8
T69SSILL
 62
3
 10
1391.186
 20
-6544.267
 30
-1672.949
 70
    32
  0
VERTEX
  8
T69SSILL
 62
3
 10
1381.707
 20
-6549.454
 30
-1673.005
 70
    32
  0
VERTEX
  8
T69SSILL
 62
3
 10
1345.000
 20
-6585.000
 30
-1673.254
 70
    32
  0
VERTEX
  8
T69SSILL
 62
3
 10
1342.047
 20
-6589.430
 30
-1673.277
 70
    32
  0
VERTEX
  8
T69SSILL
 62
3
 10
1335.000
 20
-6600.000
 30
-1673.210
 70
    32
  0
VERTEX
  8
T69SSILL
 62
3
 10
1330.000
 20
-6610.000
 30
-1673.143
 70
    32
  0
VERTEX
  8
T69SSILL
 62
3
 10
1330.000
 20
-6625.000
 30
-1673.025
 70
    32
  0
VERTEX
  8
T69SSILL
 62
3
 10
1325.000
 20
-6635.000
 30
-1672.957
 70
    32
  0
VERTEX
  8
T69SSILL
 62
3
 10
1338.788
 20
-6668.704
 30
-1672.661
 70
    32
  0
VERTEX
  8
T69SSILL
 62
3
 10
1370.000
 20
-6745.000
 30
-1671.921
 70
    32
  0
VERTEX
  8
T69SSILL
 62
3
 10
1378.102
 20
-6759.887
 30
-1671.772
 70
    32
  0
VERTEX
  8
T69SSILL
 62
3
 10
1378.168
 20
-6760.050
 30
-1671.771
 70
    32
  0
VERTEX
  8
T69SSILL
 62
3
 10
1410.649
 20
-6839.776
 30
-1670.852
 70
    32
  0
VERTEX
  8
T69SSILL
 62
3
 10
1418.654
 20
-6851.856
 30
-1670.704
 70
    32
  0
VERTEX
  8
T69SSILL
 62
3
 10
1419.904
 20
-6853.742
 30
-1670.691
 70
    32
  0
VERTEX
  8
T69SSILL
 62
3
 10
1429.159
 20
-6867.708
 30
-1670.740
 70
    32
  0
VERTEX
  8
T69SSILL
 62
3
 10
1435.954
 20
-6887.861
 30
-1670.796
 70
    32
  0
VERTEX
  8
T69SSILL
 62
3
 10
1446.795
 20
-6885.148
 30
-1670.815
 70
    32
  0
VERTEX
  8
T69SSILL
 62
3
 10
1450.133
 20
-6893.144
 30
-1670.839
 70
    32
  0
VERTEX
  8
T69SSILL
 62
3
 10
1439.494
 20
-6898.483
 30
-1670.825
 70
    32
  0
VERTEX
  8
T69SSILL
 62
3
 10
1445.000
 20
-6915.000
 30
-1670.871
 70
    32
  0
VERTEX
  8
T69SSILL
 62
3
 10
1440.000
 20
-6920.000
 30
-1670.870
 70
    32
  0
VERTEX
  8
T69SSILL
 62
3
 10
1450.659
 20
-6944.599
 30
-1670.943
 70
    32
  0
VERTEX
  8
T69SSILL
 62
3
 10
1451.574
 20
-6946.710
 30
-1670.938
 70
    32
  0
VERTEX
  8
T69SSILL
 62
3
 10
1461.785
 20
-6953.749
 30
-1670.918
 70
    32
  0
VERTEX
  8
T69SSILL
 62
3
 10
1469.883
 20
-6967.187
 30
-1670.884
 70
    32
  0
VERTEX
  8
T69SSILL
 62
3
 10
1474.596
 20
-6982.803
 30
-1670.847
 70
    32
  0
VERTEX
  8
T69SSILL
 62
3
 10
1471.106
 20
-6991.783
 30
-1670.829
 70
    32
  0
VERTEX
  8
T69SSILL
 62
3
 10
1492.956
 20
-7042.206
 30
-1670.708
 70
    32
  0
VERTEX
  8
T69SSILL
 62
3
 10
1494.635
 20
-7046.080
 30
-1670.688
 70
    32
  0
VERTEX
  8
T69SSILL
 62
3
 10
1495.467
 20
-7048.000
 30
-1670.563
 70
    32
  0
VERTEX
  8
T69SSILL
 62
3
 10
1505.000
 20
-7070.000
 30
-1670.635
 70
    32
  0
VERTEX
  8
T69SSILL
 62
3
 10
1506.693
 20
-7074.403
 30
-1670.655
 70
    32
  0
VERTEX
  8
T69SSILL
 62
3
 10
1515.881
 20
-7098.294
 30
-1670.571
 70
    32
  0
VERTEX
  8
T69SSILL
 62
3
 10
1527.302
 20
-7118.253
 30
-1670.530
 70
    32
  0
VERTEX
  8
T69SSILL
 62
3
 10
1539.028
 20
-7130.468
 30
-1670.543
 70
    32
  0
VERTEX
  8
T69SSILL
 62
3
 10
1544.000
 20
-7134.307
 30
-1670.557
 70
    32
  0
VERTEX
  8
T69SSILL
 62
3
 10
1548.868
 20
-7138.066
 30
-1670.486
 70
    32
  0
VERTEX
  8
T69SSILL
 62
3
 10
1558.166
 20
-7143.665
 30
-1670.327
 70
    32
  0
VERTEX
  8
T69SSILL
 62
3
 10
1562.987
 20
-7146.568
 30
-1670.332
 70
    32
  0
VERTEX
  8
T69SSILL
 62
3
 10
1640.000
 20
-7185.000
 30
-1670.119
 70
    32
  0
VERTEX
  8
T69SSILL
 62
3
 10
1656.936
 20
-7192.628
 30
-1670.040
 70
    32
  0
VERTEX
  8
T69SSILL
 62
3
 10
1659.916
 20
-7193.970
 30
-1670.184
 70
    32
  0
VERTEX
  8
T69SSILL
 62
3
 10
1669.485
 20
-7198.280
 30
-1670.179
 70
    32
  0
VERTEX
  8
T69SSILL
 62
3
 10
1704.974
 20
-7214.264
 30
-1669.928
 70
    32
  0
VERTEX
  8
T69SSILL
 62
3
 10
1702.522
 20
-7202.782
 30
-1670.002
 70
    32
  0
VERTEX
  8
T69SSILL
 62
3
 10
1702.357
 20
-7202.008
 30
-1669.992
 70
    32
  0
VERTEX
  8
T69SSILL
 62
3
 10
1711.904
 20
-7200.840
 30
-1669.903
 70
    32
  0
VERTEX
  8
T69SSILL
 62
3
 10
1712.612
 20
-7204.158
 30
-1669.948
 70
    32
  0
VERTEX
  8
T69SSILL
 62
3
 10
1716.127
 20
-7220.626
 30
-1669.841
 70
    32
  0
VERTEX
  8
T69SSILL
 62
3
 10
1810.704
 20
-7264.963
 30
-1669.163
 70
    32
  0
VERTEX
  8
T69SSILL
 62
3
 10
1820.940
 20
-7261.694
 30
-1669.134
 70
    32
  0
VERTEX
  8
T69SSILL
 62
3
 10
1821.697
 20
-7245.104
 30
-1669.222
 70
    32
  0
VERTEX
  8
T69SSILL
 62
3
 10
1830.837
 20
-7244.811
 30
-1669.182
 70
    32
  0
VERTEX
  8
T69SSILL
 62
3
 10
1832.391
 20
-7259.767
 30
-1669.092
 70
    32
  0
VERTEX
  8
T69SSILL
 62
3
 10
1834.363
 20
-7260.105
 30
-1669.082
 70
    32
  0
VERTEX
  8
T69SSILL
 62
3
 10
1839.351
 20
-7279.951
 30
-1668.949
 70
    32
  0
VERTEX
  8
T69SSILL
 62
3
 10
1842.720
 20
-7283.941
 30
-1668.912
 70
    32
  0
VERTEX
  8
T69SSILL
 62
3
 10
1847.614
 20
-7283.413
 30
-1668.892
 70
    32
  0
SEQEND
  8
T69SSILL
  0
POLYLINE
  8
T69SSILL
 62
3
 66
     1
 70
     9
  0
VERTEX
  8
T69SSILL
 62
3
 10
2365.410
 20
-9135.559
 30
-1660.822
 70
    32
  0
VERTEX
  8
T69SSILL
 62
3
 10
2379.426
 20
-9145.470
 30
-1657.891
 70
    32
  0
VERTEX
  8
T69SSILL
 62
3
 10
2390.724
 20
-9151.545
 30
-1655.887
 70
    32
  0
VERTEX
  8
T69SSILL
 62
3
 10
2394.166
 20
-9140.096
 30
-1655.692
 70
    32
  0
VERTEX
  8
T69SSILL
 62
3
 10
2391.353
 20
-9139.067
 30
-1656.176
 70
    32
  0
VERTEX
  8
T69SSILL
 62
3
 10
2379.085
 20
-9133.123
 30
-1658.795
 70
    32
  0
VERTEX
  8
T69SSILL
 62
3
 10
2371.570
 20
-9127.269
 30
-1660.608
 70
    32
  0
SEQEND
  8
T69SSILL
  0
POLYLINE
  8
T69SSILL
 62
3
 66
     1
 70
     9
  0
VERTEX
  8
T69SSILL
 62
3
 10
2341.543
 20
-8965.469
 30
-1656.222
 70
    32
  0
VERTEX
  8
T69SSILL
 62
3
 10
2339.613
 20
-8960.901
 30
-1656.944
 70
    32
  0
VERTEX
  8
T69SSILL
 62
3
 10
2338.795
 20
-8958.128
 30
-1657.389
 70
    32
  0
VERTEX
  8
T69SSILL
 62
3
 10
2334.622
 20
-8949.944
 30
-1658.805
 70
    32
  0
VERTEX
  8
T69SSILL
 62
3
 10
2344.228
 20
-8946.262
 30
-1658.800
 70
    32
  0
VERTEX
  8
T69SSILL
 62
3
 10
2346.942
 20
-8953.105
 30
-1657.663
 70
    32
  0
VERTEX
  8
T69SSILL
 62
3
 10
2346.891
 20
-8954.917
 30
-1657.405
 70
    32
  0
VERTEX
  8
T69SSILL
 62
3
 10
2349.634
 20
-8957.090
 30
-1656.940
 70
    32
  0
VERTEX
  8
T69SSILL
 62
3
 10
2351.338
 20
-8961.807
 30
-1656.213
 70
    32
  0
SEQEND
  8
T69SSILL
  0
POLYLINE
  8
T69SSILL
 62
3
 66
     1
 70
     9
  0
VERTEX
  8
T69SSILL
 62
3
 10
1568.508
 20
-6240.431
 30
-1673.517
 70
    32
  0
VERTEX
  8
T69SSILL
 62
3
 10
1551.699
 20
-6225.190
 30
-1673.546
 70
    32
  0
VERTEX
  8
T69SSILL
 62
3
 10
1527.214
 20
-6202.989
 30
-1673.373
 70
    32
  0
VERTEX
  8
T69SSILL
 62
3
 10
1526.325
 20
-6192.691
 30
-1673.358
 70
    32
  0
VERTEX
  8
T69SSILL
 62
3
 10
1543.608
 20
-6187.322
 30
-1673.460
 70
    32
  0
VERTEX
  8
T69SSILL
 62
3
 10
1548.634
 20
-6186.800
 30
-1673.490
 70
    32
  0
VERTEX
  8
T69SSILL
 62
3
 10
1549.117
 20
-6187.138
 30
-1673.487
 70
    32
  0
VERTEX
  8
T69SSILL
 62
3
 10
1553.320
 20
-6189.315
 30
-1673.407
 70
    32
  0
VERTEX
  8
T69SSILL
 62
3
 10
1563.028
 20
-6190.944
 30
-1672.934
 70
    32
  0
VERTEX
  8
T69SSILL
 62
3
 10
1576.781
 20
-6184.447
 30
-1673.652
 70
    32
  0
VERTEX
  8
T69SSILL
 62
3
 10
1577.528
 20
-6183.801
 30
-1673.666
 70
    32
  0
VERTEX
  8
T69SSILL
 62
3
 10
1591.108
 20
-6182.391
 30
-1673.749
 70
    32
  0
VERTEX
  8
T69SSILL
 62
3
 10
1586.237
 20
-6186.876
 30
-1673.723
 70
    32
  0
VERTEX
  8
T69SSILL
 62
3
 10
1573.872
 20
-6209.539
 30
-1673.668
 70
    32
  0
VERTEX
  8
T69SSILL
 62
3
 10
1569.644
 20
-6217.289
 30
-1673.624
 70
    32
  0
SEQEND
  8
T69SSILL
  0
POLYLINE
  8
T69SSILL
 62
3
 66
     1
 70
     8
  0
VERTEX
  8
T69SSILL
 62
3
 10
2312.337
 20
-9199.384
 30
-1661.577
 70
    32
  0
VERTEX
  8
T69SSILL
 62
3
 10
2312.263
 20
-9199.620
 30
-1661.567
 70
    32
  0
VERTEX
  8
T69SSILL
 62
3
 10
2310.470
 20
-9207.141
 30
-1661.237
 70
    32
  0
VERTEX
  8
T69SSILL
 62
3
 10
2308.844
 20
-9213.963
 30
-1660.998
 70
    32
  0
VERTEX
  8
T69SSILL
 62
3
 10
2306.710
 20
-9221.919
 30
-1660.721
 70
    32
  0
VERTEX
  8
T69SSILL
 62
3
 10
2306.695
 20
-9234.631
 30
-1660.255
 70
    32
  0
VERTEX
  8
T69SSILL
 62
3
 10
2306.980
 20
-9244.704
 30
-1659.883
 70
    32
  0
VERTEX
  8
T69SSILL
 62
3
 10
2307.626
 20
-9245.867
 30
-1659.835
 70
    32
  0
VERTEX
  8
T69SSILL
 62
3
 10
2310.025
 20
-9250.181
 30
-1659.782
 70
    32
  0
VERTEX
  8
T69SSILL
 62
3
 10
2311.975
 20
-9255.607
 30
-1659.713
 70
    32
  0
VERTEX
  8
T69SSILL
 62
3
 10
2317.853
 20
-9263.886
 30
-1659.611
 70
    32
  0
VERTEX
  8
T69SSILL
 62
3
 10
2323.714
 20
-9271.301
 30
-1659.519
 70
    32
  0
VERTEX
  8
T69SSILL
 62
3
 10
2324.187
 20
-9271.899
 30
-1659.504
 70
    32
  0
VERTEX
  8
T69SSILL
 62
3
 10
2325.717
 20
-9273.834
 30
-1659.505
 70
    32
  0
VERTEX
  8
T69SSILL
 62
3
 10
2333.461
 20
-9272.731
 30
-1659.509
 70
    32
  0
VERTEX
  8
T69SSILL
 62
3
 10
2337.045
 20
-9274.718
 30
-1659.566
 70
    32
  0
VERTEX
  8
T69SSILL
 62
3
 10
2346.769
 20
-9290.082
 30
-1658.839
 70
    32
  0
VERTEX
  8
T69SSILL
 62
3
 10
2354.845
 20
-9310.886
 30
-1657.606
 70
    32
  0
VERTEX
  8
T69SSILL
 62
3
 10
2357.499
 20
-9317.772
 30
-1657.063
 70
    32
  0
VERTEX
  8
T69SSILL
 62
3
 10
2360.313
 20
-9325.076
 30
-1656.487
 70
    32
  0
VERTEX
  8
T69SSILL
 62
3
 10
2369.062
 20
-9341.645
 30
-1656.459
 70
    32
  0
VERTEX
  8
T69SSILL
 62
3
 10
2378.888
 20
-9364.761
 30
-1657.815
 70
    32
  0
VERTEX
  8
T69SSILL
 62
3
 10
2386.815
 20
-9384.811
 30
-1658.975
 70
    32
  0
VERTEX
  8
T69SSILL
 62
3
 10
2402.581
 20
-9379.969
 30
-1659.153
 70
    32
  0
VERTEX
  8
T69SSILL
 62
3
 10
2411.790
 20
-9375.034
 30
-1659.156
 70
    32
  0
VERTEX
  8
T69SSILL
 62
3
 10
2405.521
 20
-9359.303
 30
-1658.245
 70
    32
  0
VERTEX
  8
T69SSILL
 62
3
 10
2404.181
 20
-9351.265
 30
-1657.827
 70
    32
  0
VERTEX
  8
T69SSILL
 62
3
 10
2394.723
 20
-9334.121
 30
-1656.766
 70
    32
  0
VERTEX
  8
T69SSILL
 62
3
 10
2387.069
 20
-9324.272
 30
-1656.098
 70
    32
  0
VERTEX
  8
T69SSILL
 62
3
 10
2370.464
 20
-9311.631
 30
-1656.999
 70
    32
  0
VERTEX
  8
T69SSILL
 62
3
 10
2360.230
 20
-9290.961
 30
-1658.556
 70
    32
  0
VERTEX
  8
T69SSILL
 62
3
 10
2352.379
 20
-9276.037
 30
-1659.232
 70
    32
  0
VERTEX
  8
T69SSILL
 62
3
 10
2346.931
 20
-9267.921
 30
-1659.514
 70
    32
  0
VERTEX
  8
T69SSILL
 62
3
 10
2340.964
 20
-9263.556
 30
-1659.515
 70
    32
  0
VERTEX
  8
T69SSILL
 62
3
 10
2335.908
 20
-9259.858
 30
-1659.512
 70
    32
  0
VERTEX
  8
T69SSILL
 62
3
 10
2334.047
 20
-9258.497
 30
-1659.558
 70
    32
  0
VERTEX
  8
T69SSILL
 62
3
 10
2332.408
 20
-9252.724
 30
-1659.664
 70
    32
  0
VERTEX
  8
T69SSILL
 62
3
 10
2326.167
 20
-9247.173
 30
-1659.832
 70
    32
  0
VERTEX
  8
T69SSILL
 62
3
 10
2320.049
 20
-9241.730
 30
-1659.898
 70
    32
  0
VERTEX
  8
T69SSILL
 62
3
 10
2318.354
 20
-9240.223
 30
-1659.965
 70
    32
  0
VERTEX
  8
T69SSILL
 62
3
 10
2317.723
 20
-9232.935
 30
-1660.237
 70
    32
  0
VERTEX
  8
T69SSILL
 62
3
 10
2318.749
 20
-9224.904
 30
-1660.525
 70
    32
  0
VERTEX
  8
T69SSILL
 62
3
 10
2318.838
 20
-9223.533
 30
-1660.575
 70
    32
  0
VERTEX
  8
T69SSILL
 62
3
 10
2319.195
 20
-9218.034
 30
-1660.811
 70
    32
  0
VERTEX
  8
T69SSILL
 62
3
 10
2320.251
 20
-9213.281
 30
-1661.019
 70
    32
  0
VERTEX
  8
T69SSILL
 62
3
 10
2323.063
 20
-9200.621
 30
-1661.573
 70
    32
  0
VERTEX
  8
T69SSILL
 62
3
 10
2323.086
 20
-9200.536
 30
-1661.577
 70
    32
  0
SEQEND
  8
T69SSILL
  0
LINE
  8
T69SSILL
 62
3
 10
1968.658
 20
-6977.145
 30
-1666.423
 11
1957.256
 21
-6976.118
 31
-1666.204
  0
POLYLINE
  8
T69SSILL
 62
3
 66
     1
 70
     8
  0
VERTEX
  8
T69SSILL
 62
3
 10
1620.558
 20
-6407.736
 30
-1672.891
 70
    32
  0
VERTEX
  8
T69SSILL
 62
3
 10
1650.452
 20
-6423.609
 30
-1672.887
 70
    32
  0
VERTEX
  8
T69SSILL
 62
3
 10
1700.000
 20
-6450.000
 30
-1673.053
 70
    32
  0
VERTEX
  8
T69SSILL
 62
3
 10
1704.940
 20
-6445.063
 30
-1673.107
 70
    32
  0
VERTEX
  8
T69SSILL
 62
3
 10
1698.778
 20
-6440.793
 30
-1673.091
 70
    32
  0
VERTEX
  8
T69SSILL
 62
3
 10
1698.892
 20
-6438.150
 30
-1673.105
 70
    32
  0
VERTEX
  8
T69SSILL
 62
3
 10
1700.917
 20
-6434.738
 30
-1673.134
 70
    32
  0
VERTEX
  8
T69SSILL
 62
3
 10
1742.568
 20
-6425.356
 30
-1673.428
 70
    32
  0
VERTEX
  8
T69SSILL
 62
3
 10
1740.239
 20
-6417.398
 30
-1673.453
 70
    32
  0
VERTEX
  8
T69SSILL
 62
3
 10
1731.221
 20
-6410.699
 30
-1673.433
 70
    32
  0
VERTEX
  8
T69SSILL
 62
3
 10
1730.889
 20
-6408.005
 30
-1673.444
 70
    32
  0
VERTEX
  8
T69SSILL
 62
3
 10
1733.773
 20
-6398.494
 30
-1673.508
 70
    32
  0
VERTEX
  8
T69SSILL
 62
3
 10
1738.630
 20
-6394.610
 30
-1673.556
 70
    32
  0
VERTEX
  8
T69SSILL
 62
3
 10
1743.201
 20
-6387.030
 30
-1673.620
 70
    32
  0
VERTEX
  8
T69SSILL
 62
3
 10
1748.612
 20
-6382.862
 30
-1673.673
 70
    32
  0
VERTEX
  8
T69SSILL
 62
3
 10
1749.976
 20
-6380.068
 30
-1673.695
 70
    32
  0
VERTEX
  8
T69SSILL
 62
3
 10
1750.236
 20
-6366.662
 30
-1673.762
 70
    32
  0
VERTEX
  8
T69SSILL
 62
3
 10
1727.825
 20
-6361.093
 30
-1673.656
 70
    32
  0
VERTEX
  8
T69SSILL
 62
3
 10
1723.624
 20
-6360.939
 30
-1673.632
 70
    32
  0
VERTEX
  8
T69SSILL
 62
3
 10
1716.845
 20
-6364.480
 30
-1673.574
 70
    32
  0
VERTEX
  8
T69SSILL
 62
3
 10
1711.935
 20
-6359.938
 30
-1673.567
 70
    32
  0
VERTEX
  8
T69SSILL
 62
3
 10
1706.093
 20
-6356.852
 30
-1673.547
 70
    32
  0
VERTEX
  8
T69SSILL
 62
3
 10
1702.260
 20
-6351.550
 30
-1673.550
 70
    32
  0
VERTEX
  8
T69SSILL
 62
3
 10
1689.572
 20
-6353.646
 30
-1673.464
 70
    32
  0
VERTEX
  8
T69SSILL
 62
3
 10
1670.836
 20
-6360.166
 30
-1673.321
 70
    32
  0
VERTEX
  8
T69SSILL
 62
3
 10
1649.177
 20
-6378.032
 30
-1673.104
 70
    32
  0
VERTEX
  8
T69SSILL
 62
3
 10
1645.552
 20
-6381.877
 30
-1673.063
 70
    32
  0
VERTEX
  8
T69SSILL
 62
3
 10
1639.625
 20
-6388.163
 30
-1673.021
 70
    32
  0
VERTEX
  8
T69SSILL
 62
3
 10
1625.950
 20
-6395.824
 30
-1672.955
 70
    32
  0
VERTEX
  8
T69SSILL
 62
3
 10
1607.235
 20
-6391.614
 30
-1672.930
 70
    32
  0
VERTEX
  8
T69SSILL
 62
3
 10
1582.229
 20
-6377.783
 30
-1672.933
 70
    32
  0
VERTEX
  8
T69SSILL
 62
3
 10
1570.279
 20
-6360.965
 30
-1672.981
 70
    32
  0
VERTEX
  8
T69SSILL
 62
3
 10
1578.018
 20
-6219.674
 30
-1673.633
 70
    32
  0
VERTEX
  8
T69SSILL
 62
3
 10
1584.289
 20
-6205.225
 30
-1673.712
 70
    32
  0
VERTEX
  8
T69SSILL
 62
3
 10
1588.581
 20
-6199.156
 30
-1673.749
 70
    32
  0
VERTEX
  8
T69SSILL
 62
3
 10
1591.524
 20
-6194.835
 30
-1673.770
 70
    32
  0
SEQEND
  8
T69SSILL
  0
POLYLINE
  8
T69SSILL
 62
3
 66
     1
 70
     8
  0
VERTEX
  8
T69SSILL
 62
3
 10
1609.783
 20
-6183.538
 30
-1673.873
 70
    32
  0
VERTEX
  8
T69SSILL
 62
3
 10
1618.627
 20
-6180.530
 30
-1673.903
 70
    32
  0
VERTEX
  8
T69SSILL
 62
3
 10
1754.658
 20
-6167.863
 30
-1674.321
 70
    32
  0
VERTEX
  8
T69SSILL
 62
3
 10
1773.156
 20
-6169.209
 30
-1674.381
 70
    32
  0
VERTEX
  8
T69SSILL
 62
3
 10
1789.442
 20
-6178.563
 30
-1674.452
 70
    32
  0
VERTEX
  8
T69SSILL
 62
3
 10
1846.665
 20
-6228.466
 30
-1675.017
 70
    32
  0
VERTEX
  8
T69SSILL
 62
3
 10
1876.623
 20
-6254.865
 30
-1675.047
 70
    32
  0
VERTEX
  8
T69SSILL
 62
3
 10
1881.503
 20
-6261.554
 30
-1675.038
 70
    32
  0
VERTEX
  8
T69SSILL
 62
3
 10
1891.094
 20
-6270.464
 30
-1675.044
 70
    32
  0
VERTEX
  8
T69SSILL
 62
3
 10
1937.461
 20
-6310.345
 30
-1675.086
 70
    32
  0
VERTEX
  8
T69SSILL
 62
3
 10
1962.673
 20
-6339.824
 30
-1675.069
 70
    32
  0
VERTEX
  8
T69SSILL
 62
3
 10
1958.153
 20
-6344.290
 30
-1675.022
 70
    32
  0
VERTEX
  8
T69SSILL
 62
3
 10
1959.922
 20
-6352.354
 30
-1674.990
 70
    32
  0
VERTEX
  8
T69SSILL
 62
3
 10
1976.853
 20
-6350.933
 30
-1675.088
 70
    32
  0
VERTEX
  8
T69SSILL
 62
3
 10
1983.267
 20
-6352.527
 30
-1675.114
 70
    32
  0
VERTEX
  8
T69SSILL
 62
3
 10
1989.009
 20
-6355.324
 30
-1675.130
 70
    32
  0
VERTEX
  8
T69SSILL
 62
3
 10
1994.792
 20
-6361.930
 30
-1675.127
 70
    32
  0
VERTEX
  8
T69SSILL
 62
3
 10
2004.756
 20
-6369.200
 30
-1675.090
 70
    32
  0
VERTEX
  8
T69SSILL
 62
3
 10
2004.845
 20
-6369.139
 30
-1675.090
 70
    32
  0
VERTEX
  8
T69SSILL
 62
3
 10
2014.453
 20
-6362.483
 30
-1675.198
 70
    32
  0
VERTEX
  8
T69SSILL
 62
3
 10
2008.579
 20
-6351.678
 30
-1675.164
 70
    32
  0
VERTEX
  8
T69SSILL
 62
3
 10
1997.364
 20
-6343.981
 30
-1675.156
 70
    32
  0
VERTEX
  8
T69SSILL
 62
3
 10
1950.835
 20
-6295.580
 30
-1675.094
 70
    32
  0
VERTEX
  8
T69SSILL
 62
3
 10
1926.998
 20
-6276.245
 30
-1675.077
 70
    32
  0
VERTEX
  8
T69SSILL
 62
3
 10
1903.429
 20
-6254.489
 30
-1675.053
 70
    32
  0
VERTEX
  8
T69SSILL
 62
3
 10
1893.382
 20
-6248.660
 30
-1675.052
 70
    32
  0
VERTEX
  8
T69SSILL
 62
3
 10
1884.981
 20
-6248.528
 30
-1675.065
 70
    32
  0
VERTEX
  8
T69SSILL
 62
3
 10
1879.434
 20
-6245.704
 30
-1675.065
 70
    32
  0
VERTEX
  8
T69SSILL
 62
3
 10
1856.732
 20
-6225.463
 30
-1675.044
 70
    32
  0
VERTEX
  8
T69SSILL
 62
3
 10
1783.697
 20
-6160.344
 30
-1674.394
 70
    32
  0
VERTEX
  8
T69SSILL
 62
3
 10
1726.188
 20
-6109.068
 30
-1674.102
 70
    32
  0
VERTEX
  8
T69SSILL
 62
3
 10
1682.351
 20
-6042.822
 30
-1673.811
 70
    32
  0
VERTEX
  8
T69SSILL
 62
3
 10
1670.303
 20
-6024.615
 30
-1673.722
 70
    32
  0
VERTEX
  8
T69SSILL
 62
3
 10
1665.872
 20
-6007.895
 30
-1673.500
 70
    32
  0
VERTEX
  8
T69SSILL
 62
3
 10
1666.575
 20
-5992.422
 30
-1673.500
 70
    32
  0
VERTEX
  8
T69SSILL
 62
3
 10
1666.422
 20
-5990.799
 30
-1673.500
 70
    32
  0
VERTEX
  8
T69SSILL
 62
3
 10
1664.342
 20
-5977.194
 30
-1673.500
 70
    32
  0
VERTEX
  8
T69SSILL
 62
3
 10
1661.494
 20
-5959.785
 30
-1673.500
 70
    32
  0
VERTEX
  8
T69SSILL
 62
3
 10
1653.102
 20
-5939.557
 30
-1673.500
 70
    32
  0
VERTEX
  8
T69SSILL
 62
3
 10
1645.065
 20
-5940.857
 30
-1673.500
 70
    32
  0
VERTEX
  8
T69SSILL
 62
3
 10
1639.678
 20
-5944.168
 30
-1673.500
 70
    32
  0
VERTEX
  8
T69SSILL
 62
3
 10
1646.854
 20
-5969.039
 30
-1673.500
 70
    32
  0
VERTEX
  8
T69SSILL
 62
3
 10
1652.817
 20
-5989.533
 30
-1673.500
 70
    32
  0
VERTEX
  8
T69SSILL
 62
3
 10
1648.315
 20
-5991.385
 30
-1673.560
 70
    32
  0
VERTEX
  8
T69SSILL
 62
3
 10
1642.287
 20
-5982.276
 30
-1673.516
 70
    32
  0
VERTEX
  8
T69SSILL
 62
3
 10
1631.253
 20
-5965.601
 30
-1673.432
 70
    32
  0
VERTEX
  8
T69SSILL
 62
3
 10
1631.276
 20
-5956.102
 30
-1673.403
 70
    32
  0
VERTEX
  8
T69SSILL
 62
3
 10
1630.307
 20
-5954.525
 30
-1673.395
 70
    32
  0
VERTEX
  8
T69SSILL
 62
3
 10
1622.019
 20
-5951.119
 30
-1673.360
 70
    32
  0
VERTEX
  8
T69SSILL
 62
3
 10
1607.119
 20
-5927.076
 30
-1673.243
 70
    32
  0
VERTEX
  8
T69SSILL
 62
3
 10
1604.860
 20
-5918.646
 30
-1673.216
 70
    32
  0
VERTEX
  8
T69SSILL
 62
3
 10
1596.908
 20
-5888.969
 30
-1673.097
 70
    32
  0
VERTEX
  8
T69SSILL
 62
3
 10
1586.625
 20
-5891.030
 30
-1672.930
 70
    32
  0
VERTEX
  8
T69SSILL
 62
3
 10
1588.359
 20
-5903.037
 30
-1673.111
 70
    32
  0
VERTEX
  8
T69SSILL
 62
3
 10
1591.071
 20
-5921.822
 30
-1673.154
 70
    32
  0
VERTEX
  8
T69SSILL
 62
3
 10
1593.236
 20
-5928.124
 30
-1673.176
 70
    32
  0
VERTEX
  8
T69SSILL
 62
3
 10
1610.652
 20
-5954.607
 30
-1673.310
 70
    32
  0
VERTEX
  8
T69SSILL
 62
3
 10
1605.494
 20
-5961.107
 30
-1673.296
 70
    32
  0
VERTEX
  8
T69SSILL
 62
3
 10
1610.070
 20
-5971.412
 30
-1673.337
 70
    32
  0
VERTEX
  8
T69SSILL
 62
3
 10
1619.750
 20
-5972.484
 30
-1673.387
 70
    32
  0
VERTEX
  8
T69SSILL
 62
3
 10
1625.609
 20
-5977.013
 30
-1673.424
 70
    32
  0
VERTEX
  8
T69SSILL
 62
3
 10
1674.000
 20
-6050.245
 30
-1673.795
 70
    32
  0
VERTEX
  8
T69SSILL
 62
3
 10
1712.880
 20
-6109.084
 30
-1674.061
 70
    32
  0
VERTEX
  8
T69SSILL
 62
3
 10
1766.267
 20
-6157.072
 30
-1674.333
 70
    32
  0
VERTEX
  8
T69SSILL
 62
3
 10
1623.657
 20
-6171.182
 30
-1673.926
 70
    32
  0
VERTEX
  8
T69SSILL
 62
3
 10
1569.826
 20
-6176.508
 30
-1673.612
 70
    32
  0
VERTEX
  8
T69SSILL
 62
3
 10
1562.627
 20
-6172.093
 30
-1673.563
 70
    32
  0
VERTEX
  8
T69SSILL
 62
3
 10
1558.870
 20
-6172.044
 30
-1673.539
 70
    32
  0
VERTEX
  8
T69SSILL
 62
3
 10
1554.010
 20
-6173.497
 30
-1673.511
 70
    32
  0
VERTEX
  8
T69SSILL
 62
3
 10
1548.920
 20
-6178.098
 30
-1673.484
 70
    32
  0
VERTEX
  8
T69SSILL
 62
3
 10
1507.601
 20
-6183.269
 30
-1673.233
 70
    32
  0
VERTEX
  8
T69SSILL
 62
3
 10
1494.654
 20
-6179.299
 30
-1673.149
 70
    32
  0
VERTEX
  8
T69SSILL
 62
3
 10
1475.757
 20
-6165.041
 30
-1673.018
 70
    32
  0
VERTEX
  8
T69SSILL
 62
3
 10
1475.905
 20
-6157.361
 30
-1673.012
 70
    32
  0
VERTEX
  8
T69SSILL
 62
3
 10
1480.922
 20
-6149.702
 30
-1673.036
 70
    32
  0
VERTEX
  8
T69SSILL
 62
3
 10
1493.725
 20
-6140.784
 30
-1673.106
 70
    32
  0
VERTEX
  8
T69SSILL
 62
3
 10
1490.296
 20
-6132.348
 30
-1673.077
 70
    32
  0
VERTEX
  8
T69SSILL
 62
3
 10
1481.363
 20
-6138.065
 30
-1673.027
 70
    32
  0
VERTEX
  8
T69SSILL
 62
3
 10
1467.333
 20
-6143.327
 30
-1672.945
 70
    32
  0
VERTEX
  8
T69SSILL
 62
3
 10
1457.371
 20
-6144.319
 30
-1672.885
 70
    32
  0
VERTEX
  8
T69SSILL
 62
3
 10
1445.283
 20
-6122.236
 30
-1672.789
 70
    32
  0
VERTEX
  8
T69SSILL
 62
3
 10
1438.032
 20
-6106.171
 30
-1672.728
 70
    32
  0
VERTEX
  8
T69SSILL
 62
3
 10
1441.169
 20
-6100.336
 30
-1672.742
 70
    32
  0
VERTEX
  8
T69SSILL
 62
3
 10
1443.342
 20
-6096.295
 30
-1672.740
 70
    32
  0
VERTEX
  8
T69SSILL
 62
3
 10
1444.454
 20
-6092.242
 30
-1672.733
 70
    32
  0
VERTEX
  8
T69SSILL
 62
3
 10
1445.971
 20
-6086.710
 30
-1672.730
 70
    32
  0
VERTEX
  8
T69SSILL
 62
3
 10
1453.313
 20
-6088.109
 30
-1672.769
 70
    32
  0
VERTEX
  8
T69SSILL
 62
3
 10
1459.949
 20
-6087.455
 30
-1672.801
 70
    32
  0
VERTEX
  8
T69SSILL
 62
3
 10
1463.739
 20
-6084.262
 30
-1672.814
 70
    32
  0
VERTEX
  8
T69SSILL
 62
3
 10
1476.550
 20
-6064.377
 30
-1672.842
 70
    32
  0
VERTEX
  8
T69SSILL
 62
3
 10
1479.028
 20
-6052.686
 30
-1672.833
 70
    32
  0
VERTEX
  8
T69SSILL
 62
3
 10
1483.745
 20
-6045.017
 30
-1672.843
 70
    32
  0
VERTEX
  8
T69SSILL
 62
3
 10
1493.572
 20
-6035.087
 30
-1672.874
 70
    32
  0
VERTEX
  8
T69SSILL
 62
3
 10
1494.131
 20
-6028.591
 30
-1672.865
 70
    32
  0
VERTEX
  8
T69SSILL
 62
3
 10
1498.162
 20
-6012.805
 30
-1672.857
 70
    32
  0
VERTEX
  8
T69SSILL
 62
3
 10
1495.797
 20
-6002.864
 30
-1672.842
 70
    32
  0
VERTEX
  8
T69SSILL
 62
3
 10
1500.319
 20
-5997.837
 30
-1672.855
 70
    32
  0
VERTEX
  8
T69SSILL
 62
3
 10
1496.435
 20
-5980.551
 30
-1672.830
 70
    32
  0
VERTEX
  8
T69SSILL
 62
3
 10
1491.474
 20
-5972.405
 30
-1672.807
 70
    32
  0
VERTEX
  8
T69SSILL
 62
3
 10
1487.248
 20
-5955.445
 30
-1672.780
 70
    32
  0
VERTEX
  8
T69SSILL
 62
3
 10
1493.712
 20
-5952.197
 30
-1672.801
 70
    32
  0
VERTEX
  8
T69SSILL
 62
3
 10
1512.647
 20
-5946.045
 30
-1672.866
 70
    32
  0
VERTEX
  8
T69SSILL
 62
3
 10
1528.822
 20
-5964.002
 30
-1672.936
 70
    32
  0
VERTEX
  8
T69SSILL
 62
3
 10
1533.260
 20
-5971.978
 30
-1672.957
 70
    32
  0
VERTEX
  8
T69SSILL
 62
3
 10
1546.317
 20
-5995.442
 30
-1673.064
 70
    32
  0
VERTEX
  8
T69SSILL
 62
3
 10
1554.561
 20
-5991.672
 30
-1673.098
 70
    32
  0
VERTEX
  8
T69SSILL
 62
3
 10
1540.214
 20
-5963.786
 30
-1672.977
 70
    32
  0
VERTEX
  8
T69SSILL
 62
3
 10
1535.009
 20
-5953.670
 30
-1672.951
 70
    32
  0
VERTEX
  8
T69SSILL
 62
3
 10
1531.713
 20
-5942.587
 30
-1672.932
 70
    32
  0
VERTEX
  8
T69SSILL
 62
3
 10
1534.913
 20
-5939.224
 30
-1672.942
 70
    32
  0
VERTEX
  8
T69SSILL
 62
3
 10
1540.398
 20
-5936.368
 30
-1672.960
 70
    32
  0
VERTEX
  8
T69SSILL
 62
3
 10
1543.547
 20
-5946.375
 30
-1672.978
 70
    32
  0
VERTEX
  8
T69SSILL
 62
3
 10
1554.010
 20
-5942.948
 30
-1673.013
 70
    32
  0
VERTEX
  8
T69SSILL
 62
3
 10
1544.840
 20
-5915.280
 30
-1672.851
 70
    32
  0
VERTEX
  8
T69SSILL
 62
3
 10
1533.707
 20
-5918.217
 30
-1672.781
 70
    32
  0
VERTEX
  8
T69SSILL
 62
3
 10
1535.551
 20
-5926.852
 30
-1672.920
 70
    32
  0
VERTEX
  8
T69SSILL
 62
3
 10
1532.694
 20
-5929.414
 30
-1672.927
 70
    32
  0
VERTEX
  8
T69SSILL
 62
3
 10
1529.788
 20
-5930.197
 30
-1672.909
 70
    32
  0
VERTEX
  8
T69SSILL
 62
3
 10
1520.942
 20
-5926.067
 30
-1672.764
 70
    32
  0
VERTEX
  8
T69SSILL
 62
3
 10
1513.581
 20
-5912.159
 30
-1672.498
 70
    32
  0
VERTEX
  8
T69SSILL
 62
3
 10
1516.882
 20
-5876.379
 30
-1672.043
 70
    32
  0
VERTEX
  8
T69SSILL
 62
3
 10
1506.079
 20
-5842.736
 30
-1671.766
 70
    32
  0
VERTEX
  8
T69SSILL
 62
3
 10
1507.109
 20
-5833.709
 30
-1671.596
 70
    32
  0
VERTEX
  8
T69SSILL
 62
3
 10
1501.934
 20
-5831.897
 30
-1671.546
 70
    32
  0
VERTEX
  8
T69SSILL
 62
3
 10
1492.499
 20
-5834.818
 30
-1671.574
 70
    32
  0
VERTEX
  8
T69SSILL
 62
3
 10
1507.007
 20
-5875.594
 30
-1671.926
 70
    32
  0
VERTEX
  8
T69SSILL
 62
3
 10
1503.657
 20
-5913.382
 30
-1672.417
 70
    32
  0
VERTEX
  8
T69SSILL
 62
3
 10
1509.189
 20
-5923.666
 30
-1672.615
 70
    32
  0
VERTEX
  8
T69SSILL
 62
3
 10
1509.041
 20
-5936.790
 30
-1672.795
 70
    32
  0
VERTEX
  8
T69SSILL
 62
3
 10
1483.266
 20
-5945.487
 30
-1672.661
 70
    32
  0
VERTEX
  8
T69SSILL
 62
3
 10
1474.975
 20
-5938.484
 30
-1672.482
 70
    32
  0
VERTEX
  8
T69SSILL
 62
3
 10
1473.539
 20
-5932.526
 30
-1672.385
 70
    32
  0
VERTEX
  8
T69SSILL
 62
3
 10
1463.452
 20
-5922.454
 30
-1672.146
 70
    32
  0
VERTEX
  8
T69SSILL
 62
3
 10
1452.730
 20
-5900.612
 30
-1671.737
 70
    32
  0
VERTEX
  8
T69SSILL
 62
3
 10
1420.725
 20
-5853.958
 30
-1670.773
 70
    32
  0
VERTEX
  8
T69SSILL
 62
3
 10
1413.609
 20
-5847.053
 30
-1670.607
 70
    32
  0
VERTEX
  8
T69SSILL
 62
3
 10
1405.774
 20
-5849.239
 30
-1670.560
 70
    32
  0
VERTEX
  8
T69SSILL
 62
3
 10
1401.905
 20
-5848.798
 30
-1670.515
 70
    32
  0
VERTEX
  8
T69SSILL
 62
3
 10
1397.367
 20
-5847.394
 30
-1670.451
 70
    32
  0
VERTEX
  8
T69SSILL
 62
3
 10
1395.099
 20
-5843.378
 30
-1670.373
 70
    32
  0
VERTEX
  8
T69SSILL
 62
3
 10
1392.798
 20
-5832.180
 30
-1670.278
 70
    32
  0
VERTEX
  8
T69SSILL
 62
3
 10
1408.406
 20
-5804.922
 30
-1670.396
 70
    32
  0
VERTEX
  8
T69SSILL
 62
3
 10
1416.453
 20
-5806.343
 30
-1670.505
 70
    32
  0
VERTEX
  8
T69SSILL
 62
3
 10
1419.130
 20
-5809.722
 30
-1670.551
 70
    32
  0
VERTEX
  8
T69SSILL
 62
3
 10
1427.811
 20
-5832.380
 30
-1670.737
 70
    32
  0
VERTEX
  8
T69SSILL
 62
3
 10
1434.928
 20
-5830.764
 30
-1670.825
 70
    32
  0
VERTEX
  8
T69SSILL
 62
3
 10
1440.903
 20
-5824.399
 30
-1670.883
 70
    32
  0
VERTEX
  8
T69SSILL
 62
3
 10
1439.599
 20
-5809.300
 30
-1670.818
 70
    32
  0
VERTEX
  8
T69SSILL
 62
3
 10
1435.829
 20
-5801.530
 30
-1670.744
 70
    32
  0
VERTEX
  8
T69SSILL
 62
3
 10
1430.004
 20
-5796.258
 30
-1670.651
 70
    32
  0
VERTEX
  8
T69SSILL
 62
3
 10
1422.625
 20
-5789.580
 30
-1670.501
 70
    32
  0
VERTEX
  8
T69SSILL
 62
3
 10
1422.120
 20
-5781.451
 30
-1670.344
 70
    32
  0
VERTEX
  8
T69SSILL
 62
3
 10
1440.894
 20
-5749.329
 30
-1669.784
 70
    32
  0
VERTEX
  8
T69SSILL
 62
3
 10
1449.643
 20
-5755.582
 30
-1669.930
 70
    32
  0
VERTEX
  8
T69SSILL
 62
3
 10
1454.310
 20
-5763.466
 30
-1670.095
 70
    32
  0
VERTEX
  8
T69SSILL
 62
3
 10
1457.704
 20
-5775.741
 30
-1670.340
 70
    32
  0
VERTEX
  8
T69SSILL
 62
3
 10
1460.118
 20
-5797.876
 30
-1670.771
 70
    32
  0
VERTEX
  8
T69SSILL
 62
3
 10
1463.643
 20
-5807.164
 30
-1670.959
 70
    32
  0
VERTEX
  8
T69SSILL
 62
3
 10
1472.702
 20
-5808.748
 30
-1671.016
 70
    32
  0
VERTEX
  8
T69SSILL
 62
3
 10
1480.227
 20
-5805.550
 30
-1670.977
 70
    32
  0
VERTEX
  8
T69SSILL
 62
3
 10
1479.559
 20
-5795.592
 30
-1670.785
 70
    32
  0
VERTEX
  8
T69SSILL
 62
3
 10
1473.441
 20
-5768.218
 30
-1670.242
 70
    32
  0
VERTEX
  8
T69SSILL
 62
3
 10
1465.259
 20
-5739.788
 30
-1669.673
 70
    32
  0
VERTEX
  8
T69SSILL
 62
3
 10
1462.329
 20
-5718.889
 30
-1669.524
 70
    32
  0
VERTEX
  8
T69SSILL
 62
3
 10
1458.788
 20
-5711.216
 30
-1669.416
 70
    32
  0
VERTEX
  8
T69SSILL
 62
3
 10
1451.655
 20
-5709.241
 30
-1669.253
 70
    32
  0
VERTEX
  8
T69SSILL
 62
3
 10
1441.617
 20
-5699.054
 30
-1669.214
 70
    32
  0
VERTEX
  8
T69SSILL
 62
3
 10
1433.896
 20
-5699.869
 30
-1669.175
 70
    32
  0
VERTEX
  8
T69SSILL
 62
3
 10
1427.890
 20
-5694.792
 30
-1669.174
 70
    32
  0
VERTEX
  8
T69SSILL
 62
3
 10
1419.470
 20
-5683.123
 30
-1669.152
 70
    32
  0
VERTEX
  8
T69SSILL
 62
3
 10
1374.472
 20
-5620.756
 30
-1669.111
 70
    32
  0
VERTEX
  8
T69SSILL
 62
3
 10
1271.994
 20
-5478.722
 30
-1669.767
 70
    32
  0
VERTEX
  8
T69SSILL
 62
3
 10
1264.886
 20
-5458.010
 30
-1669.829
 70
    32
  0
VERTEX
  8
T69SSILL
 62
3
 10
1263.170
 20
-5434.938
 30
-1669.867
 70
    32
  0
VERTEX
  8
T69SSILL
 62
3
 10
1263.950
 20
-5414.984
 30
-1669.889
 70
    32
  0
VERTEX
  8
T69SSILL
 62
3
 10
1268.785
 20
-5397.992
 30
-1669.889
 70
    32
  0
VERTEX
  8
T69SSILL
 62
3
 10
1276.908
 20
-5387.289
 30
-1669.864
 70
    32
  0
VERTEX
  8
T69SSILL
 62
3
 10
1294.686
 20
-5374.383
 30
-1669.796
 70
    32
  0
VERTEX
  8
T69SSILL
 62
3
 10
1508.547
 20
-5219.134
 30
-1670.565
 70
    32
  0
VERTEX
  8
T69SSILL
 62
3
 10
1517.870
 20
-5219.749
 30
-1670.558
 70
    32
  0
VERTEX
  8
T69SSILL
 62
3
 10
1522.477
 20
-5218.458
 30
-1670.559
 70
    32
  0
VERTEX
  8
T69SSILL
 62
3
 10
1530.485
 20
-5213.191
 30
-1670.569
 70
    32
  0
VERTEX
  8
T69SSILL
 62
3
 10
1542.960
 20
-5204.987
 30
-1670.461
 70
    32
  0
VERTEX
  8
T69SSILL
 62
3
 10
1548.837
 20
-5195.194
 30
-1670.437
 70
    32
  0
VERTEX
  8
T69SSILL
 62
3
 10
1547.717
 20
-5190.087
 30
-1670.474
 70
    32
  0
VERTEX
  8
T69SSILL
 62
3
 10
1582.450
 20
-5165.346
 30
-1670.181
 70
    32
  0
VERTEX
  8
T69SSILL
 62
3
 10
1683.960
 20
-5081.864
 30
-1670.037
 70
    32
  0
VERTEX
  8
T69SSILL
 62
3
 10
1782.688
 20
-5000.670
 30
-1670.297
 70
    32
  0
VERTEX
  8
T69SSILL
 62
3
 10
1840.073
 20
-4959.642
 30
-1670.475
 70
    32
  0
VERTEX
  8
T69SSILL
 62
3
 10
1919.611
 20
-4902.776
 30
-1671.029
 70
    32
  0
VERTEX
  8
T69SSILL
 62
3
 10
1935.716
 20
-4891.261
 30
-1670.993
 70
    32
  0
VERTEX
  8
T69SSILL
 62
3
 10
1967.777
 20
-4878.778
 30
-1670.949
 70
    32
  0
VERTEX
  8
T69SSILL
 62
3
 10
2070.649
 20
-4804.096
 30
-1671.198
 70
    32
  0
VERTEX
  8
T69SSILL
 62
3
 10
2080.056
 20
-4799.442
 30
-1671.128
 70
    32
  0
VERTEX
  8
T69SSILL
 62
3
 10
2084.835
 20
-4797.775
 30
-1671.094
 70
    32
  0
VERTEX
  8
T69SSILL
 62
3
 10
2108.704
 20
-4795.332
 30
-1670.936
 70
    32
  0
VERTEX
  8
T69SSILL
 62
3
 10
2116.082
 20
-4795.649
 30
-1670.889
 70
    32
  0
VERTEX
  8
T69SSILL
 62
3
 10
2127.442
 20
-4798.863
 30
-1670.824
 70
    32
  0
VERTEX
  8
T69SSILL
 62
3
 10
2137.820
 20
-4801.798
 30
-1670.689
 70
    32
  0
VERTEX
  8
T69SSILL
 62
3
 10
2142.748
 20
-4803.193
 30
-1670.691
 70
    32
  0
VERTEX
  8
T69SSILL
 62
3
 10
2149.056
 20
-4803.883
 30
-1670.693
 70
    32
  0
VERTEX
  8
T69SSILL
 62
3
 10
2153.450
 20
-4804.365
 30
-1670.695
 70
    32
  0
VERTEX
  8
T69SSILL
 62
3
 10
2155.674
 20
-4803.001
 30
-1670.692
 70
    32
  0
VERTEX
  8
T69SSILL
 62
3
 10
2156.101
 20
-4800.772
 30
-1670.685
 70
    32
  0
VERTEX
  8
T69SSILL
 62
3
 10
2158.897
 20
-4786.185
 30
-1670.681
 70
    32
  0
VERTEX
  8
T69SSILL
 62
3
 10
2146.140
 20
-4782.161
 30
-1670.697
 70
    32
  0
VERTEX
  8
T69SSILL
 62
3
 10
2144.085
 20
-4783.879
 30
-1670.702
 70
    32
  0
VERTEX
  8
T69SSILL
 62
3
 10
2141.965
 20
-4789.025
 30
-1670.710
 70
    32
  0
VERTEX
  8
T69SSILL
 62
3
 10
2135.670
 20
-4787.234
 30
-1670.746
 70
    32
  0
VERTEX
  8
T69SSILL
 62
3
 10
2131.533
 20
-4787.507
 30
-1670.773
 70
    32
  0
VERTEX
  8
T69SSILL
 62
3
 10
2125.828
 20
-4782.475
 30
-1670.799
 70
    32
  0
VERTEX
  8
T69SSILL
 62
3
 10
2111.581
 20
-4778.246
 30
-1670.881
 70
    32
  0
VERTEX
  8
T69SSILL
 62
3
 10
2104.610
 20
-4770.465
 30
-1670.908
 70
    32
  0
VERTEX
  8
T69SSILL
 62
3
 10
2104.811
 20
-4769.150
 30
-1670.904
 70
    32
  0
VERTEX
  8
T69SSILL
 62
3
 10
2117.112
 20
-4760.250
 30
-1670.806
 70
    32
  0
VERTEX
  8
T69SSILL
 62
3
 10
2174.709
 20
-4720.457
 30
-1670.670
 70
    32
  0
VERTEX
  8
T69SSILL
 62
3
 10
2180.209
 20
-4726.062
 30
-1670.686
 70
    32
  0
VERTEX
  8
T69SSILL
 62
3
 10
2187.333
 20
-4721.059
 30
-1670.699
 70
    32
  0
VERTEX
  8
T69SSILL
 62
3
 10
2183.109
 20
-4712.557
 30
-1670.683
 70
    32
  0
VERTEX
  8
T69SSILL
 62
3
 10
2263.334
 20
-4654.980
 30
-1670.821
 70
    32
  0
VERTEX
  8
T69SSILL
 62
3
 10
2258.086
 20
-4647.668
 30
-1670.804
 70
    32
  0
VERTEX
  8
T69SSILL
 62
3
 10
2176.766
 20
-4706.031
 30
-1670.678
 70
    32
  0
VERTEX
  8
T69SSILL
 62
3
 10
2168.256
 20
-4705.110
 30
-1670.704
 70
    32
  0
VERTEX
  8
T69SSILL
 62
3
 10
2159.444
 20
-4718.463
 30
-1670.718
 70
    32
  0
VERTEX
  8
T69SSILL
 62
3
 10
2145.681
 20
-4728.341
 30
-1670.750
 70
    32
  0
VERTEX
  8
T69SSILL
 62
3
 10
2136.283
 20
-4724.134
 30
-1670.783
 70
    32
  0
VERTEX
  8
T69SSILL
 62
3
 10
2129.228
 20
-4729.687
 30
-1670.799
 70
    32
  0
VERTEX
  8
T69SSILL
 62
3
 10
2118.415
 20
-4732.055
 30
-1670.830
 70
    32
  0
VERTEX
  8
T69SSILL
 62
3
 10
2113.455
 20
-4740.186
 30
-1670.837
 70
    32
  0
VERTEX
  8
T69SSILL
 62
3
 10
2103.888
 20
-4747.052
 30
-1670.862
 70
    32
  0
VERTEX
  8
T69SSILL
 62
3
 10
2095.847
 20
-4764.418
 30
-1670.951
 70
    32
  0
VERTEX
  8
T69SSILL
 62
3
 10
1994.999
 20
-4836.733
 30
-1671.368
 70
    32
  0
VERTEX
  8
T69SSILL
 62
3
 10
1993.098
 20
-4836.203
 30
-1671.368
 70
    32
  0
VERTEX
  8
T69SSILL
 62
3
 10
1992.145
 20
-4833.729
 30
-1671.368
 70
    32
  0
VERTEX
  8
T69SSILL
 62
3
 10
1994.602
 20
-4828.403
 30
-1671.368
 70
    32
  0
VERTEX
  8
T69SSILL
 62
3
 10
2001.951
 20
-4796.746
 30
-1671.365
 70
    32
  0
VERTEX
  8
T69SSILL
 62
3
 10
2001.340
 20
-4786.032
 30
-1671.365
 70
    32
  0
VERTEX
  8
T69SSILL
 62
3
 10
2010.876
 20
-4777.633
 30
-1671.363
 70
    32
  0
VERTEX
  8
T69SSILL
 62
3
 10
2013.377
 20
-4765.782
 30
-1671.363
 70
    32
  0
VERTEX
  8
T69SSILL
 62
3
 10
2017.201
 20
-4762.424
 30
-1671.362
 70
    32
  0
VERTEX
  8
T69SSILL
 62
3
 10
2014.291
 20
-4749.835
 30
-1671.362
 70
    32
  0
VERTEX
  8
T69SSILL
 62
3
 10
2013.561
 20
-4740.659
 30
-1671.361
 70
    32
  0
VERTEX
  8
T69SSILL
 62
3
 10
2009.320
 20
-4735.020
 30
-1671.362
 70
    32
  0
VERTEX
  8
T69SSILL
 62
3
 10
2017.156
 20
-4681.861
 30
-1671.276
 70
    32
  0
VERTEX
  8
T69SSILL
 62
3
 10
2008.061
 20
-4680.622
 30
-1671.331
 70
    32
  0
VERTEX
  8
T69SSILL
 62
3
 10
2000.501
 20
-4733.083
 30
-1671.363
 70
    32
  0
VERTEX
  8
T69SSILL
 62
3
 10
1996.125
 20
-4736.174
 30
-1671.364
 70
    32
  0
VERTEX
  8
T69SSILL
 62
3
 10
1990.069
 20
-4758.017
 30
-1671.365
 70
    32
  0
VERTEX
  8
T69SSILL
 62
3
 10
1987.901
 20
-4772.832
 30
-1671.366
 70
    32
  0
VERTEX
  8
T69SSILL
 62
3
 10
1991.990
 20
-4781.257
 30
-1671.366
 70
    32
  0
VERTEX
  8
T69SSILL
 62
3
 10
1991.616
 20
-4796.304
 30
-1671.367
 70
    32
  0
VERTEX
  8
T69SSILL
 62
3
 10
1987.155
 20
-4818.230
 30
-1671.368
 70
    32
  0
VERTEX
  8
T69SSILL
 62
3
 10
1983.208
 20
-4826.428
 30
-1671.360
 70
    32
  0
VERTEX
  8
T69SSILL
 62
3
 10
1972.215
 20
-4844.496
 30
-1671.298
 70
    32
  0
VERTEX
  8
T69SSILL
 62
3
 10
1960.015
 20
-4856.512
 30
-1671.231
 70
    32
  0
VERTEX
  8
T69SSILL
 62
3
 10
1954.267
 20
-4866.011
 30
-1671.199
 70
    32
  0
VERTEX
  8
T69SSILL
 62
3
 10
1921.572
 20
-4889.417
 30
-1671.018
 70
    32
  0
VERTEX
  8
T69SSILL
 62
3
 10
1895.752
 20
-4907.900
 30
-1670.832
 70
    32
  0
VERTEX
  8
T69SSILL
 62
3
 10
1888.136
 20
-4910.831
 30
-1670.777
 70
    32
  0
VERTEX
  8
T69SSILL
 62
3
 10
1876.762
 20
-4867.306
 30
-1670.676
 70
    32
  0
VERTEX
  8
T69SSILL
 62
3
 10
1867.334
 20
-4831.231
 30
-1670.748
 70
    32
  0
VERTEX
  8
T69SSILL
 62
3
 10
1867.521
 20
-4821.477
 30
-1670.771
 70
    32
  0
VERTEX
  8
T69SSILL
 62
3
 10
1852.719
 20
-4768.187
 30
-1670.877
 70
    32
  0
VERTEX
  8
T69SSILL
 62
3
 10
1838.329
 20
-4771.427
 30
-1670.855
 70
    32
  0
VERTEX
  8
T69SSILL
 62
3
 10
1859.462
 20
-4842.947
 30
-1670.713
 70
    32
  0
VERTEX
  8
T69SSILL
 62
3
 10
1838.686
 20
-4849.141
 30
-1670.678
 70
    32
  0
VERTEX
  8
T69SSILL
 62
3
 10
1843.089
 20
-4862.499
 30
-1670.652
 70
    32
  0
VERTEX
  8
T69SSILL
 62
3
 10
1863.949
 20
-4856.482
 30
-1670.687
 70
    32
  0
VERTEX
  8
T69SSILL
 62
3
 10
1870.398
 20
-4882.362
 30
-1670.635
 70
    32
  0
VERTEX
  8
T69SSILL
 62
3
 10
1867.366
 20
-4884.589
 30
-1670.627
 70
    32
  0
VERTEX
  8
T69SSILL
 62
3
 10
1851.695
 20
-4890.442
 30
-1670.597
 70
    32
  0
VERTEX
  8
T69SSILL
 62
3
 10
1853.744
 20
-4898.217
 30
-1670.582
 70
    32
  0
VERTEX
  8
T69SSILL
 62
3
 10
1872.535
 20
-4894.709
 30
-1670.654
 70
    32
  0
VERTEX
  8
T69SSILL
 62
3
 10
1873.882
 20
-4897.812
 30
-1670.665
 70
    32
  0
VERTEX
  8
T69SSILL
 62
3
 10
1873.563
 20
-4905.277
 30
-1670.666
 70
    32
  0
VERTEX
  8
T69SSILL
 62
3
 10
1870.456
 20
-4916.030
 30
-1670.647
 70
    32
  0
VERTEX
  8
T69SSILL
 62
3
 10
1864.349
 20
-4927.341
 30
-1670.605
 70
    32
  0
VERTEX
  8
T69SSILL
 62
3
 10
1857.515
 20
-4935.385
 30
-1670.557
 70
    32
  0
VERTEX
  8
T69SSILL
 62
3
 10
1819.641
 20
-4962.253
 30
-1670.430
 70
    32
  0
VERTEX
  8
T69SSILL
 62
3
 10
1781.142
 20
-4989.565
 30
-1670.342
 70
    32
  0
VERTEX
  8
T69SSILL
 62
3
 10
1729.000
 20
-5031.639
 30
-1670.189
 70
    32
  0
VERTEX
  8
T69SSILL
 62
3
 10
1725.145
 20
-5030.950
 30
-1670.204
 70
    32
  0
VERTEX
  8
T69SSILL
 62
3
 10
1717.548
 20
-5032.914
 30
-1670.209
 70
    32
  0
VERTEX
  8
T69SSILL
 62
3
 10
1702.436
 20
-5041.678
 30
-1670.188
 70
    32
  0
VERTEX
  8
T69SSILL
 62
3
 10
1644.564
 20
-5050.493
 30
-1670.274
 70
    32
  0
VERTEX
  8
T69SSILL
 62
3
 10
1602.990
 20
-5056.826
 30
-1670.174
 70
    32
  0
VERTEX
  8
T69SSILL
 62
3
 10
1513.919
 20
-5122.278
 30
-1669.701
 70
    32
  0
VERTEX
  8
T69SSILL
 62
3
 10
1509.461
 20
-5120.962
 30
-1669.689
 70
    32
  0
VERTEX
  8
T69SSILL
 62
3
 10
1483.057
 20
-5141.026
 30
-1669.547
 70
    32
  0
VERTEX
  8
T69SSILL
 62
3
 10
1483.044
 20
-5146.300
 30
-1669.533
 70
    32
  0
VERTEX
  8
T69SSILL
 62
3
 10
1307.237
 20
-5277.144
 30
-1669.716
 70
    32
  0
VERTEX
  8
T69SSILL
 62
3
 10
1260.798
 20
-5311.706
 30
-1669.790
 70
    32
  0
VERTEX
  8
T69SSILL
 62
3
 10
1172.501
 20
-5377.421
 30
-1670.122
 70
    32
  0
VERTEX
  8
T69SSILL
 62
3
 10
1178.739
 20
-5386.674
 30
-1670.122
 70
    32
  0
VERTEX
  8
T69SSILL
 62
3
 10
1144.757
 20
-5478.873
 30
-1670.346
 70
    32
  0
VERTEX
  8
T69SSILL
 62
3
 10
1138.261
 20
-5492.270
 30
-1670.359
 70
    32
  0
VERTEX
  8
T69SSILL
 62
3
 10
1133.227
 20
-5515.664
 30
-1670.380
 70
    32
  0
VERTEX
  8
T69SSILL
 62
3
 10
1131.360
 20
-5516.276
 30
-1670.381
 70
    32
  0
VERTEX
  8
T69SSILL
 62
3
 10
1115.660
 20
-5489.787
 30
-1670.364
 70
    32
  0
VERTEX
  8
T69SSILL
 62
3
 10
1116.320
 20
-5484.908
 30
-1670.360
 70
    32
  0
VERTEX
  8
T69SSILL
 62
3
 10
1111.352
 20
-5475.214
 30
-1670.354
 70
    32
  0
VERTEX
  8
T69SSILL
 62
3
 10
1105.993
 20
-5473.645
 30
-1670.355
 70
    32
  0
VERTEX
  8
T69SSILL
 62
3
 10
1084.207
 20
-5434.522
 30
-1670.340
 70
    32
  0
VERTEX
  8
T69SSILL
 62
3
 10
1063.376
 20
-5397.112
 30
-1670.295
 70
    32
  0
VERTEX
  8
T69SSILL
 62
3
 10
1065.736
 20
-5394.925
 30
-1670.289
 70
    32
  0
VERTEX
  8
T69SSILL
 62
3
 10
1063.979
 20
-5391.176
 30
-1670.284
 70
    32
  0
VERTEX
  8
T69SSILL
 62
3
 10
1058.885
 20
-5388.949
 30
-1670.285
 70
    32
  0
VERTEX
  8
T69SSILL
 62
3
 10
1052.061
 20
-5375.431
 30
-1670.268
 70
    32
  0
VERTEX
  8
T69SSILL
 62
3
 10
1042.866
 20
-5380.153
 30
-1670.287
 70
    32
  0
VERTEX
  8
T69SSILL
 62
3
 10
1050.623
 20
-5393.365
 30
-1670.302
 70
    32
  0
VERTEX
  8
T69SSILL
 62
3
 10
1048.833
 20
-5400.351
 30
-1670.316
 70
    32
  0
VERTEX
  8
T69SSILL
 62
3
 10
1049.567
 20
-5402.467
 30
-1670.319
 70
    32
  0
VERTEX
  8
T69SSILL
 62
3
 10
1057.057
 20
-5405.340
 30
-1670.317
 70
    32
  0
VERTEX
  8
T69SSILL
 62
3
 10
1067.839
 20
-5424.799
 30
-1670.340
 70
    32
  0
VERTEX
  8
T69SSILL
 62
3
 10
1094.319
 20
-5472.588
 30
-1670.359
 70
    32
  0
VERTEX
  8
T69SSILL
 62
3
 10
1089.127
 20
-5488.377
 30
-1670.371
 70
    32
  0
VERTEX
  8
T69SSILL
 62
3
 10
1089.704
 20
-5491.934
 30
-1670.374
 70
    32
  0
VERTEX
  8
T69SSILL
 62
3
 10
1102.258
 20
-5502.625
 30
-1670.379
 70
    32
  0
VERTEX
  8
T69SSILL
 62
3
 10
1113.013
 20
-5506.025
 30
-1670.378
 70
    32
  0
VERTEX
  8
T69SSILL
 62
3
 10
1126.029
 20
-5527.827
 30
-1670.392
 70
    32
  0
VERTEX
  8
T69SSILL
 62
3
 10
1094.256
 20
-5614.997
 30
-1670.960
 70
    32
  0
VERTEX
  8
T69SSILL
 62
3
 10
1061.091
 20
-5703.897
 30
-1671.730
 70
    32
  0
VERTEX
  8
T69SSILL
 62
3
 10
1057.273
 20
-5712.826
 30
-1671.759
 70
    32
  0
VERTEX
  8
T69SSILL
 62
3
 10
1054.856
 20
-5724.774
 30
-1671.796
 70
    32
  0
VERTEX
  8
T69SSILL
 62
3
 10
1061.548
 20
-5730.145
 30
-1671.811
 70
    32
  0
VERTEX
  8
T69SSILL
 62
3
 10
1083.611
 20
-5807.221
 30
-1672.042
 70
    32
  0
VERTEX
  8
T69SSILL
 62
3
 10
1110.825
 20
-5902.292
 30
-1672.108
 70
    32
  0
VERTEX
  8
T69SSILL
 62
3
 10
1135.776
 20
-5989.457
 30
-1673.325
 70
    32
  0
VERTEX
  8
T69SSILL
 62
3
 10
1171.771
 20
-6117.798
 30
-1674.230
 70
    32
  0
VERTEX
  8
T69SSILL
 62
3
 10
1224.062
 20
-6315.174
 30
-1678.984
 70
    32
  0
VERTEX
  8
T69SSILL
 62
3
 10
1222.969
 20
-6323.437
 30
-1679.193
 70
    32
  0
VERTEX
  8
T69SSILL
 62
3
 10
1221.473
 20
-6330.851
 30
-1677.790
 70
    32
  0
VERTEX
  8
T69SSILL
 62
3
 10
1219.206
 20
-6341.031
 30
-1676.540
 70
    32
  0
VERTEX
  8
T69SSILL
 62
3
 10
1211.251
 20
-6341.772
 30
-1676.885
 70
    32
  0
VERTEX
  8
T69SSILL
 62
3
 10
1207.187
 20
-6348.208
 30
-1677.445
 70
    32
  0
VERTEX
  8
T69SSILL
 62
3
 10
1200.929
 20
-6358.361
 30
-1677.872
 70
    32
  0
VERTEX
  8
T69SSILL
 62
3
 10
1205.190
 20
-6361.867
 30
-1678.112
 70
    32
  0
VERTEX
  8
T69SSILL
 62
3
 10
1196.809
 20
-6371.612
 30
-1678.177
 70
    32
  0
VERTEX
  8
T69SSILL
 62
3
 10
1188.278
 20
-6377.363
 30
-1677.435
 70
    32
  0
VERTEX
  8
T69SSILL
 62
3
 10
1181.785
 20
-6379.454
 30
-1677.285
 70
    32
  0
VERTEX
  8
T69SSILL
 62
3
 10
1169.650
 20
-6385.194
 30
-1676.822
 70
    32
  0
VERTEX
  8
T69SSILL
 62
3
 10
1159.485
 20
-6389.476
 30
-1677.513
 70
    32
  0
VERTEX
  8
T69SSILL
 62
3
 10
1148.221
 20
-6395.143
 30
-1676.898
 70
    32
  0
VERTEX
  8
T69SSILL
 62
3
 10
1138.350
 20
-6399.679
 30
-1677.156
 70
    32
  0
VERTEX
  8
T69SSILL
 62
3
 10
1126.118
 20
-6404.441
 30
-1677.370
 70
    32
  0
VERTEX
  8
T69SSILL
 62
3
 10
1111.351
 20
-6412.340
 30
-1677.669
 70
    32
  0
VERTEX
  8
T69SSILL
 62
3
 10
1115.923
 20
-6421.771
 30
-1677.669
 70
    32
  0
VERTEX
  8
T69SSILL
 62
3
 10
1145.921
 20
-6407.083
 30
-1677.799
 70
    32
  0
VERTEX
  8
T69SSILL
 62
3
 10
1163.767
 20
-6398.648
 30
-1677.938
 70
    32
  0
VERTEX
  8
T69SSILL
 62
3
 10
1174.132
 20
-6394.486
 30
-1678.041
 70
    32
  0
VERTEX
  8
T69SSILL
 62
3
 10
1182.572
 20
-6396.437
 30
-1678.432
 70
    32
  0
VERTEX
  8
T69SSILL
 62
3
 10
1197.721
 20
-6387.773
 30
-1678.225
 70
    32
  0
VERTEX
  8
T69SSILL
 62
3
 10
1196.109
 20
-6385.582
 30
-1678.195
 70
    32
  0
VERTEX
  8
T69SSILL
 62
3
 10
1202.720
 20
-6379.148
 30
-1677.970
 70
    32
  0
VERTEX
  8
T69SSILL
 62
3
 10
1205.832
 20
-6377.705
 30
-1677.995
 70
    32
  0
VERTEX
  8
T69SSILL
 62
3
 10
1212.921
 20
-6369.200
 30
-1678.350
 70
    32
  0
VERTEX
  8
T69SSILL
 62
3
 10
1217.050
 20
-6362.861
 30
-1678.608
 70
    32
  0
VERTEX
  8
T69SSILL
 62
3
 10
1223.148
 20
-6354.062
 30
-1678.398
 70
    32
  0
VERTEX
  8
T69SSILL
 62
3
 10
1229.910
 20
-6344.951
 30
-1679.118
 70
    32
  0
VERTEX
  8
T69SSILL
 62
3
 10
1232.362
 20
-6344.834
 30
-1678.874
 70
    32
  0
VERTEX
  8
T69SSILL
 62
3
 10
1246.356
 20
-6384.362
 30
-1673.761
 70
    32
  0
VERTEX
  8
T69SSILL
 62
3
 10
1263.599
 20
-6445.985
 30
-1673.761
 70
    32
  0
VERTEX
  8
T69SSILL
 62
3
 10
1254.797
 20
-6471.653
 30
-1673.464
 70
    32
  0
VERTEX
  8
T69SSILL
 62
3
 10
1207.445
 20
-6528.145
 30
-1673.838
 70
    32
  0
VERTEX
  8
T69SSILL
 62
3
 10
1194.219
 20
-6543.924
 30
-1674.132
 70
    32
  0
VERTEX
  8
T69SSILL
 62
3
 10
1192.581
 20
-6552.295
 30
-1674.174
 70
    32
  0
VERTEX
  8
T69SSILL
 62
3
 10
1187.543
 20
-6578.046
 30
-1674.071
 70
    32
  0
VERTEX
  8
T69SSILL
 62
3
 10
1186.187
 20
-6598.749
 30
-1674.133
 70
    32
  0
VERTEX
  8
T69SSILL
 62
3
 10
1189.218
 20
-6605.907
 30
-1674.266
 70
    32
  0
VERTEX
  8
T69SSILL
 62
3
 10
1190.205
 20
-6629.497
 30
-1674.456
 70
    32
  0
VERTEX
  8
T69SSILL
 62
3
 10
1191.723
 20
-6665.760
 30
-1673.596
 70
    32
  0
VERTEX
  8
T69SSILL
 62
3
 10
1197.601
 20
-6727.173
 30
-1672.108
 70
    32
  0
VERTEX
  8
T69SSILL
 62
3
 10
1207.000
 20
-6825.372
 30
-1671.100
 70
    32
  0
VERTEX
  8
T69SSILL
 62
3
 10
1212.853
 20
-6886.518
 30
-1670.573
 70
    32
  0
VERTEX
  8
T69SSILL
 62
3
 10
1226.176
 20
-6915.356
 30
-1670.345
 70
    32
  0
VERTEX
  8
T69SSILL
 62
3
 10
1233.957
 20
-6924.596
 30
-1670.266
 70
    32
  0
VERTEX
  8
T69SSILL
 62
3
 10
1239.164
 20
-6935.411
 30
-1670.180
 70
    32
  0
VERTEX
  8
T69SSILL
 62
3
 10
1247.704
 20
-6944.746
 30
-1670.098
 70
    32
  0
VERTEX
  8
T69SSILL
 62
3
 10
1285.807
 20
-6967.103
 30
-1669.870
 70
    32
  0
VERTEX
  8
T69SSILL
 62
3
 10
1334.014
 20
-6988.713
 30
-1669.850
 70
    32
  0
VERTEX
  8
T69SSILL
 62
3
 10
1468.620
 20
-7054.334
 30
-1670.485
 70
    32
  0
VERTEX
  8
T69SSILL
 62
3
 10
1476.905
 20
-7059.330
 30
-1670.518
 70
    32
  0
VERTEX
  8
T69SSILL
 62
3
 10
1484.199
 20
-7064.846
 30
-1670.539
 70
    32
  0
VERTEX
  8
T69SSILL
 62
3
 10
1481.936
 20
-7071.617
 30
-1670.477
 70
    32
  0
VERTEX
  8
T69SSILL
 62
3
 10
1502.655
 20
-7093.766
 30
-1670.496
 70
    32
  0
VERTEX
  8
T69SSILL
 62
3
 10
1505.599
 20
-7103.352
 30
-1671.451
 70
    32
  0
VERTEX
  8
T69SSILL
 62
3
 10
1507.777
 20
-7118.514
 30
-1671.220
 70
    32
  0
VERTEX
  8
T69SSILL
 62
3
 10
1501.848
 20
-7133.790
 30
-1670.992
 70
    32
  0
VERTEX
  8
T69SSILL
 62
3
 10
1495.964
 20
-7142.279
 30
-1670.862
 70
    32
  0
VERTEX
  8
T69SSILL
 62
3
 10
1500.959
 20
-7150.742
 30
-1670.747
 70
    32
  0
VERTEX
  8
T69SSILL
 62
3
 10
1502.879
 20
-7155.900
 30
-1670.478
 70
    32
  0
VERTEX
  8
T69SSILL
 62
3
 10
1502.652
 20
-7164.868
 30
-1669.940
 70
    32
  0
VERTEX
  8
T69SSILL
 62
3
 10
1498.803
 20
-7177.434
 30
-1669.142
 70
    32
  0
VERTEX
  8
T69SSILL
 62
3
 10
1495.973
 20
-7181.732
 30
-1668.849
 70
    32
  0
VERTEX
  8
T69SSILL
 62
3
 10
1486.765
 20
-7189.424
 30
-1668.590
 70
    32
  0
VERTEX
  8
T69SSILL
 62
3
 10
1458.376
 20
-7205.104
 30
-1668.703
 70
    32
  0
VERTEX
  8
T69SSILL
 62
3
 10
1420.980
 20
-7230.660
 30
-1668.861
 70
    32
  0
VERTEX
  8
T69SSILL
 62
3
 10
1384.256
 20
-7255.463
 30
-1669.016
 70
    32
  0
VERTEX
  8
T69SSILL
 62
3
 10
1359.174
 20
-7270.239
 30
-1669.175
 70
    32
  0
VERTEX
  8
T69SSILL
 62
3
 10
1351.503
 20
-7274.873
 30
-1668.952
 70
    32
  0
VERTEX
  8
T69SSILL
 62
3
 10
1343.830
 20
-7281.073
 30
-1668.686
 70
    32
  0
VERTEX
  8
T69SSILL
 62
3
 10
1345.016
 20
-7287.453
 30
-1668.524
 70
    32
  0
VERTEX
  8
T69SSILL
 62
3
 10
1348.237
 20
-7293.749
 30
-1668.389
 70
    32
  0
VERTEX
  8
T69SSILL
 62
3
 10
1348.392
 20
-7297.777
 30
-1668.280
 70
    32
  0
VERTEX
  8
T69SSILL
 62
3
 10
1334.049
 20
-7321.012
 30
-1668.459
 70
    32
  0
VERTEX
  8
T69SSILL
 62
3
 10
1306.544
 20
-7366.544
 30
-1668.858
 70
    32
  0
VERTEX
  8
T69SSILL
 62
3
 10
1315.376
 20
-7371.353
 30
-1668.835
 70
    32
  0
VERTEX
  8
T69SSILL
 62
3
 10
1333.955
 20
-7339.759
 30
-1668.539
 70
    32
  0
VERTEX
  8
T69SSILL
 62
3
 10
1352.182
 20
-7314.197
 30
-1668.872
 70
    32
  0
VERTEX
  8
T69SSILL
 62
3
 10
1358.302
 20
-7317.514
 30
-1668.856
 70
    32
  0
VERTEX
  8
T69SSILL
 62
3
 10
1364.035
 20
-7316.856
 30
-1668.945
 70
    32
  0
VERTEX
  8
T69SSILL
 62
3
 10
1369.351
 20
-7310.463
 30
-1668.188
 70
    32
  0
VERTEX
  8
T69SSILL
 62
3
 10
1364.744
 20
-7297.432
 30
-1668.492
 70
    32
  0
VERTEX
  8
T69SSILL
 62
3
 10
1368.216
 20
-7291.544
 30
-1668.698
 70
    32
  0
VERTEX
  8
T69SSILL
 62
3
 10
1369.031
 20
-7291.262
 30
-1668.715
 70
    32
  0
VERTEX
  8
T69SSILL
 62
3
 10
1372.943
 20
-7291.676
 30
-1668.752
 70
    32
  0
VERTEX
  8
T69SSILL
 62
3
 10
1386.579
 20
-7266.140
 30
-1669.029
 70
    32
  0
VERTEX
  8
T69SSILL
 62
3
 10
1397.829
 20
-7258.870
 30
-1668.983
 70
    32
  0
VERTEX
  8
T69SSILL
 62
3
 10
1437.504
 20
-7231.948
 30
-1668.815
 70
    32
  0
VERTEX
  8
T69SSILL
 62
3
 10
1469.085
 20
-7210.664
 30
-1668.682
 70
    32
  0
VERTEX
  8
T69SSILL
 62
3
 10
1494.517
 20
-7196.400
 30
-1668.581
 70
    32
  0
VERTEX
  8
T69SSILL
 62
3
 10
1500.502
 20
-7196.320
 30
-1668.563
 70
    32
  0
VERTEX
  8
T69SSILL
 62
3
 10
1511.183
 20
-7175.266
 30
-1669.432
 70
    32
  0
VERTEX
  8
T69SSILL
 62
3
 10
1511.986
 20
-7152.385
 30
-1670.739
 70
    32
  0
VERTEX
  8
T69SSILL
 62
3
 10
1514.449
 20
-7132.945
 30
-1671.022
 70
    32
  0
VERTEX
  8
T69SSILL
 62
3
 10
1516.406
 20
-7128.393
 30
-1671.090
 70
    32
  0
VERTEX
  8
T69SSILL
 62
3
 10
1521.403
 20
-7127.086
 30
-1670.444
 70
    32
  0
VERTEX
  8
T69SSILL
 62
3
 10
1534.185
 20
-7139.940
 30
-1670.482
 70
    32
  0
VERTEX
  8
T69SSILL
 62
3
 10
1545.433
 20
-7148.455
 30
-1670.517
 70
    32
  0
VERTEX
  8
T69SSILL
 62
3
 10
1551.182
 20
-7151.534
 30
-1670.536
 70
    32
  0
VERTEX
  8
T69SSILL
 62
3
 10
1582.969
 20
-7168.557
 30
-1670.452
 70
    32
  0
VERTEX
  8
T69SSILL
 62
3
 10
1667.363
 20
-7208.821
 30
-1670.130
 70
    32
  0
VERTEX
  8
T69SSILL
 62
3
 10
1676.751
 20
-7217.761
 30
-1670.038
 70
    32
  0
VERTEX
  8
T69SSILL
 62
3
 10
1684.041
 20
-7226.108
 30
-1669.958
 70
    32
  0
VERTEX
  8
T69SSILL
 62
3
 10
1694.442
 20
-7238.016
 30
-1669.853
 70
    32
  0
VERTEX
  8
T69SSILL
 62
3
 10
1701.519
 20
-7269.362
 30
-1669.745
 70
    32
  0
VERTEX
  8
T69SSILL
 62
3
 10
1702.162
 20
-7283.186
 30
-1669.718
 70
    32
  0
VERTEX
  8
T69SSILL
 62
3
 10
1700.232
 20
-7297.332
 30
-1669.713
 70
    32
  0
VERTEX
  8
T69SSILL
 62
3
 10
1694.733
 20
-7303.597
 30
-1669.749
 70
    32
  0
VERTEX
  8
T69SSILL
 62
3
 10
1687.963
 20
-7304.414
 30
-1669.804
 70
    32
  0
VERTEX
  8
T69SSILL
 62
3
 10
1656.862
 20
-7297.189
 30
-1670.076
 70
    32
  0
VERTEX
  8
T69SSILL
 62
3
 10
1651.796
 20
-7322.615
 30
-1670.079
 70
    32
  0
VERTEX
  8
T69SSILL
 62
3
 10
1681.817
 20
-7331.951
 30
-1669.813
 70
    32
  0
VERTEX
  8
T69SSILL
 62
3
 10
1687.555
 20
-7342.079
 30
-1669.749
 70
    32
  0
VERTEX
  8
T69SSILL
 62
3
 10
1681.337
 20
-7364.160
 30
-1669.767
 70
    32
  0
VERTEX
  8
T69SSILL
 62
3
 10
1662.343
 20
-7375.838
 30
-1669.908
 70
    32
  0
VERTEX
  8
T69SSILL
 62
3
 10
1629.112
 20
-7385.242
 30
-1670.171
 70
    32
  0
VERTEX
  8
T69SSILL
 62
3
 10
1605.452
 20
-7402.782
 30
-1670.329
 70
    32
  0
VERTEX
  8
T69SSILL
 62
3
 10
1576.371
 20
-7417.022
 30
-1670.398
 70
    32
  0
VERTEX
  8
T69SSILL
 62
3
 10
1554.916
 20
-7426.682
 30
-1670.307
 70
    32
  0
VERTEX
  8
T69SSILL
 62
3
 10
1545.166
 20
-7429.953
 30
-1670.267
 70
    32
  0
VERTEX
  8
T69SSILL
 62
3
 10
1527.608
 20
-7435.843
 30
-1670.345
 70
    32
  0
VERTEX
  8
T69SSILL
 62
3
 10
1539.844
 20
-7461.228
 30
-1670.375
 70
    32
  0
VERTEX
  8
T69SSILL
 62
3
 10
1542.773
 20
-7467.304
 30
-1670.344
 70
    32
  0
VERTEX
  8
T69SSILL
 62
3
 10
1580.445
 20
-7513.217
 30
-1670.258
 70
    32
  0
VERTEX
  8
T69SSILL
 62
3
 10
1602.581
 20
-7521.398
 30
-1670.134
 70
    32
  0
VERTEX
  8
T69SSILL
 62
3
 10
1716.333
 20
-7551.339
 30
-1669.326
 70
    32
  0
VERTEX
  8
T69SSILL
 62
3
 10
1725.736
 20
-7554.847
 30
-1669.248
 70
    32
  0
VERTEX
  8
T69SSILL
 62
3
 10
1726.987
 20
-7561.723
 30
-1669.170
 70
    32
  0
VERTEX
  8
T69SSILL
 62
3
 10
1712.207
 20
-7563.939
 30
-1669.211
 70
    32
  0
VERTEX
  8
T69SSILL
 62
3
 10
1712.675
 20
-7572.289
 30
-1669.122
 70
    32
  0
VERTEX
  8
T69SSILL
 62
3
 10
1721.847
 20
-7573.173
 30
-1669.073
 70
    32
  0
VERTEX
  8
T69SSILL
 62
3
 10
1727.951
 20
-7582.309
 30
-1668.950
 70
    32
  0
VERTEX
  8
T69SSILL
 62
3
 10
1717.472
 20
-7664.277
 30
-1668.135
 70
    32
  0
VERTEX
  8
T69SSILL
 62
3
 10
1714.833
 20
-7674.390
 30
-1668.041
 70
    32
  0
VERTEX
  8
T69SSILL
 62
3
 10
1713.091
 20
-7687.350
 30
-1667.912
 70
    32
  0
VERTEX
  8
T69SSILL
 62
3
 10
1707.941
 20
-7725.666
 30
-1668.508
 70
    32
  0
VERTEX
  8
T69SSILL
 62
3
 10
1712.102
 20
-7753.938
 30
-1668.675
 70
    32
  0
VERTEX
  8
T69SSILL
 62
3
 10
1710.500
 20
-7774.007
 30
-1668.949
 70
    32
  0
VERTEX
  8
T69SSILL
 62
3
 10
1723.427
 20
-7775.768
 30
-1668.524
 70
    32
  0
VERTEX
  8
T69SSILL
 62
3
 10
1732.277
 20
-7714.206
 30
-1667.547
 70
    32
  0
VERTEX
  8
T69SSILL
 62
3
 10
1752.079
 20
-7576.462
 30
-1668.907
 70
    32
  0
VERTEX
  8
T69SSILL
 62
3
 10
1764.277
 20
-7571.250
 30
-1668.909
 70
    32
  0
VERTEX
  8
T69SSILL
 62
3
 10
1771.262
 20
-7566.855
 30
-1668.924
 70
    32
  0
VERTEX
  8
T69SSILL
 62
3
 10
1789.293
 20
-7565.765
 30
-1668.786
 70
    32
  0
VERTEX
  8
T69SSILL
 62
3
 10
1790.834
 20
-7549.085
 30
-1668.707
 70
    32
  0
VERTEX
  8
T69SSILL
 62
3
 10
1789.506
 20
-7545.146
 30
-1668.703
 70
    32
  0
VERTEX
  8
T69SSILL
 62
3
 10
1776.561
 20
-7534.276
 30
-1668.774
 70
    32
  0
VERTEX
  8
T69SSILL
 62
3
 10
1768.727
 20
-7522.204
 30
-1668.795
 70
    32
  0
VERTEX
  8
T69SSILL
 62
3
 10
1769.590
 20
-7506.632
 30
-1668.736
 70
    32
  0
VERTEX
  8
T69SSILL
 62
3
 10
1793.767
 20
-7434.059
 30
-1668.719
 70
    32
  0
VERTEX
  8
T69SSILL
 62
3
 10
1807.283
 20
-7393.488
 30
-1668.669
 70
    32
  0
VERTEX
  8
T69SSILL
 62
3
 10
1813.926
 20
-7392.322
 30
-1668.615
 70
    32
  0
VERTEX
  8
T69SSILL
 62
3
 10
1815.980
 20
-7381.468
 30
-1668.615
 70
    32
  0
VERTEX
  8
T69SSILL
 62
3
 10
1811.963
 20
-7376.789
 30
-1668.656
 70
    32
  0
VERTEX
  8
T69SSILL
 62
3
 10
1819.280
 20
-7354.825
 30
-1668.628
 70
    32
  0
VERTEX
  8
T69SSILL
 62
3
 10
1827.765
 20
-7329.352
 30
-1668.730
 70
    32
  0
VERTEX
  8
T69SSILL
 62
3
 10
1835.142
 20
-7310.811
 30
-1668.798
 70
    32
  0
VERTEX
  8
T69SSILL
 62
3
 10
1836.940
 20
-7310.487
 30
-1668.792
 70
    32
  0
VERTEX
  8
T69SSILL
 62
3
 10
1855.329
 20
-7335.026
 30
-1668.572
 70
    32
  0
VERTEX
  8
T69SSILL
 62
3
 10
1861.669
 20
-7348.435
 30
-1668.469
 70
    32
  0
VERTEX
  8
T69SSILL
 62
3
 10
1866.693
 20
-7396.472
 30
-1668.181
 70
    32
  0
VERTEX
  8
T69SSILL
 62
3
 10
1863.139
 20
-7401.400
 30
-1668.190
 70
    32
  0
VERTEX
  8
T69SSILL
 62
3
 10
1865.355
 20
-7407.660
 30
-1668.161
 70
    32
  0
VERTEX
  8
T69SSILL
 62
3
 10
1867.868
 20
-7407.788
 30
-1668.140
 70
    32
  0
VERTEX
  8
T69SSILL
 62
3
 10
1874.048
 20
-7463.408
 30
-1667.937
 70
    32
  0
VERTEX
  8
T69SSILL
 62
3
 10
1871.315
 20
-7473.850
 30
-1667.933
 70
    32
  0
VERTEX
  8
T69SSILL
 62
3
 10
1874.093
 20
-7503.220
 30
-1667.830
 70
    32
  0
VERTEX
  8
T69SSILL
 62
3
 10
1868.603
 20
-7508.213
 30
-1667.865
 70
    32
  0
VERTEX
  8
T69SSILL
 62
3
 10
1869.267
 20
-7513.374
 30
-1667.879
 70
    32
  0
VERTEX
  8
T69SSILL
 62
3
 10
1867.163
 20
-7524.281
 30
-1667.940
 70
    32
  0
VERTEX
  8
T69SSILL
 62
3
 10
1856.748
 20
-7541.813
 30
-1668.101
 70
    32
  0
VERTEX
  8
T69SSILL
 62
3
 10
1834.569
 20
-7566.990
 30
-1668.394
 70
    32
  0
VERTEX
  8
T69SSILL
 62
3
 10
1771.255
 20
-7612.616
 30
-1668.444
 70
    32
  0
VERTEX
  8
T69SSILL
 62
3
 10
1776.503
 20
-7619.928
 30
-1668.344
 70
    32
  0
VERTEX
  8
T69SSILL
 62
3
 10
1839.605
 20
-7574.475
 30
-1668.380
 70
    32
  0
VERTEX
  8
T69SSILL
 62
3
 10
1851.021
 20
-7564.169
 30
-1667.764
 70
    32
  0
SEQEND
  8
T69SSILL
  0
POLYLINE
  8
T69SSILL
 62
3
 66
     1
 70
     8
  0
VERTEX
  8
T69SSILL
 62
3
 10
1875.488
 20
-7537.238
 30
-1668.139
 70
    32
  0
VERTEX
  8
T69SSILL
 62
3
 10
1883.336
 20
-7541.991
 30
-1667.868
 70
    32
  0
VERTEX
  8
T69SSILL
 62
3
 10
1889.879
 20
-7601.515
 30
-1668.045
 70
    32
  0
VERTEX
  8
T69SSILL
 62
3
 10
1891.678
 20
-7620.799
 30
-1667.835
 70
    32
  0
VERTEX
  8
T69SSILL
 62
3
 10
1888.043
 20
-7626.670
 30
-1667.789
 70
    32
  0
VERTEX
  8
T69SSILL
 62
3
 10
1890.222
 20
-7641.529
 30
-1667.669
 70
    32
  0
VERTEX
  8
T69SSILL
 62
3
 10
1895.061
 20
-7646.107
 30
-1667.730
 70
    32
  0
VERTEX
  8
T69SSILL
 62
3
 10
1904.352
 20
-7736.115
 30
-1667.304
 70
    32
  0
VERTEX
  8
T69SSILL
 62
3
 10
1900.926
 20
-7742.846
 30
-1667.193
 70
    32
  0
VERTEX
  8
T69SSILL
 62
3
 10
1905.931
 20
-7749.146
 30
-1667.246
 70
    32
  0
VERTEX
  8
T69SSILL
 62
3
 10
1907.342
 20
-7764.616
 30
-1667.170
 70
    32
  0
VERTEX
  8
T69SSILL
 62
3
 10
1905.033
 20
-7769.156
 30
-1667.095
 70
    32
  0
VERTEX
  8
T69SSILL
 62
3
 10
1905.556
 20
-7773.853
 30
-1667.074
 70
    32
  0
VERTEX
  8
T69SSILL
 62
3
 10
1901.938
 20
-7777.880
 30
-1666.978
 70
    32
  0
VERTEX
  8
T69SSILL
 62
3
 10
1897.069
 20
-7777.053
 30
-1666.774
 70
    32
  0
SEQEND
  8
T69SSILL
  0
POLYLINE
  8
T69SSILL
 62
3
 66
     1
 70
     9
  0
VERTEX
  8
T69SSILL
 62
3
 10
1898.452
 20
-7788.207
 30
-1666.774
 70
    32
  0
VERTEX
  8
T69SSILL
 62
3
 10
1902.874
 20
-7788.966
 30
-1666.921
 70
    32
  0
VERTEX
  8
T69SSILL
 62
3
 10
1910.842
 20
-7794.516
 30
-1667.036
 70
    32
  0
VERTEX
  8
T69SSILL
 62
3
 10
1915.477
 20
-7838.592
 30
-1665.642
 70
    32
  0
VERTEX
  8
T69SSILL
 62
3
 10
1917.036
 20
-7853.418
 30
-1665.654
 70
    32
  0
VERTEX
  8
T69SSILL
 62
3
 10
1913.833
 20
-7861.260
 30
-1665.639
 70
    32
  0
VERTEX
  8
T69SSILL
 62
3
 10
1918.996
 20
-7867.634
 30
-1665.668
 70
    32
  0
VERTEX
  8
T69SSILL
 62
3
 10
1927.735
 20
-7941.992
 30
-1665.733
 70
    32
  0
VERTEX
  8
T69SSILL
 62
3
 10
1924.714
 20
-7957.624
 30
-1665.721
 70
    32
  0
VERTEX
  8
T69SSILL
 62
3
 10
1926.233
 20
-7968.701
 30
-1665.732
 70
    32
  0
VERTEX
  8
T69SSILL
 62
3
 10
1929.220
 20
-7990.477
 30
-1665.797
 70
    32
  0
VERTEX
  8
T69SSILL
 62
3
 10
1925.202
 20
-7990.660
 30
-1665.788
 70
    32
  0
VERTEX
  8
T69SSILL
 62
3
 10
1917.253
 20
-7980.297
 30
-1665.741
 70
    32
  0
VERTEX
  8
T69SSILL
 62
3
 10
1847.187
 20
-7863.530
 30
-1665.481
 70
    32
  0
VERTEX
  8
T69SSILL
 62
3
 10
1841.384
 20
-7841.273
 30
-1665.731
 70
    32
  0
VERTEX
  8
T69SSILL
 62
3
 10
1837.169
 20
-7809.450
 30
-1669.179
 70
    32
  0
VERTEX
  8
T69SSILL
 62
3
 10
1836.042
 20
-7776.716
 30
-1668.093
 70
    32
  0
VERTEX
  8
T69SSILL
 62
3
 10
1837.912
 20
-7764.721
 30
-1667.581
 70
    32
  0
VERTEX
  8
T69SSILL
 62
3
 10
1837.912
 20
-7764.721
 30
-1666.774
 70
    32
  0
VERTEX
  8
T69SSILL
 62
3
 10
1843.166
 20
-7761.548
 30
-1666.774
 70
    32
  0
VERTEX
  8
T69SSILL
 62
3
 10
1866.593
 20
-7781.658
 30
-1666.774
 70
    32
  0
VERTEX
  8
T69SSILL
 62
3
 10
1868.251
 20
-7780.635
 30
-1666.774
 70
    32
  0
VERTEX
  8
T69SSILL
 62
3
 10
1882.620
 20
-7788.560
 30
-1666.774
 70
    32
  0
SEQEND
  8
T69SSILL
  0
POLYLINE
  8
T69SSILL
 62
3
 66
     1
 70
     8
  0
VERTEX
  8
T69SSILL
 62
3
 10
1897.069
 20
-7777.053
 30
-1666.774
 70
    32
  0
VERTEX
  8
T69SSILL
 62
3
 10
1861.648
 20
-7766.312
 30
-1666.774
 70
    32
  0
VERTEX
  8
T69SSILL
 62
3
 10
1860.725
 20
-7765.379
 30
-1666.774
 70
    32
  0
VERTEX
  8
T69SSILL
 62
3
 10
1851.383
 20
-7752.336
 30
-1666.774
 70
    32
  0
VERTEX
  8
T69SSILL
 62
3
 10
1840.079
 20
-7738.642
 30
-1666.774
 70
    32
  0
VERTEX
  8
T69SSILL
 62
3
 10
1840.079
 20
-7738.642
 30
-1666.469
 70
    32
  0
VERTEX
  8
T69SSILL
 62
3
 10
1840.079
 20
-7738.642
 30
-1666.774
 70
    32
  0
VERTEX
  8
T69SSILL
 62
3
 10
1840.559
 20
-7715.971
 30
-1666.774
 70
    32
  0
VERTEX
  8
T69SSILL
 62
3
 10
1838.203
 20
-7656.361
 30
-1666.774
 70
    32
  0
VERTEX
  8
T69SSILL
 62
3
 10
1839.318
 20
-7641.418
 30
-1666.904
 70
    32
  0
VERTEX
  8
T69SSILL
 62
3
 10
1852.501
 20
-7602.249
 30
-1667.367
 70
    32
  0
VERTEX
  8
T69SSILL
 62
3
 10
1862.211
 20
-7571.908
 30
-1667.723
 70
    32
  0
VERTEX
  8
T69SSILL
 62
3
 10
1870.978
 20
-7543.096
 30
-1668.060
 70
    32
  0
VERTEX
  8
T69SSILL
 62
3
 10
1875.488
 20
-7537.238
 30
-1668.139
 70
    32
  0
SEQEND
  8
T69SSILL
  0
POLYLINE
  8
T69SSILL
 62
3
 66
     1
 70
     8
  0
VERTEX
  8
T69SSILL
 62
3
 10
1851.021
 20
-7564.169
 30
-1667.764
 70
    32
  0
VERTEX
  8
T69SSILL
 62
3
 10
1854.768
 20
-7566.346
 30
-1667.755
 70
    32
  0
VERTEX
  8
T69SSILL
 62
3
 10
1854.653
 20
-7568.018
 30
-1667.737
 70
    32
  0
VERTEX
  8
T69SSILL
 62
3
 10
1843.150
 20
-7598.821
 30
-1667.369
 70
    32
  0
VERTEX
  8
T69SSILL
 62
3
 10
1825.623
 20
-7649.354
 30
-1666.774
 70
    32
  0
VERTEX
  8
T69SSILL
 62
3
 10
1826.523
 20
-7663.560
 30
-1666.774
 70
    32
  0
VERTEX
  8
T69SSILL
 62
3
 10
1827.866
 20
-7708.060
 30
-1666.774
 70
    32
  0
VERTEX
  8
T69SSILL
 62
3
 10
1828.363
 20
-7736.860
 30
-1666.735
 70
    32
  0
VERTEX
  8
T69SSILL
 62
3
 10
1828.363
 20
-7736.860
 30
-1666.404
 70
    32
  0
VERTEX
  8
T69SSILL
 62
3
 10
1828.430
 20
-7740.770
 30
-1666.570
 70
    32
  0
VERTEX
  8
T69SSILL
 62
3
 10
1826.767
 20
-7775.771
 30
-1668.061
 70
    32
  0
VERTEX
  8
T69SSILL
 62
3
 10
1830.376
 20
-7834.320
 30
-1668.101
 70
    32
  0
VERTEX
  8
T69SSILL
 62
3
 10
1826.028
 20
-7843.018
 30
-1667.560
 70
    32
  0
VERTEX
  8
T69SSILL
 62
3
 10
1816.311
 20
-7838.299
 30
-1667.981
 70
    32
  0
VERTEX
  8
T69SSILL
 62
3
 10
1807.488
 20
-7832.450
 30
-1668.469
 70
    32
  0
VERTEX
  8
T69SSILL
 62
3
 10
1800.777
 20
-7843.113
 30
-1667.821
 70
    32
  0
VERTEX
  8
T69SSILL
 62
3
 10
1809.831
 20
-7849.283
 30
-1667.309
 70
    32
  0
VERTEX
  8
T69SSILL
 62
3
 10
1822.041
 20
-7857.816
 30
-1666.605
 70
    32
  0
VERTEX
  8
T69SSILL
 62
3
 10
1832.846
 20
-7865.409
 30
-1665.979
 70
    32
  0
VERTEX
  8
T69SSILL
 62
3
 10
1840.713
 20
-7875.354
 30
-1665.857
 70
    32
  0
VERTEX
  8
T69SSILL
 62
3
 10
1843.257
 20
-7881.149
 30
-1665.815
 70
    32
  0
VERTEX
  8
T69SSILL
 62
3
 10
1849.187
 20
-7890.404
 30
-1665.459
 70
    32
  0
VERTEX
  8
T69SSILL
 62
3
 10
1857.067
 20
-7908.331
 30
-1665.385
 70
    32
  0
VERTEX
  8
T69SSILL
 62
3
 10
1869.562
 20
-7927.185
 30
-1665.486
 70
    32
  0
VERTEX
  8
T69SSILL
 62
3
 10
1884.998
 20
-7945.197
 30
-1665.571
 70
    32
  0
VERTEX
  8
T69SSILL
 62
3
 10
1909.782
 20
-7986.137
 30
-1665.739
 70
    32
  0
VERTEX
  8
T69SSILL
 62
3
 10
1912.005
 20
-7991.839
 30
-1665.760
 70
    32
  0
VERTEX
  8
T69SSILL
 62
3
 10
1936.080
 20
-8023.193
 30
-1665.901
 70
    32
  0
VERTEX
  8
T69SSILL
 62
3
 10
1942.397
 20
-8075.552
 30
-1666.056
 70
    32
  0
VERTEX
  8
T69SSILL
 62
3
 10
1939.694
 20
-8084.265
 30
-1666.073
 70
    32
  0
VERTEX
  8
T69SSILL
 62
3
 10
1943.669
 20
-8088.827
 30
-1666.094
 70
    32
  0
VERTEX
  8
T69SSILL
 62
3
 10
1948.002
 20
-8130.131
 30
-1666.215
 70
    32
  0
VERTEX
  8
T69SSILL
 62
3
 10
1944.657
 20
-8136.856
 30
-1666.225
 70
    32
  0
VERTEX
  8
T69SSILL
 62
3
 10
1943.293
 20
-8145.245
 30
-1666.244
 70
    32
  0
VERTEX
  8
T69SSILL
 62
3
 10
1946.328
 20
-8163.721
 30
-1666.283
 70
    32
  0
VERTEX
  8
T69SSILL
 62
3
 10
1943.698
 20
-8166.057
 30
-1666.193
 70
    32
  0
VERTEX
  8
T69SSILL
 62
3
 10
1926.301
 20
-8170.538
 30
-1665.875
 70
    32
  0
VERTEX
  8
T69SSILL
 62
3
 10
1927.627
 20
-8184.041
 30
-1665.977
 70
    32
  0
VERTEX
  8
T69SSILL
 62
3
 10
1933.958
 20
-8183.317
 30
-1665.804
 70
    32
  0
VERTEX
  8
T69SSILL
 62
3
 10
1950.661
 20
-8199.345
 30
-1666.183
 70
    32
  0
VERTEX
  8
T69SSILL
 62
3
 10
1949.805
 20
-8204.730
 30
-1666.124
 70
    32
  0
VERTEX
  8
T69SSILL
 62
3
 10
1952.488
 20
-8220.220
 30
-1666.103
 70
    32
  0
VERTEX
  8
T69SSILL
 62
3
 10
1958.506
 20
-8225.950
 30
-1666.240
 70
    32
  0
VERTEX
  8
T69SSILL
 62
3
 10
1966.609
 20
-8290.043
 30
-1666.068
 70
    32
  0
VERTEX
  8
T69SSILL
 62
3
 10
1961.353
 20
-8294.469
 30
-1666.027
 70
    32
  0
VERTEX
  8
T69SSILL
 62
3
 10
1960.780
 20
-8302.141
 30
-1666.131
 70
    32
  0
VERTEX
  8
T69SSILL
 62
3
 10
1969.204
 20
-8315.649
 30
-1665.989
 70
    32
  0
VERTEX
  8
T69SSILL
 62
3
 10
1974.380
 20
-8360.659
 30
-1666.062
 70
    32
  0
VERTEX
  8
T69SSILL
 62
3
 10
1990.543
 20
-8413.622
 30
-1666.010
 70
    32
  0
VERTEX
  8
T69SSILL
 62
3
 10
1987.602
 20
-8422.604
 30
-1666.036
 70
    32
  0
VERTEX
  8
T69SSILL
 62
3
 10
1991.669
 20
-8428.705
 30
-1666.016
 70
    32
  0
VERTEX
  8
T69SSILL
 62
3
 10
1996.257
 20
-8430.702
 30
-1665.989
 70
    32
  0
VERTEX
  8
T69SSILL
 62
3
 10
2024.034
 20
-8519.120
 30
-1665.896
 70
    32
  0
VERTEX
  8
T69SSILL
 62
3
 10
2022.823
 20
-8527.058
 30
-1665.911
 70
    32
  0
VERTEX
  8
T69SSILL
 62
3
 10
2024.380
 20
-8531.049
 30
-1665.905
 70
    32
  0
VERTEX
  8
T69SSILL
 62
3
 10
2028.925
 20
-8532.930
 30
-1665.878
 70
    32
  0
VERTEX
  8
T69SSILL
 62
3
 10
2053.644
 20
-8610.496
 30
-1665.795
 70
    32
  0
VERTEX
  8
T69SSILL
 62
3
 10
2052.970
 20
-8619.162
 30
-1665.806
 70
    32
  0
VERTEX
  8
T69SSILL
 62
3
 10
2053.708
 20
-8621.139
 30
-1665.804
 70
    32
  0
VERTEX
  8
T69SSILL
 62
3
 10
2057.571
 20
-8622.612
 30
-1665.781
 70
    32
  0
VERTEX
  8
T69SSILL
 62
3
 10
2075.441
 20
-8678.817
 30
-1665.721
 70
    32
  0
VERTEX
  8
T69SSILL
 62
3
 10
2078.343
 20
-8691.913
 30
-1665.714
 70
    32
  0
VERTEX
  8
T69SSILL
 62
3
 10
2077.799
 20
-8706.427
 30
-1665.730
 70
    32
  0
VERTEX
  8
T69SSILL
 62
3
 10
2075.573
 20
-8711.176
 30
-1665.748
 70
    32
  0
VERTEX
  8
T69SSILL
 62
3
 10
2069.561
 20
-8711.617
 30
-1665.757
 70
    32
  0
VERTEX
  8
T69SSILL
 62
3
 10
2065.583
 20
-8717.281
 30
-1665.738
 70
    32
  0
VERTEX
  8
T69SSILL
 62
3
 10
2067.328
 20
-8726.239
 30
-1665.711
 70
    32
  0
VERTEX
  8
T69SSILL
 62
3
 10
2063.625
 20
-8731.069
 30
-1665.695
 70
    32
  0
VERTEX
  8
T69SSILL
 62
3
 10
2066.452
 20
-8735.619
 30
-1665.682
 70
    32
  0
VERTEX
  8
T69SSILL
 62
3
 10
2072.648
 20
-8741.351
 30
-1665.668
 70
    32
  0
VERTEX
  8
T69SSILL
 62
3
 10
2076.417
 20
-8739.830
 30
-1665.675
 70
    32
  0
VERTEX
  8
T69SSILL
 62
3
 10
2078.846
 20
-8735.719
 30
-1665.689
 70
    32
  0
VERTEX
  8
T69SSILL
 62
3
 10
2082.151
 20
-8735.004
 30
-1665.692
 70
    32
  0
VERTEX
  8
T69SSILL
 62
3
 10
2085.096
 20
-8736.205
 30
-1665.690
 70
    32
  0
VERTEX
  8
T69SSILL
 62
3
 10
2089.807
 20
-8745.180
 30
-1665.665
 70
    32
  0
VERTEX
  8
T69SSILL
 62
3
 10
2099.992
 20
-8754.649
 30
-1665.636
 70
    32
  0
VERTEX
  8
T69SSILL
 62
3
 10
2117.144
 20
-8807.553
 30
-1665.489
 70
    32
  0
VERTEX
  8
T69SSILL
 62
3
 10
2115.657
 20
-8811.023
 30
-1665.478
 70
    32
  0
VERTEX
  8
T69SSILL
 62
3
 10
2115.797
 20
-8814.946
 30
-1665.466
 70
    32
  0
VERTEX
  8
T69SSILL
 62
3
 10
2116.861
 20
-8817.265
 30
-1665.460
 70
    32
  0
VERTEX
  8
T69SSILL
 62
3
 10
2121.086
 20
-8820.061
 30
-1665.460
 70
    32
  0
VERTEX
  8
T69SSILL
 62
3
 10
2146.268
 20
-8898.514
 30
-1665.355
 70
    32
  0
VERTEX
  8
T69SSILL
 62
3
 10
2143.621
 20
-8905.797
 30
-1665.284
 70
    32
  0
VERTEX
  8
T69SSILL
 62
3
 10
2148.958
 20
-8922.224
 30
-1665.263
 70
    32
  0
VERTEX
  8
T69SSILL
 62
3
 10
2155.322
 20
-8927.732
 30
-1665.312
 70
    32
  0
VERTEX
  8
T69SSILL
 62
3
 10
2215.581
 20
-9115.398
 30
-1665.013
 70
    32
  0
VERTEX
  8
T69SSILL
 62
3
 10
2214.344
 20
-9123.722
 30
-1665.001
 70
    32
  0
VERTEX
  8
T69SSILL
 62
3
 10
2213.997
 20
-9126.060
 30
-1664.984
 70
    32
  0
VERTEX
  8
T69SSILL
 62
3
 10
2220.680
 20
-9136.154
 30
-1664.932
 70
    32
  0
VERTEX
  8
T69SSILL
 62
3
 10
2222.439
 20
-9135.895
 30
-1664.921
 70
    32
  0
VERTEX
  8
T69SSILL
 62
3
 10
2253.688
 20
-9229.338
 30
-1664.000
 70
    32
  0
VERTEX
  8
T69SSILL
 62
3
 10
2251.235
 20
-9234.173
 30
-1664.000
 70
    32
  0
VERTEX
  8
T69SSILL
 62
3
 10
2238.223
 20
-9224.766
 30
-1664.000
 70
    32
  0
VERTEX
  8
T69SSILL
 62
3
 10
2226.722
 20
-9219.427
 30
-1664.000
 70
    32
  0
VERTEX
  8
T69SSILL
 62
3
 10
2219.404
 20
-9216.419
 30
-1664.000
 70
    32
  0
VERTEX
  8
T69SSILL
 62
3
 10
2211.409
 20
-9211.596
 30
-1664.000
 70
    32
  0
VERTEX
  8
T69SSILL
 62
3
 10
2199.846
 20
-9212.706
 30
-1664.000
 70
    32
  0
VERTEX
  8
T69SSILL
 62
3
 10
2188.137
 20
-9212.281
 30
-1664.000
 70
    32
  0
VERTEX
  8
T69SSILL
 62
3
 10
2181.799
 20
-9211.631
 30
-1664.000
 70
    32
  0
VERTEX
  8
T69SSILL
 62
3
 10
2173.289
 20
-9212.894
 30
-1664.000
 70
    32
  0
VERTEX
  8
T69SSILL
 62
3
 10
2158.055
 20
-9219.306
 30
-1664.000
 70
    32
  0
VERTEX
  8
T69SSILL
 62
3
 10
2147.682
 20
-9223.201
 30
-1664.000
 70
    32
  0
VERTEX
  8
T69SSILL
 62
3
 10
2140.252
 20
-9227.743
 30
-1664.000
 70
    32
  0
VERTEX
  8
T69SSILL
 62
3
 10
2133.856
 20
-9236.673
 30
-1664.000
 70
    32
  0
VERTEX
  8
T69SSILL
 62
3
 10
2120.216
 20
-9257.202
 30
-1664.000
 70
    32
  0
VERTEX
  8
T69SSILL
 62
3
 10
2110.334
 20
-9273.862
 30
-1664.000
 70
    32
  0
VERTEX
  8
T69SSILL
 62
3
 10
2101.574
 20
-9285.212
 30
-1664.000
 70
    32
  0
VERTEX
  8
T69SSILL
 62
3
 10
2091.266
 20
-9289.689
 30
-1664.000
 70
    32
  0
VERTEX
  8
T69SSILL
 62
3
 10
2078.669
 20
-9278.521
 30
-1664.000
 70
    32
  0
VERTEX
  8
T69SSILL
 62
3
 10
2073.362
 20
-9284.507
 30
-1664.000
 70
    32
  0
VERTEX
  8
T69SSILL
 62
3
 10
2084.670
 20
-9294.533
 30
-1664.000
 70
    32
  0
VERTEX
  8
T69SSILL
 62
3
 10
2078.952
 20
-9299.404
 30
-1664.000
 70
    32
  0
VERTEX
  8
T69SSILL
 62
3
 10
2080.639
 20
-9308.159
 30
-1664.000
 70
    32
  0
VERTEX
  8
T69SSILL
 62
3
 10
2075.692
 20
-9312.775
 30
-1664.000
 70
    32
  0
VERTEX
  8
T69SSILL
 62
3
 10
2032.304
 20
-9362.523
 30
-1664.000
 70
    32
  0
VERTEX
  8
T69SSILL
 62
3
 10
2038.918
 20
-9368.894
 30
-1664.000
 70
    32
  0
VERTEX
  8
T69SSILL
 62
3
 10
2087.015
 20
-9319.261
 30
-1664.000
 70
    32
  0
VERTEX
  8
T69SSILL
 62
3
 10
2088.610
 20
-9320.029
 30
-1664.000
 70
    32
  0
VERTEX
  8
T69SSILL
 62
3
 10
2104.018
 20
-9297.507
 30
-1664.000
 70
    32
  0
VERTEX
  8
T69SSILL
 62
3
 10
2107.435
 20
-9296.366
 30
-1664.000
 70
    32
  0
VERTEX
  8
T69SSILL
 62
3
 10
2133.061
 20
-9254.942
 30
-1664.000
 70
    32
  0
VERTEX
  8
T69SSILL
 62
3
 10
2138.746
 20
-9247.643
 30
-1664.000
 70
    32
  0
VERTEX
  8
T69SSILL
 62
3
 10
2145.774
 20
-9242.718
 30
-1664.000
 70
    32
  0
VERTEX
  8
T69SSILL
 62
3
 10
2148.284
 20
-9242.485
 30
-1664.000
 70
    32
  0
VERTEX
  8
T69SSILL
 62
3
 10
2155.394
 20
-9232.106
 30
-1664.000
 70
    32
  0
VERTEX
  8
T69SSILL
 62
3
 10
2164.667
 20
-9228.000
 30
-1664.000
 70
    32
  0
VERTEX
  8
T69SSILL
 62
3
 10
2182.164
 20
-9226.534
 30
-1664.000
 70
    32
  0
VERTEX
  8
T69SSILL
 62
3
 10
2196.401
 20
-9225.161
 30
-1664.000
 70
    32
  0
VERTEX
  8
T69SSILL
 62
3
 10
2203.257
 20
-9223.775
 30
-1664.000
 70
    32
  0
VERTEX
  8
T69SSILL
 62
3
 10
2209.191
 20
-9224.933
 30
-1664.000
 70
    32
  0
VERTEX
  8
T69SSILL
 62
3
 10
2217.050
 20
-9227.037
 30
-1664.000
 70
    32
  0
VERTEX
  8
T69SSILL
 62
3
 10
2236.486
 20
-9239.886
 30
-1664.000
 70
    32
  0
VERTEX
  8
T69SSILL
 62
3
 10
2254.774
 20
-9253.410
 30
-1664.000
 70
    32
  0
VERTEX
  8
T69SSILL
 62
3
 10
2260.581
 20
-9261.698
 30
-1664.000
 70
    32
  0
VERTEX
  8
T69SSILL
 62
3
 10
2267.202
 20
-9269.439
 30
-1664.000
 70
    32
  0
VERTEX
  8
T69SSILL
 62
3
 10
2267.202
 20
-9269.439
 30
-1663.919
 70
    32
  0
VERTEX
  8
T69SSILL
 62
3
 10
2311.095
 20
-9412.138
 30
-1663.635
 70
    32
  0
VERTEX
  8
T69SSILL
 62
3
 10
2310.219
 20
-9421.815
 30
-1663.625
 70
    32
  0
VERTEX
  8
T69SSILL
 62
3
 10
2315.601
 20
-9425.595
 30
-1663.565
 70
    32
  0
VERTEX
  8
T69SSILL
 62
3
 10
2317.472
 20
-9432.217
 30
-1663.535
 70
    32
  0
VERTEX
  8
T69SSILL
 62
3
 10
2319.923
 20
-9435.288
 30
-1663.505
 70
    32
  0
VERTEX
  8
T69SSILL
 62
3
 10
2330.590
 20
-9468.702
 30
-1663.337
 70
    32
  0
VERTEX
  8
T69SSILL
 62
3
 10
2375.287
 20
-9608.708
 30
-1663.033
 70
    32
  0
VERTEX
  8
T69SSILL
 62
3
 10
2373.261
 20
-9615.839
 30
-1662.983
 70
    32
  0
VERTEX
  8
T69SSILL
 62
3
 10
2374.522
 20
-9619.282
 30
-1662.980
 70
    32
  0
VERTEX
  8
T69SSILL
 62
3
 10
2381.197
 20
-9626.423
 30
-1663.112
 70
    32
  0
VERTEX
  8
T69SSILL
 62
3
 10
2393.492
 20
-9664.735
 30
-1663.272
 70
    32
  0
VERTEX
  8
T69SSILL
 62
3
 10
2503.988
 20
-10010.280
 30
-1661.268
 70
    32
  0
VERTEX
  8
T69SSILL
 62
3
 10
2502.853
 20
-10013.796
 30
-1661.270
 70
    32
  0
VERTEX
  8
T69SSILL
 62
3
 10
2504.013
 20
-10018.427
 30
-1661.278
 70
    32
  0
VERTEX
  8
T69SSILL
 62
3
 10
2509.230
 20
-10023.087
 30
-1661.296
 70
    32
  0
VERTEX
  8
T69SSILL
 62
3
 10
2537.793
 20
-10110.929
 30
-1661.466
 70
    32
  0
VERTEX
  8
T69SSILL
 62
3
 10
2536.171
 20
-10113.775
 30
-1661.465
 70
    32
  0
VERTEX
  8
T69SSILL
 62
3
 10
2536.424
 20
-10116.432
 30
-1661.469
 70
    32
  0
VERTEX
  8
T69SSILL
 62
3
 10
2541.889
 20
-10125.166
 30
-1661.492
 70
    32
  0
VERTEX
  8
T69SSILL
 62
3
 10
2568.891
 20
-10206.462
 30
-1661.651
 70
    32
  0
VERTEX
  8
T69SSILL
 62
3
 10
2559.480
 20
-10214.777
 30
-1661.638
 70
    32
  0
VERTEX
  8
T69SSILL
 62
3
 10
2559.757
 20
-10220.188
 30
-1661.645
 70
    32
  0
VERTEX
  8
T69SSILL
 62
3
 10
2562.186
 20
-10225.426
 30
-1661.656
 70
    32
  0
VERTEX
  8
T69SSILL
 62
3
 10
2574.361
 20
-10224.566
 30
-1661.685
 70
    32
  0
VERTEX
  8
T69SSILL
 62
3
 10
2602.824
 20
-10312.792
 30
-1661.855
 70
    32
  0
VERTEX
  8
T69SSILL
 62
3
 10
2599.166
 20
-10317.104
 30
-1661.851
 70
    32
  0
VERTEX
  8
T69SSILL
 62
3
 10
2599.793
 20
-10320.006
 30
-1661.856
 70
    32
  0
VERTEX
  8
T69SSILL
 62
3
 10
2602.835
 20
-10324.459
 30
-1661.869
 70
    32
  0
VERTEX
  8
T69SSILL
 62
3
 10
2606.675
 20
-10325.419
 30
-1661.879
 70
    32
  0
VERTEX
  8
T69SSILL
 62
3
 10
2634.048
 20
-10409.963
 30
-1662.043
 70
    32
  0
VERTEX
  8
T69SSILL
 62
3
 10
2631.481
 20
-10422.093
 30
-1662.050
 70
    32
  0
VERTEX
  8
T69SSILL
 62
3
 10
2635.456
 20
-10426.662
 30
-1662.065
 70
    32
  0
VERTEX
  8
T69SSILL
 62
3
 10
2639.093
 20
-10426.702
 30
-1662.074
 70
    32
  0
VERTEX
  8
T69SSILL
 62
3
 10
2666.675
 20
-10513.907
 30
-1662.241
 70
    32
  0
VERTEX
  8
T69SSILL
 62
3
 10
2665.331
 20
-10521.928
 30
-1662.247
 70
    32
  0
VERTEX
  8
T69SSILL
 62
3
 10
2669.429
 20
-10523.754
 30
-1662.259
 70
    32
  0
VERTEX
  8
T69SSILL
 62
3
 10
2672.328
 20
-10533.246
 30
-1662.277
 70
    32
  0
VERTEX
  8
T69SSILL
 62
3
 10
2680.752
 20
-10530.285
 30
-1662.345
 70
    32
  0
VERTEX
  8
T69SSILL
 62
3
 10
2677.488
 20
-10518.818
 30
-1662.327
 70
    32
  0
VERTEX
  8
T69SSILL
 62
3
 10
2678.649
 20
-10517.278
 30
-1662.344
 70
    32
  0
VERTEX
  8
T69SSILL
 62
3
 10
2678.933
 20
-10512.676
 30
-1662.356
 70
    32
  0
VERTEX
  8
T69SSILL
 62
3
 10
2674.574
 20
-10508.484
 30
-1662.312
 70
    32
  0
VERTEX
  8
T69SSILL
 62
3
 10
2646.211
 20
-10418.757
 30
-1662.142
 70
    32
  0
VERTEX
  8
T69SSILL
 62
3
 10
2649.895
 20
-10415.625
 30
-1662.191
 70
    32
  0
VERTEX
  8
T69SSILL
 62
3
 10
2649.485
 20
-10413.458
 30
-1662.190
 70
    32
  0
VERTEX
  8
T69SSILL
 62
3
 10
2647.147
 20
-10409.052
 30
-1662.171
 70
    32
  0
VERTEX
  8
T69SSILL
 62
3
 10
2642.542
 20
-10406.296
 30
-1662.121
 70
    32
  0
VERTEX
  8
T69SSILL
 62
3
 10
2617.611
 20
-10330.870
 30
-1661.966
 70
    32
  0
VERTEX
  8
T69SSILL
 62
3
 10
2619.818
 20
-10327.494
 30
-1661.998
 70
    32
  0
VERTEX
  8
T69SSILL
 62
3
 10
2620.422
 20
-10322.041
 30
-1662.015
 70
    32
  0
VERTEX
  8
T69SSILL
 62
3
 10
2616.535
 20
-10309.350
 30
-1661.992
 70
    32
  0
VERTEX
  8
T69SSILL
 62
3
 10
2614.289
 20
-10305.889
 30
-1661.972
 70
    32
  0
VERTEX
  8
T69SSILL
 62
3
 10
2610.739
 20
-10303.495
 30
-1661.935
 70
    32
  0
VERTEX
  8
T69SSILL
 62
3
 10
2594.398
 20
-10253.469
 30
-1661.834
 70
    32
  0
VERTEX
  8
T69SSILL
 62
3
 10
2593.827
 20
-10237.531
 30
-1661.856
 70
    32
  0
VERTEX
  8
T69SSILL
 62
3
 10
2586.928
 20
-10212.415
 30
-1661.821
 70
    32
  0
VERTEX
  8
T69SSILL
 62
3
 10
2586.520
 20
-10207.330
 30
-1661.825
 70
    32
  0
VERTEX
  8
T69SSILL
 62
3
 10
2584.011
 20
-10201.587
 30
-1661.806
 70
    32
  0
VERTEX
  8
T69SSILL
 62
3
 10
2572.865
 20
-10185.356
 30
-1661.705
 70
    32
  0
VERTEX
  8
T69SSILL
 62
3
 10
2550.823
 20
-10118.268
 30
-1661.568
 70
    32
  0
VERTEX
  8
T69SSILL
 62
3
 10
2552.492
 20
-10110.614
 30
-1661.601
 70
    32
  0
VERTEX
  8
T69SSILL
 62
3
 10
2546.185
 20
-10105.277
 30
-1661.537
 70
    32
  0
VERTEX
  8
T69SSILL
 62
3
 10
2518.045
 20
-10017.655
 30
-1661.366
 70
    32
  0
VERTEX
  8
T69SSILL
 62
3
 10
2519.524
 20
-10012.963
 30
-1661.392
 70
    32
  0
VERTEX
  8
T69SSILL
 62
3
 10
2518.423
 20
-10008.171
 30
-1661.388
 70
    32
  0
VERTEX
  8
T69SSILL
 62
3
 10
2514.123
 20
-10005.096
 30
-1661.343
 70
    32
  0
VERTEX
  8
T69SSILL
 62
3
 10
2510.496
 20
-9993.876
 30
-1661.320
 70
    32
  0
VERTEX
  8
T69SSILL
 62
3
 10
2497.623
 20
-9954.059
 30
-1661.584
 70
    32
  0
VERTEX
  8
T69SSILL
 62
3
 10
2499.979
 20
-9944.963
 30
-1661.670
 70
    32
  0
VERTEX
  8
T69SSILL
 62
3
 10
2487.520
 20
-9909.940
 30
-1661.896
 70
    32
  0
VERTEX
  8
T69SSILL
 62
3
 10
2482.628
 20
-9905.884
 30
-1661.906
 70
    32
  0
VERTEX
  8
T69SSILL
 62
3
 10
2459.816
 20
-9834.606
 30
-1662.366
 70
    32
  0
VERTEX
  8
T69SSILL
 62
3
 10
2462.095
 20
-9830.132
 30
-1662.409
 70
    32
  0
VERTEX
  8
T69SSILL
 62
3
 10
2456.751
 20
-9813.593
 30
-1662.496
 70
    32
  0
VERTEX
  8
T69SSILL
 62
3
 10
2447.776
 20
-9801.469
 30
-1662.535
 70
    32
  0
VERTEX
  8
T69SSILL
 62
3
 10
2397.739
 20
-9644.855
 30
-1663.363
 70
    32
  0
VERTEX
  8
T69SSILL
 62
3
 10
2391.031
 20
-9623.861
 30
-1663.289
 70
    32
  0
VERTEX
  8
T69SSILL
 62
3
 10
2389.674
 20
-9608.931
 30
-1663.255
 70
    32
  0
VERTEX
  8
T69SSILL
 62
3
 10
2384.686
 20
-9604.174
 30
-1663.218
 70
    32
  0
VERTEX
  8
T69SSILL
 62
3
 10
2381.041
 20
-9591.632
 30
-1663.176
 70
    32
  0
VERTEX
  8
T69SSILL
 62
3
 10
2384.773
 20
-9586.135
 30
-1663.188
 70
    32
  0
VERTEX
  8
T69SSILL
 62
3
 10
2405.480
 20
-9598.370
 30
-1663.327
 70
    32
  0
VERTEX
  8
T69SSILL
 62
3
 10
2489.590
 20
-9635.559
 30
-1663.871
 70
    32
  0
VERTEX
  8
T69SSILL
 62
3
 10
2508.672
 20
-9640.798
 30
-1663.944
 70
    32
  0
VERTEX
  8
T69SSILL
 62
3
 10
2521.283
 20
-9641.439
 30
-1664.002
 70
    32
  0
VERTEX
  8
T69SSILL
 62
3
 10
2844.503
 20
-9629.298
 30
-1665.947
 70
    32
  0
VERTEX
  8
T69SSILL
 62
3
 10
3751.639
 20
-9597.989
 30
-1670.367
 70
    32
  0
VERTEX
  8
T69SSILL
 62
3
 10
3760.542
 20
-9609.108
 30
-1670.390
 70
    32
  0
VERTEX
  8
T69SSILL
 62
3
 10
3769.376
 20
-9608.602
 30
-1670.433
 70
    32
  0
VERTEX
  8
T69SSILL
 62
3
 10
3781.777
 20
-9603.125
 30
-1670.502
 70
    32
  0
VERTEX
  8
T69SSILL
 62
3
 10
3785.317
 20
-9600.000
 30
-1670.525
 70
    32
  0
VERTEX
  8
T69SSILL
 62
3
 10
3801.385
 20
-9596.424
 30
-1670.608
 70
    32
  0
VERTEX
  8
T69SSILL
 62
3
 10
3874.330
 20
-9593.778
 30
-1670.973
 70
    32
  0
VERTEX
  8
T69SSILL
 62
3
 10
4591.346
 20
-9567.763
 30
-1674.896
 70
    32
  0
VERTEX
  8
T69SSILL
 62
3
 10
4607.356
 20
-9576.464
 30
-1674.962
 70
    32
  0
VERTEX
  8
T69SSILL
 62
3
 10
4613.484
 20
-9577.249
 30
-1674.994
 70
    32
  0
VERTEX
  8
T69SSILL
 62
3
 10
4628.706
 20
-9582.678
 30
-1675.063
 70
    32
  0
VERTEX
  8
T69SSILL
 62
3
 10
4638.718
 20
-9589.104
 30
-1675.102
 70
    32
  0
VERTEX
  8
T69SSILL
 62
3
 10
4721.808
 20
-9697.434
 30
-1675.299
 70
    32
  0
VERTEX
  8
T69SSILL
 62
3
 10
4729.790
 20
-9691.506
 30
-1675.356
 70
    32
  0
VERTEX
  8
T69SSILL
 62
3
 10
4652.212
 20
-9590.356
 30
-1675.172
 70
    32
  0
VERTEX
  8
T69SSILL
 62
3
 10
4641.975
 20
-9579.355
 30
-1675.142
 70
    32
  0
VERTEX
  8
T69SSILL
 62
3
 10
4633.211
 20
-9572.261
 30
-1675.111
 70
    32
  0
VERTEX
  8
T69SSILL
 62
3
 10
4633.126
 20
-9569.008
 30
-1675.119
 70
    32
  0
VERTEX
  8
T69SSILL
 62
3
 10
4642.425
 20
-9566.279
 30
-1675.175
 70
    32
  0
VERTEX
  8
T69SSILL
 62
3
 10
4655.792
 20
-9565.771
 30
-1675.248
 70
    32
  0
VERTEX
  8
T69SSILL
 62
3
 10
4668.863
 20
-9563.234
 30
-1675.324
 70
    32
  0
VERTEX
  8
T69SSILL
 62
3
 10
4681.098
 20
-9559.180
 30
-1675.400
 70
    32
  0
VERTEX
  8
T69SSILL
 62
3
 10
4702.729
 20
-9548.886
 30
-1675.540
 70
    32
  0
VERTEX
  8
T69SSILL
 62
3
 10
4720.633
 20
-9536.820
 30
-1675.664
 70
    32
  0
VERTEX
  8
T69SSILL
 62
3
 10
5218.452
 20
-9178.402
 30
-1679.175
 70
    32
  0
VERTEX
  8
T69SSILL
 62
3
 10
5730.603
 20
-8802.385
 30
-1682.803
 70
    32
  0
VERTEX
  8
T69SSILL
 62
3
 10
5913.370
 20
-8670.644
 30
-1683.797
 70
    32
  0
VERTEX
  8
T69SSILL
 62
3
 10
5931.452
 20
-8662.443
 30
-1683.881
 70
    32
  0
VERTEX
  8
T69SSILL
 62
3
 10
5942.430
 20
-8661.405
 30
-1683.924
 70
    32
  0
VERTEX
  8
T69SSILL
 62
3
 10
5951.426
 20
-8670.288
 30
-1683.939
 70
    32
  0
VERTEX
  8
T69SSILL
 62
3
 10
5961.588
 20
-8665.064
 30
-1683.987
 70
    32
  0
VERTEX
  8
T69SSILL
 62
3
 10
5984.194
 20
-8668.483
 30
-1684.062
 70
    32
  0
VERTEX
  8
T69SSILL
 62
3
 10
5985.433
 20
-8659.222
 30
-1684.087
 70
    32
  0
VERTEX
  8
T69SSILL
 62
3
 10
5946.276
 20
-8652.734
 30
-1683.956
 70
    32
  0
VERTEX
  8
T69SSILL
 62
3
 10
5943.649
 20
-8647.916
 30
-1683.957
 70
    32
  0
VERTEX
  8
T69SSILL
 62
3
 10
6016.943
 20
-8595.361
 30
-1684.337
 70
    32
  0
VERTEX
  8
T69SSILL
 62
3
 10
6032.881
 20
-8590.767
 30
-1684.315
 70
    32
  0
VERTEX
  8
T69SSILL
 62
3
 10
6098.461
 20
-8591.131
 30
-1683.491
 70
    32
  0
VERTEX
  8
T69SSILL
 62
3
 10
6098.723
 20
-8581.860
 30
-1683.395
 70
    32
  0
VERTEX
  8
T69SSILL
 62
3
 10
6033.565
 20
-8581.970
 30
-1684.098
 70
    32
  0
VERTEX
  8
T69SSILL
 62
3
 10
6030.524
 20
-8580.569
 30
-1684.103
 70
    32
  0
VERTEX
  8
T69SSILL
 62
3
 10
6069.662
 20
-8502.724
 30
-1683.234
 70
    32
  0
VERTEX
  8
T69SSILL
 62
3
 10
6099.958
 20
-8444.556
 30
-1682.822
 70
    32
  0
VERTEX
  8
T69SSILL
 62
3
 10
6105.508
 20
-8433.898
 30
-1682.790
 70
    32
  0
VERTEX
  8
T69SSILL
 62
3
 10
6107.097
 20
-8427.539
 30
-1682.772
 70
    32
  0
VERTEX
  8
T69SSILL
 62
3
 10
6111.578
 20
-8409.596
 30
-1682.700
 70
    32
  0
VERTEX
  8
T69SSILL
 62
3
 10
6112.780
 20
-8399.453
 30
-1682.658
 70
    32
  0
VERTEX
  8
T69SSILL
 62
3
 10
6111.986
 20
-8390.338
 30
-1682.616
 70
    32
  0
VERTEX
  8
T69SSILL
 62
3
 10
6112.713
 20
-8374.709
 30
-1682.548
 70
    32
  0
VERTEX
  8
T69SSILL
 62
3
 10
6109.394
 20
-8360.518
 30
-1682.478
 70
    32
  0
VERTEX
  8
T69SSILL
 62
3
 10
6109.778
 20
-8356.930
 30
-1682.463
 70
    32
  0
VERTEX
  8
T69SSILL
 62
3
 10
6107.888
 20
-8351.539
 30
-1682.435
 70
    32
  0
VERTEX
  8
T69SSILL
 62
3
 10
6075.068
 20
-8305.965
 30
-1682.170
 70
    32
  0
VERTEX
  8
T69SSILL
 62
3
 10
6042.446
 20
-8260.063
 30
-1682.000
 70
    32
  0
VERTEX
  8
T69SSILL
 62
3
 10
6046.300
 20
-8248.500
 30
-1682.000
 70
    32
  0
VERTEX
  8
T69SSILL
 62
3
 10
6036.000
 20
-8233.100
 30
-1682.000
 70
    32
  0
VERTEX
  8
T69SSILL
 62
3
 10
6023.400
 20
-8219.800
 30
-1682.000
 70
    32
  0
VERTEX
  8
T69SSILL
 62
3
 10
6014.400
 20
-8218.400
 30
-1682.000
 70
    32
  0
VERTEX
  8
T69SSILL
 62
3
 10
6005.200
 20
-8205.800
 30
-1682.000
 70
    32
  0
VERTEX
  8
T69SSILL
 62
3
 10
6010.100
 20
-8197.700
 30
-1682.000
 70
    32
  0
VERTEX
  8
T69SSILL
 62
3
 10
6004.000
 20
-8186.400
 30
-1682.000
 70
    32
  0
VERTEX
  8
T69SSILL
 62
3
 10
5994.700
 20
-8174.400
 30
-1682.000
 70
    32
  0
VERTEX
  8
T69SSILL
 62
3
 10
5988.000
 20
-8168.300
 30
-1682.000
 70
    32
  0
VERTEX
  8
T69SSILL
 62
3
 10
5976.724
 20
-8165.760
 30
-1682.000
 70
    32
  0
VERTEX
  8
T69SSILL
 62
3
 10
5937.453
 20
-8110.226
 30
-1682.000
 70
    32
  0
VERTEX
  8
T69SSILL
 62
3
 10
5929.086
 20
-8115.683
 30
-1682.000
 70
    32
  0
VERTEX
  8
T69SSILL
 62
3
 10
5975.889
 20
-8182.103
 30
-1682.000
 70
    32
  0
VERTEX
  8
T69SSILL
 62
3
 10
5974.756
 20
-8186.140
 30
-1682.000
 70
    32
  0
VERTEX
  8
T69SSILL
 62
3
 10
5973.356
 20
-8191.711
 30
-1682.000
 70
    32
  0
VERTEX
  8
T69SSILL
 62
3
 10
5970.458
 20
-8194.544
 30
-1682.000
 70
    32
  0
VERTEX
  8
T69SSILL
 62
3
 10
5970.572
 20
-8197.399
 30
-1682.000
 70
    32
  0
VERTEX
  8
T69SSILL
 62
3
 10
5971.738
 20
-8200.186
 30
-1682.000
 70
    32
  0
VERTEX
  8
T69SSILL
 62
3
 10
5970.785
 20
-8204.219
 30
-1682.000
 70
    32
  0
VERTEX
  8
T69SSILL
 62
3
 10
5979.996
 20
-8206.970
 30
-1682.000
 70
    32
  0
VERTEX
  8
T69SSILL
 62
3
 10
5980.775
 20
-8205.383
 30
-1682.000
 70
    32
  0
VERTEX
  8
T69SSILL
 62
3
 10
5981.532
 20
-8203.505
 30
-1682.000
 70
    32
  0
VERTEX
  8
T69SSILL
 62
3
 10
5983.389
 20
-8202.321
 30
-1682.000
 70
    32
  0
VERTEX
  8
T69SSILL
 62
3
 10
5991.301
 20
-8204.702
 30
-1682.000
 70
    32
  0
VERTEX
  8
T69SSILL
 62
3
 10
5996.647
 20
-8212.485
 30
-1682.000
 70
    32
  0
VERTEX
  8
T69SSILL
 62
3
 10
5996.983
 20
-8216.115
 30
-1682.000
 70
    32
  0
VERTEX
  8
T69SSILL
 62
3
 10
5996.160
 20
-8224.392
 30
-1682.000
 70
    32
  0
VERTEX
  8
T69SSILL
 62
3
 10
6000.544
 20
-8229.666
 30
-1682.000
 70
    32
  0
VERTEX
  8
T69SSILL
 62
3
 10
6006.871
 20
-8229.803
 30
-1682.000
 70
    32
  0
VERTEX
  8
T69SSILL
 62
3
 10
6009.271
 20
-8229.653
 30
-1682.000
 70
    32
  0
VERTEX
  8
T69SSILL
 62
3
 10
6014.557
 20
-8236.842
 30
-1682.000
 70
    32
  0
VERTEX
  8
T69SSILL
 62
3
 10
6015.672
 20
-8238.903
 30
-1681.943
 70
    32
  0
VERTEX
  8
T69SSILL
 62
3
 10
6013.654
 20
-8245.422
 30
-1681.939
 70
    32
  0
VERTEX
  8
T69SSILL
 62
3
 10
6013.339
 20
-8245.738
 30
-1682.000
 70
    32
  0
VERTEX
  8
T69SSILL
 62
3
 10
6011.056
 20
-8246.684
 30
-1682.000
 70
    32
  0
VERTEX
  8
T69SSILL
 62
3
 10
6008.438
 20
-8247.915
 30
-1682.000
 70
    32
  0
VERTEX
  8
T69SSILL
 62
3
 10
5992.994
 20
-8246.125
 30
-1682.000
 70
    32
  0
VERTEX
  8
T69SSILL
 62
3
 10
5992.533
 20
-8255.376
 30
-1682.000
 70
    32
  0
VERTEX
  8
T69SSILL
 62
3
 10
6009.997
 20
-8257.553
 30
-1682.000
 70
    32
  0
VERTEX
  8
T69SSILL
 62
3
 10
6010.375
 20
-8257.616
 30
-1681.951
 70
    32
  0
VERTEX
  8
T69SSILL
 62
3
 10
6010.146
 20
-8259.866
 30
-1681.982
 70
    32
  0
VERTEX
  8
T69SSILL
 62
3
 10
6021.010
 20
-8262.320
 30
-1682.073
 70
    32
  0
VERTEX
  8
T69SSILL
 62
3
 10
6022.969
 20
-8259.758
 30
-1682.056
 70
    32
  0
VERTEX
  8
T69SSILL
 62
3
 10
6028.338
 20
-8258.987
 30
-1682.039
 70
    32
  0
VERTEX
  8
T69SSILL
 62
3
 10
6071.426
 20
-8319.584
 30
-1682.224
 70
    32
  0
VERTEX
  8
T69SSILL
 62
3
 10
6096.495
 20
-8355.195
 30
-1682.430
 70
    32
  0
VERTEX
  8
T69SSILL
 62
3
 10
6102.811
 20
-8367.797
 30
-1682.498
 70
    32
  0
VERTEX
  8
T69SSILL
 62
3
 10
6102.461
 20
-8378.431
 30
-1682.545
 70
    32
  0
VERTEX
  8
T69SSILL
 62
3
 10
6098.245
 20
-8384.350
 30
-1682.563
 70
    32
  0
VERTEX
  8
T69SSILL
 62
3
 10
6104.095
 20
-8400.448
 30
-1682.645
 70
    32
  0
VERTEX
  8
T69SSILL
 62
3
 10
6101.210
 20
-8406.180
 30
-1682.665
 70
    32
  0
VERTEX
  8
T69SSILL
 62
3
 10
6097.091
 20
-8430.242
 30
-1682.764
 70
    32
  0
VERTEX
  8
T69SSILL
 62
3
 10
6048.976
 20
-8522.462
 30
-1683.302
 70
    32
  0
VERTEX
  8
T69SSILL
 62
3
 10
6043.343
 20
-8520.904
 30
-1683.294
 70
    32
  0
VERTEX
  8
T69SSILL
 62
3
 10
6036.623
 20
-8501.587
 30
-1683.226
 70
    32
  0
VERTEX
  8
T69SSILL
 62
3
 10
6029.801
 20
-8488.603
 30
-1683.178
 70
    32
  0
VERTEX
  8
T69SSILL
 62
3
 10
5985.982
 20
-8422.930
 30
-1682.923
 70
    32
  0
VERTEX
  8
T69SSILL
 62
3
 10
5943.566
 20
-8359.358
 30
-1681.765
 70
    32
  0
VERTEX
  8
T69SSILL
 62
3
 10
5923.733
 20
-8329.633
 30
-1681.677
 70
    32
  0
VERTEX
  8
T69SSILL
 62
3
 10
5915.837
 20
-8335.252
 30
-1681.653
 70
    32
  0
VERTEX
  8
T69SSILL
 62
3
 10
5937.882
 20
-8368.299
 30
-1681.751
 70
    32
  0
VERTEX
  8
T69SSILL
 62
3
 10
5951.084
 20
-8388.089
 30
-1682.155
 70
    32
  0
VERTEX
  8
T69SSILL
 62
3
 10
5949.780
 20
-8389.334
 30
-1682.144
 70
    32
  0
VERTEX
  8
T69SSILL
 62
3
 10
5929.034
 20
-8382.218
 30
-1681.728
 70
    32
  0
VERTEX
  8
T69SSILL
 62
3
 10
5806.202
 20
-8350.842
 30
-1681.277
 70
    32
  0
VERTEX
  8
T69SSILL
 62
3
 10
5795.832
 20
-8335.276
 30
-1681.231
 70
    32
  0
VERTEX
  8
T69SSILL
 62
3
 10
5792.996
 20
-8327.981
 30
-1681.217
 70
    32
  0
VERTEX
  8
T69SSILL
 62
3
 10
5789.379
 20
-8325.043
 30
-1681.202
 70
    32
  0
VERTEX
  8
T69SSILL
 62
3
 10
5780.899
 20
-8330.099
 30
-1681.176
 70
    32
  0
VERTEX
  8
T69SSILL
 62
3
 10
5784.515
 20
-8337.616
 30
-1681.193
 70
    32
  0
VERTEX
  8
T69SSILL
 62
3
 10
5787.300
 20
-8339.714
 30
-1681.204
 70
    32
  0
VERTEX
  8
T69SSILL
 62
3
 10
5862.606
 20
-8456.583
 30
-1681.488
 70
    32
  0
VERTEX
  8
T69SSILL
 62
3
 10
5832.109
 20
-8475.887
 30
-1681.323
 70
    32
  0
VERTEX
  8
T69SSILL
 62
3
 10
5827.572
 20
-8478.435
 30
-1681.299
 70
    32
  0
VERTEX
  8
T69SSILL
 62
3
 10
5824.269
 20
-8478.581
 30
-1681.284
 70
    32
  0
VERTEX
  8
T69SSILL
 62
3
 10
5817.222
 20
-8481.696
 30
-1681.249
 70
    32
  0
VERTEX
  8
T69SSILL
 62
3
 10
5815.273
 20
-8478.854
 30
-1681.245
 70
    32
  0
VERTEX
  8
T69SSILL
 62
3
 10
5815.900
 20
-8471.054
 30
-1681.262
 70
    32
  0
VERTEX
  8
T69SSILL
 62
3
 10
5808.236
 20
-8461.983
 30
-1681.245
 70
    32
  0
VERTEX
  8
T69SSILL
 62
3
 10
5804.550
 20
-8461.770
 30
-1681.229
 70
    32
  0
VERTEX
  8
T69SSILL
 62
3
 10
5798.237
 20
-8465.896
 30
-1681.195
 70
    32
  0
VERTEX
  8
T69SSILL
 62
3
 10
5795.752
 20
-8469.274
 30
-1681.178
 70
    32
  0
VERTEX
  8
T69SSILL
 62
3
 10
5795.323
 20
-8478.230
 30
-1681.161
 70
    32
  0
VERTEX
  8
T69SSILL
 62
3
 10
5787.306
 20
-8481.376
 30
-1681.121
 70
    32
  0
VERTEX
  8
T69SSILL
 62
3
 10
5786.094
 20
-8482.539
 30
-1681.114
 70
    32
  0
VERTEX
  8
T69SSILL
 62
3
 10
5785.829
 20
-8485.605
 30
-1681.107
 70
    32
  0
VERTEX
  8
T69SSILL
 62
3
 10
5775.582
 20
-8493.818
 30
-1681.049
 70
    32
  0
VERTEX
  8
T69SSILL
 62
3
 10
5778.905
 20
-8503.342
 30
-1681.046
 70
    32
  0
VERTEX
  8
T69SSILL
 62
3
 10
5782.628
 20
-8509.016
 30
-1681.104
 70
    32
  0
VERTEX
  8
T69SSILL
 62
3
 10
5781.083
 20
-8512.889
 30
-1681.120
 70
    32
  0
VERTEX
  8
T69SSILL
 62
3
 10
5777.195
 20
-8516.186
 30
-1681.108
 70
    32
  0
VERTEX
  8
T69SSILL
 62
3
 10
5777.517
 20
-8518.230
 30
-1681.127
 70
    32
  0
VERTEX
  8
T69SSILL
 62
3
 10
5780.361
 20
-8522.356
 30
-1681.188
 70
    32
  0
VERTEX
  8
T69SSILL
 62
3
 10
5861.249
 20
-8490.754
 30
-1681.725
 70
    32
  0
VERTEX
  8
T69SSILL
 62
3
 10
5871.406
 20
-8489.793
 30
-1681.817
 70
    32
  0
VERTEX
  8
T69SSILL
 62
3
 10
5880.770
 20
-8491.177
 30
-1682.071
 70
    32
  0
VERTEX
  8
T69SSILL
 62
3
 10
5885.718
 20
-8493.928
 30
-1682.234
 70
    32
  0
VERTEX
  8
T69SSILL
 62
3
 10
5886.475
 20
-8497.581
 30
-1682.304
 70
    32
  0
VERTEX
  8
T69SSILL
 62
3
 10
5884.673
 20
-8501.351
 30
-1682.312
 70
    32
  0
VERTEX
  8
T69SSILL
 62
3
 10
5890.857
 20
-8511.657
 30
-1682.613
 70
    32
  0
VERTEX
  8
T69SSILL
 62
3
 10
5900.185
 20
-8517.831
 30
-1682.934
 70
    32
  0
VERTEX
  8
T69SSILL
 62
3
 10
5904.230
 20
-8525.548
 30
-1683.145
 70
    32
  0
VERTEX
  8
T69SSILL
 62
3
 10
5908.765
 20
-8529.332
 30
-1683.312
 70
    32
  0
VERTEX
  8
T69SSILL
 62
3
 10
5918.298
 20
-8533.492
 30
-1683.609
 70
    32
  0
VERTEX
  8
T69SSILL
 62
3
 10
5923.487
 20
-8530.534
 30
-1683.698
 70
    32
  0
VERTEX
  8
T69SSILL
 62
3
 10
5930.762
 20
-8541.784
 30
-1684.039
 70
    32
  0
VERTEX
  8
T69SSILL
 62
3
 10
5930.515
 20
-8547.580
 30
-1684.115
 70
    32
  0
VERTEX
  8
T69SSILL
 62
3
 10
5910.920
 20
-8560.624
 30
-1683.808
 70
    32
  0
VERTEX
  8
T69SSILL
 62
3
 10
5917.233
 20
-8570.233
 30
-1684.102
 70
    32
  0
VERTEX
  8
T69SSILL
 62
3
 10
5938.653
 20
-8556.062
 30
-1684.439
 70
    32
  0
VERTEX
  8
T69SSILL
 62
3
 10
5941.814
 20
-8557.742
 30
-1684.542
 70
    32
  0
VERTEX
  8
T69SSILL
 62
3
 10
5954.565
 20
-8579.344
 30
-1685.167
 70
    32
  0
VERTEX
  8
T69SSILL
 62
3
 10
5958.815
 20
-8586.545
 30
-1684.976
 70
    32
  0
VERTEX
  8
T69SSILL
 62
3
 10
5960.829
 20
-8601.981
 30
-1684.637
 70
    32
  0
VERTEX
  8
T69SSILL
 62
3
 10
5958.181
 20
-8615.827
 30
-1684.377
 70
    32
  0
VERTEX
  8
T69SSILL
 62
3
 10
5948.524
 20
-8626.011
 30
-1684.261
 70
    32
  0
VERTEX
  8
T69SSILL
 62
3
 10
5939.243
 20
-8640.354
 30
-1684.055
 70
    32
  0
VERTEX
  8
T69SSILL
 62
3
 10
5861.437
 20
-8696.346
 30
-1683.659
 70
    32
  0
VERTEX
  8
T69SSILL
 62
3
 10
5850.121
 20
-8680.373
 30
-1683.979
 70
    32
  0
VERTEX
  8
T69SSILL
 62
3
 10
5841.668
 20
-8686.488
 30
-1683.854
 70
    32
  0
VERTEX
  8
T69SSILL
 62
3
 10
5852.994
 20
-8702.286
 30
-1683.619
 70
    32
  0
VERTEX
  8
T69SSILL
 62
3
 10
5823.034
 20
-8724.063
 30
-1683.462
 70
    32
  0
VERTEX
  8
T69SSILL
 62
3
 10
5806.099
 20
-8700.194
 30
-1683.157
 70
    32
  0
VERTEX
  8
T69SSILL
 62
3
 10
5797.723
 20
-8706.489
 30
-1683.036
 70
    32
  0
VERTEX
  8
T69SSILL
 62
3
 10
5814.683
 20
-8729.920
 30
-1683.423
 70
    32
  0
VERTEX
  8
T69SSILL
 62
3
 10
5737.604
 20
-8785.514
 30
-1682.864
 70
    32
  0
VERTEX
  8
T69SSILL
 62
3
 10
5732.732
 20
-8781.447
 30
-1682.784
 70
    32
  0
VERTEX
  8
T69SSILL
 62
3
 10
5674.029
 20
-8823.751
 30
-1682.449
 70
    32
  0
VERTEX
  8
T69SSILL
 62
3
 10
5669.642
 20
-8834.151
 30
-1682.401
 70
    32
  0
VERTEX
  8
T69SSILL
 62
3
 10
5211.626
 20
-9167.935
 30
-1679.162
 70
    32
  0
VERTEX
  8
T69SSILL
 62
3
 10
5206.662
 20
-9166.392
 30
-1679.139
 70
    32
  0
VERTEX
  8
T69SSILL
 62
3
 10
5200.659
 20
-9170.618
 30
-1679.097
 70
    32
  0
VERTEX
  8
T69SSILL
 62
3
 10
5196.397
 20
-9175.419
 30
-1679.063
 70
    32
  0
VERTEX
  8
T69SSILL
 62
3
 10
5194.018
 20
-9185.192
 30
-1679.027
 70
    32
  0
VERTEX
  8
T69SSILL
 62
3
 10
5128.851
 20
-9231.457
 30
-1678.569
 70
    32
  0
VERTEX
  8
T69SSILL
 62
3
 10
5117.534
 20
-9231.741
 30
-1678.508
 70
    32
  0
VERTEX
  8
T69SSILL
 62
3
 10
5095.588
 20
-9247.033
 30
-1678.354
 70
    32
  0
VERTEX
  8
T69SSILL
 62
3
 10
5086.111
 20
-9256.170
 30
-1678.282
 70
    32
  0
VERTEX
  8
T69SSILL
 62
3
 10
5078.856
 20
-9267.565
 30
-1678.217
 70
    32
  0
VERTEX
  8
T69SSILL
 62
3
 10
4837.199
 20
-9441.836
 30
-1676.512
 70
    32
  0
VERTEX
  8
T69SSILL
 62
3
 10
4823.442
 20
-9443.739
 30
-1676.433
 70
    32
  0
VERTEX
  8
T69SSILL
 62
3
 10
4798.653
 20
-9460.183
 30
-1676.262
 70
    32
  0
VERTEX
  8
T69SSILL
 62
3
 10
4789.960
 20
-9475.930
 30
-1676.179
 70
    32
  0
VERTEX
  8
T69SSILL
 62
3
 10
4750.352
 20
-9504.086
 30
-1675.900
 70
    32
  0
VERTEX
  8
T69SSILL
 62
3
 10
4739.729
 20
-9503.879
 30
-1675.843
 70
    32
  0
VERTEX
  8
T69SSILL
 62
3
 10
4727.009
 20
-9512.751
 30
-1675.754
 70
    32
  0
VERTEX
  8
T69SSILL
 62
3
 10
4724.025
 20
-9522.156
 30
-1675.717
 70
    32
  0
VERTEX
  8
T69SSILL
 62
3
 10
4699.374
 20
-9540.009
 30
-1675.542
 70
    32
  0
VERTEX
  8
T69SSILL
 62
3
 10
4679.337
 20
-9549.820
 30
-1675.412
 70
    32
  0
VERTEX
  8
T69SSILL
 62
3
 10
4662.581
 20
-9555.329
 30
-1675.309
 70
    32
  0
VERTEX
  8
T69SSILL
 62
3
 10
4646.279
 20
-9557.162
 30
-1675.217
 70
    32
  0
VERTEX
  8
T69SSILL
 62
3
 10
4462.070
 20
-9563.393
 30
-1674.210
 70
    32
  0
VERTEX
  8
T69SSILL
 62
3
 10
4445.611
 20
-9558.194
 30
-1674.133
 70
    32
  0
VERTEX
  8
T69SSILL
 62
3
 10
4402.717
 20
-9559.115
 30
-1673.900
 70
    32
  0
VERTEX
  8
T69SSILL
 62
3
 10
4391.635
 20
-9565.923
 30
-1673.825
 70
    32
  0
VERTEX
  8
T69SSILL
 62
3
 10
4135.401
 20
-9576.044
 30
-1672.421
 70
    32
  0
VERTEX
  8
T69SSILL
 62
3
 10
4130.085
 20
-9570.959
 30
-1672.404
 70
    32
  0
VERTEX
  8
T69SSILL
 62
3
 10
4100.063
 20
-9569.617
 30
-1672.245
 70
    32
  0
VERTEX
  8
T69SSILL
 62
3
 10
4086.116
 20
-9574.469
 30
-1672.159
 70
    32
  0
VERTEX
  8
T69SSILL
 62
3
 10
4079.661
 20
-9579.173
 30
-1672.113
 70
    32
  0
VERTEX
  8
T69SSILL
 62
3
 10
3856.546
 20
-9586.594
 30
-1670.894
 70
    32
  0
VERTEX
  8
T69SSILL
 62
3
 10
3796.944
 20
-9588.577
 30
-1670.605
 70
    32
  0
VERTEX
  8
T69SSILL
 62
3
 10
3781.357
 20
-9583.028
 30
-1670.552
 70
    32
  0
VERTEX
  8
T69SSILL
 62
3
 10
3768.949
 20
-9582.959
 30
-1670.493
 70
    32
  0
VERTEX
  8
T69SSILL
 62
3
 10
3759.912
 20
-9583.892
 30
-1670.447
 70
    32
  0
VERTEX
  8
T69SSILL
 62
3
 10
3738.277
 20
-9590.643
 30
-1670.321
 70
    32
  0
VERTEX
  8
T69SSILL
 62
3
 10
3554.366
 20
-9596.610
 30
-1669.433
 70
    32
  0
VERTEX
  8
T69SSILL
 62
3
 10
3542.440
 20
-9590.233
 30
-1669.400
 70
    32
  0
VERTEX
  8
T69SSILL
 62
3
 10
3510.527
 20
-9590.973
 30
-1669.247
 70
    32
  0
VERTEX
  8
T69SSILL
 62
3
 10
3491.923
 20
-9598.528
 30
-1669.132
 70
    32
  0
VERTEX
  8
T69SSILL
 62
3
 10
3208.016
 20
-9607.776
 30
-1667.761
 70
    32
  0
VERTEX
  8
T69SSILL
 62
3
 10
3168.772
 20
-9608.216
 30
-1667.575
 70
    32
  0
VERTEX
  8
T69SSILL
 62
3
 10
3159.491
 20
-9600.496
 30
-1667.559
 70
    32
  0
VERTEX
  8
T69SSILL
 62
3
 10
3152.512
 20
-9596.451
 30
-1667.540
 70
    32
  0
VERTEX
  8
T69SSILL
 62
3
 10
3149.678
 20
-9595.970
 30
-1667.529
 70
    32
  0
VERTEX
  8
T69SSILL
 62
3
 10
3135.398
 20
-9603.455
 30
-1667.434
 70
    32
  0
VERTEX
  8
T69SSILL
 62
3
 10
3116.547
 20
-9602.567
 30
-1667.349
 70
    32
  0
VERTEX
  8
T69SSILL
 62
3
 10
3093.740
 20
-9611.250
 30
-1667.210
 70
    32
  0
VERTEX
  8
T69SSILL
 62
3
 10
3010.869
 20
-9614.716
 30
-1666.807
 70
    32
  0
VERTEX
  8
T69SSILL
 62
3
 10
2998.815
 20
-9613.165
 30
-1666.756
 70
    32
  0
VERTEX
  8
T69SSILL
 62
3
 10
2980.268
 20
-9608.709
 30
-1666.685
 70
    32
  0
VERTEX
  8
T69SSILL
 62
3
 10
2968.293
 20
-9608.136
 30
-1666.630
 70
    32
  0
VERTEX
  8
T69SSILL
 62
3
 10
2954.822
 20
-9611.974
 30
-1666.553
 70
    32
  0
VERTEX
  8
T69SSILL
 62
3
 10
2951.735
 20
-9614.229
 30
-1666.530
 70
    32
  0
VERTEX
  8
T69SSILL
 62
3
 10
2940.354
 20
-9616.639
 30
-1666.468
 70
    32
  0
VERTEX
  8
T69SSILL
 62
3
 10
2846.296
 20
-9620.077
 30
-1666.010
 70
    32
  0
VERTEX
  8
T69SSILL
 62
3
 10
2577.310
 20
-9629.222
 30
-1664.378
 70
    32
  0
VERTEX
  8
T69SSILL
 62
3
 10
2568.618
 20
-9622.397
 30
-1664.360
 70
    32
  0
VERTEX
  8
T69SSILL
 62
3
 10
2556.290
 20
-9623.391
 30
-1664.282
 70
    32
  0
VERTEX
  8
T69SSILL
 62
3
 10
2546.189
 20
-9627.369
 30
-1664.180
 70
    32
  0
VERTEX
  8
T69SSILL
 62
3
 10
2534.690
 20
-9631.897
 30
-1664.122
 70
    32
  0
VERTEX
  8
T69SSILL
 62
3
 10
2522.504
 20
-9632.065
 30
-1664.053
 70
    32
  0
VERTEX
  8
T69SSILL
 62
3
 10
2494.276
 20
-9627.230
 30
-1663.884
 70
    32
  0
VERTEX
  8
T69SSILL
 62
3
 10
2458.898
 20
-9611.252
 30
-1663.654
 70
    32
  0
VERTEX
  8
T69SSILL
 62
3
 10
2476.028
 20
-9605.618
 30
-1663.742
 70
    32
  0
VERTEX
  8
T69SSILL
 62
3
 10
2498.175
 20
-9598.334
 30
-1663.953
 70
    32
  0
VERTEX
  8
T69SSILL
 62
3
 10
2500.848
 20
-9598.277
 30
-1663.974
 70
    32
  0
VERTEX
  8
T69SSILL
 62
3
 10
2503.302
 20
-9600.402
 30
-1663.983
 70
    32
  0
VERTEX
  8
T69SSILL
 62
3
 10
2507.315
 20
-9600.408
 30
-1664.014
 70
    32
  0
VERTEX
  8
T69SSILL
 62
3
 10
2512.937
 20
-9593.408
 30
-1664.101
 70
    32
  0
VERTEX
  8
T69SSILL
 62
3
 10
2530.340
 20
-9588.034
 30
-1664.300
 70
    32
  0
VERTEX
  8
T69SSILL
 62
3
 10
2527.874
 20
-9578.901
 30
-1664.330
 70
    32
  0
VERTEX
  8
T69SSILL
 62
3
 10
2502.258
 20
-9587.183
 30
-1664.043
 70
    32
  0
VERTEX
  8
T69SSILL
 62
3
 10
2468.894
 20
-9597.969
 30
-1663.726
 70
    32
  0
VERTEX
  8
T69SSILL
 62
3
 10
2437.266
 20
-9597.793
 30
-1663.508
 70
    32
  0
VERTEX
  8
T69SSILL
 62
3
 10
2386.792
 20
-9573.264
 30
-1663.209
 70
    32
  0
VERTEX
  8
T69SSILL
 62
3
 10
2383.967
 20
-9567.091
 30
-1663.219
 70
    32
  0
VERTEX
  8
T69SSILL
 62
3
 10
2364.894
 20
-9539.826
 30
-1663.210
 70
    32
  0
VERTEX
  8
T69SSILL
 62
3
 10
2362.369
 20
-9533.887
 30
-1663.221
 70
    32
  0
VERTEX
  8
T69SSILL
 62
3
 10
2361.304
 20
-9530.429
 30
-1663.230
 70
    32
  0
VERTEX
  8
T69SSILL
 62
3
 10
2361.395
 20
-9521.760
 30
-1663.275
 70
    32
  0
VERTEX
  8
T69SSILL
 62
3
 10
2359.074
 20
-9513.443
 30
-1663.300
 70
    32
  0
VERTEX
  8
T69SSILL
 62
3
 10
2353.670
 20
-9505.963
 30
-1663.296
 70
    32
  0
VERTEX
  8
T69SSILL
 62
3
 10
2338.134
 20
-9459.480
 30
-1663.414
 70
    32
  0
VERTEX
  8
T69SSILL
 62
3
 10
2325.375
 20
-9421.307
 30
-1663.599
 70
    32
  0
VERTEX
  8
T69SSILL
 62
3
 10
2326.855
 20
-9411.306
 30
-1663.696
 70
    32
  0
VERTEX
  8
T69SSILL
 62
3
 10
2324.975
 20
-9407.992
 30
-1663.705
 70
    32
  0
VERTEX
  8
T69SSILL
 62
3
 10
2319.587
 20
-9406.102
 30
-1663.665
 70
    32
  0
VERTEX
  8
T69SSILL
 62
3
 10
2301.229
 20
-9349.584
 30
-1663.944
 70
    32
  0
VERTEX
  8
T69SSILL
 62
3
 10
2301.180
 20
-9327.895
 30
-1664.123
 70
    32
  0
VERTEX
  8
T69SSILL
 62
3
 10
2296.100
 20
-9315.626
 30
-1664.172
 70
    32
  0
VERTEX
  8
T69SSILL
 62
3
 10
2283.872
 20
-9296.215
 30
-1664.207
 70
    32
  0
VERTEX
  8
T69SSILL
 62
3
 10
2276.621
 20
-9272.617
 30
-1664.328
 70
    32
  0
VERTEX
  8
T69SSILL
 62
3
 10
2274.765
 20
-9266.577
 30
-1664.346
 70
    32
  0
VERTEX
  8
T69SSILL
 62
3
 10
2262.231
 20
-9225.787
 30
-1664.532
 70
    32
  0
VERTEX
  8
T69SSILL
 62
3
 10
2256.589
 20
-9213.534
 30
-1664.574
 70
    32
  0
VERTEX
  8
T69SSILL
 62
3
 10
2226.989
 20
-9120.819
 30
-1663.981
 70
    32
  0
VERTEX
  8
T69SSILL
 62
3
 10
2225.728
 20
-9116.870
 30
-1664.231
 70
    32
  0
VERTEX
  8
T69SSILL
 62
3
 10
2227.013
 20
-9115.607
 30
-1664.161
 70
    32
  0
VERTEX
  8
T69SSILL
 62
3
 10
2230.923
 20
-9117.316
 30
-1663.755
 70
    32
  0
VERTEX
  8
T69SSILL
 62
3
 10
2235.616
 20
-9119.366
 30
-1663.516
 70
    32
  0
VERTEX
  8
T69SSILL
 62
3
 10
2245.150
 20
-9126.455
 30
-1663.163
 70
    32
  0
VERTEX
  8
T69SSILL
 62
3
 10
2252.443
 20
-9130.184
 30
-1662.897
 70
    32
  0
VERTEX
  8
T69SSILL
 62
3
 10
2261.066
 20
-9139.072
 30
-1662.572
 70
    32
  0
VERTEX
  8
T69SSILL
 62
3
 10
2265.727
 20
-9146.078
 30
-1662.390
 70
    32
  0
VERTEX
  8
T69SSILL
 62
3
 10
2276.034
 20
-9137.465
 30
-1662.003
 70
    32
  0
VERTEX
  8
T69SSILL
 62
3
 10
2277.012
 20
-9134.805
 30
-1661.972
 70
    32
  0
VERTEX
  8
T69SSILL
 62
3
 10
2284.561
 20
-9131.092
 30
-1661.681
 70
    32
  0
VERTEX
  8
T69SSILL
 62
3
 10
2285.609
 20
-9128.183
 30
-1661.648
 70
    32
  0
VERTEX
  8
T69SSILL
 62
3
 10
2285.453
 20
-9126.461
 30
-1661.659
 70
    32
  0
VERTEX
  8
T69SSILL
 62
3
 10
2289.847
 20
-9122.722
 30
-1661.484
 70
    32
  0
VERTEX
  8
T69SSILL
 62
3
 10
2290.733
 20
-9121.968
 30
-1661.392
 70
    32
  0
VERTEX
  8
T69SSILL
 62
3
 10
2295.237
 20
-9120.789
 30
-1660.928
 70
    32
  0
VERTEX
  8
T69SSILL
 62
3
 10
2298.657
 20
-9123.113
 30
-1661.420
 70
    32
  0
VERTEX
  8
T69SSILL
 62
3
 10
2301.476
 20
-9125.462
 30
-1661.143
 70
    32
  0
VERTEX
  8
T69SSILL
 62
3
 10
2304.836
 20
-9128.423
 30
-1660.802
 70
    32
  0
VERTEX
  8
T69SSILL
 62
3
 10
2307.612
 20
-9131.431
 30
-1660.481
 70
    32
  0
VERTEX
  8
T69SSILL
 62
3
 10
2310.419
 20
-9134.759
 30
-1659.750
 70
    32
  0
VERTEX
  8
T69SSILL
 62
3
 10
2310.487
 20
-9134.841
 30
-1659.832
 70
    32
  0
VERTEX
  8
T69SSILL
 62
3
 10
2311.869
 20
-9136.504
 30
-1661.487
 70
    32
  0
VERTEX
  8
T69SSILL
 62
3
 10
2314.577
 20
-9140.500
 30
-1661.672
 70
    32
  0
VERTEX
  8
T69SSILL
 62
3
 10
2317.042
 20
-9144.798
 30
-1662.703
 70
    32
  0
VERTEX
  8
T69SSILL
 62
3
 10
2318.425
 20
-9147.209
 30
-1662.706
 70
    32
  0
VERTEX
  8
T69SSILL
 62
3
 10
2319.516
 20
-9159.618
 30
-1662.324
 70
    32
  0
VERTEX
  8
T69SSILL
 62
3
 10
2321.091
 20
-9164.970
 30
-1662.179
 70
    32
  0
VERTEX
  8
T69SSILL
 62
3
 10
2319.953
 20
-9172.896
 30
-1661.957
 70
    32
  0
VERTEX
  8
T69SSILL
 62
3
 10
2319.357
 20
-9177.046
 30
-1661.844
 70
    32
  0
VERTEX
  8
T69SSILL
 62
3
 10
2314.621
 20
-9192.117
 30
-1661.427
 70
    32
  0
VERTEX
  8
T69SSILL
 62
3
 10
2312.443
 20
-9198.854
 30
-1662.966
 70
    32
  0
VERTEX
  8
T69SSILL
 62
3
 10
2322.803
 20
-9201.274
 30
-1661.721
 70
    32
  0
VERTEX
  8
T69SSILL
 62
3
 10
2324.960
 20
-9193.599
 30
-1661.424
 70
    32
  0
VERTEX
  8
T69SSILL
 62
3
 10
2326.439
 20
-9188.124
 30
-1661.575
 70
    32
  0
VERTEX
  8
T69SSILL
 62
3
 10
2329.319
 20
-9185.822
 30
-1661.646
 70
    32
  0
VERTEX
  8
T69SSILL
 62
3
 10
2331.886
 20
-9175.722
 30
-1661.924
 70
    32
  0
VERTEX
  8
T69SSILL
 62
3
 10
2331.736
 20
-9156.034
 30
-1662.446
 70
    32
  0
VERTEX
  8
T69SSILL
 62
3
 10
2331.724
 20
-9154.426
 30
-1662.491
 70
    32
  0
VERTEX
  8
T69SSILL
 62
3
 10
2332.519
 20
-9149.207
 30
-1662.637
 70
    32
  0
VERTEX
  8
T69SSILL
 62
3
 10
2332.525
 20
-9149.166
 30
-1662.640
 70
    32
  0
VERTEX
  8
T69SSILL
 62
3
 10
2330.394
 20
-9143.984
 30
-1662.642
 70
    32
  0
VERTEX
  8
T69SSILL
 62
3
 10
2323.686
 20
-9134.296
 30
-1662.635
 70
    32
  0
VERTEX
  8
T69SSILL
 62
3
 10
2321.067
 20
-9130.662
 30
-1660.377
 70
    32
  0
VERTEX
  8
T69SSILL
 62
3
 10
2320.296
 20
-9127.387
 30
-1659.184
 70
    32
  0
VERTEX
  8
T69SSILL
 62
3
 10
2321.088
 20
-9124.312
 30
-1659.399
 70
    32
  0
VERTEX
  8
T69SSILL
 62
3
 10
2321.975
 20
-9122.018
 30
-1661.491
 70
    32
  0
VERTEX
  8
T69SSILL
 62
3
 10
2327.537
 20
-9120.601
 30
-1662.692
 70
    32
  0
VERTEX
  8
T69SSILL
 62
3
 10
2336.139
 20
-9121.337
 30
-1662.482
 70
    32
  0
VERTEX
  8
T69SSILL
 62
3
 10
2339.924
 20
-9121.661
 30
-1662.270
 70
    32
  0
VERTEX
  8
T69SSILL
 62
3
 10
2346.369
 20
-9122.884
 30
-1662.157
 70
    32
  0
VERTEX
  8
T69SSILL
 62
3
 10
2365.410
 20
-9135.559
 30
-1660.822
 70
    32
  0
VERTEX
  8
T69SSILL
 62
3
 10
2371.570
 20
-9127.269
 30
-1660.608
 70
    32
  0
VERTEX
  8
T69SSILL
 62
3
 10
2361.805
 20
-9119.661
 30
-1661.584
 70
    32
  0
VERTEX
  8
T69SSILL
 62
3
 10
2359.026
 20
-9114.321
 30
-1661.941
 70
    32
  0
VERTEX
  8
T69SSILL
 62
3
 10
2359.637
 20
-9110.230
 30
-1661.365
 70
    32
  0
VERTEX
  8
T69SSILL
 62
3
 10
2370.295
 20
-9104.676
 30
-1659.145
 70
    32
  0
VERTEX
  8
T69SSILL
 62
3
 10
2375.111
 20
-9100.877
 30
-1657.988
 70
    32
  0
VERTEX
  8
T69SSILL
 62
3
 10
2377.307
 20
-9099.145
 30
-1658.002
 70
    32
  0
VERTEX
  8
T69SSILL
 62
3
 10
2377.287
 20
-9099.109
 30
-1658.003
 70
    32
  0
VERTEX
  8
T69SSILL
 62
3
 10
2405.072
 20
-9081.721
 30
-1656.151
 70
    32
  0
VERTEX
  8
T69SSILL
 62
3
 10
2409.442
 20
-9078.986
 30
-1657.357
 70
    32
  0
VERTEX
  8
T69SSILL
 62
3
 10
2411.967
 20
-9077.406
 30
-1657.510
 70
    32
  0
VERTEX
  8
T69SSILL
 62
3
 10
2413.652
 20
-9079.560
 30
-1657.421
 70
    32
  0
VERTEX
  8
T69SSILL
 62
3
 10
2413.370
 20
-9081.608
 30
-1657.293
 70
    32
  0
VERTEX
  8
T69SSILL
 62
3
 10
2412.546
 20
-9085.274
 30
-1657.000
 70
    32
  0
VERTEX
  8
T69SSILL
 62
3
 10
2422.519
 20
-9085.261
 30
-1657.000
 70
    32
  0
VERTEX
  8
T69SSILL
 62
3
 10
2426.241
 20
-9075.479
 30
-1657.997
 70
    32
  0
VERTEX
  8
T69SSILL
 62
3
 10
2430.108
 20
-9070.794
 30
-1658.323
 70
    32
  0
VERTEX
  8
T69SSILL
 62
3
 10
2431.095
 20
-9069.598
 30
-1658.417
 70
    32
  0
VERTEX
  8
T69SSILL
 62
3
 10
2431.456
 20
-9068.997
 30
-1658.461
 70
    32
  0
VERTEX
  8
T69SSILL
 62
3
 10
2431.639
 20
-9068.694
 30
-1658.419
 70
    32
  0
VERTEX
  8
T69SSILL
 62
3
 10
2433.885
 20
-9064.961
 30
-1657.707
 70
    32
  0
VERTEX
  8
T69SSILL
 62
3
 10
2443.836
 20
-9048.421
 30
-1657.745
 70
    32
  0
VERTEX
  8
T69SSILL
 62
3
 10
2443.954
 20
-9047.913
 30
-1657.746
 70
    32
  0
VERTEX
  8
T69SSILL
 62
3
 10
2444.797
 20
-9046.790
 30
-1657.749
 70
    32
  0
VERTEX
  8
T69SSILL
 62
3
 10
2451.496
 20
-9038.608
 30
-1657.766
 70
    32
  0
VERTEX
  8
T69SSILL
 62
3
 10
2453.314
 20
-9036.386
 30
-1657.785
 70
    32
  0
VERTEX
  8
T69SSILL
 62
3
 10
2453.812
 20
-9035.778
 30
-1657.623
 70
    32
  0
VERTEX
  8
T69SSILL
 62
3
 10
2454.864
 20
-9034.614
 30
-1657.298
 70
    32
  0
VERTEX
  8
T69SSILL
 62
3
 10
2462.801
 20
-9025.831
 30
-1654.823
 70
    32
  0
VERTEX
  8
T69SSILL
 62
3
 10
2473.038
 20
-9021.321
 30
-1652.658
 70
    32
  0
VERTEX
  8
T69SSILL
 62
3
 10
2480.380
 20
-9015.278
 30
-1650.682
 70
    32
  0
VERTEX
  8
T69SSILL
 62
3
 10
2465.966
 20
-8999.781
 30
-1650.440
 70
    32
  0
VERTEX
  8
T69SSILL
 62
3
 10
2461.875
 20
-9003.479
 30
-1651.591
 70
    32
  0
VERTEX
  8
T69SSILL
 62
3
 10
2458.640
 20
-9006.402
 30
-1652.489
 70
    32
  0
VERTEX
  8
T69SSILL
 62
3
 10
2454.487
 20
-9018.545
 30
-1654.914
 70
    32
  0
VERTEX
  8
T69SSILL
 62
3
 10
2445.278
 20
-9029.827
 30
-1657.920
 70
    32
  0
VERTEX
  8
T69SSILL
 62
3
 10
2440.004
 20
-9036.288
 30
-1657.866
 70
    32
  0
VERTEX
  8
T69SSILL
 62
3
 10
2436.521
 20
-9040.643
 30
-1657.830
 70
    32
  0
VERTEX
  8
T69SSILL
 62
3
 10
2436.233
 20
-9040.784
 30
-1657.830
 70
    32
  0
VERTEX
  8
T69SSILL
 62
3
 10
2428.787
 20
-9050.225
 30
-1657.751
 70
    32
  0
VERTEX
  8
T69SSILL
 62
3
 10
2424.012
 20
-9056.279
 30
-1657.737
 70
    32
  0
VERTEX
  8
T69SSILL
 62
3
 10
2423.173
 20
-9056.825
 30
-1657.737
 70
    32
  0
VERTEX
  8
T69SSILL
 62
3
 10
2422.431
 20
-9057.308
 30
-1657.874
 70
    32
  0
VERTEX
  8
T69SSILL
 62
3
 10
2416.853
 20
-9060.938
 30
-1658.601
 70
    32
  0
VERTEX
  8
T69SSILL
 62
3
 10
2413.982
 20
-9062.807
 30
-1658.423
 70
    32
  0
VERTEX
  8
T69SSILL
 62
3
 10
2413.290
 20
-9063.257
 30
-1658.232
 70
    32
  0
VERTEX
  8
T69SSILL
 62
3
 10
2381.741
 20
-9083.789
 30
-1657.966
 70
    32
  0
VERTEX
  8
T69SSILL
 62
3
 10
2382.437
 20
-9081.861
 30
-1657.891
 70
    32
  0
VERTEX
  8
T69SSILL
 62
3
 10
2387.241
 20
-9068.556
 30
-1657.781
 70
    32
  0
VERTEX
  8
T69SSILL
 62
3
 10
2384.788
 20
-9062.780
 30
-1657.736
 70
    32
  0
VERTEX
  8
T69SSILL
 62
3
 10
2384.428
 20
-9053.253
 30
-1657.659
 70
    32
  0
VERTEX
  8
T69SSILL
 62
3
 10
2385.014
 20
-9047.464
 30
-1657.612
 70
    32
  0
VERTEX
  8
T69SSILL
 62
3
 10
2386.664
 20
-9043.910
 30
-1658.068
 70
    32
  0
VERTEX
  8
T69SSILL
 62
3
 10
2383.155
 20
-9029.088
 30
-1657.747
 70
    32
  0
VERTEX
  8
T69SSILL
 62
3
 10
2378.667
 20
-9023.060
 30
-1657.603
 70
    32
  0
VERTEX
  8
T69SSILL
 62
3
 10
2375.870
 20
-9015.875
 30
-1657.016
 70
    32
  0
VERTEX
  8
T69SSILL
 62
3
 10
2374.254
 20
-9014.500
 30
-1656.981
 70
    32
  0
VERTEX
  8
T69SSILL
 62
3
 10
2363.799
 20
-8995.163
 30
-1656.567
 70
    32
  0
VERTEX
  8
T69SSILL
 62
3
 10
2355.962
 20
-8974.599
 30
-1656.148
 70
    32
  0
VERTEX
  8
T69SSILL
 62
3
 10
2352.163
 20
-8964.089
 30
-1655.936
 70
    32
  0
VERTEX
  8
T69SSILL
 62
3
 10
2350.948
 20
-8960.728
 30
-1656.343
 70
    32
  0
VERTEX
  8
T69SSILL
 62
3
 10
2349.634
 20
-8957.090
 30
-1656.940
 70
    32
  0
VERTEX
  8
T69SSILL
 62
3
 10
2346.891
 20
-8954.917
 30
-1657.405
 70
    32
  0
VERTEX
  8
T69SSILL
 62
3
 10
2346.942
 20
-8953.105
 30
-1657.663
 70
    32
  0
VERTEX
  8
T69SSILL
 62
3
 10
2344.228
 20
-8946.262
 30
-1658.800
 70
    32
  0
VERTEX
  8
T69SSILL
 62
3
 10
2334.622
 20
-8949.944
 30
-1658.805
 70
    32
  0
VERTEX
  8
T69SSILL
 62
3
 10
2338.728
 20
-8957.902
 30
-1657.425
 70
    32
  0
VERTEX
  8
T69SSILL
 62
3
 10
2339.613
 20
-8960.901
 30
-1656.944
 70
    32
  0
VERTEX
  8
T69SSILL
 62
3
 10
2341.543
 20
-8965.469
 30
-1656.222
 70
    32
  0
VERTEX
  8
T69SSILL
 62
3
 10
2342.516
 20
-8967.771
 30
-1655.936
 70
    32
  0
VERTEX
  8
T69SSILL
 62
3
 10
2346.964
 20
-8978.299
 30
-1656.153
 70
    32
  0
VERTEX
  8
T69SSILL
 62
3
 10
2350.380
 20
-8989.656
 30
-1656.378
 70
    32
  0
VERTEX
  8
T69SSILL
 62
3
 10
2353.824
 20
-9001.108
 30
-1656.620
 70
    32
  0
VERTEX
  8
T69SSILL
 62
3
 10
2364.795
 20
-9021.020
 30
-1656.158
 70
    32
  0
VERTEX
  8
T69SSILL
 62
3
 10
2361.173
 20
-9024.196
 30
-1656.283
 70
    32
  0
VERTEX
  8
T69SSILL
 62
3
 10
2359.514
 20
-9029.736
 30
-1656.607
 70
    32
  0
VERTEX
  8
T69SSILL
 62
3
 10
2361.806
 20
-9039.480
 30
-1657.291
 70
    32
  0
VERTEX
  8
T69SSILL
 62
3
 10
2368.216
 20
-9041.508
 30
-1657.565
 70
    32
  0
VERTEX
  8
T69SSILL
 62
3
 10
2373.624
 20
-9047.132
 30
-1657.617
 70
    32
  0
VERTEX
  8
T69SSILL
 62
3
 10
2374.782
 20
-9058.690
 30
-1657.710
 70
    32
  0
VERTEX
  8
T69SSILL
 62
3
 10
2373.968
 20
-9064.038
 30
-1657.753
 70
    32
  0
VERTEX
  8
T69SSILL
 62
3
 10
2372.332
 20
-9074.784
 30
-1658.086
 70
    32
  0
VERTEX
  8
T69SSILL
 62
3
 10
2370.378
 20
-9080.467
 30
-1658.303
 70
    32
  0
VERTEX
  8
T69SSILL
 62
3
 10
2367.891
 20
-9084.337
 30
-1658.493
 70
    32
  0
VERTEX
  8
T69SSILL
 62
3
 10
2368.381
 20
-9091.339
 30
-1658.652
 70
    32
  0
VERTEX
  8
T69SSILL
 62
3
 10
2367.398
 20
-9092.504
 30
-1658.718
 70
    32
  0
VERTEX
  8
T69SSILL
 62
3
 10
2364.693
 20
-9095.710
 30
-1658.900
 70
    32
  0
VERTEX
  8
T69SSILL
 62
3
 10
2361.484
 20
-9097.505
 30
-1659.583
 70
    32
  0
VERTEX
  8
T69SSILL
 62
3
 10
2354.098
 20
-9101.637
 30
-1660.727
 70
    32
  0
VERTEX
  8
T69SSILL
 62
3
 10
2345.505
 20
-9107.390
 30
-1662.180
 70
    32
  0
VERTEX
  8
T69SSILL
 62
3
 10
2338.516
 20
-9110.053
 30
-1662.448
 70
    32
  0
VERTEX
  8
T69SSILL
 62
3
 10
2331.287
 20
-9109.198
 30
-1662.856
 70
    32
  0
VERTEX
  8
T69SSILL
 62
3
 10
2327.429
 20
-9102.463
 30
-1663.090
 70
    32
  0
VERTEX
  8
T69SSILL
 62
3
 10
2326.524
 20
-9087.996
 30
-1662.000
 70
    32
  0
VERTEX
  8
T69SSILL
 62
3
 10
2315.277
 20
-9087.339
 30
-1662.000
 70
    32
  0
VERTEX
  8
T69SSILL
 62
3
 10
2314.606
 20
-9100.261
 30
-1662.000
 70
    32
  0
VERTEX
  8
T69SSILL
 62
3
 10
2309.229
 20
-9109.284
 30
-1659.695
 70
    32
  0
VERTEX
  8
T69SSILL
 62
3
 10
2306.528
 20
-9108.995
 30
-1659.917
 70
    32
  0
VERTEX
  8
T69SSILL
 62
3
 10
2298.615
 20
-9108.000
 30
-1660.572
 70
    32
  0
VERTEX
  8
T69SSILL
 62
3
 10
2289.466
 20
-9106.850
 30
-1661.512
 70
    32
  0
VERTEX
  8
T69SSILL
 62
3
 10
2289.441
 20
-9106.847
 30
-1661.513
 70
    32
  0
VERTEX
  8
T69SSILL
 62
3
 10
2285.868
 20
-9106.368
 30
-1661.665
 70
    32
  0
VERTEX
  8
T69SSILL
 62
3
 10
2273.173
 20
-9107.662
 30
-1662.204
 70
    32
  0
VERTEX
  8
T69SSILL
 62
3
 10
2265.968
 20
-9108.396
 30
-1662.478
 70
    32
  0
VERTEX
  8
T69SSILL
 62
3
 10
2253.492
 20
-9109.991
 30
-1662.912
 70
    32
  0
VERTEX
  8
T69SSILL
 62
3
 10
2244.001
 20
-9109.113
 30
-1663.341
 70
    32
  0
VERTEX
  8
T69SSILL
 62
3
 10
2243.939
 20
-9109.123
 30
-1663.344
 70
    32
  0
VERTEX
  8
T69SSILL
 62
3
 10
2235.689
 20
-9103.982
 30
-1663.800
 70
    32
  0
VERTEX
  8
T69SSILL
 62
3
 10
2228.776
 20
-9099.674
 30
-1664.477
 70
    32
  0
VERTEX
  8
T69SSILL
 62
3
 10
2228.743
 20
-9099.648
 30
-1664.480
 70
    32
  0
VERTEX
  8
T69SSILL
 62
3
 10
2222.593
 20
-9089.510
 30
-1665.130
 70
    32
  0
VERTEX
  8
T69SSILL
 62
3
 10
2219.625
 20
-9084.616
 30
-1665.000
 70
    32
  0
VERTEX
  8
T69SSILL
 62
3
 10
2212.255
 20
-9075.019
 30
-1665.000
 70
    32
  0
VERTEX
  8
T69SSILL
 62
3
 10
2197.464
 20
-9029.072
 30
-1665.252
 70
    32
  0
VERTEX
  8
T69SSILL
 62
3
 10
2201.527
 20
-9022.918
 30
-1665.281
 70
    32
  0
VERTEX
  8
T69SSILL
 62
3
 10
2194.729
 20
-9006.308
 30
-1665.298
 70
    32
  0
VERTEX
  8
T69SSILL
 62
3
 10
2188.258
 20
-8999.978
 30
-1665.292
 70
    32
  0
VERTEX
  8
T69SSILL
 62
3
 10
2127.163
 20
-8812.028
 30
-1665.545
 70
    32
  0
VERTEX
  8
T69SSILL
 62
3
 10
2131.316
 20
-8803.984
 30
-1665.579
 70
    32
  0
VERTEX
  8
T69SSILL
 62
3
 10
2120.509
 20
-8791.720
 30
-1665.572
 70
    32
  0
VERTEX
  8
T69SSILL
 62
3
 10
2108.719
 20
-8755.021
 30
-1665.596
 70
    32
  0
VERTEX
  8
T69SSILL
 62
3
 10
2036.310
 20
-8529.642
 30
-1665.835
 70
    32
  0
VERTEX
  8
T69SSILL
 62
3
 10
2038.160
 20
-8521.995
 30
-1665.834
 70
    32
  0
VERTEX
  8
T69SSILL
 62
3
 10
2037.090
 20
-8518.419
 30
-1665.837
 70
    32
  0
VERTEX
  8
T69SSILL
 62
3
 10
2031.669
 20
-8514.016
 30
-1665.851
 70
    32
  0
VERTEX
  8
T69SSILL
 62
3
 10
2012.623
 20
-8452.354
 30
-1665.914
 70
    32
  0
VERTEX
  8
T69SSILL
 62
3
 10
2032.684
 20
-8465.270
 30
-1665.866
 70
    32
  0
VERTEX
  8
T69SSILL
 62
3
 10
2041.788
 20
-8469.425
 30
-1665.844
 70
    32
  0
VERTEX
  8
T69SSILL
 62
3
 10
2057.067
 20
-8473.791
 30
-1665.809
 70
    32
  0
VERTEX
  8
T69SSILL
 62
3
 10
2075.253
 20
-8473.742
 30
-1665.842
 70
    32
  0
VERTEX
  8
T69SSILL
 62
3
 10
2088.589
 20
-8471.517
 30
-1665.893
 70
    32
  0
VERTEX
  8
T69SSILL
 62
3
 10
2103.844
 20
-8464.206
 30
-1665.958
 70
    32
  0
VERTEX
  8
T69SSILL
 62
3
 10
2107.385
 20
-8464.523
 30
-1665.971
 70
    32
  0
VERTEX
  8
T69SSILL
 62
3
 10
2112.780
 20
-8459.049
 30
-1665.998
 70
    32
  0
VERTEX
  8
T69SSILL
 62
3
 10
2153.364
 20
-8431.092
 30
-1666.182
 70
    32
  0
VERTEX
  8
T69SSILL
 62
3
 10
2163.613
 20
-8429.724
 30
-1666.222
 70
    32
  0
VERTEX
  8
T69SSILL
 62
3
 10
2174.893
 20
-8421.472
 30
-1666.273
 70
    32
  0
VERTEX
  8
T69SSILL
 62
3
 10
2181.674
 20
-8415.237
 30
-1666.306
 70
    32
  0
VERTEX
  8
T69SSILL
 62
3
 10
2186.291
 20
-8407.630
 30
-1666.333
 70
    32
  0
VERTEX
  8
T69SSILL
 62
3
 10
2197.582
 20
-8398.939
 30
-1666.386
 70
    32
  0
VERTEX
  8
T69SSILL
 62
3
 10
2191.614
 20
-8391.320
 30
-1666.374
 70
    32
  0
VERTEX
  8
T69SSILL
 62
3
 10
2185.311
 20
-8390.198
 30
-1666.352
 70
    32
  0
VERTEX
  8
T69SSILL
 62
3
 10
2174.986
 20
-8394.641
 30
-1666.309
 70
    32
  0
VERTEX
  8
T69SSILL
 62
3
 10
2160.015
 20
-8404.984
 30
-1666.241
 70
    32
  0
VERTEX
  8
T69SSILL
 62
3
 10
2143.953
 20
-8413.946
 30
-1666.170
 70
    32
  0
VERTEX
  8
T69SSILL
 62
3
 10
2142.651
 20
-8426.205
 30
-1666.150
 70
    32
  0
VERTEX
  8
T69SSILL
 62
3
 10
2100.663
 20
-8456.569
 30
-1665.957
 70
    32
  0
VERTEX
  8
T69SSILL
 62
3
 10
2082.060
 20
-8464.607
 30
-1665.879
 70
    32
  0
VERTEX
  8
T69SSILL
 62
3
 10
2067.008
 20
-8466.093
 30
-1665.822
 70
    32
  0
VERTEX
  8
T69SSILL
 62
3
 10
2061.251
 20
-8446.992
 30
-1665.826
 70
    32
  0
VERTEX
  8
T69SSILL
 62
3
 10
2031.981
 20
-8455.656
 30
-1665.870
 70
    32
  0
VERTEX
  8
T69SSILL
 62
3
 10
2022.050
 20
-8449.033
 30
-1665.895
 70
    32
  0
VERTEX
  8
T69SSILL
 62
3
 10
2013.846
 20
-8440.368
 30
-1665.916
 70
    32
  0
VERTEX
  8
T69SSILL
 62
3
 10
2005.070
 20
-8425.557
 30
-1665.941
 70
    32
  0
VERTEX
  8
T69SSILL
 62
3
 10
2003.761
 20
-8416.372
 30
-1665.947
 70
    32
  0
VERTEX
  8
T69SSILL
 62
3
 10
1999.602
 20
-8413.221
 30
-1665.957
 70
    32
  0
VERTEX
  8
T69SSILL
 62
3
 10
1984.670
 20
-8368.373
 30
-1666.006
 70
    32
  0
VERTEX
  8
T69SSILL
 62
3
 10
1981.947
 20
-8354.598
 30
-1666.017
 70
    32
  0
VERTEX
  8
T69SSILL
 62
3
 10
1966.213
 20
-8204.830
 30
-1666.329
 70
    32
  0
VERTEX
  8
T69SSILL
 62
3
 10
1965.537
 20
-8194.859
 30
-1666.349
 70
    32
  0
VERTEX
  8
T69SSILL
 62
3
 10
1967.925
 20
-8190.356
 30
-1666.319
 70
    32
  0
VERTEX
  8
T69SSILL
 62
3
 10
1964.433
 20
-8186.212
 30
-1666.373
 70
    32
  0
VERTEX
  8
T69SSILL
 62
3
 10
1954.942
 20
-8097.466
 30
-1666.144
 70
    32
  0
VERTEX
  8
T69SSILL
 62
3
 10
1963.860
 20
-8083.515
 30
-1666.128
 70
    32
  0
VERTEX
  8
T69SSILL
 62
3
 10
1984.487
 20
-8063.778
 30
-1666.124
 70
    32
  0
VERTEX
  8
T69SSILL
 62
3
 10
1983.929
 20
-8072.842
 30
-1666.147
 70
    32
  0
VERTEX
  8
T69SSILL
 62
3
 10
2075.282
 20
-7978.573
 30
-1666.210
 70
    32
  0
VERTEX
  8
T69SSILL
 62
3
 10
2073.397
 20
-7960.172
 30
-1666.192
 70
    32
  0
VERTEX
  8
T69SSILL
 62
3
 10
2067.671
 20
-7946.274
 30
-1666.171
 70
    32
  0
VERTEX
  8
T69SSILL
 62
3
 10
2053.484
 20
-7918.948
 30
-1666.123
 70
    32
  0
VERTEX
  8
T69SSILL
 62
3
 10
2050.111
 20
-7909.147
 30
-1666.109
 70
    32
  0
VERTEX
  8
T69SSILL
 62
3
 10
2050.796
 20
-7904.142
 30
-1666.107
 70
    32
  0
VERTEX
  8
T69SSILL
 62
3
 10
2051.909
 20
-7903.208
 30
-1666.109
 70
    32
  0
VERTEX
  8
T69SSILL
 62
3
 10
2065.826
 20
-7902.429
 30
-1666.161
 70
    32
  0
VERTEX
  8
T69SSILL
 62
3
 10
2081.081
 20
-7883.395
 30
-1666.260
 70
    32
  0
VERTEX
  8
T69SSILL
 62
3
 10
2079.828
 20
-7880.681
 30
-1666.260
 70
    32
  0
VERTEX
  8
T69SSILL
 62
3
 10
2073.762
 20
-7879.985
 30
-1666.235
 70
    32
  0
VERTEX
  8
T69SSILL
 62
3
 10
2065.065
 20
-7876.418
 30
-1666.204
 70
    32
  0
VERTEX
  8
T69SSILL
 62
3
 10
2058.371
 20
-7879.981
 30
-1666.169
 70
    32
  0
VERTEX
  8
T69SSILL
 62
3
 10
2053.115
 20
-7884.406
 30
-1666.139
 70
    32
  0
VERTEX
  8
T69SSILL
 62
3
 10
2046.182
 20
-7887.858
 30
-1666.103
 70
    32
  0
VERTEX
  8
T69SSILL
 62
3
 10
2041.019
 20
-7888.551
 30
-1666.079
 70
    32
  0
VERTEX
  8
T69SSILL
 62
3
 10
1956.722
 20
-7805.954
 30
-1665.924
 70
    32
  0
VERTEX
  8
T69SSILL
 62
3
 10
1925.949
 20
-7775.800
 30
-1666.852
 70
    32
  0
VERTEX
  8
T69SSILL
 62
3
 10
1926.301
 20
-7771.511
 30
-1666.849
 70
    32
  0
VERTEX
  8
T69SSILL
 62
3
 10
1921.537
 20
-7768.227
 30
-1666.990
 70
    32
  0
VERTEX
  8
T69SSILL
 62
3
 10
1916.469
 20
-7761.025
 30
-1667.146
 70
    32
  0
VERTEX
  8
T69SSILL
 62
3
 10
1913.698
 20
-7741.824
 30
-1667.254
 70
    32
  0
VERTEX
  8
T69SSILL
 62
3
 10
1917.633
 20
-7736.493
 30
-1667.149
 70
    32
  0
VERTEX
  8
T69SSILL
 62
3
 10
1916.845
 20
-7732.156
 30
-1667.179
 70
    32
  0
VERTEX
  8
T69SSILL
 62
3
 10
1912.773
 20
-7731.131
 30
-1667.297
 70
    32
  0
VERTEX
  8
T69SSILL
 62
3
 10
1896.923
 20
-7585.096
 30
-1667.831
 70
    32
  0
VERTEX
  8
T69SSILL
 62
3
 10
1895.863
 20
-7561.808
 30
-1667.384
 70
    32
  0
VERTEX
  8
T69SSILL
 62
3
 10
1884.478
 20
-7477.298
 30
-1667.703
 70
    32
  0
VERTEX
  8
T69SSILL
 62
3
 10
1875.756
 20
-7399.047
 30
-1668.039
 70
    32
  0
VERTEX
  8
T69SSILL
 62
3
 10
1878.606
 20
-7395.631
 30
-1667.971
 70
    32
  0
VERTEX
  8
T69SSILL
 62
3
 10
1874.938
 20
-7389.372
 30
-1668.080
 70
    32
  0
SEQEND
  8
T69SSILL
  0
POLYLINE
  8
T69SSILL
 62
3
 66
     1
 70
     8
  0
VERTEX
  8
T69SSILL
 62
3
 10
1845.295
 20
-7066.753
 30
-1668.510
 70
    32
  0
VERTEX
  8
T69SSILL
 62
3
 10
1847.697
 20
-7055.212
 30
-1668.837
 70
    32
  0
VERTEX
  8
T69SSILL
 62
3
 10
1855.581
 20
-7034.750
 30
-1668.882
 70
    32
  0
VERTEX
  8
T69SSILL
 62
3
 10
1865.414
 20
-7020.627
 30
-1668.740
 70
    32
  0
VERTEX
  8
T69SSILL
 62
3
 10
1879.575
 20
-7008.213
 30
-1668.295
 70
    32
  0
VERTEX
  8
T69SSILL
 62
3
 10
1901.696
 20
-6993.284
 30
-1667.627
 70
    32
  0
VERTEX
  8
T69SSILL
 62
3
 10
1919.455
 20
-6981.298
 30
-1667.705
 70
    32
  0
VERTEX
  8
T69SSILL
 62
3
 10
1932.321
 20
-6978.604
 30
-1667.686
 70
    32
  0
VERTEX
  8
T69SSILL
 62
3
 10
1935.982
 20
-6967.447
 30
-1667.812
 70
    32
  0
VERTEX
  8
T69SSILL
 62
3
 10
1944.301
 20
-6961.192
 30
-1667.856
 70
    32
  0
VERTEX
  8
T69SSILL
 62
3
 10
1951.928
 20
-6953.452
 30
-1667.959
 70
    32
  0
VERTEX
  8
T69SSILL
 62
3
 10
1961.375
 20
-6946.795
 30
-1668.103
 70
    32
  0
VERTEX
  8
T69SSILL
 62
3
 10
1964.385
 20
-6950.498
 30
-1668.082
 70
    32
  0
VERTEX
  8
T69SSILL
 62
3
 10
1955.358
 20
-6982.939
 30
-1667.643
 70
    32
  0
VERTEX
  8
T69SSILL
 62
3
 10
1926.908
 20
-7022.972
 30
-1667.147
 70
    32
  0
VERTEX
  8
T69SSILL
 62
3
 10
1920.719
 20
-7030.940
 30
-1667.357
 70
    32
  0
VERTEX
  8
T69SSILL
 62
3
 10
1925.431
 20
-7043.399
 30
-1667.184
 70
    32
  0
VERTEX
  8
T69SSILL
 62
3
 10
1924.774
 20
-7053.989
 30
-1667.083
 70
    32
  0
VERTEX
  8
T69SSILL
 62
3
 10
1924.491
 20
-7058.553
 30
-1667.140
 70
    32
  0
VERTEX
  8
T69SSILL
 62
3
 10
1936.601
 20
-7059.681
 30
-1666.959
 70
    32
  0
VERTEX
  8
T69SSILL
 62
3
 10
1947.550
 20
-7080.878
 30
-1666.860
 70
    32
  0
VERTEX
  8
T69SSILL
 62
3
 10
1955.785
 20
-7098.981
 30
-1666.869
 70
    32
  0
VERTEX
  8
T69SSILL
 62
3
 10
1963.124
 20
-7119.693
 30
-1666.871
 70
    32
  0
VERTEX
  8
T69SSILL
 62
3
 10
1967.495
 20
-7144.926
 30
-1666.853
 70
    32
  0
VERTEX
  8
T69SSILL
 62
3
 10
1983.329
 20
-7139.272
 30
-1666.928
 70
    32
  0
VERTEX
  8
T69SSILL
 62
3
 10
1982.575
 20
-7127.041
 30
-1666.943
 70
    32
  0
VERTEX
  8
T69SSILL
 62
3
 10
1978.587
 20
-7111.937
 30
-1666.947
 70
    32
  0
VERTEX
  8
T69SSILL
 62
3
 10
1970.926
 20
-7090.756
 30
-1666.945
 70
    32
  0
VERTEX
  8
T69SSILL
 62
3
 10
1952.372
 20
-7052.614
 30
-1666.921
 70
    32
  0
VERTEX
  8
T69SSILL
 62
3
 10
1948.112
 20
-7039.059
 30
-1666.943
 70
    32
  0
VERTEX
  8
T69SSILL
 62
3
 10
1950.448
 20
-7033.147
 30
-1667.027
 70
    32
  0
VERTEX
  8
T69SSILL
 62
3
 10
1944.943
 20
-7025.133
 30
-1667.081
 70
    32
  0
VERTEX
  8
T69SSILL
 62
3
 10
1945.973
 20
-7018.140
 30
-1667.169
 70
    32
  0
VERTEX
  8
T69SSILL
 62
3
 10
1964.806
 20
-6988.868
 30
-1667.641
 70
    32
  0
VERTEX
  8
T69SSILL
 62
3
 10
1967.898
 20
-6979.840
 30
-1667.767
 70
    32
  0
VERTEX
  8
T69SSILL
 62
3
 10
1968.030
 20
-6970.812
 30
-1664.636
 70
    32
  0
VERTEX
  8
T69SSILL
 62
3
 10
1970.778
 20
-6968.519
 30
-1662.713
 70
    32
  0
VERTEX
  8
T69SSILL
 62
3
 10
1975.520
 20
-6966.287
 30
-1663.302
 70
    32
  0
VERTEX
  8
T69SSILL
 62
3
 10
1978.345
 20
-6968.188
 30
-1662.957
 70
    32
  0
VERTEX
  8
T69SSILL
 62
3
 10
1985.122
 20
-6981.050
 30
-1661.826
 70
    32
  0
VERTEX
  8
T69SSILL
 62
3
 10
1991.271
 20
-6986.015
 30
-1662.881
 70
    32
  0
VERTEX
  8
T69SSILL
 62
3
 10
1996.181
 20
-6987.442
 30
-1662.303
 70
    32
  0
VERTEX
  8
T69SSILL
 62
3
 10
2003.116
 20
-6991.467
 30
-1662.070
 70
    32
  0
VERTEX
  8
T69SSILL
 62
3
 10
2006.439
 20
-6992.935
 30
-1662.226
 70
    32
  0
VERTEX
  8
T69SSILL
 62
3
 10
2012.969
 20
-6996.645
 30
-1664.683
 70
    32
  0
VERTEX
  8
T69SSILL
 62
3
 10
2029.265
 20
-7002.894
 30
-1662.856
 70
    32
  0
VERTEX
  8
T69SSILL
 62
3
 10
2034.036
 20
-7005.548
 30
-1662.383
 70
    32
  0
VERTEX
  8
T69SSILL
 62
3
 10
2046.604
 20
-7013.832
 30
-1663.234
 70
    32
  0
VERTEX
  8
T69SSILL
 62
3
 10
2051.514
 20
-7019.339
 30
-1662.871
 70
    32
  0
VERTEX
  8
T69SSILL
 62
3
 10
2059.096
 20
-7034.948
 30
-1662.665
 70
    32
  0
VERTEX
  8
T69SSILL
 62
3
 10
2062.537
 20
-7045.912
 30
-1661.814
 70
    32
  0
VERTEX
  8
T69SSILL
 62
3
 10
2064.651
 20
-7052.938
 30
-1661.595
 70
    32
  0
VERTEX
  8
T69SSILL
 62
3
 10
2067.917
 20
-7065.036
 30
-1660.820
 70
    32
  0
VERTEX
  8
T69SSILL
 62
3
 10
2065.639
 20
-7076.973
 30
-1661.647
 70
    32
  0
VERTEX
  8
T69SSILL
 62
3
 10
2062.129
 20
-7086.032
 30
-1659.144
 70
    32
  0
VERTEX
  8
T69SSILL
 62
3
 10
2058.253
 20
-7092.697
 30
-1659.259
 70
    32
  0
VERTEX
  8
T69SSILL
 62
3
 10
2067.088
 20
-7096.739
 30
-1658.031
 70
    32
  0
VERTEX
  8
T69SSILL
 62
3
 10
2070.491
 20
-7088.057
 30
-1660.053
 70
    32
  0
VERTEX
  8
T69SSILL
 62
3
 10
2073.313
 20
-7087.147
 30
-1659.302
 70
    32
  0
VERTEX
  8
T69SSILL
 62
3
 10
2078.601
 20
-7076.851
 30
-1661.680
 70
    32
  0
VERTEX
  8
T69SSILL
 62
3
 10
2079.106
 20
-7076.018
 30
-1660.795
 70
    32
  0
VERTEX
  8
T69SSILL
 62
3
 10
2079.906
 20
-7064.123
 30
-1661.861
 70
    32
  0
VERTEX
  8
T69SSILL
 62
3
 10
2079.124
 20
-7053.737
 30
-1661.290
 70
    32
  0
VERTEX
  8
T69SSILL
 62
3
 10
2073.273
 20
-7030.727
 30
-1662.150
 70
    32
  0
VERTEX
  8
T69SSILL
 62
3
 10
2063.906
 20
-7013.141
 30
-1662.554
 70
    32
  0
VERTEX
  8
T69SSILL
 62
3
 10
2051.217
 20
-7001.554
 30
-1663.048
 70
    32
  0
VERTEX
  8
T69SSILL
 62
3
 10
2047.875
 20
-6997.541
 30
-1661.454
 70
    32
  0
VERTEX
  8
T69SSILL
 62
3
 10
2039.571
 20
-6993.636
 30
-1661.992
 70
    32
  0
VERTEX
  8
T69SSILL
 62
3
 10
2029.172
 20
-6990.739
 30
-1663.483
 70
    32
  0
VERTEX
  8
T69SSILL
 62
3
 10
2015.674
 20
-6986.089
 30
-1664.498
 70
    32
  0
VERTEX
  8
T69SSILL
 62
3
 10
2008.959
 20
-6982.036
 30
-1664.253
 70
    32
  0
VERTEX
  8
T69SSILL
 62
3
 10
1998.235
 20
-6976.283
 30
-1664.872
 70
    32
  0
VERTEX
  8
T69SSILL
 62
3
 10
1995.765
 20
-6974.514
 30
-1664.217
 70
    32
  0
VERTEX
  8
T69SSILL
 62
3
 10
1987.702
 20
-6965.464
 30
-1663.201
 70
    32
  0
VERTEX
  8
T69SSILL
 62
3
 10
1981.733
 20
-6957.502
 30
-1663.847
 70
    32
  0
VERTEX
  8
T69SSILL
 62
3
 10
1980.998
 20
-6953.152
 30
-1665.238
 70
    32
  0
VERTEX
  8
T69SSILL
 62
3
 10
1976.835
 20
-6949.494
 30
-1664.276
 70
    32
  0
VERTEX
  8
T69SSILL
 62
3
 10
1976.517
 20
-6942.271
 30
-1662.882
 70
    32
  0
VERTEX
  8
T69SSILL
 62
3
 10
1976.097
 20
-6938.007
 30
-1668.309
 70
    32
  0
VERTEX
  8
T69SSILL
 62
3
 10
1979.533
 20
-6934.001
 30
-1668.380
 70
    32
  0
VERTEX
  8
T69SSILL
 62
3
 10
1988.619
 20
-6927.537
 30
-1668.519
 70
    32
  0
VERTEX
  8
T69SSILL
 62
3
 10
1990.009
 20
-6928.548
 30
-1668.517
 70
    32
  0
VERTEX
  8
T69SSILL
 62
3
 10
2006.144
 20
-6917.643
 30
-1668.758
 70
    32
  0
VERTEX
  8
T69SSILL
 62
3
 10
2005.701
 20
-6915.562
 30
-1668.779
 70
    32
  0
VERTEX
  8
T69SSILL
 62
3
 10
2025.882
 20
-6901.342
 30
-1669.086
 70
    32
  0
VERTEX
  8
T69SSILL
 62
3
 10
2020.209
 20
-6894.255
 30
-1669.128
 70
    32
  0
VERTEX
  8
T69SSILL
 62
3
 10
1978.471
 20
-6923.841
 30
-1668.490
 70
    32
  0
VERTEX
  8
T69SSILL
 62
3
 10
1974.112
 20
-6922.888
 30
-1668.470
 70
    32
  0
VERTEX
  8
T69SSILL
 62
3
 10
1970.946
 20
-6917.969
 30
-1668.504
 70
    32
  0
VERTEX
  8
T69SSILL
 62
3
 10
1957.306
 20
-6925.703
 30
-1668.318
 70
    32
  0
VERTEX
  8
T69SSILL
 62
3
 10
1960.520
 20
-6931.784
 30
-1668.271
 70
    32
  0
VERTEX
  8
T69SSILL
 62
3
 10
1960.778
 20
-6936.384
 30
-1668.219
 70
    32
  0
VERTEX
  8
T69SSILL
 62
3
 10
1953.603
 20
-6941.469
 30
-1668.110
 70
    32
  0
VERTEX
  8
T69SSILL
 62
3
 10
1949.933
 20
-6939.984
 30
-1668.101
 70
    32
  0
VERTEX
  8
T69SSILL
 62
3
 10
1934.468
 20
-6947.492
 30
-1668.070
 70
    32
  0
VERTEX
  8
T69SSILL
 62
3
 10
1918.554
 20
-6958.628
 30
-1667.995
 70
    32
  0
VERTEX
  8
T69SSILL
 62
3
 10
1890.140
 20
-6981.296
 30
-1667.857
 70
    32
  0
VERTEX
  8
T69SSILL
 62
3
 10
1888.247
 20
-6989.762
 30
-1667.957
 70
    32
  0
VERTEX
  8
T69SSILL
 62
3
 10
1859.413
 20
-7013.713
 30
-1668.855
 70
    32
  0
VERTEX
  8
T69SSILL
 62
3
 10
1843.162
 20
-7038.533
 30
-1669.125
 70
    32
  0
VERTEX
  8
T69SSILL
 62
3
 10
1834.976
 20
-7044.943
 30
-1669.243
 70
    32
  0
VERTEX
  8
T69SSILL
 62
3
 10
1823.344
 20
-7017.025
 30
-1669.817
 70
    32
  0
VERTEX
  8
T69SSILL
 62
3
 10
1761.773
 20
-6869.255
 30
-1670.536
 70
    32
  0
VERTEX
  8
T69SSILL
 62
3
 10
1764.206
 20
-6862.176
 30
-1670.430
 70
    32
  0
VERTEX
  8
T69SSILL
 62
3
 10
1762.119
 20
-6857.516
 30
-1670.456
 70
    32
  0
VERTEX
  8
T69SSILL
 62
3
 10
1755.000
 20
-6855.000
 30
-1670.627
 70
    32
  0
VERTEX
  8
T69SSILL
 62
3
 10
1715.277
 20
-6753.486
 30
-1671.339
 70
    32
  0
VERTEX
  8
T69SSILL
 62
3
 10
1710.000
 20
-6745.000
 30
-1671.388
 70
    32
  0
VERTEX
  8
T69SSILL
 62
3
 10
1685.000
 20
-6685.000
 30
-1671.767
 70
    32
  0
VERTEX
  8
T69SSILL
 62
3
 10
1690.000
 20
-6680.000
 30
-1671.820
 70
    32
  0
VERTEX
  8
T69SSILL
 62
3
 10
1684.883
 20
-6669.883
 30
-1671.881
 70
    32
  0
VERTEX
  8
T69SSILL
 62
3
 10
1680.000
 20
-6665.000
 30
-1671.878
 70
    32
  0
VERTEX
  8
T69SSILL
 62
3
 10
1678.359
 20
-6661.248
 30
-1671.886
 70
    32
  0
VERTEX
  8
T69SSILL
 62
3
 10
1645.000
 20
-6585.000
 30
-1672.150
 70
    32
  0
VERTEX
  8
T69SSILL
 62
3
 10
1650.000
 20
-6585.000
 30
-1672.162
 70
    32
  0
VERTEX
  8
T69SSILL
 62
3
 10
1645.000
 20
-6575.000
 30
-1672.195
 70
    32
  0
VERTEX
  8
T69SSILL
 62
3
 10
1642.404
 20
-6575.038
 30
-1672.189
 70
    32
  0
VERTEX
  8
T69SSILL
 62
3
 10
1568.635
 20
-6387.318
 30
-1672.859
 70
    32
  0
VERTEX
  8
T69SSILL
 62
3
 10
1571.585
 20
-6381.600
 30
-1672.891
 70
    32
  0
VERTEX
  8
T69SSILL
 62
3
 10
1620.558
 20
-6407.736
 30
-1672.891
 70
    32
  0
SEQEND
  8
T69SSILL
  0
POLYLINE
  8
T69SSILL
 62
3
 66
     1
 70
     8
  0
VERTEX
  8
T69SSILL
 62
3
 10
1845.295
 20
-7066.753
 30
-1668.510
 70
    32
  0
VERTEX
  8
T69SSILL
 62
3
 10
1845.677
 20
-7068.755
 30
-1668.532
 70
    32
  0
VERTEX
  8
T69SSILL
 62
3
 10
1847.096
 20
-7076.189
 30
-1668.587
 70
    32
  0
VERTEX
  8
T69SSILL
 62
3
 10
1847.180
 20
-7076.627
 30
-1668.591
 70
    32
  0
VERTEX
  8
T69SSILL
 62
3
 10
1847.405
 20
-7091.229
 30
-1668.748
 70
    32
  0
VERTEX
  8
T69SSILL
 62
3
 10
1847.472
 20
-7095.538
 30
-1668.801
 70
    32
  0
VERTEX
  8
T69SSILL
 62
3
 10
1847.618
 20
-7105.047
 30
-1668.331
 70
    32
  0
VERTEX
  8
T69SSILL
 62
3
 10
1847.911
 20
-7124.021
 30
-1667.437
 70
    32
  0
VERTEX
  8
T69SSILL
 62
3
 10
1848.930
 20
-7134.643
 30
-1666.936
 70
    32
  0
VERTEX
  8
T69SSILL
 62
3
 10
1851.678
 20
-7163.283
 30
-1666.178
 70
    32
  0
VERTEX
  8
T69SSILL
 62
3
 10
1851.716
 20
-7163.679
 30
-1666.166
 70
    32
  0
VERTEX
  8
T69SSILL
 62
3
 10
1851.751
 20
-7164.050
 30
-1666.183
 70
    32
  0
VERTEX
  8
T69SSILL
 62
3
 10
1852.718
 20
-7174.125
 30
-1666.700
 70
    32
  0
VERTEX
  8
T69SSILL
 62
3
 10
1854.592
 20
-7190.963
 30
-1667.569
 70
    32
  0
VERTEX
  8
T69SSILL
 62
3
 10
1855.373
 20
-7197.985
 30
-1667.138
 70
    32
  0
VERTEX
  8
T69SSILL
 62
3
 10
1855.901
 20
-7202.456
 30
-1666.863
 70
    32
  0
VERTEX
  8
T69SSILL
 62
3
 10
1857.169
 20
-7210.564
 30
-1666.364
 70
    32
  0
VERTEX
  8
T69SSILL
 62
3
 10
1857.814
 20
-7214.681
 30
-1666.091
 70
    32
  0
VERTEX
  8
T69SSILL
 62
3
 10
1858.498
 20
-7219.057
 30
-1666.461
 70
    32
  0
VERTEX
  8
T69SSILL
 62
3
 10
1858.920
 20
-7221.753
 30
-1666.763
 70
    32
  0
VERTEX
  8
T69SSILL
 62
3
 10
1866.601
 20
-7230.065
 30
-1667.960
 70
    32
  0
VERTEX
  8
T69SSILL
 62
3
 10
1868.003
 20
-7231.583
 30
-1667.998
 70
    32
  0
VERTEX
  8
T69SSILL
 62
3
 10
1874.534
 20
-7238.851
 30
-1668.181
 70
    32
  0
VERTEX
  8
T69SSILL
 62
3
 10
1879.465
 20
-7244.339
 30
-1668.246
 70
    32
  0
VERTEX
  8
T69SSILL
 62
3
 10
1892.438
 20
-7262.099
 30
-1668.454
 70
    32
  0
VERTEX
  8
T69SSILL
 62
3
 10
1903.791
 20
-7271.834
 30
-1668.570
 70
    32
  0
VERTEX
  8
T69SSILL
 62
3
 10
1895.691
 20
-7282.463
 30
-1668.500
 70
    32
  0
VERTEX
  8
T69SSILL
 62
3
 10
1869.450
 20
-7250.940
 30
-1668.000
 70
    32
  0
VERTEX
  8
T69SSILL
 62
3
 10
1863.980
 20
-7250.871
 30
-1668.000
 70
    32
  0
VERTEX
  8
T69SSILL
 62
3
 10
1865.590
 20
-7287.079
 30
-1668.000
 70
    32
  0
VERTEX
  8
T69SSILL
 62
3
 10
1874.938
 20
-7389.372
 30
-1668.080
 70
    32
  0
SEQEND
  8
T69SSILL
  0
POLYLINE
  8
T69SSILL
 62
3
 66
     1
 70
     8
  0
VERTEX
  8
T69SSILL
 62
3
 10
1609.710
 20
-6183.564
 30
-1673.000
 70
    32
  0
VERTEX
  8
T69SSILL
 62
3
 10
1610.601
 20
-6191.786
 30
-1673.000
 70
    32
  0
VERTEX
  8
T69SSILL
 62
3
 10
1617.275
 20
-6206.288
 30
-1672.000
 70
    32
  0
VERTEX
  8
T69SSILL
 62
3
 10
1626.904
 20
-6212.921
 30
-1672.000
 70
    32
  0
VERTEX
  8
T69SSILL
 62
3
 10
1631.071
 20
-6227.204
 30
-1672.000
 70
    32
  0
VERTEX
  8
T69SSILL
 62
3
 10
1640.695
 20
-6238.392
 30
-1671.000
 70
    32
  0
VERTEX
  8
T69SSILL
 62
3
 10
1652.104
 20
-6248.328
 30
-1671.000
 70
    32
  0
VERTEX
  8
T69SSILL
 62
3
 10
1660.529
 20
-6256.858
 30
-1671.000
 70
    32
  0
VERTEX
  8
T69SSILL
 62
3
 10
1661.000
 20
-6270.197
 30
-1670.000
 70
    32
  0
VERTEX
  8
T69SSILL
 62
3
 10
1660.918
 20
-6273.228
 30
-1670.000
 70
    32
  0
VERTEX
  8
T69SSILL
 62
3
 10
1672.798
 20
-6290.853
 30
-1670.000
 70
    32
  0
VERTEX
  8
T69SSILL
 62
3
 10
1681.016
 20
-6302.667
 30
-1670.000
 70
    32
  0
VERTEX
  8
T69SSILL
 62
3
 10
1671.177
 20
-6308.620
 30
-1670.000
 70
    32
  0
VERTEX
  8
T69SSILL
 62
3
 10
1653.364
 20
-6279.087
 30
-1670.000
 70
    32
  0
VERTEX
  8
T69SSILL
 62
3
 10
1648.121
 20
-6275.979
 30
-1670.000
 70
    32
  0
VERTEX
  8
T69SSILL
 62
3
 10
1641.506
 20
-6274.852
 30
-1671.000
 70
    32
  0
VERTEX
  8
T69SSILL
 62
3
 10
1638.392
 20
-6261.755
 30
-1671.000
 70
    32
  0
VERTEX
  8
T69SSILL
 62
3
 10
1633.648
 20
-6251.309
 30
-1671.000
 70
    32
  0
VERTEX
  8
T69SSILL
 62
3
 10
1627.745
 20
-6245.763
 30
-1671.000
 70
    32
  0
VERTEX
  8
T69SSILL
 62
3
 10
1621.718
 20
-6245.154
 30
-1672.000
 70
    32
  0
VERTEX
  8
T69SSILL
 62
3
 10
1618.493
 20
-6235.960
 30
-1672.000
 70
    32
  0
VERTEX
  8
T69SSILL
 62
3
 10
1612.806
 20
-6225.142
 30
-1672.000
 70
    32
  0
VERTEX
  8
T69SSILL
 62
3
 10
1607.516
 20
-6215.567
 30
-1672.000
 70
    32
  0
VERTEX
  8
T69SSILL
 62
3
 10
1606.333
 20
-6205.806
 30
-1673.000
 70
    32
  0
VERTEX
  8
T69SSILL
 62
3
 10
1600.974
 20
-6197.281
 30
-1673.000
 70
    32
  0
VERTEX
  8
T69SSILL
 62
3
 10
1591.416
 20
-6194.767
 30
-1673.000
 70
    32
  0
SEQEND
  8
T69SSILL
  0
TEXT
  8
T69SSILL
 62
3
 10
1300.331
 20
-5393.484
 30
-1668.591
 40
8.202
  1
D
 41
 1.0 
  0
TEXT
  8
T69SSILL
 62
3
 10
1985.098
 20
-6888.527
 30
-1667.258
 40
8.202
  1
U
 41
 1.0 
  0
TEXT
  8
T69SSILL
 62
3
 10
1210.843
 20
-6032.760
 30
-1665.704
 40
8.202
  1
U
 41
 1.0 
  0
TEXT
  8
T69SSILL
 62
3
 10
1407.093
 20
-6729.997
 30
-1678.922
 40
8.202
  1
D
 41
 1.0 
  0
TEXT
  8
T69SSILL
 62
3
 10
1940.118
 20
-6901.123
 30
-1676.807
 40
8.202
  1
D
 41
 1.0 
  0
TEXT
  8
T69SSILL
 62
3
 10
4814.240
 20
-8591.853
 30
-1681.806
 40
4.101
  1
6950
 41
 1.0 
  0
TEXT
  8
T69SSILL
 62
3
 10
281.066
 20
-6697.950
 30
-1662.246
 40
4.101
  1
6950
 41
 1.0 
  0
TEXT
  8
T69SSILL
 62
3
 10
1912.215
 20
-7567.003
 30
-1667.258
 40
8.202
  1
U
 41
 1.0 
  0
TEXT
  8
T69SSILL
 62
3
 10
1889.250
 20
-7251.021
 30
-1667.258
 40
8.202
  1
U
 41
 1.0 
  0
TEXT
  8
T69SSILL
 62
3
 10
2385.013
 20
-9124.277
 30
-1667.258
 40
8.202
  1
U
 41
 1.0 
  0
TEXT
  8
T69SSILL
 62
3
 10
2324.516
 20
-8958.166
 30
-1667.258
 40
8.202
  1
D
 41
 1.0 
  0
ENDSEC
  0
EOF
