999
********************************
999
*   DXF File - Entities Only   *
999
*        3D Data Format        *
999
*     Output from ENVISAGE     *
999
*     24-Dec-2007 12:28:39     *
999
********************************
  0
SECTION 
  2
HEADER
  9
$ACADVER
  1
AC1009
  9
$EXTMIN
 10
-290000.000
 20
-250000.000
 30
-4000.000
  9
$EXTMAX
 10
5000000.000
 20
600000.000
 30
6000.000
  0
ENDSEC
  0
SECTION
  2
ENTITIES
  0
POLYLINE
  8
T71SSILL
 62
3
 66
     1
 70
     9
  0
VERTEX
  8
T71SSILL
 62
3
 10
1912.300
 20
-8535.576
 30
-1808.497
 70
    32
  0
VERTEX
  8
T71SSILL
 62
3
 10
1935.808
 20
-8544.619
 30
-1808.413
 70
    32
  0
VERTEX
  8
T71SSILL
 62
3
 10
1934.260
 20
-8555.079
 30
-1808.386
 70
    32
  0
VERTEX
  8
T71SSILL
 62
3
 10
1913.011
 20
-8547.237
 30
-1808.460
 70
    32
  0
SEQEND
  8
T71SSILL
  0
POLYLINE
  8
T71SSILL
 62
3
 66
     1
 70
     9
  0
VERTEX
  8
T71SSILL
 62
3
 10
1389.986
 20
-6531.872
 30
-1815.552
 70
    32
  0
VERTEX
  8
T71SSILL
 62
3
 10
1396.009
 20
-6524.638
 30
-1815.531
 70
    32
  0
VERTEX
  8
T71SSILL
 62
3
 10
1408.018
 20
-6540.099
 30
-1815.413
 70
    32
  0
VERTEX
  8
T71SSILL
 62
3
 10
1407.443
 20
-6555.236
 30
-1815.379
 70
    32
  0
SEQEND
  8
T71SSILL
  0
POLYLINE
  8
T71SSILL
 62
3
 66
     1
 70
     9
  0
VERTEX
  8
T71SSILL
 62
3
 10
1908.022
 20
-7095.573
 30
-1815.977
 70
    32
  0
VERTEX
  8
T71SSILL
 62
3
 10
1894.403
 20
-7127.662
 30
-1814.894
 70
    32
  0
VERTEX
  8
T71SSILL
 62
3
 10
1903.324
 20
-7133.530
 30
-1814.804
 70
    32
  0
VERTEX
  8
T71SSILL
 62
3
 10
1917.911
 20
-7098.707
 30
-1816.184
 70
    32
  0
SEQEND
  8
T71SSILL
  0
POLYLINE
  8
T71SSILL
 62
3
 66
     1
 70
     9
  0
VERTEX
  8
T71SSILL
 62
3
 10
1317.353
 20
-6562.555
 30
-1815.948
 70
    32
  0
VERTEX
  8
T71SSILL
 62
3
 10
1313.902
 20
-6576.462
 30
-1815.935
 70
    32
  0
VERTEX
  8
T71SSILL
 62
3
 10
1316.979
 20
-6600.279
 30
-1815.854
 70
    32
  0
VERTEX
  8
T71SSILL
 62
3
 10
1320.608
 20
-6609.352
 30
-1815.808
 70
    32
  0
VERTEX
  8
T71SSILL
 62
3
 10
1329.824
 20
-6607.730
 30
-1815.752
 70
    32
  0
VERTEX
  8
T71SSILL
 62
3
 10
1325.255
 20
-6570.114
 30
-1815.877
 70
    32
  0
VERTEX
  8
T71SSILL
 62
3
 10
1330.244
 20
-6555.411
 30
-1815.882
 70
    32
  0
SEQEND
  8
T71SSILL
  0
POLYLINE
  8
T71SSILL
 62
6
 66
     1
 70
     9
  0
VERTEX
  8
T71SSILL
 62
6
 10
1580.878
 20
-6568.792
 30
-1816.749
 70
    32
  0
VERTEX
  8
T71SSILL
 62
6
 10
1549.968
 20
-6527.970
 30
-1817.086
 70
    32
  0
VERTEX
  8
T71SSILL
 62
6
 10
1556.983
 20
-6472.612
 30
-1818.242
 70
    32
  0
VERTEX
  8
T71SSILL
 62
6
 10
1583.098
 20
-6507.897
 30
-1817.943
 70
    32
  0
VERTEX
  8
T71SSILL
 62
6
 10
1586.153
 20
-6526.781
 30
-1817.626
 70
    32
  0
SEQEND
  8
T71SSILL
  0
POLYLINE
  8
T71SSILL
 62
6
 66
     1
 70
     9
  0
VERTEX
  8
T71SSILL
 62
6
 10
1594.412
 20
-6572.391
 30
-1816.874
 70
    32
  0
VERTEX
  8
T71SSILL
 62
6
 10
1599.460
 20
-6573.650
 30
-1816.922
 70
    32
  0
VERTEX
  8
T71SSILL
 62
6
 10
1619.752
 20
-6557.458
 30
-1817.522
 70
    32
  0
VERTEX
  8
T71SSILL
 62
6
 10
1596.580
 20
-6526.335
 30
-1817.784
 70
    32
  0
VERTEX
  8
T71SSILL
 62
6
 10
1591.929
 20
-6569.872
 30
-1816.887
 70
    32
  0
SEQEND
  8
T71SSILL
  0
POLYLINE
  8
T71SSILL
 62
6
 66
     1
 70
     9
  0
VERTEX
  8
T71SSILL
 62
6
 10
1948.430
 20
-6983.016
 30
-1817.730
 70
    32
  0
VERTEX
  8
T71SSILL
 62
6
 10
1922.767
 20
-6993.364
 30
-1817.664
 70
    32
  0
VERTEX
  8
T71SSILL
 62
6
 10
1899.192
 20
-6991.076
 30
-1817.614
 70
    32
  0
VERTEX
  8
T71SSILL
 62
6
 10
1892.508
 20
-6977.865
 30
-1817.614
 70
    32
  0
VERTEX
  8
T71SSILL
 62
6
 10
1889.155
 20
-6962.611
 30
-1817.622
 70
    32
  0
VERTEX
  8
T71SSILL
 62
6
 10
1881.723
 20
-6953.779
 30
-1817.615
 70
    32
  0
VERTEX
  8
T71SSILL
 62
6
 10
1884.141
 20
-6937.094
 30
-1817.638
 70
    32
  0
VERTEX
  8
T71SSILL
 62
6
 10
1918.547
 20
-6950.229
 30
-1817.699
 70
    32
  0
VERTEX
  8
T71SSILL
 62
6
 10
1925.849
 20
-6959.344
 30
-1817.706
 70
    32
  0
VERTEX
  8
T71SSILL
 62
6
 10
1942.181
 20
-6972.968
 30
-1817.727
 70
    32
  0
SEQEND
  8
T71SSILL
  0
POLYLINE
  8
T71SSILL
 62
6
 66
     1
 70
     9
  0
VERTEX
  8
T71SSILL
 62
6
 10
1502.540
 20
-6044.368
 30
-1819.349
 70
    32
  0
VERTEX
  8
T71SSILL
 62
6
 10
1510.188
 20
-6028.223
 30
-1819.631
 70
    32
  0
VERTEX
  8
T71SSILL
 62
6
 10
1532.395
 20
-5993.093
 30
-1820.352
 70
    32
  0
VERTEX
  8
T71SSILL
 62
6
 10
1536.078
 20
-5991.008
 30
-1820.441
 70
    32
  0
VERTEX
  8
T71SSILL
 62
6
 10
1545.955
 20
-6027.621
 30
-1820.329
 70
    32
  0
VERTEX
  8
T71SSILL
 62
6
 10
1544.485
 20
-6038.725
 30
-1820.208
 70
    32
  0
VERTEX
  8
T71SSILL
 62
6
 10
1520.424
 20
-6068.951
 30
-1819.492
 70
    32
  0
VERTEX
  8
T71SSILL
 62
6
 10
1515.597
 20
-6067.860
 30
-1819.408
 70
    32
  0
SEQEND
  8
T71SSILL
  0
POLYLINE
  8
T71SSILL
 62
6
 66
     1
 70
     9
  0
VERTEX
  8
T71SSILL
 62
6
 10
1468.746
 20
-5903.211
 30
-1819.919
 70
    32
  0
VERTEX
  8
T71SSILL
 62
6
 10
1488.729
 20
-5921.918
 30
-1820.031
 70
    32
  0
VERTEX
  8
T71SSILL
 62
6
 10
1458.210
 20
-5957.459
 30
-1819.215
 70
    32
  0
VERTEX
  8
T71SSILL
 62
6
 10
1452.513
 20
-5957.557
 30
-1819.128
 70
    32
  0
VERTEX
  8
T71SSILL
 62
6
 10
1442.227
 20
-5939.004
 30
-1819.160
 70
    32
  0
VERTEX
  8
T71SSILL
 62
6
 10
1444.066
 20
-5930.625
 30
-1819.272
 70
    32
  0
SEQEND
  8
T71SSILL
  0
POLYLINE
  8
T71SSILL
 62
6
 66
     1
 70
     9
  0
VERTEX
  8
T71SSILL
 62
6
 10
1333.299
 20
-5739.697
 30
-1819.900
 70
    32
  0
VERTEX
  8
T71SSILL
 62
6
 10
1330.634
 20
-5735.538
 30
-1819.921
 70
    32
  0
VERTEX
  8
T71SSILL
 62
6
 10
1331.080
 20
-5727.705
 30
-1819.957
 70
    32
  0
VERTEX
  8
T71SSILL
 62
6
 10
1346.636
 20
-5724.566
 30
-1819.958
 70
    32
  0
VERTEX
  8
T71SSILL
 62
6
 10
1347.794
 20
-5718.184
 30
-1819.987
 70
    32
  0
VERTEX
  8
T71SSILL
 62
6
 10
1374.991
 20
-5703.792
 30
-1820.030
 70
    32
  0
VERTEX
  8
T71SSILL
 62
6
 10
1382.648
 20
-5709.378
 30
-1819.997
 70
    32
  0
VERTEX
  8
T71SSILL
 62
6
 10
1386.257
 20
-5721.380
 30
-1819.939
 70
    32
  0
VERTEX
  8
T71SSILL
 62
6
 10
1383.249
 20
-5726.110
 30
-1819.920
 70
    32
  0
VERTEX
  8
T71SSILL
 62
6
 10
1360.692
 20
-5740.507
 30
-1819.873
 70
    32
  0
SEQEND
  8
T71SSILL
  0
POLYLINE
  8
T71SSILL
 62
6
 66
     1
 70
     9
  0
VERTEX
  8
T71SSILL
 62
6
 10
1730.732
 20
-5929.703
 30
-1823.712
 70
    32
  0
VERTEX
  8
T71SSILL
 62
6
 10
1733.687
 20
-5932.198
 30
-1823.733
 70
    32
  0
VERTEX
  8
T71SSILL
 62
6
 10
1814.065
 20
-6060.382
 30
-1824.173
 70
    32
  0
VERTEX
  8
T71SSILL
 62
6
 10
1816.793
 20
-6067.349
 30
-1824.176
 70
    32
  0
VERTEX
  8
T71SSILL
 62
6
 10
1816.789
 20
-6071.712
 30
-1824.159
 70
    32
  0
VERTEX
  8
T71SSILL
 62
6
 10
1809.640
 20
-6076.606
 30
-1824.059
 70
    32
  0
VERTEX
  8
T71SSILL
 62
6
 10
1813.551
 20
-6089.083
 30
-1824.054
 70
    32
  0
VERTEX
  8
T71SSILL
 62
6
 10
1817.638
 20
-6096.421
 30
-1824.071
 70
    32
  0
VERTEX
  8
T71SSILL
 62
6
 10
1823.215
 20
-6093.683
 30
-1824.145
 70
    32
  0
VERTEX
  8
T71SSILL
 62
6
 10
1826.381
 20
-6093.928
 30
-1824.180
 70
    32
  0
VERTEX
  8
T71SSILL
 62
6
 10
1839.995
 20
-6101.918
 30
-1824.303
 70
    32
  0
VERTEX
  8
T71SSILL
 62
6
 10
1888.937
 20
-6181.302
 30
-1824.401
 70
    32
  0
VERTEX
  8
T71SSILL
 62
6
 10
1881.413
 20
-6188.111
 30
-1824.261
 70
    32
  0
VERTEX
  8
T71SSILL
 62
6
 10
1881.930
 20
-6193.394
 30
-1824.212
 70
    32
  0
VERTEX
  8
T71SSILL
 62
6
 10
1878.535
 20
-6197.899
 30
-1824.092
 70
    32
  0
VERTEX
  8
T71SSILL
 62
6
 10
1881.211
 20
-6204.477
 30
-1824.069
 70
    32
  0
VERTEX
  8
T71SSILL
 62
6
 10
1886.726
 20
-6210.352
 30
-1824.137
 70
    32
  0
VERTEX
  8
T71SSILL
 62
6
 10
1889.279
 20
-6210.759
 30
-1824.199
 70
    32
  0
VERTEX
  8
T71SSILL
 62
6
 10
1903.612
 20
-6203.861
 30
-1824.394
 70
    32
  0
VERTEX
  8
T71SSILL
 62
6
 10
1925.364
 20
-6239.142
 30
-1824.376
 70
    32
  0
VERTEX
  8
T71SSILL
 62
6
 10
1926.756
 20
-6250.295
 30
-1824.340
 70
    32
  0
VERTEX
  8
T71SSILL
 62
6
 10
1933.125
 20
-6253.398
 30
-1824.363
 70
    32
  0
VERTEX
  8
T71SSILL
 62
6
 10
1945.285
 20
-6270.270
 30
-1824.364
 70
    32
  0
VERTEX
  8
T71SSILL
 62
6
 10
1946.842
 20
-6315.292
 30
-1824.198
 70
    32
  0
VERTEX
  8
T71SSILL
 62
6
 10
1942.865
 20
-6333.550
 30
-1824.105
 70
    32
  0
VERTEX
  8
T71SSILL
 62
6
 10
1937.565
 20
-6347.706
 30
-1823.847
 70
    32
  0
VERTEX
  8
T71SSILL
 62
6
 10
1925.491
 20
-6364.401
 30
-1823.330
 70
    32
  0
VERTEX
  8
T71SSILL
 62
6
 10
1808.603
 20
-6450.961
 30
-1821.225
 70
    32
  0
VERTEX
  8
T71SSILL
 62
6
 10
1795.713
 20
-6456.161
 30
-1821.034
 70
    32
  0
VERTEX
  8
T71SSILL
 62
6
 10
1782.662
 20
-6459.132
 30
-1820.859
 70
    32
  0
VERTEX
  8
T71SSILL
 62
6
 10
1756.263
 20
-6459.218
 30
-1820.554
 70
    32
  0
VERTEX
  8
T71SSILL
 62
6
 10
1744.136
 20
-6456.935
 30
-1820.433
 70
    32
  0
VERTEX
  8
T71SSILL
 62
6
 10
1717.715
 20
-6444.850
 30
-1820.194
 70
    32
  0
VERTEX
  8
T71SSILL
 62
6
 10
1718.588
 20
-6435.492
 30
-1820.278
 70
    32
  0
VERTEX
  8
T71SSILL
 62
6
 10
1708.278
 20
-6420.273
 30
-1820.265
 70
    32
  0
VERTEX
  8
T71SSILL
 62
6
 10
1701.792
 20
-6414.251
 30
-1820.243
 70
    32
  0
VERTEX
  8
T71SSILL
 62
6
 10
1691.647
 20
-6418.402
 30
-1820.107
 70
    32
  0
VERTEX
  8
T71SSILL
 62
6
 10
1680.312
 20
-6398.840
 30
-1820.136
 70
    32
  0
VERTEX
  8
T71SSILL
 62
6
 10
1623.088
 20
-6243.091
 30
-1820.711
 70
    32
  0
VERTEX
  8
T71SSILL
 62
6
 10
1622.385
 20
-6232.638
 30
-1820.782
 70
    32
  0
VERTEX
  8
T71SSILL
 62
6
 10
1634.112
 20
-6224.942
 30
-1820.961
 70
    32
  0
VERTEX
  8
T71SSILL
 62
6
 10
1661.063
 20
-6222.374
 30
-1821.260
 70
    32
  0
VERTEX
  8
T71SSILL
 62
6
 10
1669.340
 20
-6219.615
 30
-1821.366
 70
    32
  0
VERTEX
  8
T71SSILL
 62
6
 10
1670.899
 20
-6213.901
 30
-1821.425
 70
    32
  0
VERTEX
  8
T71SSILL
 62
6
 10
1666.195
 20
-6199.777
 30
-1821.483
 70
    32
  0
VERTEX
  8
T71SSILL
 62
6
 10
1650.183
 20
-6208.331
 30
-1821.252
 70
    32
  0
VERTEX
  8
T71SSILL
 62
6
 10
1637.543
 20
-6211.629
 30
-1821.097
 70
    32
  0
VERTEX
  8
T71SSILL
 62
6
 10
1628.367
 20
-6208.589
 30
-1821.024
 70
    32
  0
VERTEX
  8
T71SSILL
 62
6
 10
1651.244
 20
-6142.398
 30
-1821.758
 70
    32
  0
VERTEX
  8
T71SSILL
 62
6
 10
1657.552
 20
-6142.416
 30
-1821.823
 70
    32
  0
VERTEX
  8
T71SSILL
 62
6
 10
1673.299
 20
-6174.347
 30
-1821.747
 70
    32
  0
VERTEX
  8
T71SSILL
 62
6
 10
1684.311
 20
-6169.286
 30
-1821.906
 70
    32
  0
VERTEX
  8
T71SSILL
 62
6
 10
1672.082
 20
-6142.827
 30
-1821.971
 70
    32
  0
VERTEX
  8
T71SSILL
 62
6
 10
1663.417
 20
-6134.483
 30
-1821.943
 70
    32
  0
VERTEX
  8
T71SSILL
 62
6
 10
1661.023
 20
-6115.932
 30
-1822.058
 70
    32
  0
VERTEX
  8
T71SSILL
 62
6
 10
1669.159
 20
-6093.732
 30
-1822.309
 70
    32
  0
VERTEX
  8
T71SSILL
 62
6
 10
1668.035
 20
-6083.971
 30
-1822.370
 70
    32
  0
VERTEX
  8
T71SSILL
 62
6
 10
1726.773
 20
-5927.701
 30
-1823.683
 70
    32
  0
SEQEND
  8
T71SSILL
  0
POLYLINE
  8
T71SSILL
 62
6
 66
     1
 70
     9
  0
VERTEX
  8
T71SSILL
 62
6
 10
1696.505
 20
-6608.738
 30
-1818.243
 70
    32
  0
VERTEX
  8
T71SSILL
 62
6
 10
1695.254
 20
-6613.532
 30
-1818.167
 70
    32
  0
VERTEX
  8
T71SSILL
 62
6
 10
1679.357
 20
-6611.443
 30
-1817.781
 70
    32
  0
VERTEX
  8
T71SSILL
 62
6
 10
1668.946
 20
-6618.348
 30
-1817.452
 70
    32
  0
VERTEX
  8
T71SSILL
 62
6
 10
1681.856
 20
-6635.030
 30
-1817.628
 70
    32
  0
VERTEX
  8
T71SSILL
 62
6
 10
1684.145
 20
-6642.559
 30
-1817.618
 70
    32
  0
VERTEX
  8
T71SSILL
 62
6
 10
1680.452
 20
-6650.159
 30
-1817.454
 70
    32
  0
VERTEX
  8
T71SSILL
 62
6
 10
1668.124
 20
-6642.590
 30
-1817.208
 70
    32
  0
VERTEX
  8
T71SSILL
 62
6
 10
1634.124
 20
-6560.508
 30
-1817.669
 70
    32
  0
VERTEX
  8
T71SSILL
 62
6
 10
1540.672
 20
-6434.174
 30
-1818.423
 70
    32
  0
VERTEX
  8
T71SSILL
 62
6
 10
1540.481
 20
-6422.224
 30
-1818.511
 70
    32
  0
VERTEX
  8
T71SSILL
 62
6
 10
1545.205
 20
-6380.104
 30
-1818.876
 70
    32
  0
VERTEX
  8
T71SSILL
 62
6
 10
1583.656
 20
-6350.427
 30
-1819.497
 70
    32
  0
VERTEX
  8
T71SSILL
 62
6
 10
1580.918
 20
-6344.850
 30
-1819.510
 70
    32
  0
VERTEX
  8
T71SSILL
 62
6
 10
1572.464
 20
-6338.064
 30
-1819.474
 70
    32
  0
VERTEX
  8
T71SSILL
 62
6
 10
1551.324
 20
-6325.740
 30
-1819.347
 70
    32
  0
VERTEX
  8
T71SSILL
 62
6
 10
1555.516
 20
-6291.702
 30
-1819.580
 70
    32
  0
VERTEX
  8
T71SSILL
 62
6
 10
1560.576
 20
-6287.487
 30
-1819.694
 70
    32
  0
VERTEX
  8
T71SSILL
 62
6
 10
1565.391
 20
-6271.211
 30
-1819.836
 70
    32
  0
VERTEX
  8
T71SSILL
 62
6
 10
1605.598
 20
-6240.741
 30
-1820.547
 70
    32
  0
VERTEX
  8
T71SSILL
 62
6
 10
1613.508
 20
-6242.049
 30
-1820.619
 70
    32
  0
VERTEX
  8
T71SSILL
 62
6
 10
1632.115
 20
-6293.342
 30
-1820.428
 70
    32
  0
VERTEX
  8
T71SSILL
 62
6
 10
1630.306
 20
-6297.552
 30
-1820.377
 70
    32
  0
VERTEX
  8
T71SSILL
 62
6
 10
1630.092
 20
-6304.164
 30
-1820.325
 70
    32
  0
VERTEX
  8
T71SSILL
 62
6
 10
1633.266
 20
-6310.912
 30
-1820.308
 70
    32
  0
VERTEX
  8
T71SSILL
 62
6
 10
1642.420
 20
-6320.815
 30
-1820.328
 70
    32
  0
VERTEX
  8
T71SSILL
 62
6
 10
1671.648
 20
-6398.110
 30
-1820.051
 70
    32
  0
VERTEX
  8
T71SSILL
 62
6
 10
1670.882
 20
-6404.163
 30
-1819.998
 70
    32
  0
VERTEX
  8
T71SSILL
 62
6
 10
1675.170
 20
-6422.061
 30
-1819.908
 70
    32
  0
VERTEX
  8
T71SSILL
 62
6
 10
1676.182
 20
-6424.264
 30
-1819.902
 70
    32
  0
VERTEX
  8
T71SSILL
 62
6
 10
1681.881
 20
-6426.809
 30
-1819.942
 70
    32
  0
VERTEX
  8
T71SSILL
 62
6
 10
1711.094
 20
-6511.071
 30
-1819.613
 70
    32
  0
VERTEX
  8
T71SSILL
 62
6
 10
1712.109
 20
-6514.438
 30
-1819.598
 70
    32
  0
VERTEX
  8
T71SSILL
 62
6
 10
1708.702
 20
-6524.045
 30
-1819.432
 70
    32
  0
VERTEX
  8
T71SSILL
 62
6
 10
1712.846
 20
-6529.710
 30
-1819.385
 70
    32
  0
VERTEX
  8
T71SSILL
 62
6
 10
1720.478
 20
-6530.272
 30
-1819.564
 70
    32
  0
VERTEX
  8
T71SSILL
 62
6
 10
1757.014
 20
-6584.718
 30
-1819.574
 70
    32
  0
VERTEX
  8
T71SSILL
 62
6
 10
1752.124
 20
-6589.043
 30
-1819.479
 70
    32
  0
VERTEX
  8
T71SSILL
 62
6
 10
1741.070
 20
-6588.666
 30
-1819.345
 70
    32
  0
VERTEX
  8
T71SSILL
 62
6
 10
1741.013
 20
-6597.502
 30
-1819.272
 70
    32
  0
VERTEX
  8
T71SSILL
 62
6
 10
1752.459
 20
-6599.138
 30
-1819.401
 70
    32
  0
VERTEX
  8
T71SSILL
 62
6
 10
1757.334
 20
-6611.682
 30
-1819.359
 70
    32
  0
VERTEX
  8
T71SSILL
 62
6
 10
1767.729
 20
-6618.911
 30
-1819.429
 70
    32
  0
VERTEX
  8
T71SSILL
 62
6
 10
1772.418
 20
-6625.824
 30
-1819.431
 70
    32
  0
VERTEX
  8
T71SSILL
 62
6
 10
1770.053
 20
-6630.686
 30
-1819.362
 70
    32
  0
VERTEX
  8
T71SSILL
 62
6
 10
1760.626
 20
-6635.452
 30
-1819.207
 70
    32
  0
VERTEX
  8
T71SSILL
 62
6
 10
1752.172
 20
-6632.473
 30
-1819.126
 70
    32
  0
VERTEX
  8
T71SSILL
 62
6
 10
1740.282
 20
-6620.522
 30
-1819.076
 70
    32
  0
VERTEX
  8
T71SSILL
 62
6
 10
1732.554
 20
-6609.434
 30
-1819.070
 70
    32
  0
VERTEX
  8
T71SSILL
 62
6
 10
1715.626
 20
-6575.799
 30
-1819.034
 70
    32
  0
VERTEX
  8
T71SSILL
 62
6
 10
1710.684
 20
-6552.199
 30
-1819.124
 70
    32
  0
VERTEX
  8
T71SSILL
 62
6
 10
1702.580
 20
-6535.412
 30
-1819.127
 70
    32
  0
VERTEX
  8
T71SSILL
 62
6
 10
1687.497
 20
-6511.600
 30
-1819.364
 70
    32
  0
VERTEX
  8
T71SSILL
 62
6
 10
1674.374
 20
-6485.856
 30
-1819.422
 70
    32
  0
VERTEX
  8
T71SSILL
 62
6
 10
1658.376
 20
-6492.465
 30
-1819.206
 70
    32
  0
VERTEX
  8
T71SSILL
 62
6
 10
1638.296
 20
-6514.022
 30
-1818.615
 70
    32
  0
VERTEX
  8
T71SSILL
 62
6
 10
1647.547
 20
-6525.815
 30
-1818.523
 70
    32
  0
VERTEX
  8
T71SSILL
 62
6
 10
1669.982
 20
-6547.402
 30
-1818.432
 70
    32
  0
VERTEX
  8
T71SSILL
 62
6
 10
1684.462
 20
-6566.181
 30
-1818.326
 70
    32
  0
VERTEX
  8
T71SSILL
 62
6
 10
1705.450
 20
-6607.237
 30
-1818.485
 70
    32
  0
VERTEX
  8
T71SSILL
 62
6
 10
1707.529
 20
-6615.560
 30
-1818.462
 70
    32
  0
VERTEX
  8
T71SSILL
 62
6
 10
1712.178
 20
-6622.068
 30
-1818.521
 70
    32
  0
VERTEX
  8
T71SSILL
 62
6
 10
1728.402
 20
-6630.300
 30
-1818.849
 70
    32
  0
VERTEX
  8
T71SSILL
 62
6
 10
1729.933
 20
-6633.701
 30
-1818.841
 70
    32
  0
VERTEX
  8
T71SSILL
 62
6
 10
1736.252
 20
-6658.979
 30
-1818.713
 70
    32
  0
VERTEX
  8
T71SSILL
 62
6
 10
1703.551
 20
-6681.333
 30
-1817.757
 70
    32
  0
VERTEX
  8
T71SSILL
 62
6
 10
1698.370
 20
-6679.100
 30
-1817.646
 70
    32
  0
VERTEX
  8
T71SSILL
 62
6
 10
1689.821
 20
-6670.146
 30
-1817.509
 70
    32
  0
VERTEX
  8
T71SSILL
 62
6
 10
1694.472
 20
-6651.027
 30
-1817.804
 70
    32
  0
VERTEX
  8
T71SSILL
 62
6
 10
1705.874
 20
-6621.738
 30
-1818.363
 70
    32
  0
SEQEND
  8
T71SSILL
  0
POLYLINE
  8
T71SSILL
 62
6
 66
     1
 70
     9
  0
VERTEX
  8
T71SSILL
 62
6
 10
1619.318
 20
-6207.357
 30
-1820.940
 70
    32
  0
VERTEX
  8
T71SSILL
 62
6
 10
1615.071
 20
-6210.549
 30
-1820.872
 70
    32
  0
VERTEX
  8
T71SSILL
 62
6
 10
1605.896
 20
-6222.737
 30
-1820.685
 70
    32
  0
VERTEX
  8
T71SSILL
 62
6
 10
1588.616
 20
-6241.257
 30
-1820.367
 70
    32
  0
VERTEX
  8
T71SSILL
 62
6
 10
1576.664
 20
-6237.920
 30
-1820.155
 70
    32
  0
VERTEX
  8
T71SSILL
 62
6
 10
1560.931
 20
-6242.390
 30
-1819.824
 70
    32
  0
VERTEX
  8
T71SSILL
 62
6
 10
1554.692
 20
-6229.118
 30
-1819.733
 70
    32
  0
VERTEX
  8
T71SSILL
 62
6
 10
1553.904
 20
-6207.494
 30
-1819.776
 70
    32
  0
VERTEX
  8
T71SSILL
 62
6
 10
1559.356
 20
-6202.948
 30
-1819.899
 70
    32
  0
VERTEX
  8
T71SSILL
 62
6
 10
1561.426
 20
-6193.348
 30
-1819.967
 70
    32
  0
VERTEX
  8
T71SSILL
 62
6
 10
1560.202
 20
-6181.974
 30
-1819.973
 70
    32
  0
VERTEX
  8
T71SSILL
 62
6
 10
1552.830
 20
-6175.558
 30
-1819.841
 70
    32
  0
VERTEX
  8
T71SSILL
 62
6
 10
1551.181
 20
-6142.311
 30
-1819.898
 70
    32
  0
VERTEX
  8
T71SSILL
 62
6
 10
1552.684
 20
-6138.182
 30
-1819.940
 70
    32
  0
VERTEX
  8
T71SSILL
 62
6
 10
1568.831
 20
-6142.725
 30
-1820.254
 70
    32
  0
VERTEX
  8
T71SSILL
 62
6
 10
1590.221
 20
-6141.786
 30
-1820.690
 70
    32
  0
VERTEX
  8
T71SSILL
 62
6
 10
1596.932
 20
-6140.013
 30
-1820.831
 70
    32
  0
VERTEX
  8
T71SSILL
 62
6
 10
1644.970
 20
-6111.008
 30
-1821.883
 70
    32
  0
VERTEX
  8
T71SSILL
 62
6
 10
1651.815
 20
-6113.531
 30
-1821.980
 70
    32
  0
SEQEND
  8
T71SSILL
  0
POLYLINE
  8
T71SSILL
 62
6
 66
     1
 70
     9
  0
VERTEX
  8
T71SSILL
 62
6
 10
1494.521
 20
-6448.872
 30
-1817.801
 70
    32
  0
VERTEX
  8
T71SSILL
 62
6
 10
1495.324
 20
-6441.626
 30
-1817.897
 70
    32
  0
VERTEX
  8
T71SSILL
 62
6
 10
1499.230
 20
-6431.817
 30
-1818.011
 70
    32
  0
VERTEX
  8
T71SSILL
 62
6
 10
1514.291
 20
-6420.339
 30
-1818.254
 70
    32
  0
VERTEX
  8
T71SSILL
 62
6
 10
1516.571
 20
-6420.189
 30
-1818.278
 70
    32
  0
VERTEX
  8
T71SSILL
 62
6
 10
1520.789
 20
-6420.886
 30
-1818.317
 70
    32
  0
VERTEX
  8
T71SSILL
 62
6
 10
1529.274
 20
-6427.311
 30
-1818.357
 70
    32
  0
VERTEX
  8
T71SSILL
 62
6
 10
1529.075
 20
-6439.314
 30
-1818.265
 70
    32
  0
VERTEX
  8
T71SSILL
 62
6
 10
1535.584
 20
-6442.279
 30
-1818.310
 70
    32
  0
VERTEX
  8
T71SSILL
 62
6
 10
1544.058
 20
-6453.900
 30
-1818.311
 70
    32
  0
VERTEX
  8
T71SSILL
 62
6
 10
1541.969
 20
-6485.313
 30
-1817.785
 70
    32
  0
VERTEX
  8
T71SSILL
 62
6
 10
1544.969
 20
-6485.501
 30
-1817.824
 70
    32
  0
VERTEX
  8
T71SSILL
 62
6
 10
1540.267
 20
-6516.951
 30
-1817.157
 70
    32
  0
VERTEX
  8
T71SSILL
 62
6
 10
1495.528
 20
-6455.715
 30
-1817.685
 70
    32
  0
SEQEND
  8
T71SSILL
  0
POLYLINE
  8
T71SSILL
 62
6
 66
     1
 70
     9
  0
VERTEX
  8
T71SSILL
 62
6
 10
1659.727
 20
-6670.178
 30
-1816.741
 70
    32
  0
VERTEX
  8
T71SSILL
 62
6
 10
1665.937
 20
-6668.305
 30
-1816.917
 70
    32
  0
VERTEX
  8
T71SSILL
 62
6
 10
1624.253
 20
-6569.023
 30
-1817.365
 70
    32
  0
VERTEX
  8
T71SSILL
 62
6
 10
1615.092
 20
-6575.459
 30
-1817.111
 70
    32
  0
VERTEX
  8
T71SSILL
 62
6
 10
1608.604
 20
-6584.943
 30
-1816.838
 70
    32
  0
VERTEX
  8
T71SSILL
 62
6
 10
1604.663
 20
-6588.054
 30
-1816.722
 70
    32
  0
VERTEX
  8
T71SSILL
 62
6
 10
1601.473
 20
-6594.951
 30
-1816.545
 70
    32
  0
VERTEX
  8
T71SSILL
 62
6
 10
1618.267
 20
-6635.781
 30
-1816.006
 70
    32
  0
VERTEX
  8
T71SSILL
 62
6
 10
1628.527
 20
-6669.368
 30
-1815.952
 70
    32
  0
SEQEND
  8
T71SSILL
  0
POLYLINE
  8
T71SSILL
 62
6
 66
     1
 70
     9
  0
VERTEX
  8
T71SSILL
 62
6
 10
1588.676
 20
-6600.888
 30
-1816.248
 70
    32
  0
VERTEX
  8
T71SSILL
 62
6
 10
1545.860
 20
-6596.298
 30
-1815.723
 70
    32
  0
VERTEX
  8
T71SSILL
 62
6
 10
1542.193
 20
-6592.353
 30
-1815.746
 70
    32
  0
VERTEX
  8
T71SSILL
 62
6
 10
1523.097
 20
-6589.269
 30
-1815.332
 70
    32
  0
VERTEX
  8
T71SSILL
 62
6
 10
1499.414
 20
-6555.835
 30
-1815.270
 70
    32
  0
VERTEX
  8
T71SSILL
 62
6
 10
1561.358
 20
-6562.870
 30
-1816.583
 70
    32
  0
SEQEND
  8
T71SSILL
  0
POLYLINE
  8
T71SSILL
 62
6
 66
     1
 70
     9
  0
VERTEX
  8
T71SSILL
 62
6
 10
1554.488
 20
-6632.762
 30
-1815.151
 70
    32
  0
VERTEX
  8
T71SSILL
 62
6
 10
1566.049
 20
-6640.238
 30
-1815.174
 70
    32
  0
VERTEX
  8
T71SSILL
 62
6
 10
1568.718
 20
-6643.842
 30
-1815.143
 70
    32
  0
VERTEX
  8
T71SSILL
 62
6
 10
1607.613
 20
-6648.764
 30
-1815.607
 70
    32
  0
VERTEX
  8
T71SSILL
 62
6
 10
1594.377
 20
-6611.655
 30
-1816.125
 70
    32
  0
VERTEX
  8
T71SSILL
 62
6
 10
1542.202
 20
-6606.469
 30
-1815.477
 70
    32
  0
VERTEX
  8
T71SSILL
 62
6
 10
1538.588
 20
-6610.528
 30
-1815.348
 70
    32
  0
SEQEND
  8
T71SSILL
  0
POLYLINE
  8
T71SSILL
 62
6
 66
     1
 70
     9
  0
VERTEX
  8
T71SSILL
 62
6
 10
1568.784
 20
-6669.213
 30
-1814.660
 70
    32
  0
VERTEX
  8
T71SSILL
 62
6
 10
1575.107
 20
-6678.706
 30
-1814.570
 70
    32
  0
VERTEX
  8
T71SSILL
 62
6
 10
1589.770
 20
-6679.813
 30
-1814.867
 70
    32
  0
VERTEX
  8
T71SSILL
 62
6
 10
1612.038
 20
-6678.502
 30
-1815.447
 70
    32
  0
VERTEX
  8
T71SSILL
 62
6
 10
1618.611
 20
-6676.382
 30
-1815.634
 70
    32
  0
VERTEX
  8
T71SSILL
 62
6
 10
1612.149
 20
-6659.412
 30
-1815.625
 70
    32
  0
VERTEX
  8
T71SSILL
 62
6
 10
1568.727
 20
-6654.151
 30
-1814.947
 70
    32
  0
VERTEX
  8
T71SSILL
 62
6
 10
1565.855
 20
-6663.106
 30
-1814.735
 70
    32
  0
SEQEND
  8
T71SSILL
  0
POLYLINE
  8
T71SSILL
 62
6
 66
     1
 70
     9
  0
VERTEX
  8
T71SSILL
 62
6
 10
1469.535
 20
-6514.715
 30
-1815.164
 70
    32
  0
VERTEX
  8
T71SSILL
 62
6
 10
1487.530
 20
-6539.243
 30
-1815.234
 70
    32
  0
VERTEX
  8
T71SSILL
 62
6
 10
1495.264
 20
-6545.690
 30
-1815.373
 70
    32
  0
VERTEX
  8
T71SSILL
 62
6
 10
1552.460
 20
-6552.219
 30
-1816.659
 70
    32
  0
VERTEX
  8
T71SSILL
 62
6
 10
1524.294
 20
-6512.333
 30
-1817.016
 70
    32
  0
VERTEX
  8
T71SSILL
 62
6
 10
1470.658
 20
-6505.442
 30
-1815.455
 70
    32
  0
SEQEND
  8
T71SSILL
  0
POLYLINE
  8
T71SSILL
 62
6
 66
     1
 70
     9
  0
VERTEX
  8
T71SSILL
 62
6
 10
1464.291
 20
-6490.641
 30
-1815.593
 70
    32
  0
VERTEX
  8
T71SSILL
 62
6
 10
1455.345
 20
-6490.464
 30
-1815.239
 70
    32
  0
VERTEX
  8
T71SSILL
 62
6
 10
1451.127
 20
-6470.454
 30
-1815.602
 70
    32
  0
VERTEX
  8
T71SSILL
 62
6
 10
1454.305
 20
-6465.226
 30
-1815.868
 70
    32
  0
VERTEX
  8
T71SSILL
 62
6
 10
1464.022
 20
-6458.794
 30
-1816.429
 70
    32
  0
VERTEX
  8
T71SSILL
 62
6
 10
1474.727
 20
-6465.513
 30
-1816.681
 70
    32
  0
VERTEX
  8
T71SSILL
 62
6
 10
1487.056
 20
-6462.851
 30
-1817.247
 70
    32
  0
VERTEX
  8
T71SSILL
 62
6
 10
1515.128
 20
-6500.290
 30
-1817.115
 70
    32
  0
VERTEX
  8
T71SSILL
 62
6
 10
1467.019
 20
-6493.800
 30
-1815.619
 70
    32
  0
SEQEND
  8
T71SSILL
  0
POLYLINE
  8
T71SSILL
 62
6
 66
     1
 70
     9
  0
VERTEX
  8
T71SSILL
 62
6
 10
2014.054
 20
-7004.798
 30
-1817.697
 70
    32
  0
VERTEX
  8
T71SSILL
 62
6
 10
2018.997
 20
-7007.949
 30
-1817.598
 70
    32
  0
VERTEX
  8
T71SSILL
 62
6
 10
2021.958
 20
-7015.899
 30
-1817.447
 70
    32
  0
VERTEX
  8
T71SSILL
 62
6
 10
2020.139
 20
-7031.065
 30
-1817.238
 70
    32
  0
VERTEX
  8
T71SSILL
 62
6
 10
2013.568
 20
-7034.559
 30
-1817.254
 70
    32
  0
VERTEX
  8
T71SSILL
 62
6
 10
1958.600
 20
-7040.478
 30
-1817.693
 70
    32
  0
VERTEX
  8
T71SSILL
 62
6
 10
1949.164
 20
-7040.017
 30
-1817.672
 70
    32
  0
VERTEX
  8
T71SSILL
 62
6
 10
1943.811
 20
-7030.159
 30
-1817.671
 70
    32
  0
VERTEX
  8
T71SSILL
 62
6
 10
1928.670
 20
-7032.637
 30
-1817.635
 70
    32
  0
VERTEX
  8
T71SSILL
 62
6
 10
1919.398
 20
-7006.035
 30
-1817.643
 70
    32
  0
VERTEX
  8
T71SSILL
 62
6
 10
1962.741
 20
-6990.453
 30
-1817.754
 70
    32
  0
VERTEX
  8
T71SSILL
 62
6
 10
1961.969
 20
-6984.065
 30
-1817.759
 70
    32
  0
VERTEX
  8
T71SSILL
 62
6
 10
1993.819
 20
-6984.569
 30
-1817.828
 70
    32
  0
VERTEX
  8
T71SSILL
 62
6
 10
2011.229
 20
-6991.210
 30
-1817.859
 70
    32
  0
VERTEX
  8
T71SSILL
 62
6
 10
2012.135
 20
-6995.570
 30
-1817.856
 70
    32
  0
SEQEND
  8
T71SSILL
  0
POLYLINE
  8
T71SSILL
 62
6
 66
     1
 70
     9
  0
VERTEX
  8
T71SSILL
 62
6
 10
1507.402
 20
-5573.233
 30
-1821.294
 70
    32
  0
VERTEX
  8
T71SSILL
 62
6
 10
1590.808
 20
-5705.330
 30
-1822.226
 70
    32
  0
VERTEX
  8
T71SSILL
 62
6
 10
1594.413
 20
-5721.695
 30
-1822.245
 70
    32
  0
VERTEX
  8
T71SSILL
 62
6
 10
1598.169
 20
-5728.642
 30
-1822.285
 70
    32
  0
VERTEX
  8
T71SSILL
 62
6
 10
1612.299
 20
-5749.807
 30
-1822.445
 70
    32
  0
VERTEX
  8
T71SSILL
 62
6
 10
1621.323
 20
-5754.652
 30
-1822.565
 70
    32
  0
VERTEX
  8
T71SSILL
 62
6
 10
1707.554
 20
-5891.799
 30
-1823.528
 70
    32
  0
VERTEX
  8
T71SSILL
 62
6
 10
1711.120
 20
-5909.637
 30
-1823.538
 70
    32
  0
VERTEX
  8
T71SSILL
 62
6
 10
1713.601
 20
-5912.434
 30
-1823.584
 70
    32
  0
VERTEX
  8
T71SSILL
 62
6
 10
1715.772
 20
-5931.095
 30
-1823.585
 70
    32
  0
VERTEX
  8
T71SSILL
 62
6
 10
1654.899
 20
-6094.435
 30
-1822.130
 70
    32
  0
VERTEX
  8
T71SSILL
 62
6
 10
1594.568
 20
-6131.799
 30
-1820.806
 70
    32
  0
VERTEX
  8
T71SSILL
 62
6
 10
1574.684
 20
-6133.681
 30
-1820.398
 70
    32
  0
VERTEX
  8
T71SSILL
 62
6
 10
1565.869
 20
-6132.143
 30
-1820.223
 70
    32
  0
VERTEX
  8
T71SSILL
 62
6
 10
1556.597
 20
-6127.915
 30
-1820.047
 70
    32
  0
VERTEX
  8
T71SSILL
 62
6
 10
1550.921
 20
-6120.774
 30
-1819.951
 70
    32
  0
VERTEX
  8
T71SSILL
 62
6
 10
1542.126
 20
-6114.986
 30
-1819.789
 70
    32
  0
VERTEX
  8
T71SSILL
 62
6
 10
1526.648
 20
-6088.253
 30
-1819.548
 70
    32
  0
VERTEX
  8
T71SSILL
 62
6
 10
1525.582
 20
-6078.047
 30
-1819.554
 70
    32
  0
VERTEX
  8
T71SSILL
 62
6
 10
1536.177
 20
-6065.508
 30
-1819.826
 70
    32
  0
VERTEX
  8
T71SSILL
 62
6
 10
1540.059
 20
-6070.455
 30
-1819.875
 70
    32
  0
VERTEX
  8
T71SSILL
 62
6
 10
1550.657
 20
-6076.673
 30
-1820.066
 70
    32
  0
VERTEX
  8
T71SSILL
 62
6
 10
1573.536
 20
-6056.165
 30
-1820.634
 70
    32
  0
VERTEX
  8
T71SSILL
 62
6
 10
1568.834
 20
-6037.846
 30
-1820.687
 70
    32
  0
VERTEX
  8
T71SSILL
 62
6
 10
1570.016
 20
-6024.322
 30
-1820.822
 70
    32
  0
VERTEX
  8
T71SSILL
 62
6
 10
1584.356
 20
-6008.698
 30
-1821.229
 70
    32
  0
VERTEX
  8
T71SSILL
 62
6
 10
1574.935
 20
-6005.017
 30
-1821.077
 70
    32
  0
VERTEX
  8
T71SSILL
 62
6
 10
1558.329
 20
-6022.653
 30
-1820.610
 70
    32
  0
VERTEX
  8
T71SSILL
 62
6
 10
1555.086
 20
-6021.546
 30
-1820.556
 70
    32
  0
VERTEX
  8
T71SSILL
 62
6
 10
1546.026
 20
-5987.162
 30
-1820.653
 70
    32
  0
VERTEX
  8
T71SSILL
 62
6
 10
1547.288
 20
-5981.836
 30
-1820.671
 70
    32
  0
VERTEX
  8
T71SSILL
 62
6
 10
1543.346
 20
-5973.527
 30
-1820.595
 70
    32
  0
VERTEX
  8
T71SSILL
 62
6
 10
1552.319
 20
-5958.670
 30
-1820.745
 70
    32
  0
VERTEX
  8
T71SSILL
 62
6
 10
1544.493
 20
-5953.306
 30
-1820.602
 70
    32
  0
VERTEX
  8
T71SSILL
 62
6
 10
1538.610
 20
-5963.739
 30
-1820.504
 70
    32
  0
VERTEX
  8
T71SSILL
 62
6
 10
1535.257
 20
-5950.988
 30
-1820.437
 70
    32
  0
VERTEX
  8
T71SSILL
 62
6
 10
1516.321
 20
-5933.567
 30
-1820.328
 70
    32
  0
VERTEX
  8
T71SSILL
 62
6
 10
1519.750
 20
-5924.338
 30
-1820.473
 70
    32
  0
VERTEX
  8
T71SSILL
 62
6
 10
1512.134
 20
-5920.809
 30
-1820.394
 70
    32
  0
VERTEX
  8
T71SSILL
 62
6
 10
1509.033
 20
-5926.900
 30
-1820.286
 70
    32
  0
VERTEX
  8
T71SSILL
 62
6
 10
1501.632
 20
-5920.566
 30
-1820.239
 70
    32
  0
VERTEX
  8
T71SSILL
 62
6
 10
1532.200
 20
-5897.391
 30
-1820.931
 70
    32
  0
VERTEX
  8
T71SSILL
 62
6
 10
1528.222
 20
-5890.276
 30
-1820.943
 70
    32
  0
VERTEX
  8
T71SSILL
 62
6
 10
1494.896
 20
-5914.460
 30
-1820.199
 70
    32
  0
VERTEX
  8
T71SSILL
 62
6
 10
1475.629
 20
-5896.647
 30
-1820.089
 70
    32
  0
VERTEX
  8
T71SSILL
 62
6
 10
1491.926
 20
-5887.262
 30
-1820.428
 70
    32
  0
VERTEX
  8
T71SSILL
 62
6
 10
1500.969
 20
-5877.907
 30
-1820.580
 70
    32
  0
VERTEX
  8
T71SSILL
 62
6
 10
1501.883
 20
-5874.413
 30
-1820.600
 70
    32
  0
VERTEX
  8
T71SSILL
 62
6
 10
1500.303
 20
-5870.066
 30
-1820.586
 70
    32
  0
VERTEX
  8
T71SSILL
 62
6
 10
1500.270
 20
-5855.478
 30
-1820.615
 70
    32
  0
VERTEX
  8
T71SSILL
 62
6
 10
1488.635
 20
-5793.010
 30
-1820.575
 70
    32
  0
VERTEX
  8
T71SSILL
 62
6
 10
1484.112
 20
-5780.695
 30
-1820.535
 70
    32
  0
VERTEX
  8
T71SSILL
 62
6
 10
1476.960
 20
-5774.446
 30
-1820.445
 70
    32
  0
VERTEX
  8
T71SSILL
 62
6
 10
1468.385
 20
-5776.718
 30
-1820.317
 70
    32
  0
VERTEX
  8
T71SSILL
 62
6
 10
1442.812
 20
-5750.995
 30
-1820.000
 70
    32
  0
VERTEX
  8
T71SSILL
 62
6
 10
1451.734
 20
-5750.699
 30
-1820.130
 70
    32
  0
VERTEX
  8
T71SSILL
 62
6
 10
1451.856
 20
-5741.641
 30
-1820.150
 70
    32
  0
VERTEX
  8
T71SSILL
 62
6
 10
1384.205
 20
-5739.900
 30
-1819.855
 70
    32
  0
VERTEX
  8
T71SSILL
 62
6
 10
1385.428
 20
-5736.046
 30
-1819.872
 70
    32
  0
VERTEX
  8
T71SSILL
 62
6
 10
1392.504
 20
-5733.541
 30
-1819.877
 70
    32
  0
VERTEX
  8
T71SSILL
 62
6
 10
1402.724
 20
-5734.338
 30
-1819.865
 70
    32
  0
VERTEX
  8
T71SSILL
 62
6
 10
1408.066
 20
-5729.569
 30
-1819.882
 70
    32
  0
VERTEX
  8
T71SSILL
 62
6
 10
1394.231
 20
-5702.376
 30
-1820.020
 70
    32
  0
VERTEX
  8
T71SSILL
 62
6
 10
1395.303
 20
-5696.242
 30
-1820.047
 70
    32
  0
VERTEX
  8
T71SSILL
 62
6
 10
1392.693
 20
-5688.387
 30
-1820.085
 70
    32
  0
VERTEX
  8
T71SSILL
 62
6
 10
1387.474
 20
-5680.013
 30
-1820.128
 70
    32
  0
VERTEX
  8
T71SSILL
 62
6
 10
1382.610
 20
-5683.924
 30
-1820.115
 70
    32
  0
VERTEX
  8
T71SSILL
 62
6
 10
1376.063
 20
-5678.624
 30
-1820.145
 70
    32
  0
VERTEX
  8
T71SSILL
 62
6
 10
1369.384
 20
-5683.772
 30
-1820.127
 70
    32
  0
VERTEX
  8
T71SSILL
 62
6
 10
1371.626
 20
-5688.901
 30
-1820.101
 70
    32
  0
VERTEX
  8
T71SSILL
 62
6
 10
1370.158
 20
-5692.114
 30
-1820.088
 70
    32
  0
VERTEX
  8
T71SSILL
 62
6
 10
1360.928
 20
-5700.384
 30
-1820.057
 70
    32
  0
VERTEX
  8
T71SSILL
 62
6
 10
1328.873
 20
-5717.852
 30
-1820.004
 70
    32
  0
VERTEX
  8
T71SSILL
 62
6
 10
1315.572
 20
-5716.561
 30
-1820.022
 70
    32
  0
VERTEX
  8
T71SSILL
 62
6
 10
1309.174
 20
-5705.927
 30
-1820.076
 70
    32
  0
VERTEX
  8
T71SSILL
 62
6
 10
1310.717
 20
-5700.047
 30
-1820.102
 70
    32
  0
VERTEX
  8
T71SSILL
 62
6
 10
1336.651
 20
-5668.418
 30
-1820.226
 70
    32
  0
VERTEX
  8
T71SSILL
 62
6
 10
1345.529
 20
-5675.982
 30
-1820.183
 70
    32
  0
VERTEX
  8
T71SSILL
 62
6
 10
1355.003
 20
-5678.809
 30
-1820.162
 70
    32
  0
VERTEX
  8
T71SSILL
 62
6
 10
1358.766
 20
-5676.526
 30
-1820.169
 70
    32
  0
VERTEX
  8
T71SSILL
 62
6
 10
1368.110
 20
-5675.538
 30
-1820.166
 70
    32
  0
VERTEX
  8
T71SSILL
 62
6
 10
1377.823
 20
-5662.048
 30
-1820.220
 70
    32
  0
VERTEX
  8
T71SSILL
 62
6
 10
1375.669
 20
-5660.198
 30
-1820.230
 70
    32
  0
VERTEX
  8
T71SSILL
 62
6
 10
1366.455
 20
-5635.511
 30
-1820.352
 70
    32
  0
VERTEX
  8
T71SSILL
 62
6
 10
1368.530
 20
-5629.163
 30
-1820.379
 70
    32
  0
VERTEX
  8
T71SSILL
 62
6
 10
1360.991
 20
-5622.689
 30
-1820.416
 70
    32
  0
VERTEX
  8
T71SSILL
 62
6
 10
1353.846
 20
-5627.028
 30
-1820.402
 70
    32
  0
VERTEX
  8
T71SSILL
 62
6
 10
1336.227
 20
-5592.693
 30
-1820.575
 70
    32
  0
VERTEX
  8
T71SSILL
 62
6
 10
1338.730
 20
-5588.627
 30
-1820.592
 70
    32
  0
VERTEX
  8
T71SSILL
 62
6
 10
1331.558
 20
-5581.350
 30
-1820.631
 70
    32
  0
VERTEX
  8
T71SSILL
 62
6
 10
1327.377
 20
-5571.566
 30
-1820.672
 70
    32
  0
VERTEX
  8
T71SSILL
 62
6
 10
1320.508
 20
-5572.378
 30
-1820.671
 70
    32
  0
VERTEX
  8
T71SSILL
 62
6
 10
1318.875
 20
-5575.256
 30
-1820.661
 70
    32
  0
VERTEX
  8
T71SSILL
 62
6
 10
1324.855
 20
-5593.639
 30
-1820.580
 70
    32
  0
VERTEX
  8
T71SSILL
 62
6
 10
1296.248
 20
-5641.532
 30
-1820.384
 70
    32
  0
VERTEX
  8
T71SSILL
 62
6
 10
1287.168
 20
-5652.081
 30
-1820.343
 70
    32
  0
VERTEX
  8
T71SSILL
 62
6
 10
1279.824
 20
-5653.195
 30
-1820.344
 70
    32
  0
VERTEX
  8
T71SSILL
 62
6
 10
1256.633
 20
-5613.151
 30
-1820.530
 70
    32
  0
VERTEX
  8
T71SSILL
 62
6
 10
1257.588
 20
-5596.486
 30
-1820.577
 70
    32
  0
VERTEX
  8
T71SSILL
 62
6
 10
1265.824
 20
-5587.320
 30
-1820.619
 70
    32
  0
VERTEX
  8
T71SSILL
 62
6
 10
1331.938
 20
-5555.760
 30
-1820.731
 70
    32
  0
VERTEX
  8
T71SSILL
 62
6
 10
1327.844
 20
-5545.449
 30
-1820.773
 70
    32
  0
VERTEX
  8
T71SSILL
 62
6
 10
1319.845
 20
-5548.753
 30
-1820.763
 70
    32
  0
VERTEX
  8
T71SSILL
 62
6
 10
1298.561
 20
-5502.582
 30
-1820.920
 70
    32
  0
VERTEX
  8
T71SSILL
 62
6
 10
1291.568
 20
-5501.309
 30
-1820.908
 70
    32
  0
VERTEX
  8
T71SSILL
 62
6
 10
1282.295
 20
-5507.799
 30
-1820.870
 70
    32
  0
VERTEX
  8
T71SSILL
 62
6
 10
1277.976
 20
-5524.802
 30
-1820.815
 70
    32
  0
VERTEX
  8
T71SSILL
 62
6
 10
1275.755
 20
-5528.315
 30
-1820.801
 70
    32
  0
VERTEX
  8
T71SSILL
 62
6
 10
1269.401
 20
-5530.881
 30
-1820.780
 70
    32
  0
VERTEX
  8
T71SSILL
 62
6
 10
1262.564
 20
-5527.247
 30
-1820.775
 70
    32
  0
VERTEX
  8
T71SSILL
 62
6
 10
1271.232
 20
-5389.538
 30
-1821.166
 70
    32
  0
VERTEX
  8
T71SSILL
 62
6
 10
1276.254
 20
-5386.795
 30
-1821.184
 70
    32
  0
VERTEX
  8
T71SSILL
 62
6
 10
1287.175
 20
-5367.590
 30
-1821.260
 70
    32
  0
VERTEX
  8
T71SSILL
 62
6
 10
1388.472
 20
-5294.215
 30
-1821.678
 70
    32
  0
VERTEX
  8
T71SSILL
 62
6
 10
1390.971
 20
-5297.456
 30
-1821.675
 70
    32
  0
VERTEX
  8
T71SSILL
 62
6
 10
1383.687
 20
-5320.967
 30
-1821.596
 70
    32
  0
VERTEX
  8
T71SSILL
 62
6
 10
1383.822
 20
-5363.539
 30
-1821.453
 70
    32
  0
VERTEX
  8
T71SSILL
 62
6
 10
1392.360
 20
-5389.388
 30
-1821.349
 70
    32
  0
VERTEX
  8
T71SSILL
 62
6
 10
1466.774
 20
-5508.387
 30
-1820.852
 70
    32
  0
VERTEX
  8
T71SSILL
 62
6
 10
1471.176
 20
-5525.953
 30
-1820.868
 70
    32
  0
VERTEX
  8
T71SSILL
 62
6
 10
1477.298
 20
-5536.307
 30
-1820.935
 70
    32
  0
VERTEX
  8
T71SSILL
 62
6
 10
1486.827
 20
-5548.102
 30
-1821.048
 70
    32
  0
VERTEX
  8
T71SSILL
 62
6
 10
1493.936
 20
-5552.572
 30
-1821.142
 70
    32
  0
VERTEX
  8
T71SSILL
 62
6
 10
1503.260
 20
-5565.784
 30
-1821.249
 70
    32
  0
VERTEX
  8
T71SSILL
 62
6
 10
1500.707
 20
-5569.183
 30
-1821.205
 70
    32
  0
VERTEX
  8
T71SSILL
 62
6
 10
1503.500
 20
-5574.872
 30
-1821.234
 70
    32
  0
SEQEND
  8
T71SSILL
  0
POLYLINE
  8
T71SSILL
 62
6
 66
     1
 70
     9
  0
VERTEX
  8
T71SSILL
 62
6
 10
1497.759
 20
-6029.272
 30
-1819.382
 70
    32
  0
VERTEX
  8
T71SSILL
 62
6
 10
1493.920
 20
-6029.911
 30
-1819.302
 70
    32
  0
VERTEX
  8
T71SSILL
 62
6
 10
1486.100
 20
-6016.099
 30
-1819.265
 70
    32
  0
VERTEX
  8
T71SSILL
 62
6
 10
1485.998
 20
-5999.537
 30
-1819.400
 70
    32
  0
VERTEX
  8
T71SSILL
 62
6
 10
1512.612
 20
-5943.071
 30
-1820.177
 70
    32
  0
VERTEX
  8
T71SSILL
 62
6
 10
1526.027
 20
-5955.450
 30
-1820.275
 70
    32
  0
VERTEX
  8
T71SSILL
 62
6
 10
1531.887
 20
-5975.000
 30
-1820.393
 70
    32
  0
VERTEX
  8
T71SSILL
 62
6
 10
1527.020
 20
-5979.466
 30
-1820.309
 70
    32
  0
VERTEX
  8
T71SSILL
 62
6
 10
1525.927
 20
-5984.571
 30
-1820.293
 70
    32
  0
VERTEX
  8
T71SSILL
 62
6
 10
1502.341
 20
-6025.915
 30
-1819.498
 70
    32
  0
SEQEND
  8
T71SSILL
  0
POLYLINE
  8
T71SSILL
 62
6
 66
     1
 70
     9
  0
VERTEX
  8
T71SSILL
 62
6
 10
1483.677
 20
-5940.249
 30
-1819.771
 70
    32
  0
VERTEX
  8
T71SSILL
 62
6
 10
1494.716
 20
-5927.769
 30
-1820.062
 70
    32
  0
VERTEX
  8
T71SSILL
 62
6
 10
1505.517
 20
-5936.656
 30
-1820.135
 70
    32
  0
VERTEX
  8
T71SSILL
 62
6
 10
1488.934
 20
-5974.077
 30
-1819.627
 70
    32
  0
VERTEX
  8
T71SSILL
 62
6
 10
1480.457
 20
-5989.660
 30
-1819.374
 70
    32
  0
VERTEX
  8
T71SSILL
 62
6
 10
1473.531
 20
-5994.445
 30
-1819.201
 70
    32
  0
VERTEX
  8
T71SSILL
 62
6
 10
1461.791
 20
-5973.352
 30
-1819.144
 70
    32
  0
VERTEX
  8
T71SSILL
 62
6
 10
1464.386
 20
-5969.427
 30
-1819.187
 70
    32
  0
SEQEND
  8
T71SSILL
  0
POLYLINE
  8
T71SSILL
 62
6
 66
     1
 70
     9
  0
VERTEX
  8
T71SSILL
 62
6
 10
1427.876
 20
-5825.748
 30
-1819.633
 70
    32
  0
VERTEX
  8
T71SSILL
 62
6
 10
1431.190
 20
-5828.550
 30
-1819.675
 70
    32
  0
VERTEX
  8
T71SSILL
 62
6
 10
1440.224
 20
-5832.006
 30
-1819.798
 70
    32
  0
VERTEX
  8
T71SSILL
 62
6
 10
1443.066
 20
-5831.026
 30
-1819.841
 70
    32
  0
VERTEX
  8
T71SSILL
 62
6
 10
1449.996
 20
-5821.879
 30
-1819.959
 70
    32
  0
VERTEX
  8
T71SSILL
 62
6
 10
1474.349
 20
-5804.938
 30
-1820.345
 70
    32
  0
VERTEX
  8
T71SSILL
 62
6
 10
1481.994
 20
-5812.191
 30
-1820.440
 70
    32
  0
VERTEX
  8
T71SSILL
 62
6
 10
1490.571
 20
-5851.795
 30
-1820.483
 70
    32
  0
VERTEX
  8
T71SSILL
 62
6
 10
1485.382
 20
-5869.986
 30
-1820.371
 70
    32
  0
VERTEX
  8
T71SSILL
 62
6
 10
1477.914
 20
-5880.436
 30
-1820.242
 70
    32
  0
VERTEX
  8
T71SSILL
 62
6
 10
1472.802
 20
-5884.261
 30
-1820.161
 70
    32
  0
VERTEX
  8
T71SSILL
 62
6
 10
1452.788
 20
-5865.915
 30
-1819.910
 70
    32
  0
VERTEX
  8
T71SSILL
 62
6
 10
1441.520
 20
-5879.338
 30
-1819.720
 70
    32
  0
VERTEX
  8
T71SSILL
 62
6
 10
1461.067
 20
-5896.875
 30
-1819.868
 70
    32
  0
VERTEX
  8
T71SSILL
 62
6
 10
1437.206
 20
-5922.433
 30
-1819.252
 70
    32
  0
VERTEX
  8
T71SSILL
 62
6
 10
1433.641
 20
-5923.630
 30
-1819.186
 70
    32
  0
VERTEX
  8
T71SSILL
 62
6
 10
1378.634
 20
-5826.113
 30
-1819.462
 70
    32
  0
VERTEX
  8
T71SSILL
 62
6
 10
1381.394
 20
-5821.020
 30
-1819.484
 70
    32
  0
VERTEX
  8
T71SSILL
 62
6
 10
1414.286
 20
-5824.365
 30
-1819.440
 70
    32
  0
SEQEND
  8
T71SSILL
  0
POLYLINE
  8
T71SSILL
 62
6
 66
     1
 70
     9
  0
VERTEX
  8
T71SSILL
 62
6
 10
1453.862
 20
-5794.508
 30
-1820.071
 70
    32
  0
VERTEX
  8
T71SSILL
 62
6
 10
1456.014
 20
-5800.442
 30
-1820.090
 70
    32
  0
VERTEX
  8
T71SSILL
 62
6
 10
1454.094
 20
-5804.708
 30
-1820.054
 70
    32
  0
VERTEX
  8
T71SSILL
 62
6
 10
1449.234
 20
-5808.063
 30
-1819.977
 70
    32
  0
VERTEX
  8
T71SSILL
 62
6
 10
1434.713
 20
-5810.347
 30
-1819.763
 70
    32
  0
VERTEX
  8
T71SSILL
 62
6
 10
1419.876
 20
-5791.189
 30
-1819.588
 70
    32
  0
SEQEND
  8
T71SSILL
  0
POLYLINE
  8
T71SSILL
 62
6
 66
     1
 70
     9
  0
VERTEX
  8
T71SSILL
 62
6
 10
1394.191
 20
-5761.508
 30
-1819.747
 70
    32
  0
VERTEX
  8
T71SSILL
 62
6
 10
1386.224
 20
-5767.980
 30
-1819.724
 70
    32
  0
VERTEX
  8
T71SSILL
 62
6
 10
1389.034
 20
-5771.446
 30
-1819.706
 70
    32
  0
VERTEX
  8
T71SSILL
 62
6
 10
1390.460
 20
-5777.876
 30
-1819.675
 70
    32
  0
VERTEX
  8
T71SSILL
 62
6
 10
1360.661
 20
-5775.409
 30
-1819.712
 70
    32
  0
VERTEX
  8
T71SSILL
 62
6
 10
1345.230
 20
-5768.933
 30
-1819.755
 70
    32
  0
VERTEX
  8
T71SSILL
 62
6
 10
1337.464
 20
-5755.511
 30
-1819.823
 70
    32
  0
VERTEX
  8
T71SSILL
 62
6
 10
1339.705
 20
-5749.220
 30
-1819.850
 70
    32
  0
VERTEX
  8
T71SSILL
 62
6
 10
1414.361
 20
-5750.567
 30
-1819.780
 70
    32
  0
VERTEX
  8
T71SSILL
 62
6
 10
1420.476
 20
-5757.947
 30
-1819.741
 70
    32
  0
VERTEX
  8
T71SSILL
 62
6
 10
1430.205
 20
-5757.462
 30
-1819.806
 70
    32
  0
VERTEX
  8
T71SSILL
 62
6
 10
1457.598
 20
-5785.198
 30
-1820.144
 70
    32
  0
VERTEX
  8
T71SSILL
 62
6
 10
1409.839
 20
-5780.128
 30
-1819.648
 70
    32
  0
SEQEND
  8
T71SSILL
  0
POLYLINE
  8
T71SSILL
 62
6
 66
     1
 70
     9
  0
VERTEX
  8
T71SSILL
 62
6
 10
1403.049
 20
-5789.138
 30
-1819.612
 70
    32
  0
VERTEX
  8
T71SSILL
 62
6
 10
1424.698
 20
-5815.749
 30
-1819.607
 70
    32
  0
VERTEX
  8
T71SSILL
 62
6
 10
1380.549
 20
-5810.982
 30
-1819.531
 70
    32
  0
VERTEX
  8
T71SSILL
 62
6
 10
1366.774
 20
-5806.186
 30
-1819.564
 70
    32
  0
VERTEX
  8
T71SSILL
 62
6
 10
1358.587
 20
-5793.178
 30
-1819.631
 70
    32
  0
VERTEX
  8
T71SSILL
 62
6
 10
1362.069
 20
-5784.339
 30
-1819.669
 70
    32
  0
SEQEND
  8
T71SSILL
  0
POLYLINE
  8
T71SSILL
 62
6
 66
     1
 70
     9
  0
VERTEX
  8
T71SSILL
 62
6
 10
1362.044
 20
-5845.333
 30
-1819.356
 70
    32
  0
VERTEX
  8
T71SSILL
 62
6
 10
1359.416
 20
-5855.206
 30
-1819.330
 70
    32
  0
VERTEX
  8
T71SSILL
 62
6
 10
1361.894
 20
-5870.418
 30
-1819.312
 70
    32
  0
VERTEX
  8
T71SSILL
 62
6
 10
1374.290
 20
-5888.604
 30
-1819.265
 70
    32
  0
VERTEX
  8
T71SSILL
 62
6
 10
1384.028
 20
-5898.428
 30
-1819.231
 70
    32
  0
VERTEX
  8
T71SSILL
 62
6
 10
1411.257
 20
-5914.131
 30
-1819.147
 70
    32
  0
VERTEX
  8
T71SSILL
 62
6
 10
1413.808
 20
-5907.203
 30
-1819.145
 70
    32
  0
VERTEX
  8
T71SSILL
 62
6
 10
1366.856
 20
-5825.527
 30
-1819.466
 70
    32
  0
VERTEX
  8
T71SSILL
 62
6
 10
1363.680
 20
-5838.092
 30
-1819.396
 70
    32
  0
SEQEND
  8
T71SSILL
  0
POLYLINE
  8
T71SSILL
 62
6
 66
     1
 70
     9
  0
VERTEX
  8
T71SSILL
 62
6
 10
1299.718
 20
-5687.935
 30
-1820.167
 70
    32
  0
VERTEX
  8
T71SSILL
 62
6
 10
1292.543
 20
-5674.306
 30
-1820.236
 70
    32
  0
VERTEX
  8
T71SSILL
 62
6
 10
1295.878
 20
-5669.540
 30
-1820.255
 70
    32
  0
VERTEX
  8
T71SSILL
 62
6
 10
1295.421
 20
-5663.534
 30
-1820.283
 70
    32
  0
VERTEX
  8
T71SSILL
 62
6
 10
1328.547
 20
-5605.670
 30
-1820.522
 70
    32
  0
VERTEX
  8
T71SSILL
 62
6
 10
1330.247
 20
-5605.043
 30
-1820.523
 70
    32
  0
VERTEX
  8
T71SSILL
 62
6
 10
1338.070
 20
-5625.913
 30
-1820.420
 70
    32
  0
VERTEX
  8
T71SSILL
 62
6
 10
1339.100
 20
-5648.734
 30
-1820.314
 70
    32
  0
VERTEX
  8
T71SSILL
 62
6
 10
1307.577
 20
-5688.576
 30
-1820.158
 70
    32
  0
SEQEND
  8
T71SSILL
  0
POLYLINE
  8
T71SSILL
 62
6
 66
     1
 70
     9
  0
VERTEX
  8
T71SSILL
 62
6
 10
1260.943
 20
-5555.384
 30
-1820.695
 70
    32
  0
VERTEX
  8
T71SSILL
 62
6
 10
1269.075
 20
-5541.355
 30
-1820.751
 70
    32
  0
VERTEX
  8
T71SSILL
 62
6
 10
1283.881
 20
-5534.432
 30
-1820.802
 70
    32
  0
VERTEX
  8
T71SSILL
 62
6
 10
1292.600
 20
-5539.080
 30
-1820.808
 70
    32
  0
VERTEX
  8
T71SSILL
 62
6
 10
1295.570
 20
-5543.436
 30
-1820.794
 70
    32
  0
VERTEX
  8
T71SSILL
 62
6
 10
1298.685
 20
-5554.435
 30
-1820.750
 70
    32
  0
VERTEX
  8
T71SSILL
 62
6
 10
1298.041
 20
-5559.043
 30
-1820.733
 70
    32
  0
VERTEX
  8
T71SSILL
 62
6
 10
1292.563
 20
-5563.394
 30
-1820.718
 70
    32
  0
VERTEX
  8
T71SSILL
 62
6
 10
1266.430
 20
-5576.570
 30
-1820.650
 70
    32
  0
VERTEX
  8
T71SSILL
 62
6
 10
1262.633
 20
-5575.181
 30
-1820.645
 70
    32
  0
VERTEX
  8
T71SSILL
 62
6
 10
1259.392
 20
-5569.989
 30
-1820.652
 70
    32
  0
SEQEND
  8
T71SSILL
  0
POLYLINE
  8
T71SSILL
 62
6
 66
     1
 70
     9
  0
VERTEX
  8
T71SSILL
 62
6
 10
5889.741
 20
-8446.596
 30
-1806.741
 70
    32
  0
VERTEX
  8
T71SSILL
 62
6
 10
5874.446
 20
-8458.550
 30
-1806.519
 70
    32
  0
VERTEX
  8
T71SSILL
 62
6
 10
5879.767
 20
-8464.968
 30
-1806.567
 70
    32
  0
VERTEX
  8
T71SSILL
 62
6
 10
5881.790
 20
-8469.722
 30
-1806.583
 70
    32
  0
VERTEX
  8
T71SSILL
 62
6
 10
5885.871
 20
-8473.216
 30
-1806.622
 70
    32
  0
VERTEX
  8
T71SSILL
 62
6
 10
5913.496
 20
-8511.139
 30
-1807.579
 70
    32
  0
VERTEX
  8
T71SSILL
 62
6
 10
5917.582
 20
-8514.830
 30
-1807.606
 70
    32
  0
VERTEX
  8
T71SSILL
 62
6
 10
5949.906
 20
-8561.502
 30
-1807.522
 70
    32
  0
VERTEX
  8
T71SSILL
 62
6
 10
5952.355
 20
-8567.820
 30
-1807.510
 70
    32
  0
VERTEX
  8
T71SSILL
 62
6
 10
5961.568
 20
-8578.128
 30
-1807.492
 70
    32
  0
VERTEX
  8
T71SSILL
 62
6
 10
5969.231
 20
-8572.232
 30
-1807.508
 70
    32
  0
VERTEX
  8
T71SSILL
 62
6
 10
5961.689
 20
-8559.020
 30
-1807.533
 70
    32
  0
VERTEX
  8
T71SSILL
 62
6
 10
5924.828
 20
-8507.763
 30
-1807.624
 70
    32
  0
VERTEX
  8
T71SSILL
 62
6
 10
5924.492
 20
-8504.782
 30
-1807.549
 70
    32
  0
VERTEX
  8
T71SSILL
 62
6
 10
5922.171
 20
-8500.859
 30
-1807.385
 70
    32
  0
VERTEX
  8
T71SSILL
 62
6
 10
5936.665
 20
-8500.248
 30
-1807.596
 70
    32
  0
VERTEX
  8
T71SSILL
 62
6
 10
5951.563
 20
-8490.587
 30
-1807.520
 70
    32
  0
VERTEX
  8
T71SSILL
 62
6
 10
5971.263
 20
-8488.848
 30
-1807.685
 70
    32
  0
VERTEX
  8
T71SSILL
 62
6
 10
5977.232
 20
-8494.309
 30
-1807.677
 70
    32
  0
VERTEX
  8
T71SSILL
 62
6
 10
5985.474
 20
-8495.595
 30
-1807.678
 70
    32
  0
VERTEX
  8
T71SSILL
 62
6
 10
5993.193
 20
-8503.929
 30
-1807.664
 70
    32
  0
VERTEX
  8
T71SSILL
 62
6
 10
6000.441
 20
-8514.277
 30
-1807.645
 70
    32
  0
VERTEX
  8
T71SSILL
 62
6
 10
6008.460
 20
-8508.452
 30
-1807.661
 70
    32
  0
VERTEX
  8
T71SSILL
 62
6
 10
5999.729
 20
-8496.719
 30
-1807.682
 70
    32
  0
VERTEX
  8
T71SSILL
 62
6
 10
5994.374
 20
-8486.686
 30
-1807.701
 70
    32
  0
VERTEX
  8
T71SSILL
 62
6
 10
5993.837
 20
-8483.512
 30
-1807.707
 70
    32
  0
VERTEX
  8
T71SSILL
 62
6
 10
5995.929
 20
-8476.236
 30
-1807.728
 70
    32
  0
VERTEX
  8
T71SSILL
 62
6
 10
5994.976
 20
-8471.892
 30
-1807.748
 70
    32
  0
VERTEX
  8
T71SSILL
 62
6
 10
5987.163
 20
-8456.995
 30
-1807.811
 70
    32
  0
VERTEX
  8
T71SSILL
 62
6
 10
5977.053
 20
-8458.617
 30
-1807.793
 70
    32
  0
VERTEX
  8
T71SSILL
 62
6
 10
5974.119
 20
-8453.527
 30
-1807.814
 70
    32
  0
VERTEX
  8
T71SSILL
 62
6
 10
5962.185
 20
-8442.802
 30
-1807.854
 70
    32
  0
VERTEX
  8
T71SSILL
 62
6
 10
5955.039
 20
-8449.042
 30
-1807.675
 70
    32
  0
VERTEX
  8
T71SSILL
 62
6
 10
5969.193
 20
-8470.256
 30
-1807.502
 70
    32
  0
VERTEX
  8
T71SSILL
 62
6
 10
5967.471
 20
-8474.498
 30
-1807.469
 70
    32
  0
VERTEX
  8
T71SSILL
 62
6
 10
5943.719
 20
-8483.750
 30
-1807.212
 70
    32
  0
VERTEX
  8
T71SSILL
 62
6
 10
5922.137
 20
-8486.750
 30
-1806.984
 70
    32
  0
VERTEX
  8
T71SSILL
 62
6
 10
5894.171
 20
-8465.774
 30
-1806.716
 70
    32
  0
VERTEX
  8
T71SSILL
 62
6
 10
5887.651
 20
-8454.507
 30
-1806.661
 70
    32
  0
VERTEX
  8
T71SSILL
 62
6
 10
5888.406
 20
-8449.175
 30
-1806.675
 70
    32
  0
SEQEND
  8
T71SSILL
  0
POLYLINE
  8
T71SSILL
 62
6
 66
     1
 70
     9
  0
VERTEX
  8
T71SSILL
 62
6
 10
2051.548
 20
-7944.300
 30
-1810.859
 70
    32
  0
VERTEX
  8
T71SSILL
 62
6
 10
2072.470
 20
-7959.228
 30
-1810.715
 70
    32
  0
VERTEX
  8
T71SSILL
 62
6
 10
2083.802
 20
-7962.929
 30
-1810.652
 70
    32
  0
VERTEX
  8
T71SSILL
 62
6
 10
2094.592
 20
-7964.534
 30
-1810.616
 70
    32
  0
VERTEX
  8
T71SSILL
 62
6
 10
2104.768
 20
-7963.996
 30
-1810.610
 70
    32
  0
VERTEX
  8
T71SSILL
 62
6
 10
2112.320
 20
-7958.401
 30
-1810.615
 70
    32
  0
VERTEX
  8
T71SSILL
 62
6
 10
2110.552
 20
-7946.816
 30
-1810.823
 70
    32
  0
VERTEX
  8
T71SSILL
 62
6
 10
2104.020
 20
-7935.812
 30
-1810.974
 70
    32
  0
VERTEX
  8
T71SSILL
 62
6
 10
2099.053
 20
-7932.101
 30
-1810.974
 70
    32
  0
VERTEX
  8
T71SSILL
 62
6
 10
2087.195
 20
-7932.063
 30
-1810.944
 70
    32
  0
VERTEX
  8
T71SSILL
 62
6
 10
2080.006
 20
-7919.182
 30
-1810.960
 70
    32
  0
VERTEX
  8
T71SSILL
 62
6
 10
2067.179
 20
-7917.597
 30
-1810.932
 70
    32
  0
SEQEND
  8
T71SSILL
  0
POLYLINE
  8
T71SSILL
 62
6
 66
     1
 70
     9
  0
VERTEX
  8
T71SSILL
 62
6
 10
3358.191
 20
-8330.603
 30
-1791.000
 70
    32
  0
VERTEX
  8
T71SSILL
 62
6
 10
3369.552
 20
-8343.051
 30
-1791.000
 70
    32
  0
VERTEX
  8
T71SSILL
 62
6
 10
3375.541
 20
-8338.335
 30
-1791.000
 70
    32
  0
VERTEX
  8
T71SSILL
 62
6
 10
3375.765
 20
-8330.134
 30
-1791.000
 70
    32
  0
VERTEX
  8
T71SSILL
 62
6
 10
3371.004
 20
-8326.766
 30
-1791.000
 70
    32
  0
VERTEX
  8
T71SSILL
 62
6
 10
3365.301
 20
-8325.583
 30
-1791.000
 70
    32
  0
SEQEND
  8
T71SSILL
  0
POLYLINE
  8
T71SSILL
 62
6
 66
     1
 70
     8
  0
VERTEX
  8
T71SSILL
 62
6
 10
3370.984
 20
-8349.640
 30
-1799.000
 70
    32
  0
VERTEX
  8
T71SSILL
 62
6
 10
3368.714
 20
-8346.515
 30
-1799.000
 70
    32
  0
VERTEX
  8
T71SSILL
 62
6
 10
3358.546
 20
-8340.131
 30
-1799.000
 70
    32
  0
VERTEX
  8
T71SSILL
 62
6
 10
3354.850
 20
-8330.103
 30
-1799.000
 70
    32
  0
VERTEX
  8
T71SSILL
 62
6
 10
3356.635
 20
-8325.735
 30
-1799.000
 70
    32
  0
VERTEX
  8
T71SSILL
 62
6
 10
3363.785
 20
-8325.965
 30
-1799.000
 70
    32
  0
SEQEND
  8
T71SSILL
  0
POLYLINE
  8
T71SSILL
 62
6
 66
     1
 70
     9
  0
VERTEX
  8
T71SSILL
 62
6
 10
3376.230
 20
-8332.434
 30
-1810.000
 70
    32
  0
VERTEX
  8
T71SSILL
 62
6
 10
3376.217
 20
-8332.129
 30
-1810.000
 70
    32
  0
VERTEX
  8
T71SSILL
 62
6
 10
3376.177
 20
-8331.826
 30
-1810.000
 70
    32
  0
VERTEX
  8
T71SSILL
 62
6
 10
3376.111
 20
-8331.528
 30
-1810.000
 70
    32
  0
VERTEX
  8
T71SSILL
 62
6
 10
3376.019
 20
-8331.237
 30
-1810.000
 70
    32
  0
VERTEX
  8
T71SSILL
 62
6
 10
3375.902
 20
-8330.955
 30
-1810.000
 70
    32
  0
VERTEX
  8
T71SSILL
 62
6
 10
3375.761
 20
-8330.684
 30
-1810.000
 70
    32
  0
VERTEX
  8
T71SSILL
 62
6
 10
3375.597
 20
-8330.427
 30
-1810.000
 70
    32
  0
VERTEX
  8
T71SSILL
 62
6
 10
3375.411
 20
-8330.184
 30
-1810.000
 70
    32
  0
VERTEX
  8
T71SSILL
 62
6
 10
3375.205
 20
-8329.959
 30
-1810.000
 70
    32
  0
VERTEX
  8
T71SSILL
 62
6
 10
3374.980
 20
-8329.753
 30
-1810.000
 70
    32
  0
VERTEX
  8
T71SSILL
 62
6
 10
3374.737
 20
-8329.567
 30
-1810.000
 70
    32
  0
VERTEX
  8
T71SSILL
 62
6
 10
3374.480
 20
-8329.403
 30
-1810.000
 70
    32
  0
VERTEX
  8
T71SSILL
 62
6
 10
3374.209
 20
-8329.262
 30
-1810.000
 70
    32
  0
VERTEX
  8
T71SSILL
 62
6
 10
3373.927
 20
-8329.145
 30
-1810.000
 70
    32
  0
VERTEX
  8
T71SSILL
 62
6
 10
3373.636
 20
-8329.053
 30
-1810.000
 70
    32
  0
VERTEX
  8
T71SSILL
 62
6
 10
3373.338
 20
-8328.987
 30
-1810.000
 70
    32
  0
VERTEX
  8
T71SSILL
 62
6
 10
3373.035
 20
-8328.948
 30
-1810.000
 70
    32
  0
VERTEX
  8
T71SSILL
 62
6
 10
3372.730
 20
-8328.934
 30
-1810.000
 70
    32
  0
VERTEX
  8
T71SSILL
 62
6
 10
3372.425
 20
-8328.948
 30
-1810.000
 70
    32
  0
VERTEX
  8
T71SSILL
 62
6
 10
3372.122
 20
-8328.987
 30
-1810.000
 70
    32
  0
VERTEX
  8
T71SSILL
 62
6
 10
3371.824
 20
-8329.054
 30
-1810.000
 70
    32
  0
VERTEX
  8
T71SSILL
 62
6
 10
3371.533
 20
-8329.145
 30
-1810.000
 70
    32
  0
VERTEX
  8
T71SSILL
 62
6
 10
3371.251
 20
-8329.262
 30
-1810.000
 70
    32
  0
VERTEX
  8
T71SSILL
 62
6
 10
3370.980
 20
-8329.403
 30
-1810.000
 70
    32
  0
VERTEX
  8
T71SSILL
 62
6
 10
3370.722
 20
-8329.567
 30
-1810.000
 70
    32
  0
VERTEX
  8
T71SSILL
 62
6
 10
3370.480
 20
-8329.753
 30
-1810.000
 70
    32
  0
VERTEX
  8
T71SSILL
 62
6
 10
3370.255
 20
-8329.960
 30
-1810.000
 70
    32
  0
VERTEX
  8
T71SSILL
 62
6
 10
3370.049
 20
-8330.185
 30
-1810.000
 70
    32
  0
VERTEX
  8
T71SSILL
 62
6
 10
3369.863
 20
-8330.427
 30
-1810.000
 70
    32
  0
VERTEX
  8
T71SSILL
 62
6
 10
3369.699
 20
-8330.685
 30
-1810.000
 70
    32
  0
VERTEX
  8
T71SSILL
 62
6
 10
3369.558
 20
-8330.955
 30
-1810.000
 70
    32
  0
VERTEX
  8
T71SSILL
 62
6
 10
3369.441
 20
-8331.238
 30
-1810.000
 70
    32
  0
VERTEX
  8
T71SSILL
 62
6
 10
3369.349
 20
-8331.529
 30
-1810.000
 70
    32
  0
VERTEX
  8
T71SSILL
 62
6
 10
3369.283
 20
-8331.827
 30
-1810.000
 70
    32
  0
VERTEX
  8
T71SSILL
 62
6
 10
3369.243
 20
-8332.130
 30
-1810.000
 70
    32
  0
VERTEX
  8
T71SSILL
 62
6
 10
3369.230
 20
-8332.435
 30
-1810.000
 70
    32
  0
VERTEX
  8
T71SSILL
 62
6
 10
3369.243
 20
-8332.740
 30
-1810.000
 70
    32
  0
VERTEX
  8
T71SSILL
 62
6
 10
3369.283
 20
-8333.042
 30
-1810.000
 70
    32
  0
VERTEX
  8
T71SSILL
 62
6
 10
3369.349
 20
-8333.341
 30
-1810.000
 70
    32
  0
VERTEX
  8
T71SSILL
 62
6
 10
3369.441
 20
-8333.632
 30
-1810.000
 70
    32
  0
VERTEX
  8
T71SSILL
 62
6
 10
3369.558
 20
-8333.914
 30
-1810.000
 70
    32
  0
VERTEX
  8
T71SSILL
 62
6
 10
3369.699
 20
-8334.185
 30
-1810.000
 70
    32
  0
VERTEX
  8
T71SSILL
 62
6
 10
3369.863
 20
-8334.442
 30
-1810.000
 70
    32
  0
VERTEX
  8
T71SSILL
 62
6
 10
3370.049
 20
-8334.684
 30
-1810.000
 70
    32
  0
VERTEX
  8
T71SSILL
 62
6
 10
3370.255
 20
-8334.910
 30
-1810.000
 70
    32
  0
VERTEX
  8
T71SSILL
 62
6
 10
3370.481
 20
-8335.116
 30
-1810.000
 70
    32
  0
VERTEX
  8
T71SSILL
 62
6
 10
3370.723
 20
-8335.302
 30
-1810.000
 70
    32
  0
VERTEX
  8
T71SSILL
 62
6
 10
3370.980
 20
-8335.466
 30
-1810.000
 70
    32
  0
VERTEX
  8
T71SSILL
 62
6
 10
3371.251
 20
-8335.607
 30
-1810.000
 70
    32
  0
VERTEX
  8
T71SSILL
 62
6
 10
3371.533
 20
-8335.723
 30
-1810.000
 70
    32
  0
VERTEX
  8
T71SSILL
 62
6
 10
3371.825
 20
-8335.815
 30
-1810.000
 70
    32
  0
VERTEX
  8
T71SSILL
 62
6
 10
3372.123
 20
-8335.881
 30
-1810.000
 70
    32
  0
VERTEX
  8
T71SSILL
 62
6
 10
3372.426
 20
-8335.921
 30
-1810.000
 70
    32
  0
VERTEX
  8
T71SSILL
 62
6
 10
3372.731
 20
-8335.934
 30
-1810.000
 70
    32
  0
VERTEX
  8
T71SSILL
 62
6
 10
3373.036
 20
-8335.921
 30
-1810.000
 70
    32
  0
VERTEX
  8
T71SSILL
 62
6
 10
3373.338
 20
-8335.881
 30
-1810.000
 70
    32
  0
VERTEX
  8
T71SSILL
 62
6
 10
3373.637
 20
-8335.815
 30
-1810.000
 70
    32
  0
VERTEX
  8
T71SSILL
 62
6
 10
3373.928
 20
-8335.723
 30
-1810.000
 70
    32
  0
VERTEX
  8
T71SSILL
 62
6
 10
3374.210
 20
-8335.606
 30
-1810.000
 70
    32
  0
VERTEX
  8
T71SSILL
 62
6
 10
3374.481
 20
-8335.465
 30
-1810.000
 70
    32
  0
VERTEX
  8
T71SSILL
 62
6
 10
3374.738
 20
-8335.301
 30
-1810.000
 70
    32
  0
VERTEX
  8
T71SSILL
 62
6
 10
3374.980
 20
-8335.115
 30
-1810.000
 70
    32
  0
VERTEX
  8
T71SSILL
 62
6
 10
3375.205
 20
-8334.909
 30
-1810.000
 70
    32
  0
VERTEX
  8
T71SSILL
 62
6
 10
3375.412
 20
-8334.683
 30
-1810.000
 70
    32
  0
VERTEX
  8
T71SSILL
 62
6
 10
3375.597
 20
-8334.441
 30
-1810.000
 70
    32
  0
VERTEX
  8
T71SSILL
 62
6
 10
3375.761
 20
-8334.184
 30
-1810.000
 70
    32
  0
VERTEX
  8
T71SSILL
 62
6
 10
3375.902
 20
-8333.913
 30
-1810.000
 70
    32
  0
VERTEX
  8
T71SSILL
 62
6
 10
3376.019
 20
-8333.631
 30
-1810.000
 70
    32
  0
VERTEX
  8
T71SSILL
 62
6
 10
3376.111
 20
-8333.339
 30
-1810.000
 70
    32
  0
VERTEX
  8
T71SSILL
 62
6
 10
3376.177
 20
-8333.041
 30
-1810.000
 70
    32
  0
VERTEX
  8
T71SSILL
 62
6
 10
3376.217
 20
-8332.738
 30
-1810.000
 70
    32
  0
SEQEND
  8
T71SSILL
  0
POINT
  8
T71SSILL
 62
6
 10
3372.730
 20
-8332.434
 30
-1810.000
  0
LINE
  8
T71SSILL
 62
6
 10
3369.552
 20
-8343.051
 30
-1791.000
 11
3370.984
 21
-8349.640
 31
-1799.000
  0
LINE
  8
T71SSILL
 62
6
 10
3369.552
 20
-8343.051
 30
-1791.000
 11
3372.314
 21
-8344.959
 31
-1799.000
  0
LINE
  8
T71SSILL
 62
6
 10
3375.541
 20
-8338.335
 30
-1791.000
 11
3381.932
 21
-8336.263
 31
-1799.000
  0
LINE
  8
T71SSILL
 62
6
 10
3375.765
 20
-8330.134
 30
-1791.000
 11
3378.443
 21
-8327.175
 31
-1799.000
  0
LINE
  8
T71SSILL
 62
6
 10
3371.004
 20
-8326.766
 30
-1791.000
 11
3372.752
 21
-8322.703
 31
-1799.000
  0
LINE
  8
T71SSILL
 62
6
 10
3368.088
 20
-8326.161
 30
-1791.000
 11
3368.728
 21
-8323.245
 31
-1799.000
  0
LINE
  8
T71SSILL
 62
6
 10
3361.023
 20
-8328.603
 30
-1791.000
 11
3356.635
 21
-8325.735
 31
-1799.000
  0
LINE
  8
T71SSILL
 62
6
 10
3358.191
 20
-8330.603
 30
-1791.000
 11
3354.850
 21
-8330.103
 31
-1799.000
  0
LINE
  8
T71SSILL
 62
6
 10
3363.534
 20
-8336.457
 30
-1791.000
 11
3358.546
 21
-8340.131
 31
-1799.000
  0
POLYLINE
  8
T71SSILL
 62
6
 66
     1
 70
     9
  0
VERTEX
  8
T71SSILL
 62
6
 10
2406.578
 20
-8209.474
 30
-1799.500
 70
    32
  0
VERTEX
  8
T71SSILL
 62
6
 10
2407.343
 20
-8216.830
 30
-1799.500
 70
    32
  0
VERTEX
  8
T71SSILL
 62
6
 10
2390.345
 20
-8222.706
 30
-1799.500
 70
    32
  0
VERTEX
  8
T71SSILL
 62
6
 10
2388.774
 20
-8217.058
 30
-1799.500
 70
    32
  0
SEQEND
  8
T71SSILL
  0
LINE
  8
T71SSILL
 62
6
 10
1976.709
 20
-8648.779
 30
-1805.750
 11
1961.473
 21
-8659.514
 31
-1805.750
  0
POLYLINE
  8
T71SSILL
 62
6
 66
     1
 70
     9
  0
VERTEX
  8
T71SSILL
 62
6
 10
1967.879
 20
-8667.459
 30
-1802.000
 70
    32
  0
VERTEX
  8
T71SSILL
 62
6
 10
1963.046
 20
-8659.829
 30
-1802.000
 70
    32
  0
VERTEX
  8
T71SSILL
 62
6
 10
1977.461
 20
-8650.127
 30
-1802.000
 70
    32
  0
VERTEX
  8
T71SSILL
 62
6
 10
1984.230
 20
-8648.808
 30
-1802.000
 70
    32
  0
VERTEX
  8
T71SSILL
 62
6
 10
1987.284
 20
-8655.302
 30
-1802.000
 70
    32
  0
VERTEX
  8
T71SSILL
 62
6
 10
1980.029
 20
-8662.439
 30
-1802.000
 70
    32
  0
SEQEND
  8
T71SSILL
  0
LINE
  8
T71SSILL
 62
6
 10
1980.808
 20
-8663.695
 30
-1805.750
 11
1967.337
 21
-8669.314
 31
-1805.750
  0
POLYLINE
  8
T71SSILL
 62
6
 66
     1
 70
     9
  0
VERTEX
  8
T71SSILL
 62
6
 10
1987.061
 20
-6925.022
 30
-1817.875
 70
    32
  0
VERTEX
  8
T71SSILL
 62
6
 10
1984.057
 20
-6929.550
 30
-1817.864
 70
    32
  0
VERTEX
  8
T71SSILL
 62
6
 10
1989.804
 20
-6935.690
 30
-1817.870
 70
    32
  0
VERTEX
  8
T71SSILL
 62
6
 10
1993.952
 20
-6935.297
 30
-1817.880
 70
    32
  0
VERTEX
  8
T71SSILL
 62
6
 10
1997.287
 20
-6941.141
 30
-1817.881
 70
    32
  0
VERTEX
  8
T71SSILL
 62
6
 10
1985.530
 20
-6951.422
 30
-1817.845
 70
    32
  0
VERTEX
  8
T71SSILL
 62
6
 10
1977.613
 20
-6955.607
 30
-1817.823
 70
    32
  0
VERTEX
  8
T71SSILL
 62
6
 10
1972.080
 20
-6955.696
 30
-1817.811
 70
    32
  0
VERTEX
  8
T71SSILL
 62
6
 10
1941.871
 20
-6939.668
 30
-1817.761
 70
    32
  0
VERTEX
  8
T71SSILL
 62
6
 10
1928.408
 20
-6930.045
 30
-1817.759
 70
    32
  0
VERTEX
  8
T71SSILL
 62
6
 10
1917.652
 20
-6919.891
 30
-1817.983
 70
    32
  0
VERTEX
  8
T71SSILL
 62
6
 10
1906.271
 20
-6913.337
 30
-1818.130
 70
    32
  0
VERTEX
  8
T71SSILL
 62
6
 10
1898.181
 20
-6919.325
 30
-1818.004
 70
    32
  0
VERTEX
  8
T71SSILL
 62
6
 10
1887.855
 20
-6914.265
 30
-1818.118
 70
    32
  0
VERTEX
  8
T71SSILL
 62
6
 10
1890.574
 20
-6892.667
 30
-1818.411
 70
    32
  0
VERTEX
  8
T71SSILL
 62
6
 10
1905.516
 20
-6884.447
 30
-1818.572
 70
    32
  0
VERTEX
  8
T71SSILL
 62
6
 10
1942.418
 20
-6858.471
 30
-1819.044
 70
    32
  0
VERTEX
  8
T71SSILL
 62
6
 10
1986.055
 20
-6923.521
 30
-1817.875
 70
    32
  0
SEQEND
  8
T71SSILL
  0
POLYLINE
  8
T71SSILL
 62
6
 66
     1
 70
     9
  0
VERTEX
  8
T71SSILL
 62
6
 10
1997.658
 20
-6921.694
 30
-1817.909
 70
    32
  0
VERTEX
  8
T71SSILL
 62
6
 10
1995.587
 20
-6920.960
 30
-1817.926
 70
    32
  0
VERTEX
  8
T71SSILL
 62
6
 10
1959.468
 20
-6867.967
 30
-1818.980
 70
    32
  0
VERTEX
  8
T71SSILL
 62
6
 10
1962.937
 20
-6843.465
 30
-1819.314
 70
    32
  0
VERTEX
  8
T71SSILL
 62
6
 10
2031.426
 20
-6793.357
 30
-1820.216
 70
    32
  0
VERTEX
  8
T71SSILL
 62
6
 10
2039.640
 20
-6779.395
 30
-1820.428
 70
    32
  0
VERTEX
  8
T71SSILL
 62
6
 10
2045.906
 20
-6758.309
 30
-1820.727
 70
    32
  0
VERTEX
  8
T71SSILL
 62
6
 10
2049.047
 20
-6753.923
 30
-1820.796
 70
    32
  0
VERTEX
  8
T71SSILL
 62
6
 10
2054.369
 20
-6757.581
 30
-1820.767
 70
    32
  0
VERTEX
  8
T71SSILL
 62
6
 10
2085.169
 20
-6849.295
 30
-1819.439
 70
    32
  0
VERTEX
  8
T71SSILL
 62
6
 10
2083.695
 20
-6862.326
 30
-1819.158
 70
    32
  0
VERTEX
  8
T71SSILL
 62
6
 10
2090.495
 20
-6865.196
 30
-1819.093
 70
    32
  0
VERTEX
  8
T71SSILL
 62
6
 10
2120.701
 20
-6956.195
 30
-1817.311
 70
    32
  0
VERTEX
  8
T71SSILL
 62
6
 10
2118.530
 20
-6960.739
 30
-1817.265
 70
    32
  0
VERTEX
  8
T71SSILL
 62
6
 10
2125.506
 20
-6969.460
 30
-1817.060
 70
    32
  0
VERTEX
  8
T71SSILL
 62
6
 10
2157.080
 20
-7062.608
 30
-1815.327
 70
    32
  0
VERTEX
  8
T71SSILL
 62
6
 10
2154.688
 20
-7071.456
 30
-1815.218
 70
    32
  0
VERTEX
  8
T71SSILL
 62
6
 10
2160.792
 20
-7073.434
 30
-1815.125
 70
    32
  0
VERTEX
  8
T71SSILL
 62
6
 10
2210.671
 20
-7222.487
 30
-1813.995
 70
    32
  0
VERTEX
  8
T71SSILL
 62
6
 10
2202.995
 20
-7228.621
 30
-1814.071
 70
    32
  0
VERTEX
  8
T71SSILL
 62
6
 10
2000.757
 20
-6928.201
 30
-1817.902
 70
    32
  0
VERTEX
  8
T71SSILL
 62
6
 10
2003.190
 20
-6924.495
 30
-1817.911
 70
    32
  0
VERTEX
  8
T71SSILL
 62
6
 10
2000.588
 20
-6921.055
 30
-1817.922
 70
    32
  0
SEQEND
  8
T71SSILL
  0
POLYLINE
  8
T71SSILL
 62
6
 66
     1
 70
     9
  0
VERTEX
  8
T71SSILL
 62
6
 10
1897.790
 20
-6874.795
 30
-1817.444
 70
    32
  0
VERTEX
  8
T71SSILL
 62
6
 10
1895.071
 20
-6874.073
 30
-1817.460
 70
    32
  0
VERTEX
  8
T71SSILL
 62
6
 10
1905.960
 20
-6839.294
 30
-1817.698
 70
    32
  0
VERTEX
  8
T71SSILL
 62
6
 10
1907.111
 20
-6809.496
 30
-1817.907
 70
    32
  0
VERTEX
  8
T71SSILL
 62
6
 10
1909.208
 20
-6808.841
 30
-1817.915
 70
    32
  0
VERTEX
  8
T71SSILL
 62
6
 10
1936.166
 20
-6848.235
 30
-1819.156
 70
    32
  0
VERTEX
  8
T71SSILL
 62
6
 10
1932.683
 20
-6853.060
 30
-1819.080
 70
    32
  0
SEQEND
  8
T71SSILL
  0
POLYLINE
  8
T71SSILL
 62
6
 66
     1
 70
     9
  0
VERTEX
  8
T71SSILL
 62
6
 10
1880.288
 20
-6885.193
 30
-1817.452
 70
    32
  0
VERTEX
  8
T71SSILL
 62
6
 10
1869.639
 20
-6893.649
 30
-1817.444
 70
    32
  0
VERTEX
  8
T71SSILL
 62
6
 10
1861.757
 20
-6899.788
 30
-1818.223
 70
    32
  0
VERTEX
  8
T71SSILL
 62
6
 10
1824.634
 20
-6933.217
 30
-1817.591
 70
    32
  0
VERTEX
  8
T71SSILL
 62
6
 10
1814.198
 20
-6931.996
 30
-1817.470
 70
    32
  0
VERTEX
  8
T71SSILL
 62
6
 10
1804.877
 20
-6915.323
 30
-1817.486
 70
    32
  0
VERTEX
  8
T71SSILL
 62
6
 10
1800.507
 20
-6898.203
 30
-1817.568
 70
    32
  0
VERTEX
  8
T71SSILL
 62
6
 10
1800.169
 20
-6892.583
 30
-1817.608
 70
    32
  0
VERTEX
  8
T71SSILL
 62
6
 10
1803.568
 20
-6884.838
 30
-1817.713
 70
    32
  0
VERTEX
  8
T71SSILL
 62
6
 10
1803.958
 20
-6879.009
 30
-1817.764
 70
    32
  0
VERTEX
  8
T71SSILL
 62
6
 10
1799.942
 20
-6859.312
 30
-1817.874
 70
    32
  0
VERTEX
  8
T71SSILL
 62
6
 10
1790.642
 20
-6852.937
 30
-1817.810
 70
    32
  0
VERTEX
  8
T71SSILL
 62
6
 10
1783.887
 20
-6842.803
 30
-1817.809
 70
    32
  0
VERTEX
  8
T71SSILL
 62
6
 10
1773.636
 20
-6833.853
 30
-1817.755
 70
    32
  0
VERTEX
  8
T71SSILL
 62
6
 10
1760.742
 20
-6819.212
 30
-1817.714
 70
    32
  0
VERTEX
  8
T71SSILL
 62
6
 10
1749.463
 20
-6813.160
 30
-1817.624
 70
    32
  0
VERTEX
  8
T71SSILL
 62
6
 10
1730.384
 20
-6794.926
 30
-1817.400
 70
    32
  0
VERTEX
  8
T71SSILL
 62
6
 10
1728.425
 20
-6791.248
 30
-1817.384
 70
    32
  0
VERTEX
  8
T71SSILL
 62
6
 10
1727.059
 20
-6782.746
 30
-1817.427
 70
    32
  0
VERTEX
  8
T71SSILL
 62
6
 10
1728.960
 20
-6779.225
 30
-1817.508
 70
    32
  0
VERTEX
  8
T71SSILL
 62
6
 10
1722.586
 20
-6746.328
 30
-1817.647
 70
    32
  0
VERTEX
  8
T71SSILL
 62
6
 10
1718.663
 20
-6735.518
 30
-1817.646
 70
    32
  0
VERTEX
  8
T71SSILL
 62
6
 10
1715.425
 20
-6718.349
 30
-1817.721
 70
    32
  0
VERTEX
  8
T71SSILL
 62
6
 10
1707.709
 20
-6705.594
 30
-1817.641
 70
    32
  0
VERTEX
  8
T71SSILL
 62
6
 10
1704.449
 20
-6691.482
 30
-1817.687
 70
    32
  0
VERTEX
  8
T71SSILL
 62
6
 10
1768.512
 20
-6647.708
 30
-1819.205
 70
    32
  0
VERTEX
  8
T71SSILL
 62
6
 10
1773.337
 20
-6649.077
 30
-1819.253
 70
    32
  0
VERTEX
  8
T71SSILL
 62
6
 10
1778.501
 20
-6653.533
 30
-1819.281
 70
    32
  0
VERTEX
  8
T71SSILL
 62
6
 10
1787.600
 20
-6651.904
 30
-1819.407
 70
    32
  0
VERTEX
  8
T71SSILL
 62
6
 10
1800.838
 20
-6654.195
 30
-1819.553
 70
    32
  0
VERTEX
  8
T71SSILL
 62
6
 10
1823.179
 20
-6681.277
 30
-1819.609
 70
    32
  0
VERTEX
  8
T71SSILL
 62
6
 10
1821.690
 20
-6686.529
 30
-1819.548
 70
    32
  0
VERTEX
  8
T71SSILL
 62
6
 10
1823.974
 20
-6690.602
 30
-1819.543
 70
    32
  0
VERTEX
  8
T71SSILL
 62
6
 10
1828.566
 20
-6690.273
 30
-1819.603
 70
    32
  0
VERTEX
  8
T71SSILL
 62
6
 10
1867.798
 20
-6747.632
 30
-1819.623
 70
    32
  0
VERTEX
  8
T71SSILL
 62
6
 10
1865.877
 20
-6758.045
 30
-1819.514
 70
    32
  0
VERTEX
  8
T71SSILL
 62
6
 10
1878.242
 20
-6771.288
 30
-1819.560
 70
    32
  0
VERTEX
  8
T71SSILL
 62
6
 10
1885.453
 20
-6782.236
 30
-1819.560
 70
    32
  0
VERTEX
  8
T71SSILL
 62
6
 10
1891.218
 20
-6799.104
 30
-1819.498
 70
    32
  0
VERTEX
  8
T71SSILL
 62
6
 10
1895.696
 20
-6806.877
 30
-1817.907
 70
    32
  0
VERTEX
  8
T71SSILL
 62
6
 10
1895.696
 20
-6806.877
 30
-1817.907
 70
    32
  0
VERTEX
  8
T71SSILL
 62
6
 10
1893.629
 20
-6838.012
 30
-1817.695
 70
    32
  0
VERTEX
  8
T71SSILL
 62
6
 10
1880.288
 20
-6885.193
 30
-1817.452
 70
    32
  0
SEQEND
  8
T71SSILL
  0
POLYLINE
  8
T71SSILL
 62
3
 66
     1
 70
     9
  0
VERTEX
  8
T71SSILL
 62
3
 10
1867.425
 20
-6747.468
 30
-1816.365
 70
    32
  0
VERTEX
  8
T71SSILL
 62
3
 10
1855.942
 20
-6731.475
 30
-1812.958
 70
    32
  0
VERTEX
  8
T71SSILL
 62
3
 10
1849.319
 20
-6722.251
 30
-1809.825
 70
    32
  0
VERTEX
  8
T71SSILL
 62
3
 10
1858.781
 20
-6715.802
 30
-1809.831
 70
    32
  0
VERTEX
  8
T71SSILL
 62
3
 10
1867.541
 20
-6729.196
 30
-1813.845
 70
    32
  0
VERTEX
  8
T71SSILL
 62
3
 10
1875.642
 20
-6741.585
 30
-1816.350
 70
    32
  0
VERTEX
  8
T71SSILL
 62
3
 10
1875.642
 20
-6741.585
 30
-1816.350
 70
    32
  0
VERTEX
  8
T71SSILL
 62
3
 10
1867.425
 20
-6747.468
 30
-1816.365
 70
    32
  0
SEQEND
  8
T71SSILL
  0
POINT
  8
T71SSILL
 62
1
 10
1859.307
 20
-6728.976
 30
-1812.958
  0
POLYLINE
  8
T71SSILL
 62
1
 66
     1
 70
     9
  0
VERTEX
  8
T71SSILL
 62
1
 10
1859.307
 20
-6726.766
 30
-1812.958
 70
    32
  0
VERTEX
  8
T71SSILL
 62
1
 10
1861.056
 20
-6729.946
 30
-1812.958
 70
    32
  0
VERTEX
  8
T71SSILL
 62
1
 10
1857.557
 20
-6729.944
 30
-1812.958
 70
    32
  0
SEQEND
  8
T71SSILL
  0
POLYLINE
  8
T71SSILL
 62
1
 66
     1
 70
     9
  0
VERTEX
  8
T71SSILL
 62
1
 10
1852.545
 20
-6717.843
 30
-1809.829
 70
    32
  0
VERTEX
  8
T71SSILL
 62
1
 10
1854.294
 20
-6721.023
 30
-1809.829
 70
    32
  0
VERTEX
  8
T71SSILL
 62
1
 10
1850.795
 20
-6721.021
 30
-1809.829
 70
    32
  0
SEQEND
  8
T71SSILL
  0
POINT
  8
T71SSILL
 62
1
 10
1852.545
 20
-6720.053
 30
-1809.829
  0
TEXT
  8
T71SSILL
 62
3
 10
1409.532
 20
-6527.009
 30
-1795.597
 40
8.202
  1
U
 41
 1.0 
  0
TEXT
  8
T71SSILL
 62
3
 10
1921.322
 20
-7122.056
 30
-1800.111
 40
8.202
  1
U
 41
 1.0 
  0
TEXT
  8
T71SSILL
 62
3
 10
1347.140
 20
-6588.479
 30
-1811.000
 40
8.202
  1
D
 41
 1.0 
  0
TEXT
  8
T71SSILL
 62
6
 10
5854.346
 20
-8143.795
 30
-1795.823
 40
4.101
  1
7100
 41
 1.0 
  0
TEXT
  8
T71SSILL
 62
1
 10
1858.225
 20
-6712.080
 30
-1809.829
 40
3.000
  1
ST-626Q
 41
 1.0 
  0
TEXT
  8
T71SSILL
 62
1
 10
1857.796
 20
-6716.080
 30
-1809.829
 40
3.000
  1
-1809.83
 41
 1.0 
  0
TEXT
  8
T71SSILL
 62
1
 10
1865.040
 20
-6722.772
 30
-1812.958
 40
3.000
  1
ST-371R
 41
 1.0 
  0
TEXT
  8
T71SSILL
 62
1
 10
1864.540
 20
-6726.772
 30
-1812.958
 40
3.000
  1
-1812.96
 41
 1.0 
  0
TEXT
  8
T71SSILL
 62
3
 10
1880.260
 20
-6741.743
 30
-1795.597
 40
8.202
  1
U
 41
 1.0 
  0
POLYLINE
  8
T71SSILL
 62
3
 66
     1
 70
     9
  0
VERTEX
  8
T71SSILL
 62
3
 10
1928.103
 20
-8309.644
 30
-1805.546
 70
    32
  0
VERTEX
  8
T71SSILL
 62
3
 10
1944.160
 20
-8321.920
 30
-1805.686
 70
    32
  0
VERTEX
  8
T71SSILL
 62
3
 10
1944.042
 20
-8311.742
 30
-1808.018
 70
    32
  0
VERTEX
  8
T71SSILL
 62
3
 10
1950.100
 20
-8309.267
 30
-1810.009
 70
    32
  0
VERTEX
  8
T71SSILL
 62
3
 10
1959.121
 20
-8304.779
 30
-1810.877
 70
    32
  0
VERTEX
  8
T71SSILL
 62
3
 10
1967.350
 20
-8299.024
 30
-1811.911
 70
    32
  0
VERTEX
  8
T71SSILL
 62
3
 10
1960.229
 20
-8288.206
 30
-1812.122
 70
    32
  0
VERTEX
  8
T71SSILL
 62
3
 10
1946.997
 20
-8295.337
 30
-1810.809
 70
    32
  0
VERTEX
  8
T71SSILL
 62
3
 10
1942.016
 20
-8299.108
 30
-1810.238
 70
    32
  0
SEQEND
  8
T71SSILL
  0
TEXT
  8
T71SSILL
 62
3
 10
1926.936
 20
-8531.786
 30
-1796.109
 40
8.202
  1
U
 41
 1.0 
  0
TEXT
  8
T71SSILL
 62
3
 10
1961.350
 20
-8315.584
 30
-1796.109
 40
8.202
  1
D
 41
 1.0 
  0
POLYLINE
  8
T71SSILL
 62
1
 66
     1
 70
     9
  0
VERTEX
  8
T71SSILL
 62
1
 10
2238.320
 20
-9152.998
 30
1000.000
 70
    32
  0
VERTEX
  8
T71SSILL
 62
1
 10
2237.964
 20
-9153.348
 30
1000.000
 70
    32
  0
VERTEX
  8
T71SSILL
 62
1
 10
2237.569
 20
-9153.654
 30
1000.000
 70
    32
  0
VERTEX
  8
T71SSILL
 62
1
 10
2237.139
 20
-9153.910
 30
1000.000
 70
    32
  0
VERTEX
  8
T71SSILL
 62
1
 10
2236.683
 20
-9154.112
 30
1000.000
 70
    32
  0
VERTEX
  8
T71SSILL
 62
1
 10
2236.205
 20
-9154.258
 30
1000.000
 70
    32
  0
VERTEX
  8
T71SSILL
 62
1
 10
2235.713
 20
-9154.346
 30
1000.000
 70
    32
  0
VERTEX
  8
T71SSILL
 62
1
 10
2235.214
 20
-9154.374
 30
1000.000
 70
    32
  0
VERTEX
  8
T71SSILL
 62
1
 10
2234.715
 20
-9154.342
 30
1000.000
 70
    32
  0
VERTEX
  8
T71SSILL
 62
1
 10
2234.224
 20
-9154.251
 30
1000.000
 70
    32
  0
VERTEX
  8
T71SSILL
 62
1
 10
2233.747
 20
-9154.101
 30
1000.000
 70
    32
  0
VERTEX
  8
T71SSILL
 62
1
 10
2233.292
 20
-9153.895
 30
1000.000
 70
    32
  0
VERTEX
  8
T71SSILL
 62
1
 10
2232.865
 20
-9153.636
 30
1000.000
 70
    32
  0
VERTEX
  8
T71SSILL
 62
1
 10
2232.472
 20
-9153.328
 30
1000.000
 70
    32
  0
VERTEX
  8
T71SSILL
 62
1
 10
2232.118
 20
-9152.974
 30
1000.000
 70
    32
  0
VERTEX
  8
T71SSILL
 62
1
 10
2231.810
 20
-9152.581
 30
1000.000
 70
    32
  0
VERTEX
  8
T71SSILL
 62
1
 10
2231.551
 20
-9152.154
 30
1000.000
 70
    32
  0
VERTEX
  8
T71SSILL
 62
1
 10
2231.345
 20
-9151.698
 30
1000.000
 70
    32
  0
VERTEX
  8
T71SSILL
 62
1
 10
2231.196
 20
-9151.222
 30
1000.000
 70
    32
  0
VERTEX
  8
T71SSILL
 62
1
 10
2231.104
 20
-9150.730
 30
1000.000
 70
    32
  0
VERTEX
  8
T71SSILL
 62
1
 10
2231.072
 20
-9150.232
 30
1000.000
 70
    32
  0
VERTEX
  8
T71SSILL
 62
1
 10
2231.101
 20
-9149.733
 30
1000.000
 70
    32
  0
VERTEX
  8
T71SSILL
 62
1
 10
2231.189
 20
-9149.241
 30
1000.000
 70
    32
  0
VERTEX
  8
T71SSILL
 62
1
 10
2231.335
 20
-9148.763
 30
1000.000
 70
    32
  0
VERTEX
  8
T71SSILL
 62
1
 10
2231.538
 20
-9148.306
 30
1000.000
 70
    32
  0
VERTEX
  8
T71SSILL
 62
1
 10
2231.794
 20
-9147.877
 30
1000.000
 70
    32
  0
VERTEX
  8
T71SSILL
 62
1
 10
2232.099
 20
-9147.482
 30
1000.000
 70
    32
  0
VERTEX
  8
T71SSILL
 62
1
 10
2232.450
 20
-9147.126
 30
1000.000
 70
    32
  0
VERTEX
  8
T71SSILL
 62
1
 10
2232.841
 20
-9146.815
 30
1000.000
 70
    32
  0
VERTEX
  8
T71SSILL
 62
1
 10
2233.266
 20
-9146.553
 30
1000.000
 70
    32
  0
VERTEX
  8
T71SSILL
 62
1
 10
2233.720
 20
-9146.344
 30
1000.000
 70
    32
  0
VERTEX
  8
T71SSILL
 62
1
 10
2234.196
 20
-9146.190
 30
1000.000
 70
    32
  0
VERTEX
  8
T71SSILL
 62
1
 10
2234.686
 20
-9146.095
 30
1000.000
 70
    32
  0
VERTEX
  8
T71SSILL
 62
1
 10
2235.185
 20
-9146.060
 30
1000.000
 70
    32
  0
VERTEX
  8
T71SSILL
 62
1
 10
2235.684
 20
-9146.085
 30
1000.000
 70
    32
  0
VERTEX
  8
T71SSILL
 62
1
 10
2236.177
 20
-9146.169
 30
1000.000
 70
    32
  0
VERTEX
  8
T71SSILL
 62
1
 10
2236.655
 20
-9146.312
 30
1000.000
 70
    32
  0
VERTEX
  8
T71SSILL
 62
1
 10
2237.114
 20
-9146.511
 30
1000.000
 70
    32
  0
VERTEX
  8
T71SSILL
 62
1
 10
2237.545
 20
-9146.764
 30
1000.000
 70
    32
  0
VERTEX
  8
T71SSILL
 62
1
 10
2237.942
 20
-9147.067
 30
1000.000
 70
    32
  0
VERTEX
  8
T71SSILL
 62
1
 10
2238.301
 20
-9147.415
 30
1000.000
 70
    32
  0
VERTEX
  8
T71SSILL
 62
1
 10
2238.615
 20
-9147.804
 30
1000.000
 70
    32
  0
VERTEX
  8
T71SSILL
 62
1
 10
2238.880
 20
-9148.227
 30
1000.000
 70
    32
  0
VERTEX
  8
T71SSILL
 62
1
 10
2239.092
 20
-9148.680
 30
1000.000
 70
    32
  0
VERTEX
  8
T71SSILL
 62
1
 10
2239.249
 20
-9149.154
 30
1000.000
 70
    32
  0
VERTEX
  8
T71SSILL
 62
1
 10
2239.347
 20
-9149.644
 30
1000.000
 70
    32
  0
VERTEX
  8
T71SSILL
 62
1
 10
2239.386
 20
-9150.142
 30
1000.000
 70
    32
  0
VERTEX
  8
T71SSILL
 62
1
 10
2239.365
 20
-9150.641
 30
1000.000
 70
    32
  0
VERTEX
  8
T71SSILL
 62
1
 10
2239.284
 20
-9151.134
 30
1000.000
 70
    32
  0
VERTEX
  8
T71SSILL
 62
1
 10
2239.145
 20
-9151.614
 30
1000.000
 70
    32
  0
VERTEX
  8
T71SSILL
 62
1
 10
2238.949
 20
-9152.074
 30
1000.000
 70
    32
  0
VERTEX
  8
T71SSILL
 62
1
 10
2238.700
 20
-9152.507
 30
1000.000
 70
    32
  0
VERTEX
  8
T71SSILL
 62
1
 10
2238.400
 20
-9152.907
 30
1000.000
 70
    32
  0
SEQEND
  8
T71SSILL
  0
POLYLINE
  8
T71SSILL
 62
1
 66
     1
 70
     8
  0
VERTEX
  8
T71SSILL
 62
1
 10
1749.494
 20
-6466.424
 30
-1816.000
 70
    32
  0
VERTEX
  8
T71SSILL
 62
1
 10
1742.954
 20
-6470.665
 30
-1815.000
 70
    32
  0
VERTEX
  8
T71SSILL
 62
1
 10
1741.943
 20
-6473.546
 30
-1814.000
 70
    32
  0
VERTEX
  8
T71SSILL
 62
1
 10
1735.198
 20
-6482.217
 30
-1812.000
 70
    32
  0
VERTEX
  8
T71SSILL
 62
1
 10
1727.375
 20
-6489.452
 30
-1812.000
 70
    32
  0
VERTEX
  8
T71SSILL
 62
1
 10
1716.007
 20
-6491.315
 30
-1808.000
 70
    32
  0
VERTEX
  8
T71SSILL
 62
1
 10
1712.469
 20
-6487.121
 30
-1808.000
 70
    32
  0
VERTEX
  8
T71SSILL
 62
1
 10
1703.593
 20
-6473.934
 30
-1808.000
 70
    32
  0
VERTEX
  8
T71SSILL
 62
1
 10
1690.514
 20
-6454.692
 30
-1808.000
 70
    32
  0
VERTEX
  8
T71SSILL
 62
1
 10
1684.164
 20
-6436.965
 30
-1808.000
 70
    32
  0
VERTEX
  8
T71SSILL
 62
1
 10
1678.390
 20
-6431.790
 30
-1808.000
 70
    32
  0
VERTEX
  8
T71SSILL
 62
1
 10
1673.287
 20
-6422.145
 30
-1808.000
 70
    32
  0
VERTEX
  8
T71SSILL
 62
1
 10
1669.481
 20
-6412.126
 30
-1808.000
 70
    32
  0
VERTEX
  8
T71SSILL
 62
1
 10
1664.679
 20
-6405.827
 30
-1808.000
 70
    32
  0
VERTEX
  8
T71SSILL
 62
1
 10
1659.332
 20
-6406.470
 30
-1808.000
 70
    32
  0
VERTEX
  8
T71SSILL
 62
1
 10
1654.274
 20
-6411.810
 30
-1808.000
 70
    32
  0
VERTEX
  8
T71SSILL
 62
1
 10
1660.553
 20
-6425.790
 30
-1808.000
 70
    32
  0
VERTEX
  8
T71SSILL
 62
1
 10
1665.119
 20
-6438.494
 30
-1808.000
 70
    32
  0
VERTEX
  8
T71SSILL
 62
1
 10
1679.352
 20
-6457.863
 30
-1808.000
 70
    32
  0
VERTEX
  8
T71SSILL
 62
1
 10
1682.802
 20
-6469.288
 30
-1808.000
 70
    32
  0
VERTEX
  8
T71SSILL
 62
1
 10
1694.488
 20
-6480.765
 30
-1808.000
 70
    32
  0
VERTEX
  8
T71SSILL
 62
1
 10
1699.270
 20
-6486.101
 30
-1808.000
 70
    32
  0
VERTEX
  8
T71SSILL
 62
1
 10
1702.191
 20
-6491.233
 30
-1808.000
 70
    32
  0
VERTEX
  8
T71SSILL
 62
1
 10
1705.552
 20
-6501.843
 30
-1808.000
 70
    32
  0
VERTEX
  8
T71SSILL
 62
1
 10
1710.646
 20
-6514.297
 30
-1808.000
 70
    32
  0
VERTEX
  8
T71SSILL
 62
1
 10
1715.240
 20
-6523.148
 30
-1808.000
 70
    32
  0
VERTEX
  8
T71SSILL
 62
1
 10
1722.029
 20
-6535.939
 30
-1808.000
 70
    32
  0
VERTEX
  8
T71SSILL
 62
1
 10
1725.455
 20
-6545.031
 30
-1808.000
 70
    32
  0
VERTEX
  8
T71SSILL
 62
1
 10
1734.007
 20
-6555.999
 30
-1808.000
 70
    32
  0
VERTEX
  8
T71SSILL
 62
1
 10
1737.282
 20
-6565.596
 30
-1808.000
 70
    32
  0
VERTEX
  8
T71SSILL
 62
1
 10
1745.092
 20
-6582.528
 30
-1808.000
 70
    32
  0
VERTEX
  8
T71SSILL
 62
1
 10
1749.563
 20
-6593.870
 30
-1808.000
 70
    32
  0
VERTEX
  8
T71SSILL
 62
1
 10
1747.876
 20
-6598.881
 30
-1808.000
 70
    32
  0
VERTEX
  8
T71SSILL
 62
1
 10
1766.060
 20
-6618.762
 30
-1808.000
 70
    32
  0
VERTEX
  8
T71SSILL
 62
1
 10
1779.506
 20
-6631.788
 30
-1808.000
 70
    32
  0
VERTEX
  8
T71SSILL
 62
1
 10
1797.518
 20
-6650.290
 30
-1808.000
 70
    32
  0
VERTEX
  8
T71SSILL
 62
1
 10
1814.918
 20
-6676.722
 30
-1808.000
 70
    32
  0
VERTEX
  8
T71SSILL
 62
1
 10
1827.100
 20
-6691.304
 30
-1808.000
 70
    32
  0
VERTEX
  8
T71SSILL
 62
1
 10
1867.604
 20
-6748.826
 30
-1808.000
 70
    32
  0
SEQEND
  8
T71SSILL
  0
POLYLINE
  8
T71SSILL
 62
1
 66
     1
 70
     8
  0
VERTEX
  8
T71SSILL
 62
1
 10
1876.570
 20
-6746.987
 30
-1808.000
 70
    32
  0
VERTEX
  8
T71SSILL
 62
1
 10
1854.541
 20
-6711.783
 30
-1808.000
 70
    32
  0
VERTEX
  8
T71SSILL
 62
1
 10
1837.716
 20
-6683.590
 30
-1808.000
 70
    32
  0
VERTEX
  8
T71SSILL
 62
1
 10
1820.395
 20
-6661.485
 30
-1808.000
 70
    32
  0
VERTEX
  8
T71SSILL
 62
1
 10
1792.429
 20
-6623.841
 30
-1808.000
 70
    32
  0
VERTEX
  8
T71SSILL
 62
1
 10
1771.963
 20
-6598.280
 30
-1808.000
 70
    32
  0
VERTEX
  8
T71SSILL
 62
1
 10
1757.174
 20
-6564.866
 30
-1808.000
 70
    32
  0
VERTEX
  8
T71SSILL
 62
1
 10
1741.962
 20
-6541.375
 30
-1808.000
 70
    32
  0
VERTEX
  8
T71SSILL
 62
1
 10
1730.005
 20
-6521.695
 30
-1808.000
 70
    32
  0
VERTEX
  8
T71SSILL
 62
1
 10
1731.342
 20
-6511.001
 30
-1809.000
 70
    32
  0
VERTEX
  8
T71SSILL
 62
1
 10
1735.680
 20
-6508.664
 30
-1810.000
 70
    32
  0
VERTEX
  8
T71SSILL
 62
1
 10
1737.834
 20
-6498.060
 30
-1812.000
 70
    32
  0
VERTEX
  8
T71SSILL
 62
1
 10
1751.357
 20
-6479.236
 30
-1814.000
 70
    32
  0
VERTEX
  8
T71SSILL
 62
1
 10
1763.593
 20
-6472.285
 30
-1816.000
 70
    32
  0
SEQEND
  8
T71SSILL
  0
POLYLINE
  8
T71SSILL
 62
1
 66
     1
 70
     8
  0
VERTEX
  8
T71SSILL
 62
1
 10
1758.935
 20
-6459.307
 30
-1816.000
 70
    32
  0
VERTEX
  8
T71SSILL
 62
1
 10
1785.011
 20
-6441.943
 30
-1818.900
 70
    32
  0
VERTEX
  8
T71SSILL
 62
1
 10
1796.103
 20
-6449.936
 30
-1818.900
 70
    32
  0
VERTEX
  8
T71SSILL
 62
1
 10
1813.169
 20
-6439.969
 30
-1818.900
 70
    32
  0
VERTEX
  8
T71SSILL
 62
1
 10
1827.772
 20
-6434.031
 30
-1818.900
 70
    32
  0
VERTEX
  8
T71SSILL
 62
1
 10
1855.021
 20
-6414.390
 30
-1818.900
 70
    32
  0
VERTEX
  8
T71SSILL
 62
1
 10
1861.452
 20
-6424.740
 30
-1818.900
 70
    32
  0
VERTEX
  8
T71SSILL
 62
1
 10
1844.894
 20
-6437.156
 30
-1818.900
 70
    32
  0
VERTEX
  8
T71SSILL
 62
1
 10
1835.051
 20
-6444.265
 30
-1818.900
 70
    32
  0
VERTEX
  8
T71SSILL
 62
1
 10
1812.042
 20
-6457.444
 30
-1818.900
 70
    32
  0
VERTEX
  8
T71SSILL
 62
1
 10
1784.770
 20
-6468.967
 30
-1818.900
 70
    32
  0
VERTEX
  8
T71SSILL
 62
1
 10
1763.593
 20
-6472.285
 30
-1816.000
 70
    32
  0
SEQEND
  8
T71SSILL
  0
POLYLINE
  8
T71SSILL
 62
6
 66
     1
 70
     8
  0
VERTEX
  8
T71SSILL
 62
6
 10
2114.535
 20
-9172.838
 30
-1800.000
 70
    32
  0
VERTEX
  8
T71SSILL
 62
6
 10
2123.155
 20
-9175.889
 30
-1800.000
 70
    32
  0
VERTEX
  8
T71SSILL
 62
6
 10
2128.407
 20
-9180.926
 30
-1800.000
 70
    32
  0
VERTEX
  8
T71SSILL
 62
6
 10
2137.466
 20
-9183.589
 30
-1800.000
 70
    32
  0
VERTEX
  8
T71SSILL
 62
6
 10
2159.661
 20
-9185.699
 30
-1800.000
 70
    32
  0
VERTEX
  8
T71SSILL
 62
6
 10
2170.395
 20
-9181.522
 30
-1800.000
 70
    32
  0
VERTEX
  8
T71SSILL
 62
6
 10
2183.277
 20
-9179.596
 30
-1800.000
 70
    32
  0
VERTEX
  8
T71SSILL
 62
6
 10
2204.329
 20
-9175.373
 30
-1800.000
 70
    32
  0
VERTEX
  8
T71SSILL
 62
6
 10
2216.987
 20
-9163.712
 30
-1800.000
 70
    32
  0
VERTEX
  8
T71SSILL
 62
6
 10
2228.046
 20
-9150.575
 30
-1800.000
 70
    32
  0
VERTEX
  8
T71SSILL
 62
6
 10
2235.994
 20
-9157.636
 30
-1800.000
 70
    32
  0
VERTEX
  8
T71SSILL
 62
6
 10
2228.108
 20
-9167.002
 30
-1800.000
 70
    32
  0
VERTEX
  8
T71SSILL
 62
6
 10
2231.448
 20
-9173.663
 30
-1800.000
 70
    32
  0
VERTEX
  8
T71SSILL
 62
6
 10
2349.520
 20
-9158.052
 30
-1796.634
 70
    32
  0
SEQEND
  8
T71SSILL
  0
POLYLINE
  8
T71SSILL
 62
6
 66
     1
 70
     8
  0
VERTEX
  8
T71SSILL
 62
6
 10
2348.616
 20
-9171.680
 30
-1797.000
 70
    32
  0
VERTEX
  8
T71SSILL
 62
6
 10
2337.381
 20
-9170.420
 30
-1797.000
 70
    32
  0
VERTEX
  8
T71SSILL
 62
6
 10
2337.381
 20
-9170.420
 30
-1800.000
 70
    32
  0
VERTEX
  8
T71SSILL
 62
6
 10
2221.202
 20
-9185.654
 30
-1800.611
 70
    32
  0
VERTEX
  8
T71SSILL
 62
6
 10
2218.811
 20
-9192.812
 30
-1799.706
 70
    32
  0
VERTEX
  8
T71SSILL
 62
6
 10
2217.527
 20
-9204.436
 30
-1798.185
 70
    32
  0
VERTEX
  8
T71SSILL
 62
6
 10
2211.544
 20
-9204.912
 30
-1799.349
 70
    32
  0
VERTEX
  8
T71SSILL
 62
6
 10
2205.819
 20
-9202.654
 30
-1799.671
 70
    32
  0
VERTEX
  8
T71SSILL
 62
6
 10
2205.486
 20
-9194.656
 30
-1800.055
 70
    32
  0
VERTEX
  8
T71SSILL
 62
6
 10
2204.158
 20
-9190.763
 30
-1801.284
 70
    32
  0
VERTEX
  8
T71SSILL
 62
6
 10
2201.272
 20
-9189.250
 30
-1800.704
 70
    32
  0
VERTEX
  8
T71SSILL
 62
6
 10
2182.761
 20
-9190.399
 30
-1800.000
 70
    32
  0
VERTEX
  8
T71SSILL
 62
6
 10
2157.543
 20
-9195.610
 30
-1800.000
 70
    32
  0
VERTEX
  8
T71SSILL
 62
6
 10
2157.188
 20
-9197.265
 30
-1800.000
 70
    32
  0
VERTEX
  8
T71SSILL
 62
6
 10
2144.926
 20
-9196.489
 30
-1800.000
 70
    32
  0
VERTEX
  8
T71SSILL
 62
6
 10
2134.961
 20
-9193.613
 30
-1800.000
 70
    32
  0
VERTEX
  8
T71SSILL
 62
6
 10
2132.776
 20
-9203.793
 30
-1800.000
 70
    32
  0
SEQEND
  8
T71SSILL
  0
POLYLINE
  8
T71SSILL
 62
6
 66
     1
 70
     8
  0
VERTEX
  8
T71SSILL
 62
6
 10
2139.461
 20
-7938.290
 30
-1810.635
 70
    32
  0
VERTEX
  8
T71SSILL
 62
6
 10
2301.447
 20
-7818.264
 30
-1810.754
 70
    32
  0
VERTEX
  8
T71SSILL
 62
6
 10
2311.206
 20
-7804.944
 30
-1810.688
 70
    32
  0
VERTEX
  8
T71SSILL
 62
6
 10
2317.684
 20
-7788.781
 30
-1810.623
 70
    32
  0
VERTEX
  8
T71SSILL
 62
6
 10
2322.376
 20
-7767.138
 30
-1810.584
 70
    32
  0
VERTEX
  8
T71SSILL
 62
6
 10
2318.775
 20
-7702.370
 30
-1810.672
 70
    32
  0
VERTEX
  8
T71SSILL
 62
6
 10
2313.696
 20
-7693.297
 30
-1810.739
 70
    32
  0
VERTEX
  8
T71SSILL
 62
6
 10
2317.208
 20
-7688.389
 30
-1810.701
 70
    32
  0
VERTEX
  8
T71SSILL
 62
6
 10
2315.371
 20
-7649.140
 30
-1810.750
 70
    32
  0
VERTEX
  8
T71SSILL
 62
6
 10
2316.934
 20
-7647.363
 30
-1810.733
 70
    32
  0
VERTEX
  8
T71SSILL
 62
6
 10
2312.586
 20
-7576.550
 30
-1810.835
 70
    32
  0
VERTEX
  8
T71SSILL
 62
6
 10
2308.932
 20
-7572.923
 30
-1810.880
 70
    32
  0
VERTEX
  8
T71SSILL
 62
6
 10
2308.281
 20
-7564.768
 30
-1810.894
 70
    32
  0
VERTEX
  8
T71SSILL
 62
6
 10
2312.095
 20
-7557.748
 30
-1810.854
 70
    32
  0
VERTEX
  8
T71SSILL
 62
6
 10
2307.011
 20
-7460.831
 30
-1811.916
 70
    32
  0
VERTEX
  8
T71SSILL
 62
6
 10
2300.829
 20
-7455.655
 30
-1811.941
 70
    32
  0
VERTEX
  8
T71SSILL
 62
6
 10
2306.039
 20
-7446.222
 30
-1812.101
 70
    32
  0
VERTEX
  8
T71SSILL
 62
6
 10
2304.715
 20
-7422.351
 30
-1812.289
 70
    32
  0
VERTEX
  8
T71SSILL
 62
6
 10
2297.795
 20
-7396.123
 30
-1812.466
 70
    32
  0
VERTEX
  8
T71SSILL
 62
6
 10
2298.307
 20
-7389.685
 30
-1812.489
 70
    32
  0
VERTEX
  8
T71SSILL
 62
6
 10
2220.029
 20
-7271.023
 30
-1813.730
 70
    32
  0
VERTEX
  8
T71SSILL
 62
6
 10
2213.425
 20
-7270.452
 30
-1813.764
 70
    32
  0
VERTEX
  8
T71SSILL
 62
6
 10
2213.072
 20
-7268.556
 30
-1813.786
 70
    32
  0
VERTEX
  8
T71SSILL
 62
6
 10
2215.639
 20
-7263.685
 30
-1813.803
 70
    32
  0
VERTEX
  8
T71SSILL
 62
6
 10
2200.684
 20
-7241.973
 30
-1814.036
 70
    32
  0
VERTEX
  8
T71SSILL
 62
6
 10
2194.426
 20
-7245.161
 30
-1813.964
 70
    32
  0
VERTEX
  8
T71SSILL
 62
6
 10
2192.407
 20
-7267.939
 30
-1813.651
 70
    32
  0
VERTEX
  8
T71SSILL
 62
6
 10
2183.350
 20
-7294.002
 30
-1813.246
 70
    32
  0
VERTEX
  8
T71SSILL
 62
6
 10
2163.980
 20
-7320.229
 30
-1812.767
 70
    32
  0
VERTEX
  8
T71SSILL
 62
6
 10
2150.815
 20
-7332.901
 30
-1812.714
 70
    32
  0
VERTEX
  8
T71SSILL
 62
6
 10
2119.115
 20
-7351.307
 30
-1812.592
 70
    32
  0
VERTEX
  8
T71SSILL
 62
6
 10
2116.479
 20
-7354.008
 30
-1812.577
 70
    32
  0
VERTEX
  8
T71SSILL
 62
6
 10
2111.632
 20
-7364.782
 30
-1812.524
 70
    32
  0
VERTEX
  8
T71SSILL
 62
6
 10
2103.697
 20
-7368.494
 30
-1812.497
 70
    32
  0
VERTEX
  8
T71SSILL
 62
6
 10
2096.597
 20
-7373.527
 30
-1812.479
 70
    32
  0
VERTEX
  8
T71SSILL
 62
6
 10
2088.017
 20
-7374.587
 30
-1812.540
 70
    32
  0
VERTEX
  8
T71SSILL
 62
6
 10
2075.896
 20
-7383.527
 30
-1812.603
 70
    32
  0
VERTEX
  8
T71SSILL
 62
6
 10
2076.859
 20
-7388.437
 30
-1812.578
 70
    32
  0
VERTEX
  8
T71SSILL
 62
6
 10
2068.713
 20
-7395.896
 30
-1812.616
 70
    32
  0
VERTEX
  8
T71SSILL
 62
6
 10
2063.009
 20
-7393.314
 30
-1812.669
 70
    32
  0
VERTEX
  8
T71SSILL
 62
6
 10
2060.154
 20
-7395.844
 30
-1812.683
 70
    32
  0
VERTEX
  8
T71SSILL
 62
6
 10
2058.261
 20
-7403.284
 30
-1812.672
 70
    32
  0
VERTEX
  8
T71SSILL
 62
6
 10
2052.064
 20
-7407.613
 30
-1812.705
 70
    32
  0
VERTEX
  8
T71SSILL
 62
6
 10
2045.709
 20
-7404.240
 30
-1812.766
 70
    32
  0
VERTEX
  8
T71SSILL
 62
6
 10
1915.527
 20
-7493.443
 30
-1813.456
 70
    32
  0
VERTEX
  8
T71SSILL
 62
6
 10
1801.014
 20
-7558.182
 30
-1812.916
 70
    32
  0
VERTEX
  8
T71SSILL
 62
6
 10
1799.139
 20
-7548.668
 30
-1812.946
 70
    32
  0
VERTEX
  8
T71SSILL
 62
6
 10
1949.471
 20
-7460.823
 30
-1813.319
 70
    32
  0
VERTEX
  8
T71SSILL
 62
6
 10
1955.674
 20
-7445.962
 30
-1813.322
 70
    32
  0
VERTEX
  8
T71SSILL
 62
6
 10
2030.852
 20
-7391.978
 30
-1812.924
 70
    32
  0
VERTEX
  8
T71SSILL
 62
6
 10
2071.475
 20
-7367.601
 30
-1812.692
 70
    32
  0
VERTEX
  8
T71SSILL
 62
6
 10
2078.263
 20
-7368.703
 30
-1812.636
 70
    32
  0
VERTEX
  8
T71SSILL
 62
6
 10
2084.036
 20
-7367.674
 30
-1812.594
 70
    32
  0
VERTEX
  8
T71SSILL
 62
6
 10
2085.750
 20
-7365.206
 30
-1812.589
 70
    32
  0
VERTEX
  8
T71SSILL
 62
6
 10
2085.950
 20
-7359.123
 30
-1812.609
 70
    32
  0
VERTEX
  8
T71SSILL
 62
6
 10
2084.278
 20
-7346.224
 30
-1812.789
 70
    32
  0
VERTEX
  8
T71SSILL
 62
6
 10
2088.279
 20
-7340.464
 30
-1812.909
 70
    32
  0
VERTEX
  8
T71SSILL
 62
6
 10
2095.107
 20
-7340.927
 30
-1812.868
 70
    32
  0
VERTEX
  8
T71SSILL
 62
6
 10
2097.402
 20
-7344.445
 30
-1812.806
 70
    32
  0
VERTEX
  8
T71SSILL
 62
6
 10
2100.618
 20
-7344.840
 30
-1812.783
 70
    32
  0
VERTEX
  8
T71SSILL
 62
6
 10
2120.496
 20
-7331.378
 30
-1812.862
 70
    32
  0
VERTEX
  8
T71SSILL
 62
6
 10
2127.279
 20
-7335.649
 30
-1812.748
 70
    32
  0
VERTEX
  8
T71SSILL
 62
6
 10
2144.838
 20
-7327.146
 30
-1812.752
 70
    32
  0
VERTEX
  8
T71SSILL
 62
6
 10
2146.115
 20
-7324.335
 30
-1812.786
 70
    32
  0
VERTEX
  8
T71SSILL
 62
6
 10
2159.114
 20
-7311.604
 30
-1812.889
 70
    32
  0
VERTEX
  8
T71SSILL
 62
6
 10
2180.627
 20
-7270.661
 30
-1813.533
 70
    32
  0
VERTEX
  8
T71SSILL
 62
6
 10
2183.796
 20
-7252.039
 30
-1813.800
 70
    32
  0
VERTEX
  8
T71SSILL
 62
6
 10
2181.603
 20
-7225.323
 30
-1814.135
 70
    32
  0
VERTEX
  8
T71SSILL
 62
6
 10
2173.216
 20
-7215.612
 30
-1814.262
 70
    32
  0
VERTEX
  8
T71SSILL
 62
6
 10
2166.453
 20
-7203.635
 30
-1814.468
 70
    32
  0
VERTEX
  8
T71SSILL
 62
6
 10
2170.611
 20
-7196.905
 30
-1814.512
 70
    32
  0
VERTEX
  8
T71SSILL
 62
6
 10
2052.888
 20
-7023.325
 30
-1817.011
 70
    32
  0
VERTEX
  8
T71SSILL
 62
6
 10
2045.050
 20
-7023.342
 30
-1817.093
 70
    32
  0
VERTEX
  8
T71SSILL
 62
6
 10
2043.714
 20
-7036.574
 30
-1816.908
 70
    32
  0
VERTEX
  8
T71SSILL
 62
6
 10
2054.775
 20
-7064.270
 30
-1816.375
 70
    32
  0
VERTEX
  8
T71SSILL
 62
6
 10
2045.258
 20
-7072.176
 30
-1816.355
 70
    32
  0
VERTEX
  8
T71SSILL
 62
6
 10
2035.527
 20
-7073.853
 30
-1816.432
 70
    32
  0
VERTEX
  8
T71SSILL
 62
6
 10
2026.260
 20
-7048.302
 30
-1816.914
 70
    32
  0
VERTEX
  8
T71SSILL
 62
6
 10
2015.104
 20
-7045.638
 30
-1817.071
 70
    32
  0
VERTEX
  8
T71SSILL
 62
6
 10
1949.443
 20
-7053.670
 30
-1817.639
 70
    32
  0
VERTEX
  8
T71SSILL
 62
6
 10
1938.227
 20
-7053.589
 30
-1817.634
 70
    32
  0
VERTEX
  8
T71SSILL
 62
6
 10
1936.698
 20
-7058.422
 30
-1817.626
 70
    32
  0
VERTEX
  8
T71SSILL
 62
6
 10
1939.882
 20
-7077.504
 30
-1817.438
 70
    32
  0
VERTEX
  8
T71SSILL
 62
6
 10
1943.146
 20
-7110.361
 30
-1816.581
 70
    32
  0
VERTEX
  8
T71SSILL
 62
6
 10
1947.739
 20
-7115.812
 30
-1816.536
 70
    32
  0
VERTEX
  8
T71SSILL
 62
6
 10
1950.028
 20
-7126.972
 30
-1816.216
 70
    32
  0
VERTEX
  8
T71SSILL
 62
6
 10
1965.116
 20
-7150.410
 30
-1815.873
 70
    32
  0
VERTEX
  8
T71SSILL
 62
6
 10
1975.175
 20
-7170.946
 30
-1815.472
 70
    32
  0
VERTEX
  8
T71SSILL
 62
6
 10
1971.891
 20
-7201.760
 30
-1814.281
 70
    32
  0
VERTEX
  8
T71SSILL
 62
6
 10
1974.357
 20
-7221.094
 30
-1813.951
 70
    32
  0
VERTEX
  8
T71SSILL
 62
6
 10
1965.874
 20
-7225.824
 30
-1814.001
 70
    32
  0
VERTEX
  8
T71SSILL
 62
6
 10
1963.472
 20
-7235.227
 30
-1813.987
 70
    32
  0
VERTEX
  8
T71SSILL
 62
6
 10
1944.432
 20
-7229.500
 30
-1814.155
 70
    32
  0
VERTEX
  8
T71SSILL
 62
6
 10
1943.683
 20
-7203.223
 30
-1814.251
 70
    32
  0
VERTEX
  8
T71SSILL
 62
6
 10
1947.602
 20
-7190.069
 30
-1814.266
 70
    32
  0
VERTEX
  8
T71SSILL
 62
6
 10
1943.906
 20
-7149.228
 30
-1815.236
 70
    32
  0
VERTEX
  8
T71SSILL
 62
6
 10
1939.811
 20
-7133.698
 30
-1815.652
 70
    32
  0
VERTEX
  8
T71SSILL
 62
6
 10
1933.449
 20
-7121.932
 30
-1815.863
 70
    32
  0
VERTEX
  8
T71SSILL
 62
6
 10
1931.756
 20
-7094.108
 30
-1816.789
 70
    32
  0
VERTEX
  8
T71SSILL
 62
6
 10
1930.149
 20
-7086.546
 30
-1817.004
 70
    32
  0
VERTEX
  8
T71SSILL
 62
6
 10
1928.452
 20
-7083.706
 30
-1817.049
 70
    32
  0
VERTEX
  8
T71SSILL
 62
6
 10
1922.475
 20
-7088.206
 30
-1816.700
 70
    32
  0
VERTEX
  8
T71SSILL
 62
6
 10
1917.911
 20
-7098.707
 30
-1816.184
 70
    32
  0
VERTEX
  8
T71SSILL
 62
6
 10
1908.022
 20
-7095.573
 30
-1815.977
 70
    32
  0
VERTEX
  8
T71SSILL
 62
6
 10
1914.863
 20
-7080.751
 30
-1816.719
 70
    32
  0
VERTEX
  8
T71SSILL
 62
6
 10
1918.212
 20
-7061.055
 30
-1817.520
 70
    32
  0
VERTEX
  8
T71SSILL
 62
6
 10
1914.827
 20
-7040.369
 30
-1817.597
 70
    32
  0
VERTEX
  8
T71SSILL
 62
6
 10
1897.069
 20
-7009.738
 30
-1817.590
 70
    32
  0
VERTEX
  8
T71SSILL
 62
6
 10
1887.889
 20
-7001.448
 30
-1817.579
 70
    32
  0
VERTEX
  8
T71SSILL
 62
6
 10
1878.051
 20
-6989.754
 30
-1817.570
 70
    32
  0
VERTEX
  8
T71SSILL
 62
6
 10
1870.977
 20
-6974.473
 30
-1817.570
 70
    32
  0
VERTEX
  8
T71SSILL
 62
6
 10
1869.163
 20
-6955.929
 30
-1817.586
 70
    32
  0
VERTEX
  8
T71SSILL
 62
6
 10
1870.320
 20
-6925.853
 30
-1817.875
 70
    32
  0
VERTEX
  8
T71SSILL
 62
6
 10
1867.661
 20
-6918.104
 30
-1817.995
 70
    32
  0
VERTEX
  8
T71SSILL
 62
6
 10
1862.743
 20
-6915.148
 30
-1818.017
 70
    32
  0
VERTEX
  8
T71SSILL
 62
6
 10
1843.116
 20
-6930.003
 30
-1817.752
 70
    32
  0
VERTEX
  8
T71SSILL
 62
6
 10
1832.115
 20
-6942.141
 30
-1817.539
 70
    32
  0
VERTEX
  8
T71SSILL
 62
6
 10
1840.781
 20
-6968.820
 30
-1817.463
 70
    32
  0
VERTEX
  8
T71SSILL
 62
6
 10
1827.318
 20
-6976.878
 30
-1817.210
 70
    32
  0
VERTEX
  8
T71SSILL
 62
6
 10
1821.674
 20
-6982.340
 30
-1817.082
 70
    32
  0
VERTEX
  8
T71SSILL
 62
6
 10
1808.015
 20
-6988.726
 30
-1816.540
 70
    32
  0
VERTEX
  8
T71SSILL
 62
6
 10
1795.575
 20
-6976.049
 30
-1816.588
 70
    32
  0
VERTEX
  8
T71SSILL
 62
6
 10
1777.569
 20
-6988.655
 30
-1816.280
 70
    32
  0
VERTEX
  8
T71SSILL
 62
6
 10
1770.228
 20
-6980.437
 30
-1816.366
 70
    32
  0
VERTEX
  8
T71SSILL
 62
6
 10
1797.442
 20
-6961.260
 30
-1816.983
 70
    32
  0
VERTEX
  8
T71SSILL
 62
6
 10
1803.284
 20
-6955.811
 30
-1817.112
 70
    32
  0
VERTEX
  8
T71SSILL
 62
6
 10
1804.054
 20
-6954.936
 30
-1817.131
 70
    32
  0
VERTEX
  8
T71SSILL
 62
6
 10
1802.281
 20
-6947.714
 30
-1817.181
 70
    32
  0
VERTEX
  8
T71SSILL
 62
6
 10
1797.998
 20
-6947.755
 30
-1817.125
 70
    32
  0
VERTEX
  8
T71SSILL
 62
6
 10
1794.519
 20
-6945.463
 30
-1817.104
 70
    32
  0
VERTEX
  8
T71SSILL
 62
6
 10
1792.603
 20
-6941.915
 30
-1817.115
 70
    32
  0
VERTEX
  8
T71SSILL
 62
6
 10
1747.263
 20
-6944.193
 30
-1816.482
 70
    32
  0
VERTEX
  8
T71SSILL
 62
6
 10
1739.325
 20
-6946.541
 30
-1816.273
 70
    32
  0
VERTEX
  8
T71SSILL
 62
6
 10
1735.918
 20
-6933.291
 30
-1816.297
 70
    32
  0
VERTEX
  8
T71SSILL
 62
6
 10
1730.173
 20
-6931.558
 30
-1816.173
 70
    32
  0
VERTEX
  8
T71SSILL
 62
6
 10
1671.979
 20
-6862.659
 30
-1815.323
 70
    32
  0
VERTEX
  8
T71SSILL
 62
6
 10
1679.416
 20
-6855.435
 30
-1815.559
 70
    32
  0
VERTEX
  8
T71SSILL
 62
6
 10
1739.953
 20
-6924.200
 30
-1816.465
 70
    32
  0
VERTEX
  8
T71SSILL
 62
6
 10
1754.678
 20
-6928.605
 30
-1816.750
 70
    32
  0
VERTEX
  8
T71SSILL
 62
6
 10
1762.960
 20
-6933.973
 30
-1816.811
 70
    32
  0
VERTEX
  8
T71SSILL
 62
6
 10
1790.050
 20
-6932.715
 30
-1817.161
 70
    32
  0
VERTEX
  8
T71SSILL
 62
6
 10
1787.325
 20
-6919.074
 30
-1817.235
 70
    32
  0
VERTEX
  8
T71SSILL
 62
6
 10
1779.658
 20
-6902.836
 30
-1817.269
 70
    32
  0
VERTEX
  8
T71SSILL
 62
6
 10
1775.286
 20
-6890.191
 30
-1817.317
 70
    32
  0
VERTEX
  8
T71SSILL
 62
6
 10
1769.822
 20
-6883.778
 30
-1817.302
 70
    32
  0
VERTEX
  8
T71SSILL
 62
6
 10
1755.579
 20
-6855.326
 30
-1817.357
 70
    32
  0
VERTEX
  8
T71SSILL
 62
6
 10
1747.232
 20
-6841.271
 30
-1817.367
 70
    32
  0
VERTEX
  8
T71SSILL
 62
6
 10
1730.006
 20
-6832.271
 30
-1817.048
 70
    32
  0
VERTEX
  8
T71SSILL
 62
6
 10
1724.882
 20
-6832.785
 30
-1816.913
 70
    32
  0
VERTEX
  8
T71SSILL
 62
6
 10
1715.352
 20
-6821.014
 30
-1816.777
 70
    32
  0
VERTEX
  8
T71SSILL
 62
6
 10
1708.480
 20
-6816.992
 30
-1816.639
 70
    32
  0
VERTEX
  8
T71SSILL
 62
6
 10
1701.049
 20
-6816.128
 30
-1816.457
 70
    32
  0
VERTEX
  8
T71SSILL
 62
6
 10
1697.173
 20
-6800.769
 30
-1816.499
 70
    32
  0
VERTEX
  8
T71SSILL
 62
6
 10
1695.886
 20
-6790.329
 30
-1816.562
 70
    32
  0
VERTEX
  8
T71SSILL
 62
6
 10
1685.143
 20
-6775.812
 30
-1816.421
 70
    32
  0
VERTEX
  8
T71SSILL
 62
6
 10
1685.410
 20
-6763.873
 30
-1816.537
 70
    32
  0
VERTEX
  8
T71SSILL
 62
6
 10
1688.618
 20
-6762.182
 30
-1816.634
 70
    32
  0
VERTEX
  8
T71SSILL
 62
6
 10
1690.607
 20
-6741.052
 30
-1816.879
 70
    32
  0
VERTEX
  8
T71SSILL
 62
6
 10
1676.372
 20
-6709.577
 30
-1816.804
 70
    32
  0
VERTEX
  8
T71SSILL
 62
6
 10
1668.983
 20
-6703.600
 30
-1816.671
 70
    32
  0
VERTEX
  8
T71SSILL
 62
6
 10
1642.390
 20
-6703.398
 30
-1815.994
 70
    32
  0
VERTEX
  8
T71SSILL
 62
6
 10
1643.871
 20
-6713.154
 30
-1815.942
 70
    32
  0
VERTEX
  8
T71SSILL
 62
6
 10
1643.536
 20
-6730.110
 30
-1815.778
 70
    32
  0
VERTEX
  8
T71SSILL
 62
6
 10
1629.037
 20
-6736.952
 30
-1815.345
 70
    32
  0
VERTEX
  8
T71SSILL
 62
6
 10
1627.626
 20
-6743.805
 30
-1815.246
 70
    32
  0
VERTEX
  8
T71SSILL
 62
6
 10
1622.928
 20
-6743.965
 30
-1815.125
 70
    32
  0
VERTEX
  8
T71SSILL
 62
6
 10
1616.280
 20
-6741.138
 30
-1814.981
 70
    32
  0
VERTEX
  8
T71SSILL
 62
6
 10
1599.231
 20
-6739.403
 30
-1814.561
 70
    32
  0
VERTEX
  8
T71SSILL
 62
6
 10
1590.998
 20
-6725.172
 30
-1814.482
 70
    32
  0
VERTEX
  8
T71SSILL
 62
6
 10
1583.065
 20
-6719.306
 30
-1814.333
 70
    32
  0
VERTEX
  8
T71SSILL
 62
6
 10
1574.388
 20
-6701.209
 30
-1814.278
 70
    32
  0
VERTEX
  8
T71SSILL
 62
6
 10
1571.144
 20
-6701.448
 30
-1814.193
 70
    32
  0
VERTEX
  8
T71SSILL
 62
6
 10
1568.083
 20
-6709.772
 30
-1814.043
 70
    32
  0
VERTEX
  8
T71SSILL
 62
6
 10
1567.564
 20
-6717.962
 30
-1813.966
 70
    32
  0
VERTEX
  8
T71SSILL
 62
6
 10
1576.017
 20
-6747.675
 30
-1813.933
 70
    32
  0
VERTEX
  8
T71SSILL
 62
6
 10
1579.804
 20
-6750.989
 30
-1813.998
 70
    32
  0
VERTEX
  8
T71SSILL
 62
6
 10
1582.632
 20
-6756.570
 30
-1814.022
 70
    32
  0
VERTEX
  8
T71SSILL
 62
6
 10
1590.971
 20
-6763.845
 30
-1814.164
 70
    32
  0
VERTEX
  8
T71SSILL
 62
6
 10
1599.996
 20
-6767.563
 30
-1814.351
 70
    32
  0
VERTEX
  8
T71SSILL
 62
6
 10
1608.585
 20
-6762.646
 30
-1814.595
 70
    32
  0
VERTEX
  8
T71SSILL
 62
6
 10
1610.772
 20
-6763.568
 30
-1814.640
 70
    32
  0
VERTEX
  8
T71SSILL
 62
6
 10
1619.777
 20
-6767.955
 30
-1814.824
 70
    32
  0
VERTEX
  8
T71SSILL
 62
6
 10
1627.132
 20
-6773.803
 30
-1814.958
 70
    32
  0
VERTEX
  8
T71SSILL
 62
6
 10
1627.963
 20
-6776.806
 30
-1814.952
 70
    32
  0
VERTEX
  8
T71SSILL
 62
6
 10
1623.907
 20
-6782.186
 30
-1814.808
 70
    32
  0
VERTEX
  8
T71SSILL
 62
6
 10
1618.800
 20
-6786.494
 30
-1814.651
 70
    32
  0
VERTEX
  8
T71SSILL
 62
6
 10
1614.095
 20
-6789.730
 30
-1814.513
 70
    32
  0
VERTEX
  8
T71SSILL
 62
6
 10
1611.511
 20
-6790.077
 30
-1814.448
 70
    32
  0
VERTEX
  8
T71SSILL
 62
6
 10
1604.774
 20
-6788.103
 30
-1814.303
 70
    32
  0
VERTEX
  8
T71SSILL
 62
6
 10
1598.962
 20
-6781.230
 30
-1814.218
 70
    32
  0
VERTEX
  8
T71SSILL
 62
6
 10
1583.582
 20
-6775.134
 30
-1813.898
 70
    32
  0
VERTEX
  8
T71SSILL
 62
6
 10
1578.503
 20
-6769.184
 30
-1813.823
 70
    32
  0
VERTEX
  8
T71SSILL
 62
6
 10
1572.191
 20
-6766.923
 30
-1813.805
 70
    32
  0
VERTEX
  8
T71SSILL
 62
6
 10
1561.898
 20
-6751.567
 30
-1813.874
 70
    32
  0
VERTEX
  8
T71SSILL
 62
6
 10
1555.792
 20
-6729.923
 30
-1813.969
 70
    32
  0
VERTEX
  8
T71SSILL
 62
6
 10
1553.464
 20
-6712.656
 30
-1814.028
 70
    32
  0
VERTEX
  8
T71SSILL
 62
6
 10
1555.536
 20
-6696.592
 30
-1814.055
 70
    32
  0
VERTEX
  8
T71SSILL
 62
6
 10
1554.789
 20
-6690.897
 30
-1814.074
 70
    32
  0
VERTEX
  8
T71SSILL
 62
6
 10
1559.244
 20
-6670.505
 30
-1814.499
 70
    32
  0
VERTEX
  8
T71SSILL
 62
6
 10
1548.598
 20
-6644.029
 30
-1814.852
 70
    32
  0
VERTEX
  8
T71SSILL
 62
6
 10
1440.227
 20
-6494.495
 30
-1815.319
 70
    32
  0
VERTEX
  8
T71SSILL
 62
6
 10
1435.452
 20
-6493.794
 30
-1815.352
 70
    32
  0
VERTEX
  8
T71SSILL
 62
6
 10
1427.893
 20
-6486.292
 30
-1815.420
 70
    32
  0
VERTEX
  8
T71SSILL
 62
6
 10
1396.499
 20
-6508.350
 30
-1815.569
 70
    32
  0
VERTEX
  8
T71SSILL
 62
6
 10
1396.796
 20
-6524.886
 30
-1815.525
 70
    32
  0
VERTEX
  8
T71SSILL
 62
6
 10
1400.461
 20
-6529.108
 30
-1815.490
 70
    32
  0
VERTEX
  8
T71SSILL
 62
6
 10
1392.669
 20
-6534.526
 30
-1815.527
 70
    32
  0
VERTEX
  8
T71SSILL
 62
6
 10
1389.558
 20
-6530.585
 30
-1815.558
 70
    32
  0
VERTEX
  8
T71SSILL
 62
6
 10
1383.806
 20
-6530.571
 30
-1815.595
 70
    32
  0
VERTEX
  8
T71SSILL
 62
6
 10
1371.868
 20
-6525.289
 30
-1815.686
 70
    32
  0
VERTEX
  8
T71SSILL
 62
6
 10
1331.646
 20
-6553.896
 30
-1815.876
 70
    32
  0
VERTEX
  8
T71SSILL
 62
6
 10
1309.259
 20
-6568.127
 30
-1816.021
 70
    32
  0
VERTEX
  8
T71SSILL
 62
6
 10
1305.958
 20
-6568.436
 30
-1816.384
 70
    32
  0
VERTEX
  8
T71SSILL
 62
6
 10
1299.036
 20
-6574.190
 30
-1816.014
 70
    32
  0
VERTEX
  8
T71SSILL
 62
6
 10
1289.903
 20
-6580.207
 30
-1815.657
 70
    32
  0
VERTEX
  8
T71SSILL
 62
6
 10
1268.918
 20
-6594.983
 30
-1815.118
 70
    32
  0
VERTEX
  8
T71SSILL
 62
6
 10
1266.063
 20
-6591.705
 30
-1815.484
 70
    32
  0
VERTEX
  8
T71SSILL
 62
6
 10
1263.894
 20
-6588.357
 30
-1815.728
 70
    32
  0
VERTEX
  8
T71SSILL
 62
6
 10
1274.101
 20
-6582.314
 30
-1815.711
 70
    32
  0
VERTEX
  8
T71SSILL
 62
6
 10
1285.476
 20
-6572.845
 30
-1816.297
 70
    32
  0
VERTEX
  8
T71SSILL
 62
6
 10
1299.503
 20
-6563.722
 30
-1815.835
 70
    32
  0
VERTEX
  8
T71SSILL
 62
6
 10
1303.025
 20
-6558.899
 30
-1816.642
 70
    32
  0
VERTEX
  8
T71SSILL
 62
6
 10
1301.872
 20
-6554.104
 30
-1815.762
 70
    32
  0
VERTEX
  8
T71SSILL
 62
6
 10
1298.189
 20
-6548.725
 30
-1816.236
 70
    32
  0
VERTEX
  8
T71SSILL
 62
6
 10
1295.885
 20
-6543.270
 30
-1815.667
 70
    32
  0
VERTEX
  8
T71SSILL
 62
6
 10
1301.162
 20
-6539.347
 30
-1815.340
 70
    32
  0
VERTEX
  8
T71SSILL
 62
6
 10
1306.955
 20
-6536.403
 30
-1815.439
 70
    32
  0
VERTEX
  8
T71SSILL
 62
6
 10
1312.777
 20
-6543.800
 30
-1815.783
 70
    32
  0
VERTEX
  8
T71SSILL
 62
6
 10
1316.965
 20
-6549.453
 30
-1816.627
 70
    32
  0
VERTEX
  8
T71SSILL
 62
6
 10
1321.518
 20
-6546.317
 30
-1814.851
 70
    32
  0
VERTEX
  8
T71SSILL
 62
6
 10
1326.457
 20
-6545.161
 30
-1815.932
 70
    32
  0
VERTEX
  8
T71SSILL
 62
6
 10
1444.380
 20
-6459.137
 30
-1815.398
 70
    32
  0
VERTEX
  8
T71SSILL
 62
6
 10
1445.772
 20
-6450.821
 30
-1816.980
 70
    32
  0
VERTEX
  8
T71SSILL
 62
6
 10
1442.598
 20
-6448.121
 30
-1816.825
 70
    32
  0
VERTEX
  8
T71SSILL
 62
6
 10
1438.972
 20
-6447.356
 30
-1816.610
 70
    32
  0
VERTEX
  8
T71SSILL
 62
6
 10
1435.919
 20
-6442.948
 30
-1815.851
 70
    32
  0
VERTEX
  8
T71SSILL
 62
6
 10
1438.114
 20
-6441.067
 30
-1815.851
 70
    32
  0
VERTEX
  8
T71SSILL
 62
6
 10
1439.638
 20
-6432.606
 30
-1814.809
 70
    32
  0
VERTEX
  8
T71SSILL
 62
6
 10
1443.257
 20
-6428.917
 30
-1815.278
 70
    32
  0
VERTEX
  8
T71SSILL
 62
6
 10
1442.159
 20
-6424.690
 30
-1814.635
 70
    32
  0
VERTEX
  8
T71SSILL
 62
6
 10
1445.474
 20
-6421.492
 30
-1814.091
 70
    32
  0
VERTEX
  8
T71SSILL
 62
6
 10
1449.547
 20
-6419.773
 30
-1814.166
 70
    32
  0
VERTEX
  8
T71SSILL
 62
6
 10
1451.596
 20
-6420.062
 30
-1813.276
 70
    32
  0
VERTEX
  8
T71SSILL
 62
6
 10
1457.280
 20
-6419.189
 30
-1813.458
 70
    32
  0
VERTEX
  8
T71SSILL
 62
6
 10
1461.433
 20
-6419.779
 30
-1813.565
 70
    32
  0
VERTEX
  8
T71SSILL
 62
6
 10
1462.853
 20
-6428.319
 30
-1814.319
 70
    32
  0
VERTEX
  8
T71SSILL
 62
6
 10
1465.696
 20
-6427.822
 30
-1813.663
 70
    32
  0
VERTEX
  8
T71SSILL
 62
6
 10
1468.255
 20
-6428.174
 30
-1813.375
 70
    32
  0
VERTEX
  8
T71SSILL
 62
6
 10
1469.820
 20
-6432.457
 30
-1815.298
 70
    32
  0
VERTEX
  8
T71SSILL
 62
6
 10
1467.544
 20
-6436.596
 30
-1816.381
 70
    32
  0
VERTEX
  8
T71SSILL
 62
6
 10
1472.242
 20
-6438.336
 30
-1817.053
 70
    32
  0
VERTEX
  8
T71SSILL
 62
6
 10
1489.204
 20
-6427.264
 30
-1817.658
 70
    32
  0
VERTEX
  8
T71SSILL
 62
6
 10
1491.640
 20
-6423.058
 30
-1817.067
 70
    32
  0
VERTEX
  8
T71SSILL
 62
6
 10
1494.548
 20
-6416.258
 30
-1816.679
 70
    32
  0
VERTEX
  8
T71SSILL
 62
6
 10
1491.775
 20
-6410.801
 30
-1814.599
 70
    32
  0
VERTEX
  8
T71SSILL
 62
6
 10
1486.314
 20
-6399.486
 30
-1814.438
 70
    32
  0
VERTEX
  8
T71SSILL
 62
6
 10
1487.868
 20
-6397.919
 30
-1812.846
 70
    32
  0
VERTEX
  8
T71SSILL
 62
6
 10
1484.483
 20
-6389.460
 30
-1812.676
 70
    32
  0
VERTEX
  8
T71SSILL
 62
6
 10
1485.874
 20
-6385.538
 30
-1812.182
 70
    32
  0
VERTEX
  8
T71SSILL
 62
6
 10
1491.056
 20
-6382.710
 30
-1812.110
 70
    32
  0
VERTEX
  8
T71SSILL
 62
6
 10
1497.443
 20
-6391.845
 30
-1813.249
 70
    32
  0
VERTEX
  8
T71SSILL
 62
6
 10
1500.105
 20
-6392.274
 30
-1814.037
 70
    32
  0
VERTEX
  8
T71SSILL
 62
6
 10
1508.159
 20
-6402.349
 30
-1817.245
 70
    32
  0
VERTEX
  8
T71SSILL
 62
6
 10
1511.655
 20
-6403.005
 30
-1817.383
 70
    32
  0
VERTEX
  8
T71SSILL
 62
6
 10
1516.418
 20
-6405.838
 30
-1818.374
 70
    32
  0
VERTEX
  8
T71SSILL
 62
6
 10
1517.228
 20
-6404.765
 30
-1819.100
 70
    32
  0
VERTEX
  8
T71SSILL
 62
6
 10
1526.664
 20
-6392.530
 30
-1818.591
 70
    32
  0
VERTEX
  8
T71SSILL
 62
6
 10
1533.083
 20
-6388.686
 30
-1818.686
 70
    32
  0
VERTEX
  8
T71SSILL
 62
6
 10
1544.781
 20
-6296.765
 30
-1819.349
 70
    32
  0
VERTEX
  8
T71SSILL
 62
6
 10
1540.832
 20
-6293.374
 30
-1819.278
 70
    32
  0
VERTEX
  8
T71SSILL
 62
6
 10
1538.561
 20
-6292.413
 30
-1819.235
 70
    32
  0
VERTEX
  8
T71SSILL
 62
6
 10
1442.297
 20
-6364.609
 30
-1818.062
 70
    32
  0
VERTEX
  8
T71SSILL
 62
6
 10
1404.545
 20
-6392.261
 30
-1815.810
 70
    32
  0
VERTEX
  8
T71SSILL
 62
6
 10
1377.580
 20
-6412.011
 30
-1815.936
 70
    32
  0
VERTEX
  8
T71SSILL
 62
6
 10
1378.138
 20
-6423.158
 30
-1815.904
 70
    32
  0
VERTEX
  8
T71SSILL
 62
6
 10
1367.551
 20
-6430.779
 30
-1815.954
 70
    32
  0
VERTEX
  8
T71SSILL
 62
6
 10
1361.830
 20
-6426.597
 30
-1816.002
 70
    32
  0
VERTEX
  8
T71SSILL
 62
6
 10
1357.939
 20
-6426.569
 30
-1816.027
 70
    32
  0
VERTEX
  8
T71SSILL
 62
6
 10
1273.292
 20
-6490.429
 30
-1816.418
 70
    32
  0
VERTEX
  8
T71SSILL
 62
6
 10
1267.241
 20
-6482.655
 30
-1816.477
 70
    32
  0
VERTEX
  8
T71SSILL
 62
6
 10
1399.978
 20
-6383.402
 30
-1815.863
 70
    32
  0
VERTEX
  8
T71SSILL
 62
6
 10
1436.995
 20
-6355.518
 30
-1818.091
 70
    32
  0
VERTEX
  8
T71SSILL
 62
6
 10
1499.677
 20
-6308.943
 30
-1818.402
 70
    32
  0
VERTEX
  8
T71SSILL
 62
6
 10
1500.662
 20
-6299.530
 30
-1818.447
 70
    32
  0
VERTEX
  8
T71SSILL
 62
6
 10
1503.511
 20
-6293.631
 30
-1818.521
 70
    32
  0
VERTEX
  8
T71SSILL
 62
6
 10
1512.707
 20
-6290.086
 30
-1818.717
 70
    32
  0
VERTEX
  8
T71SSILL
 62
6
 10
1520.212
 20
-6293.669
 30
-1818.859
 70
    32
  0
VERTEX
  8
T71SSILL
 62
6
 10
1540.945
 20
-6277.814
 30
-1819.323
 70
    32
  0
VERTEX
  8
T71SSILL
 62
6
 10
1544.354
 20
-6263.750
 30
-1819.430
 70
    32
  0
VERTEX
  8
T71SSILL
 62
6
 10
1543.292
 20
-6249.182
 30
-1819.448
 70
    32
  0
VERTEX
  8
T71SSILL
 62
6
 10
1545.448
 20
-6243.140
 30
-1819.508
 70
    32
  0
VERTEX
  8
T71SSILL
 62
6
 10
1542.983
 20
-6222.892
 30
-1819.513
 70
    32
  0
VERTEX
  8
T71SSILL
 62
6
 10
1535.681
 20
-6214.364
 30
-1819.388
 70
    32
  0
VERTEX
  8
T71SSILL
 62
6
 10
1527.748
 20
-6200.885
 30
-1819.264
 70
    32
  0
VERTEX
  8
T71SSILL
 62
6
 10
1527.496
 20
-6185.850
 30
-1819.300
 70
    32
  0
VERTEX
  8
T71SSILL
 62
6
 10
1525.152
 20
-6167.965
 30
-1819.301
 70
    32
  0
VERTEX
  8
T71SSILL
 62
6
 10
1539.337
 20
-6158.509
 30
-1819.614
 70
    32
  0
VERTEX
  8
T71SSILL
 62
6
 10
1540.129
 20
-6137.424
 30
-1819.687
 70
    32
  0
VERTEX
  8
T71SSILL
 62
6
 10
1537.843
 20
-6134.601
 30
-1819.649
 70
    32
  0
VERTEX
  8
T71SSILL
 62
6
 10
1521.766
 20
-6136.818
 30
-1819.317
 70
    32
  0
VERTEX
  8
T71SSILL
 62
6
 10
1508.856
 20
-6141.305
 30
-1819.043
 70
    32
  0
VERTEX
  8
T71SSILL
 62
6
 10
1493.512
 20
-6130.956
 30
-1818.903
 70
    32
  0
VERTEX
  8
T71SSILL
 62
6
 10
1498.624
 20
-6128.453
 30
-1818.967
 70
    32
  0
VERTEX
  8
T71SSILL
 62
6
 10
1529.957
 20
-6122.345
 30
-1819.522
 70
    32
  0
VERTEX
  8
T71SSILL
 62
6
 10
1530.831
 20
-6120.600
 30
-1819.545
 70
    32
  0
VERTEX
  8
T71SSILL
 62
6
 10
1530.373
 20
-6114.873
 30
-1819.551
 70
    32
  0
VERTEX
  8
T71SSILL
 62
6
 10
1528.364
 20
-6108.245
 30
-1819.528
 70
    32
  0
VERTEX
  8
T71SSILL
 62
6
 10
1492.714
 20
-6046.770
 30
-1819.174
 70
    32
  0
VERTEX
  8
T71SSILL
 62
6
 10
1465.478
 20
-6058.827
 30
-1818.837
 70
    32
  0
VERTEX
  8
T71SSILL
 62
6
 10
1458.121
 20
-6042.573
 30
-1818.815
 70
    32
  0
VERTEX
  8
T71SSILL
 62
6
 10
1480.641
 20
-6025.563
 30
-1819.112
 70
    32
  0
VERTEX
  8
T71SSILL
 62
6
 10
1436.954
 20
-5949.552
 30
-1819.051
 70
    32
  0
VERTEX
  8
T71SSILL
 62
6
 10
1413.462
 20
-5928.069
 30
-1819.130
 70
    32
  0
VERTEX
  8
T71SSILL
 62
6
 10
1391.929
 20
-5916.353
 30
-1819.196
 70
    32
  0
VERTEX
  8
T71SSILL
 62
6
 10
1383.021
 20
-5918.511
 30
-1819.212
 70
    32
  0
VERTEX
  8
T71SSILL
 62
6
 10
1378.612
 20
-5924.898
 30
-1819.203
 70
    32
  0
VERTEX
  8
T71SSILL
 62
6
 10
1377.689
 20
-5929.504
 30
-1819.193
 70
    32
  0
VERTEX
  8
T71SSILL
 62
6
 10
1374.353
 20
-5929.758
 30
-1819.197
 70
    32
  0
VERTEX
  8
T71SSILL
 62
6
 10
1372.639
 20
-5928.523
 30
-1819.202
 70
    32
  0
VERTEX
  8
T71SSILL
 62
6
 10
1368.736
 20
-5922.548
 30
-1819.221
 70
    32
  0
VERTEX
  8
T71SSILL
 62
6
 10
1363.512
 20
-5926.428
 30
-1819.219
 70
    32
  0
VERTEX
  8
T71SSILL
 62
6
 10
1359.119
 20
-5922.979
 30
-1819.233
 70
    32
  0
VERTEX
  8
T71SSILL
 62
6
 10
1360.369
 20
-5903.814
 30
-1819.278
 70
    32
  0
VERTEX
  8
T71SSILL
 62
6
 10
1349.470
 20
-5870.195
 30
-1819.345
 70
    32
  0
VERTEX
  8
T71SSILL
 62
6
 10
1346.560
 20
-5846.082
 30
-1819.371
 70
    32
  0
VERTEX
  8
T71SSILL
 62
6
 10
1358.984
 20
-5811.326
 30
-1819.539
 70
    32
  0
VERTEX
  8
T71SSILL
 62
6
 10
1319.033
 20
-5741.233
 30
-1819.897
 70
    32
  0
VERTEX
  8
T71SSILL
 62
6
 10
1315.824
 20
-5739.209
 30
-1819.907
 70
    32
  0
VERTEX
  8
T71SSILL
 62
6
 10
1291.527
 20
-5752.177
 30
-1819.822
 70
    32
  0
VERTEX
  8
T71SSILL
 62
6
 10
1282.211
 20
-5734.047
 30
-1819.916
 70
    32
  0
VERTEX
  8
T71SSILL
 62
6
 10
1303.141
 20
-5721.694
 30
-1819.995
 70
    32
  0
VERTEX
  8
T71SSILL
 62
6
 10
1305.573
 20
-5719.739
 30
-1820.007
 70
    32
  0
VERTEX
  8
T71SSILL
 62
6
 10
1305.702
 20
-5717.184
 30
-1820.021
 70
    32
  0
VERTEX
  8
T71SSILL
 62
6
 10
1255.285
 20
-5630.426
 30
-1820.464
 70
    32
  0
VERTEX
  8
T71SSILL
 62
6
 10
1247.722
 20
-5623.479
 30
-1820.497
 70
    32
  0
VERTEX
  8
T71SSILL
 62
6
 10
1262.002
 20
-5394.000
 30
-1821.134
 70
    32
  0
VERTEX
  8
T71SSILL
 62
6
 10
1257.676
 20
-5388.995
 30
-1821.138
 70
    32
  0
VERTEX
  8
T71SSILL
 62
6
 10
1227.254
 20
-5411.199
 30
-1821.033
 70
    32
  0
VERTEX
  8
T71SSILL
 62
6
 10
1222.023
 20
-5404.492
 30
-1821.049
 70
    32
  0
VERTEX
  8
T71SSILL
 62
6
 10
1313.473
 20
-5339.242
 30
-1821.394
 70
    32
  0
VERTEX
  8
T71SSILL
 62
6
 10
1315.953
 20
-5315.391
 30
-1821.463
 70
    32
  0
VERTEX
  8
T71SSILL
 62
6
 10
1310.302
 20
-5309.097
 30
-1821.468
 70
    32
  0
VERTEX
  8
T71SSILL
 62
6
 10
1307.314
 20
-5311.147
 30
-1821.456
 70
    32
  0
VERTEX
  8
T71SSILL
 62
6
 10
1303.181
 20
-5310.102
 30
-1821.450
 70
    32
  0
VERTEX
  8
T71SSILL
 62
6
 10
1302.022
 20
-5305.064
 30
-1821.461
 70
    32
  0
VERTEX
  8
T71SSILL
 62
6
 10
1298.126
 20
-5298.255
 30
-1821.471
 70
    32
  0
VERTEX
  8
T71SSILL
 62
6
 10
1289.912
 20
-5296.751
 30
-1821.457
 70
    32
  0
VERTEX
  8
T71SSILL
 62
6
 10
1283.180
 20
-5293.895
 30
-1821.450
 70
    32
  0
VERTEX
  8
T71SSILL
 62
6
 10
1279.210
 20
-5289.476
 30
-1821.454
 70
    32
  0
VERTEX
  8
T71SSILL
 62
6
 10
1263.183
 20
-5284.747
 30
-1821.432
 70
    32
  0
VERTEX
  8
T71SSILL
 62
6
 10
1272.987
 20
-5277.788
 30
-1821.472
 70
    32
  0
VERTEX
  8
T71SSILL
 62
6
 10
1289.000
 20
-5280.655
 30
-1821.499
 70
    32
  0
VERTEX
  8
T71SSILL
 62
6
 10
1291.071
 20
-5278.669
 30
-1821.509
 70
    32
  0
VERTEX
  8
T71SSILL
 62
6
 10
1316.225
 20
-5289.300
 30
-1821.535
 70
    32
  0
VERTEX
  8
T71SSILL
 62
6
 10
1357.275
 20
-5276.760
 30
-1821.658
 70
    32
  0
VERTEX
  8
T71SSILL
 62
6
 10
1360.153
 20
-5278.392
 30
-1821.660
 70
    32
  0
VERTEX
  8
T71SSILL
 62
6
 10
1370.581
 20
-5296.530
 30
-1821.633
 70
    32
  0
VERTEX
  8
T71SSILL
 62
6
 10
1485.456
 20
-5211.542
 30
-1821.980
 70
    32
  0
VERTEX
  8
T71SSILL
 62
6
 10
1480.645
 20
-5205.045
 30
-1821.980
 70
    32
  0
VERTEX
  8
T71SSILL
 62
6
 10
1504.362
 20
-5187.794
 30
-1822.038
 70
    32
  0
VERTEX
  8
T71SSILL
 62
6
 10
1509.483
 20
-5194.730
 30
-1822.038
 70
    32
  0
VERTEX
  8
T71SSILL
 62
6
 10
1542.788
 20
-5169.344
 30
-1822.135
 70
    32
  0
VERTEX
  8
T71SSILL
 62
6
 10
1542.434
 20
-5160.588
 30
-1822.151
 70
    32
  0
VERTEX
  8
T71SSILL
 62
6
 10
1539.905
 20
-5153.039
 30
-1822.159
 70
    32
  0
VERTEX
  8
T71SSILL
 62
6
 10
1551.508
 20
-5139.452
 30
-1822.218
 70
    32
  0
VERTEX
  8
T71SSILL
 62
6
 10
1566.482
 20
-5136.114
 30
-1822.266
 70
    32
  0
VERTEX
  8
T71SSILL
 62
6
 10
1581.571
 20
-5142.773
 30
-1822.294
 70
    32
  0
VERTEX
  8
T71SSILL
 62
6
 10
1993.305
 20
-4843.664
 30
-1822.742
 70
    32
  0
VERTEX
  8
T71SSILL
 62
6
 10
1999.496
 20
-4837.468
 30
-1822.747
 70
    32
  0
VERTEX
  8
T71SSILL
 62
6
 10
2036.526
 20
-4776.650
 30
-1822.784
 70
    32
  0
VERTEX
  8
T71SSILL
 62
6
 10
2037.897
 20
-4749.891
 30
-1822.792
 70
    32
  0
VERTEX
  8
T71SSILL
 62
6
 10
2037.063
 20
-4745.982
 30
-1822.793
 70
    32
  0
VERTEX
  8
T71SSILL
 62
6
 10
2028.752
 20
-4737.052
 30
-1822.790
 70
    32
  0
VERTEX
  8
T71SSILL
 62
6
 10
2021.159
 20
-4733.632
 30
-1822.787
 70
    32
  0
VERTEX
  8
T71SSILL
 62
6
 10
2014.702
 20
-4735.976
 30
-1822.783
 70
    32
  0
VERTEX
  8
T71SSILL
 62
6
 10
2010.339
 20
-4727.596
 30
-1822.783
 70
    32
  0
VERTEX
  8
T71SSILL
 62
6
 10
2024.766
 20
-4719.428
 30
-1822.793
 70
    32
  0
VERTEX
  8
T71SSILL
 62
6
 10
2028.415
 20
-4716.144
 30
-1822.793
 70
    32
  0
VERTEX
  8
T71SSILL
 62
6
 10
2029.412
 20
-4706.400
 30
-1822.793
 70
    32
  0
VERTEX
  8
T71SSILL
 62
6
 10
2040.569
 20
-4697.753
 30
-1822.796
 70
    32
  0
VERTEX
  8
T71SSILL
 62
6
 10
2045.083
 20
-4609.660
 30
-1822.790
 70
    32
  0
VERTEX
  8
T71SSILL
 62
6
 10
2054.081
 20
-4609.915
 30
-1822.793
 70
    32
  0
VERTEX
  8
T71SSILL
 62
6
 10
2049.542
 20
-4698.498
 30
-1822.799
 70
    32
  0
VERTEX
  8
T71SSILL
 62
6
 10
2053.486
 20
-4712.948
 30
-1822.801
 70
    32
  0
VERTEX
  8
T71SSILL
 62
6
 10
2050.618
 20
-4740.581
 30
-1822.802
 70
    32
  0
VERTEX
  8
T71SSILL
 62
6
 10
2046.887
 20
-4750.314
 30
-1822.797
 70
    32
  0
VERTEX
  8
T71SSILL
 62
6
 10
2045.314
 20
-4781.010
 30
-1822.788
 70
    32
  0
VERTEX
  8
T71SSILL
 62
6
 10
2035.318
 20
-4809.852
 30
-1822.775
 70
    32
  0
VERTEX
  8
T71SSILL
 62
6
 10
2036.908
 20
-4811.988
 30
-1822.775
 70
    32
  0
VERTEX
  8
T71SSILL
 62
6
 10
2080.341
 20
-4780.436
 30
-1822.808
 70
    32
  0
VERTEX
  8
T71SSILL
 62
6
 10
2087.250
 20
-4770.679
 30
-1822.815
 70
    32
  0
VERTEX
  8
T71SSILL
 62
6
 10
2129.556
 20
-4775.602
 30
-1822.831
 70
    32
  0
VERTEX
  8
T71SSILL
 62
6
 10
2136.553
 20
-4780.882
 30
-1822.834
 70
    32
  0
VERTEX
  8
T71SSILL
 62
6
 10
2148.283
 20
-4765.192
 30
-1822.836
 70
    32
  0
VERTEX
  8
T71SSILL
 62
6
 10
2146.987
 20
-4755.845
 30
-1822.835
 70
    32
  0
VERTEX
  8
T71SSILL
 62
6
 10
2153.219
 20
-4736.812
 30
-1822.836
 70
    32
  0
VERTEX
  8
T71SSILL
 62
6
 10
2167.796
 20
-4733.602
 30
-1822.840
 70
    32
  0
VERTEX
  8
T71SSILL
 62
6
 10
2182.753
 20
-4737.316
 30
-1822.784
 70
    32
  0
VERTEX
  8
T71SSILL
 62
6
 10
2182.618
 20
-4772.770
 30
-1822.754
 70
    32
  0
VERTEX
  8
T71SSILL
 62
6
 10
2172.409
 20
-4777.027
 30
-1822.786
 70
    32
  0
VERTEX
  8
T71SSILL
 62
6
 10
2166.041
 20
-4777.370
 30
-1822.808
 70
    32
  0
VERTEX
  8
T71SSILL
 62
6
 10
2156.886
 20
-4804.833
 30
-1822.817
 70
    32
  0
VERTEX
  8
T71SSILL
 62
6
 10
2151.631
 20
-4811.381
 30
-1822.820
 70
    32
  0
VERTEX
  8
T71SSILL
 62
6
 10
2118.071
 20
-4805.370
 30
-1822.823
 70
    32
  0
VERTEX
  8
T71SSILL
 62
6
 10
2120.687
 20
-4795.677
 30
-1822.827
 70
    32
  0
VERTEX
  8
T71SSILL
 62
6
 10
2113.628
 20
-4790.289
 30
-1822.824
 70
    32
  0
VERTEX
  8
T71SSILL
 62
6
 10
2094.907
 20
-4789.144
 30
-1822.814
 70
    32
  0
VERTEX
  8
T71SSILL
 62
6
 10
1929.876
 20
-4907.771
 30
-1822.543
 70
    32
  0
VERTEX
  8
T71SSILL
 62
6
 10
1920.425
 20
-4906.674
 30
-1822.522
 70
    32
  0
VERTEX
  8
T71SSILL
 62
6
 10
1887.984
 20
-4930.256
 30
-1822.507
 70
    32
  0
VERTEX
  8
T71SSILL
 62
6
 10
1888.200
 20
-4932.223
 30
-1822.509
 70
    32
  0
VERTEX
  8
T71SSILL
 62
6
 10
1881.055
 20
-4937.642
 30
-1822.510
 70
    32
  0
VERTEX
  8
T71SSILL
 62
6
 10
1879.295
 20
-4936.364
 30
-1822.506
 70
    32
  0
VERTEX
  8
T71SSILL
 62
6
 10
1789.332
 20
-5001.564
 30
-1822.491
 70
    32
  0
VERTEX
  8
T71SSILL
 62
6
 10
1786.757
 20
-5011.449
 30
-1822.501
 70
    32
  0
VERTEX
  8
T71SSILL
 62
6
 10
1785.098
 20
-5012.928
 30
-1822.500
 70
    32
  0
VERTEX
  8
T71SSILL
 62
6
 10
1777.057
 20
-5018.295
 30
-1822.496
 70
    32
  0
VERTEX
  8
T71SSILL
 62
6
 10
1770.089
 20
-5020.939
 30
-1822.489
 70
    32
  0
VERTEX
  8
T71SSILL
 62
6
 10
1762.546
 20
-5021.249
 30
-1822.478
 70
    32
  0
VERTEX
  8
T71SSILL
 62
6
 10
1679.146
 20
-5081.515
 30
-1822.480
 70
    32
  0
VERTEX
  8
T71SSILL
 62
6
 10
1677.493
 20
-5088.910
 30
-1822.489
 70
    32
  0
VERTEX
  8
T71SSILL
 62
6
 10
1652.259
 20
-5107.180
 30
-1822.504
 70
    32
  0
VERTEX
  8
T71SSILL
 62
6
 10
1646.420
 20
-5105.841
 30
-1822.500
 70
    32
  0
VERTEX
  8
T71SSILL
 62
6
 10
1586.724
 20
-5148.767
 30
-1822.290
 70
    32
  0
VERTEX
  8
T71SSILL
 62
6
 10
1584.888
 20
-5153.727
 30
-1822.269
 70
    32
  0
VERTEX
  8
T71SSILL
 62
6
 10
1579.149
 20
-5159.659
 30
-1822.239
 70
    32
  0
VERTEX
  8
T71SSILL
 62
6
 10
1569.919
 20
-5164.122
 30
-1822.208
 70
    32
  0
VERTEX
  8
T71SSILL
 62
6
 10
1561.764
 20
-5169.787
 30
-1822.175
 70
    32
  0
VERTEX
  8
T71SSILL
 62
6
 10
1558.571
 20
-5169.347
 30
-1822.171
 70
    32
  0
VERTEX
  8
T71SSILL
 62
6
 10
1522.590
 20
-5195.596
 30
-1822.044
 70
    32
  0
VERTEX
  8
T71SSILL
 62
6
 10
1520.327
 20
-5204.944
 30
-1822.009
 70
    32
  0
VERTEX
  8
T71SSILL
 62
6
 10
1491.818
 20
-5223.994
 30
-1821.947
 70
    32
  0
VERTEX
  8
T71SSILL
 62
6
 10
1484.987
 20
-5223.333
 30
-1821.953
 70
    32
  0
VERTEX
  8
T71SSILL
 62
6
 10
1415.186
 20
-5276.568
 30
-1821.776
 70
    32
  0
VERTEX
  8
T71SSILL
 62
6
 10
1402.576
 20
-5291.204
 30
-1821.717
 70
    32
  0
VERTEX
  8
T71SSILL
 62
6
 10
1391.854
 20
-5317.442
 30
-1821.623
 70
    32
  0
VERTEX
  8
T71SSILL
 62
6
 10
1389.970
 20
-5358.860
 30
-1821.468
 70
    32
  0
VERTEX
  8
T71SSILL
 62
6
 10
1401.228
 20
-5388.980
 30
-1821.347
 70
    32
  0
VERTEX
  8
T71SSILL
 62
6
 10
1408.939
 20
-5387.063
 30
-1821.351
 70
    32
  0
VERTEX
  8
T71SSILL
 62
6
 10
1410.776
 20
-5390.383
 30
-1821.337
 70
    32
  0
VERTEX
  8
T71SSILL
 62
6
 10
1406.471
 20
-5397.827
 30
-1821.310
 70
    32
  0
VERTEX
  8
T71SSILL
 62
6
 10
1510.012
 20
-5562.053
 30
-1821.338
 70
    32
  0
VERTEX
  8
T71SSILL
 62
6
 10
1513.555
 20
-5560.106
 30
-1821.375
 70
    32
  0
VERTEX
  8
T71SSILL
 62
6
 10
1517.350
 20
-5565.580
 30
-1821.417
 70
    32
  0
VERTEX
  8
T71SSILL
 62
6
 10
1513.996
 20
-5568.334
 30
-1821.382
 70
    32
  0
VERTEX
  8
T71SSILL
 62
6
 10
1860.564
 20
-6120.269
 30
-1824.421
 70
    32
  0
VERTEX
  8
T71SSILL
 62
6
 10
1868.182
 20
-6115.906
 30
-1824.428
 70
    32
  0
VERTEX
  8
T71SSILL
 62
6
 10
1882.035
 20
-6136.791
 30
-1824.421
 70
    32
  0
VERTEX
  8
T71SSILL
 62
6
 10
1874.551
 20
-6141.850
 30
-1824.439
 70
    32
  0
VERTEX
  8
T71SSILL
 62
6
 10
1904.457
 20
-6190.779
 30
-1824.428
 70
    32
  0
VERTEX
  8
T71SSILL
 62
6
 10
1906.905
 20
-6190.408
 30
-1824.423
 70
    32
  0
VERTEX
  8
T71SSILL
 62
6
 10
1911.185
 20
-6194.190
 30
-1824.419
 70
    32
  0
VERTEX
  8
T71SSILL
 62
6
 10
1912.546
 20
-6198.090
 30
-1824.420
 70
    32
  0
VERTEX
  8
T71SSILL
 62
6
 10
1912.149
 20
-6203.061
 30
-1824.425
 70
    32
  0
VERTEX
  8
T71SSILL
 62
6
 10
1933.392
 20
-6235.755
 30
-1824.415
 70
    32
  0
VERTEX
  8
T71SSILL
 62
6
 10
1937.606
 20
-6237.008
 30
-1824.409
 70
    32
  0
VERTEX
  8
T71SSILL
 62
6
 10
1940.791
 20
-6242.367
 30
-1824.408
 70
    32
  0
VERTEX
  8
T71SSILL
 62
6
 10
1941.195
 20
-6247.983
 30
-1824.412
 70
    32
  0
VERTEX
  8
T71SSILL
 62
6
 10
1967.640
 20
-6291.273
 30
-1824.402
 70
    32
  0
VERTEX
  8
T71SSILL
 62
6
 10
1991.111
 20
-6278.058
 30
-1824.350
 70
    32
  0
VERTEX
  8
T71SSILL
 62
6
 10
1998.883
 20
-6288.901
 30
-1824.346
 70
    32
  0
VERTEX
  8
T71SSILL
 62
6
 10
1975.963
 20
-6303.055
 30
-1824.398
 70
    32
  0
VERTEX
  8
T71SSILL
 62
6
 10
1991.765
 20
-6328.424
 30
-1824.392
 70
    32
  0
VERTEX
  8
T71SSILL
 62
6
 10
2004.961
 20
-6340.376
 30
-1824.379
 70
    32
  0
VERTEX
  8
T71SSILL
 62
6
 10
2025.190
 20
-6368.247
 30
-1824.245
 70
    32
  0
VERTEX
  8
T71SSILL
 62
6
 10
2019.092
 20
-6374.662
 30
-1824.319
 70
    32
  0
VERTEX
  8
T71SSILL
 62
6
 10
2014.624
 20
-6377.273
 30
-1824.327
 70
    32
  0
VERTEX
  8
T71SSILL
 62
6
 10
2008.119
 20
-6375.898
 30
-1824.304
 70
    32
  0
VERTEX
  8
T71SSILL
 62
6
 10
2001.744
 20
-6369.162
 30
-1824.292
 70
    32
  0
VERTEX
  8
T71SSILL
 62
6
 10
1993.763
 20
-6354.864
 30
-1824.302
 70
    32
  0
VERTEX
  8
T71SSILL
 62
6
 10
1989.133
 20
-6354.248
 30
-1824.279
 70
    32
  0
VERTEX
  8
T71SSILL
 62
6
 10
1985.051
 20
-6349.723
 30
-1824.274
 70
    32
  0
VERTEX
  8
T71SSILL
 62
6
 10
1980.373
 20
-6348.717
 30
-1824.252
 70
    32
  0
VERTEX
  8
T71SSILL
 62
6
 10
1972.991
 20
-6343.768
 30
-1824.231
 70
    32
  0
VERTEX
  8
T71SSILL
 62
6
 10
1968.141
 20
-6334.310
 30
-1824.241
 70
    32
  0
VERTEX
  8
T71SSILL
 62
6
 10
1974.852
 20
-6319.069
 30
-1824.337
 70
    32
  0
VERTEX
  8
T71SSILL
 62
6
 10
1960.410
 20
-6295.861
 30
-1824.348
 70
    32
  0
VERTEX
  8
T71SSILL
 62
6
 10
1957.747
 20
-6295.231
 30
-1824.336
 70
    32
  0
VERTEX
  8
T71SSILL
 62
6
 10
1955.577
 20
-6327.150
 30
-1824.200
 70
    32
  0
VERTEX
  8
T71SSILL
 62
6
 10
1955.282
 20
-6351.379
 30
-1824.104
 70
    32
  0
VERTEX
  8
T71SSILL
 62
6
 10
1950.799
 20
-6411.602
 30
-1823.865
 70
    32
  0
VERTEX
  8
T71SSILL
 62
6
 10
1956.053
 20
-6424.653
 30
-1823.861
 70
    32
  0
VERTEX
  8
T71SSILL
 62
6
 10
1955.534
 20
-6438.733
 30
-1823.812
 70
    32
  0
VERTEX
  8
T71SSILL
 62
6
 10
1968.841
 20
-6476.922
 30
-1823.664
 70
    32
  0
VERTEX
  8
T71SSILL
 62
6
 10
1972.960
 20
-6479.502
 30
-1823.664
 70
    32
  0
VERTEX
  8
T71SSILL
 62
6
 10
1973.567
 20
-6481.209
 30
-1823.658
 70
    32
  0
VERTEX
  8
T71SSILL
 62
6
 10
1971.741
 20
-6486.621
 30
-1823.624
 70
    32
  0
VERTEX
  8
T71SSILL
 62
6
 10
1995.668
 20
-6553.750
 30
-1823.166
 70
    32
  0
VERTEX
  8
T71SSILL
 62
6
 10
2006.113
 20
-6556.895
 30
-1823.060
 70
    32
  0
VERTEX
  8
T71SSILL
 62
6
 10
2008.645
 20
-6568.421
 30
-1822.953
 70
    32
  0
VERTEX
  8
T71SSILL
 62
6
 10
2004.193
 20
-6575.979
 30
-1822.931
 70
    32
  0
VERTEX
  8
T71SSILL
 62
6
 10
2004.218
 20
-6579.064
 30
-1822.907
 70
    32
  0
VERTEX
  8
T71SSILL
 62
6
 10
2032.668
 20
-6662.620
 30
-1821.903
 70
    32
  0
VERTEX
  8
T71SSILL
 62
6
 10
2037.698
 20
-6665.523
 30
-1821.794
 70
    32
  0
VERTEX
  8
T71SSILL
 62
6
 10
2039.288
 20
-6668.138
 30
-1821.747
 70
    32
  0
VERTEX
  8
T71SSILL
 62
6
 10
2036.476
 20
-6674.227
 30
-1821.749
 70
    32
  0
VERTEX
  8
T71SSILL
 62
6
 10
2182.790
 20
-7109.827
 30
-1814.438
 70
    32
  0
VERTEX
  8
T71SSILL
 62
6
 10
2231.208
 20
-7253.171
 30
-1813.701
 70
    32
  0
VERTEX
  8
T71SSILL
 62
6
 10
2240.408
 20
-7283.751
 30
-1813.485
 70
    32
  0
VERTEX
  8
T71SSILL
 62
6
 10
2300.697
 20
-7372.166
 30
-1812.541
 70
    32
  0
VERTEX
  8
T71SSILL
 62
6
 10
2306.761
 20
-7385.038
 30
-1812.430
 70
    32
  0
VERTEX
  8
T71SSILL
 62
6
 10
2315.381
 20
-7399.376
 30
-1812.288
 70
    32
  0
VERTEX
  8
T71SSILL
 62
6
 10
2315.125
 20
-7404.040
 30
-1812.270
 70
    32
  0
VERTEX
  8
T71SSILL
 62
6
 10
2313.087
 20
-7407.420
 30
-1812.275
 70
    32
  0
VERTEX
  8
T71SSILL
 62
6
 10
2315.620
 20
-7440.762
 30
-1812.109
 70
    32
  0
VERTEX
  8
T71SSILL
 62
6
 10
2318.997
 20
-7444.384
 30
-1812.061
 70
    32
  0
VERTEX
  8
T71SSILL
 62
6
 10
2316.004
 20
-7451.247
 30
-1812.060
 70
    32
  0
VERTEX
  8
T71SSILL
 62
6
 10
2320.077
 20
-7529.325
 30
-1811.108
 70
    32
  0
VERTEX
  8
T71SSILL
 62
6
 10
2323.517
 20
-7539.685
 30
-1810.996
 70
    32
  0
VERTEX
  8
T71SSILL
 62
6
 10
2320.536
 20
-7541.518
 30
-1810.951
 70
    32
  0
VERTEX
  8
T71SSILL
 62
6
 10
2320.353
 20
-7549.657
 30
-1810.843
 70
    32
  0
VERTEX
  8
T71SSILL
 62
6
 10
2325.220
 20
-7564.063
 30
-1810.695
 70
    32
  0
VERTEX
  8
T71SSILL
 62
6
 10
2322.122
 20
-7569.117
 30
-1810.728
 70
    32
  0
VERTEX
  8
T71SSILL
 62
6
 10
2322.054
 20
-7578.510
 30
-1810.722
 70
    32
  0
VERTEX
  8
T71SSILL
 62
6
 10
2324.215
 20
-7580.302
 30
-1810.695
 70
    32
  0
VERTEX
  8
T71SSILL
 62
6
 10
2324.883
 20
-7596.295
 30
-1810.676
 70
    32
  0
VERTEX
  8
T71SSILL
 62
6
 10
2323.492
 20
-7597.852
 30
-1810.691
 70
    32
  0
VERTEX
  8
T71SSILL
 62
6
 10
2326.195
 20
-7644.121
 30
-1810.627
 70
    32
  0
VERTEX
  8
T71SSILL
 62
6
 10
2327.694
 20
-7648.569
 30
-1810.606
 70
    32
  0
VERTEX
  8
T71SSILL
 62
6
 10
2328.810
 20
-7677.493
 30
-1810.572
 70
    32
  0
VERTEX
  8
T71SSILL
 62
6
 10
2332.572
 20
-7681.345
 30
-1810.525
 70
    32
  0
VERTEX
  8
T71SSILL
 62
6
 10
2329.341
 20
-7690.454
 30
-1810.556
 70
    32
  0
VERTEX
  8
T71SSILL
 62
6
 10
2329.523
 20
-7708.606
 30
-1810.541
 70
    32
  0
VERTEX
  8
T71SSILL
 62
6
 10
2336.753
 20
-7720.027
 30
-1810.448
 70
    32
  0
VERTEX
  8
T71SSILL
 62
6
 10
2337.196
 20
-7733.237
 30
-1810.434
 70
    32
  0
VERTEX
  8
T71SSILL
 62
6
 10
2331.641
 20
-7738.911
 30
-1810.495
 70
    32
  0
VERTEX
  8
T71SSILL
 62
6
 10
2336.872
 20
-7859.134
 30
-1810.348
 70
    32
  0
VERTEX
  8
T71SSILL
 62
6
 10
2332.568
 20
-7886.267
 30
-1810.379
 70
    32
  0
VERTEX
  8
T71SSILL
 62
6
 10
2335.886
 20
-7896.130
 30
-1810.333
 70
    32
  0
VERTEX
  8
T71SSILL
 62
6
 10
2335.621
 20
-7907.971
 30
-1810.243
 70
    32
  0
VERTEX
  8
T71SSILL
 62
6
 10
2337.495
 20
-7913.184
 30
-1810.132
 70
    32
  0
VERTEX
  8
T71SSILL
 62
6
 10
2352.481
 20
-7927.854
 30
-1809.749
 70
    32
  0
VERTEX
  8
T71SSILL
 62
6
 10
2355.683
 20
-7935.423
 30
-1809.585
 70
    32
  0
VERTEX
  8
T71SSILL
 62
6
 10
2363.410
 20
-7944.671
 30
-1809.356
 70
    32
  0
VERTEX
  8
T71SSILL
 62
6
 10
2372.529
 20
-7952.121
 30
-1809.150
 70
    32
  0
VERTEX
  8
T71SSILL
 62
6
 10
2395.917
 20
-7955.156
 30
-1808.924
 70
    32
  0
VERTEX
  8
T71SSILL
 62
6
 10
2482.145
 20
-7958.046
 30
-1808.245
 70
    32
  0
VERTEX
  8
T71SSILL
 62
6
 10
3074.543
 20
-7983.866
 30
-1802.671
 70
    32
  0
VERTEX
  8
T71SSILL
 62
6
 10
3098.026
 20
-7987.700
 30
-1802.617
 70
    32
  0
VERTEX
  8
T71SSILL
 62
6
 10
3119.924
 20
-7999.779
 30
-1802.580
 70
    32
  0
VERTEX
  8
T71SSILL
 62
6
 10
3128.000
 20
-8007.562
 30
-1802.530
 70
    32
  0
VERTEX
  8
T71SSILL
 62
6
 10
3148.212
 20
-8039.465
 30
-1802.288
 70
    32
  0
VERTEX
  8
T71SSILL
 62
6
 10
3309.316
 20
-8263.708
 30
-1800.817
 70
    32
  0
VERTEX
  8
T71SSILL
 62
6
 10
3342.971
 20
-8310.673
 30
-1799.874
 70
    32
  0
VERTEX
  8
T71SSILL
 62
6
 10
3349.619
 20
-8321.658
 30
-1799.000
 70
    32
  0
VERTEX
  8
T71SSILL
 62
6
 10
3353.796
 20
-8322.231
 30
-1799.000
 70
    32
  0
VERTEX
  8
T71SSILL
 62
6
 10
3356.702
 20
-8322.630
 30
-1799.000
 70
    32
  0
VERTEX
  8
T71SSILL
 62
6
 10
3363.785
 20
-8325.965
 30
-1799.000
 70
    32
  0
VERTEX
  8
T71SSILL
 62
6
 10
3368.728
 20
-8323.245
 30
-1799.000
 70
    32
  0
VERTEX
  8
T71SSILL
 62
6
 10
3372.752
 20
-8322.703
 30
-1799.000
 70
    32
  0
VERTEX
  8
T71SSILL
 62
6
 10
3378.443
 20
-8327.175
 30
-1799.000
 70
    32
  0
VERTEX
  8
T71SSILL
 62
6
 10
3381.932
 20
-8336.263
 30
-1799.000
 70
    32
  0
VERTEX
  8
T71SSILL
 62
6
 10
3372.314
 20
-8344.959
 30
-1799.000
 70
    32
  0
VERTEX
  8
T71SSILL
 62
6
 10
3371.481
 20
-8347.892
 30
-1799.000
 70
    32
  0
VERTEX
  8
T71SSILL
 62
6
 10
3370.984
 20
-8349.640
 30
-1799.000
 70
    32
  0
VERTEX
  8
T71SSILL
 62
6
 10
3377.466
 20
-8358.620
 30
-1798.910
 70
    32
  0
VERTEX
  8
T71SSILL
 62
6
 10
3403.519
 20
-8394.818
 30
-1798.182
 70
    32
  0
VERTEX
  8
T71SSILL
 62
6
 10
3633.771
 20
-8715.007
 30
-1795.601
 70
    32
  0
VERTEX
  8
T71SSILL
 62
6
 10
3729.620
 20
-8848.718
 30
-1783.791
 70
    32
  0
VERTEX
  8
T71SSILL
 62
6
 10
3869.820
 20
-9044.978
 30
-1791.340
 70
    32
  0
VERTEX
  8
T71SSILL
 62
6
 10
3862.577
 20
-9050.184
 30
-1791.393
 70
    32
  0
VERTEX
  8
T71SSILL
 62
6
 10
3731.931
 20
-8867.076
 30
-1784.416
 70
    32
  0
VERTEX
  8
T71SSILL
 62
6
 10
3720.431
 20
-8852.304
 30
-1783.788
 70
    32
  0
VERTEX
  8
T71SSILL
 62
6
 10
3702.432
 20
-8829.184
 30
-1785.899
 70
    32
  0
VERTEX
  8
T71SSILL
 62
6
 10
3693.779
 20
-8823.177
 30
-1786.651
 70
    32
  0
VERTEX
  8
T71SSILL
 62
6
 10
3685.890
 20
-8827.968
 30
-1786.809
 70
    32
  0
VERTEX
  8
T71SSILL
 62
6
 10
3672.365
 20
-8806.301
 30
-1788.616
 70
    32
  0
VERTEX
  8
T71SSILL
 62
6
 10
3659.297
 20
-8767.762
 30
-1791.267
 70
    32
  0
VERTEX
  8
T71SSILL
 62
6
 10
3624.046
 20
-8718.786
 30
-1795.592
 70
    32
  0
VERTEX
  8
T71SSILL
 62
6
 10
3452.189
 20
-8480.425
 30
-1797.517
 70
    32
  0
VERTEX
  8
T71SSILL
 62
6
 10
3441.152
 20
-8476.307
 30
-1797.613
 70
    32
  0
VERTEX
  8
T71SSILL
 62
6
 10
3433.540
 20
-8478.174
 30
-1797.666
 70
    32
  0
VERTEX
  8
T71SSILL
 62
6
 10
3427.307
 20
-8469.053
 30
-1797.738
 70
    32
  0
VERTEX
  8
T71SSILL
 62
6
 10
3414.114
 20
-8427.746
 30
-1797.944
 70
    32
  0
VERTEX
  8
T71SSILL
 62
6
 10
3298.302
 20
-8266.378
 30
-1800.814
 70
    32
  0
VERTEX
  8
T71SSILL
 62
6
 10
3199.573
 20
-8128.813
 30
-1801.679
 70
    32
  0
VERTEX
  8
T71SSILL
 62
6
 10
3189.299
 20
-8127.907
 30
-1801.774
 70
    32
  0
VERTEX
  8
T71SSILL
 62
6
 10
3177.913
 20
-8112.911
 30
-1801.872
 70
    32
  0
VERTEX
  8
T71SSILL
 62
6
 10
3169.738
 20
-8091.322
 30
-1801.911
 70
    32
  0
VERTEX
  8
T71SSILL
 62
6
 10
3162.282
 20
-8076.518
 30
-1801.979
 70
    32
  0
VERTEX
  8
T71SSILL
 62
6
 10
3128.634
 20
-8029.698
 30
-1802.322
 70
    32
  0
VERTEX
  8
T71SSILL
 62
6
 10
3116.949
 20
-8014.448
 30
-1802.432
 70
    32
  0
VERTEX
  8
T71SSILL
 62
6
 10
3109.338
 20
-8006.592
 30
-1802.483
 70
    32
  0
VERTEX
  8
T71SSILL
 62
6
 10
3085.104
 20
-7995.131
 30
-1802.553
 70
    32
  0
VERTEX
  8
T71SSILL
 62
6
 10
2793.233
 20
-7982.025
 30
-1805.347
 70
    32
  0
VERTEX
  8
T71SSILL
 62
6
 10
2774.786
 20
-7988.239
 30
-1805.537
 70
    32
  0
VERTEX
  8
T71SSILL
 62
6
 10
2766.053
 20
-7989.815
 30
-1805.624
 70
    32
  0
VERTEX
  8
T71SSILL
 62
6
 10
2742.273
 20
-7990.994
 30
-1805.856
 70
    32
  0
VERTEX
  8
T71SSILL
 62
6
 10
2734.202
 20
-7989.679
 30
-1805.931
 70
    32
  0
VERTEX
  8
T71SSILL
 62
6
 10
2727.130
 20
-7979.057
 30
-1805.980
 70
    32
  0
VERTEX
  8
T71SSILL
 62
6
 10
2482.179
 20
-7968.058
 30
-1808.134
 70
    32
  0
VERTEX
  8
T71SSILL
 62
6
 10
2392.887
 20
-7965.307
 30
-1808.862
 70
    32
  0
VERTEX
  8
T71SSILL
 62
6
 10
2370.880
 20
-7962.955
 30
-1809.053
 70
    32
  0
VERTEX
  8
T71SSILL
 62
6
 10
2358.361
 20
-7955.409
 30
-1809.184
 70
    32
  0
VERTEX
  8
T71SSILL
 62
6
 10
2335.010
 20
-7930.053
 30
-1809.826
 70
    32
  0
VERTEX
  8
T71SSILL
 62
6
 10
2329.014
 20
-7918.687
 30
-1810.084
 70
    32
  0
VERTEX
  8
T71SSILL
 62
6
 10
2326.930
 20
-7921.804
 30
-1810.038
 70
    32
  0
VERTEX
  8
T71SSILL
 62
6
 10
2304.482
 20
-8063.321
 30
-1808.895
 70
    32
  0
VERTEX
  8
T71SSILL
 62
6
 10
2306.908
 20
-8070.797
 30
-1808.824
 70
    32
  0
VERTEX
  8
T71SSILL
 62
6
 10
2317.858
 20
-8084.683
 30
-1808.642
 70
    32
  0
VERTEX
  8
T71SSILL
 62
6
 10
2317.869
 20
-8087.594
 30
-1808.641
 70
    32
  0
VERTEX
  8
T71SSILL
 62
6
 10
2312.994
 20
-8091.882
 30
-1808.638
 70
    32
  0
VERTEX
  8
T71SSILL
 62
6
 10
2309.478
 20
-8094.974
 30
-1808.636
 70
    32
  0
VERTEX
  8
T71SSILL
 62
6
 10
2314.379
 20
-8108.721
 30
-1808.630
 70
    32
  0
VERTEX
  8
T71SSILL
 62
6
 10
2324.331
 20
-8123.179
 30
-1808.623
 70
    32
  0
VERTEX
  8
T71SSILL
 62
6
 10
2330.518
 20
-8129.414
 30
-1808.619
 70
    32
  0
VERTEX
  8
T71SSILL
 62
6
 10
2400.786
 20
-8203.849
 30
-1808.577
 70
    32
  0
VERTEX
  8
T71SSILL
 62
6
 10
2407.069
 20
-8208.963
 30
-1808.574
 70
    32
  0
VERTEX
  8
T71SSILL
 62
6
 10
2411.730
 20
-8215.933
 30
-1808.570
 70
    32
  0
VERTEX
  8
T71SSILL
 62
6
 10
2406.201
 20
-8222.535
 30
-1808.567
 70
    32
  0
VERTEX
  8
T71SSILL
 62
6
 10
2401.405
 20
-8221.978
 30
-1808.565
 70
    32
  0
VERTEX
  8
T71SSILL
 62
6
 10
2386.500
 20
-8226.700
 30
-1808.558
 70
    32
  0
VERTEX
  8
T71SSILL
 62
6
 10
2383.057
 20
-8218.762
 30
-1808.555
 70
    32
  0
VERTEX
  8
T71SSILL
 62
6
 10
2387.690
 20
-8203.088
 30
-1808.548
 70
    32
  0
VERTEX
  8
T71SSILL
 62
6
 10
2323.973
 20
-8135.592
 30
-1808.510
 70
    32
  0
VERTEX
  8
T71SSILL
 62
6
 10
2315.507
 20
-8128.035
 30
-1808.505
 70
    32
  0
VERTEX
  8
T71SSILL
 62
6
 10
2301.300
 20
-8108.678
 30
-1808.495
 70
    32
  0
VERTEX
  8
T71SSILL
 62
6
 10
2298.161
 20
-8110.019
 30
-1808.493
 70
    32
  0
VERTEX
  8
T71SSILL
 62
6
 10
2292.749
 20
-8137.287
 30
-1808.482
 70
    32
  0
VERTEX
  8
T71SSILL
 62
6
 10
2284.949
 20
-8136.340
 30
-1808.551
 70
    32
  0
VERTEX
  8
T71SSILL
 62
6
 10
2323.219
 20
-7887.755
 30
-1810.474
 70
    32
  0
VERTEX
  8
T71SSILL
 62
6
 10
2322.679
 20
-7872.054
 30
-1810.505
 70
    32
  0
VERTEX
  8
T71SSILL
 62
6
 10
2327.198
 20
-7862.672
 30
-1810.459
 70
    32
  0
VERTEX
  8
T71SSILL
 62
6
 10
2324.428
 20
-7815.507
 30
-1810.525
 70
    32
  0
VERTEX
  8
T71SSILL
 62
6
 10
2319.454
 20
-7814.022
 30
-1810.585
 70
    32
  0
VERTEX
  8
T71SSILL
 62
6
 10
2317.055
 20
-7814.477
 30
-1810.613
 70
    32
  0
VERTEX
  8
T71SSILL
 62
6
 10
2306.778
 20
-7826.431
 30
-1810.725
 70
    32
  0
VERTEX
  8
T71SSILL
 62
6
 10
2297.074
 20
-7834.801
 30
-1810.695
 70
    32
  0
VERTEX
  8
T71SSILL
 62
6
 10
2139.590
 20
-7950.192
 30
-1810.693
 70
    32
  0
VERTEX
  8
T71SSILL
 62
6
 10
2135.700
 20
-7957.242
 30
-1810.579
 70
    32
  0
VERTEX
  8
T71SSILL
 62
6
 10
2130.523
 20
-7959.035
 30
-1810.577
 70
    32
  0
VERTEX
  8
T71SSILL
 62
6
 10
2127.556
 20
-7958.404
 30
-1810.608
 70
    32
  0
VERTEX
  8
T71SSILL
 62
6
 10
2065.169
 20
-8003.781
 30
-1810.424
 70
    32
  0
VERTEX
  8
T71SSILL
 62
6
 10
2062.396
 20
-8008.534
 30
-1810.405
 70
    32
  0
VERTEX
  8
T71SSILL
 62
6
 10
2057.680
 20
-8009.187
 30
-1810.423
 70
    32
  0
VERTEX
  8
T71SSILL
 62
6
 10
1981.823
 20
-8063.048
 30
-1810.369
 70
    32
  0
VERTEX
  8
T71SSILL
 62
6
 10
1979.947
 20
-8067.691
 30
-1810.349
 70
    32
  0
VERTEX
  8
T71SSILL
 62
6
 10
1975.985
 20
-8067.416
 30
-1810.357
 70
    32
  0
VERTEX
  8
T71SSILL
 62
6
 10
1943.310
 20
-8091.543
 30
-1810.292
 70
    32
  0
VERTEX
  8
T71SSILL
 62
6
 10
1941.875
 20
-8100.721
 30
-1810.247
 70
    32
  0
VERTEX
  8
T71SSILL
 62
6
 10
1940.550
 20
-8101.891
 30
-1810.243
 70
    32
  0
VERTEX
  8
T71SSILL
 62
6
 10
1931.411
 20
-8107.862
 30
-1810.229
 70
    32
  0
VERTEX
  8
T71SSILL
 62
6
 10
1923.903
 20
-8104.639
 30
-1810.259
 70
    32
  0
VERTEX
  8
T71SSILL
 62
6
 10
1913.189
 20
-8113.101
 30
-1810.235
 70
    32
  0
VERTEX
  8
T71SSILL
 62
6
 10
1911.188
 20
-8116.177
 30
-1810.223
 70
    32
  0
VERTEX
  8
T71SSILL
 62
6
 10
1896.414
 20
-8129.061
 30
-1810.183
 70
    32
  0
VERTEX
  8
T71SSILL
 62
6
 10
1891.450
 20
-8144.867
 30
-1810.110
 70
    32
  0
VERTEX
  8
T71SSILL
 62
6
 10
1894.673
 20
-8222.245
 30
-1809.701
 70
    32
  0
VERTEX
  8
T71SSILL
 62
6
 10
1899.134
 20
-8224.806
 30
-1809.679
 70
    32
  0
VERTEX
  8
T71SSILL
 62
6
 10
1899.439
 20
-8226.160
 30
-1809.672
 70
    32
  0
VERTEX
  8
T71SSILL
 62
6
 10
1895.160
 20
-8237.221
 30
-1809.622
 70
    32
  0
VERTEX
  8
T71SSILL
 62
6
 10
1900.498
 20
-8326.850
 30
-1809.183
 70
    32
  0
VERTEX
  8
T71SSILL
 62
6
 10
1902.374
 20
-8333.778
 30
-1805.450
 70
    32
  0
VERTEX
  8
T71SSILL
 62
6
 10
1909.893
 20
-8337.136
 30
-1805.226
 70
    32
  0
VERTEX
  8
T71SSILL
 62
6
 10
1913.519
 20
-8335.092
 30
-1804.830
 70
    32
  0
VERTEX
  8
T71SSILL
 62
6
 10
1919.766
 20
-8327.387
 30
-1805.003
 70
    32
  0
VERTEX
  8
T71SSILL
 62
6
 10
1922.771
 20
-8325.466
 30
-1805.112
 70
    32
  0
VERTEX
  8
T71SSILL
 62
6
 10
1928.103
 20
-8309.644
 30
-1805.546
 70
    32
  0
VERTEX
  8
T71SSILL
 62
6
 10
1942.016
 20
-8299.108
 30
-1810.238
 70
    32
  0
VERTEX
  8
T71SSILL
 62
6
 10
1946.997
 20
-8295.337
 30
-1810.809
 70
    32
  0
VERTEX
  8
T71SSILL
 62
6
 10
1960.229
 20
-8288.206
 30
-1812.122
 70
    32
  0
VERTEX
  8
T71SSILL
 62
6
 10
1967.350
 20
-8299.024
 30
-1811.911
 70
    32
  0
VERTEX
  8
T71SSILL
 62
6
 10
1959.121
 20
-8304.779
 30
-1810.877
 70
    32
  0
VERTEX
  8
T71SSILL
 62
6
 10
1950.100
 20
-8309.267
 30
-1810.009
 70
    32
  0
VERTEX
  8
T71SSILL
 62
6
 10
1944.042
 20
-8311.742
 30
-1808.018
 70
    32
  0
VERTEX
  8
T71SSILL
 62
6
 10
1944.159
 20
-8321.859
 30
-1805.687
 70
    32
  0
VERTEX
  8
T71SSILL
 62
6
 10
1944.160
 20
-8321.920
 30
-1805.686
 70
    32
  0
VERTEX
  8
T71SSILL
 62
6
 10
1929.791
 20
-8334.051
 30
-1805.030
 70
    32
  0
VERTEX
  8
T71SSILL
 62
6
 10
1925.575
 20
-8338.642
 30
-1804.808
 70
    32
  0
VERTEX
  8
T71SSILL
 62
6
 10
1920.498
 20
-8343.528
 30
-1804.946
 70
    32
  0
VERTEX
  8
T71SSILL
 62
6
 10
1915.499
 20
-8347.937
 30
-1805.137
 70
    32
  0
VERTEX
  8
T71SSILL
 62
6
 10
1908.031
 20
-8358.127
 30
-1805.450
 70
    32
  0
VERTEX
  8
T71SSILL
 62
6
 10
1903.683
 20
-8382.543
 30
-1808.974
 70
    32
  0
VERTEX
  8
T71SSILL
 62
6
 10
1908.196
 20
-8463.138
 30
-1808.723
 70
    32
  0
VERTEX
  8
T71SSILL
 62
6
 10
1917.891
 20
-8471.034
 30
-1808.676
 70
    32
  0
VERTEX
  8
T71SSILL
 62
6
 10
1918.631
 20
-8488.196
 30
-1808.623
 70
    32
  0
VERTEX
  8
T71SSILL
 62
6
 10
1910.048
 20
-8498.655
 30
-1808.612
 70
    32
  0
VERTEX
  8
T71SSILL
 62
6
 10
1911.654
 20
-8524.989
 30
-1807.794
 70
    32
  0
VERTEX
  8
T71SSILL
 62
6
 10
1916.311
 20
-8528.463
 30
-1807.679
 70
    32
  0
VERTEX
  8
T71SSILL
 62
6
 10
1923.835
 20
-8539.899
 30
-1807.598
 70
    32
  0
VERTEX
  8
T71SSILL
 62
6
 10
1912.295
 20
-8535.503
 30
-1807.468
 70
    32
  0
VERTEX
  8
T71SSILL
 62
6
 10
1913.352
 20
-8552.826
 30
-1806.930
 70
    32
  0
VERTEX
  8
T71SSILL
 62
6
 10
1915.841
 20
-8562.221
 30
-1806.850
 70
    32
  0
VERTEX
  8
T71SSILL
 62
6
 10
1920.602
 20
-8571.259
 30
-1806.750
 70
    32
  0
VERTEX
  8
T71SSILL
 62
6
 10
1932.585
 20
-8591.202
 30
-1806.560
 70
    32
  0
VERTEX
  8
T71SSILL
 62
6
 10
1940.978
 20
-8604.048
 30
-1805.750
 70
    32
  0
VERTEX
  8
T71SSILL
 62
6
 10
1949.497
 20
-8621.418
 30
-1805.750
 70
    32
  0
VERTEX
  8
T71SSILL
 62
6
 10
1959.270
 20
-8637.836
 30
-1805.750
 70
    32
  0
VERTEX
  8
T71SSILL
 62
6
 10
1969.312
 20
-8637.748
 30
-1805.750
 70
    32
  0
VERTEX
  8
T71SSILL
 62
6
 10
1974.872
 20
-8646.478
 30
-1805.750
 70
    32
  0
VERTEX
  8
T71SSILL
 62
6
 10
1976.709
 20
-8648.779
 30
-1805.750
 70
    32
  0
VERTEX
  8
T71SSILL
 62
6
 10
1985.222
 20
-8647.278
 30
-1805.750
 70
    32
  0
VERTEX
  8
T71SSILL
 62
6
 10
1988.845
 20
-8655.765
 30
-1805.750
 70
    32
  0
VERTEX
  8
T71SSILL
 62
6
 10
1980.800
 20
-8663.528
 30
-1805.750
 70
    32
  0
VERTEX
  8
T71SSILL
 62
6
 10
1981.360
 20
-8672.259
 30
-1805.750
 70
    32
  0
VERTEX
  8
T71SSILL
 62
6
 10
1988.094
 20
-8684.225
 30
-1805.750
 70
    32
  0
VERTEX
  8
T71SSILL
 62
6
 10
2013.159
 20
-8725.577
 30
-1805.750
 70
    32
  0
VERTEX
  8
T71SSILL
 62
6
 10
2018.861
 20
-8734.984
 30
-1805.750
 70
    32
  0
VERTEX
  8
T71SSILL
 62
6
 10
2010.309
 20
-8740.167
 30
-1805.750
 70
    32
  0
VERTEX
  8
T71SSILL
 62
6
 10
2004.607
 20
-8730.761
 30
-1805.750
 70
    32
  0
VERTEX
  8
T71SSILL
 62
6
 10
1973.983
 20
-8680.424
 30
-1805.750
 70
    32
  0
VERTEX
  8
T71SSILL
 62
6
 10
1961.291
 20
-8659.209
 30
-1805.750
 70
    32
  0
VERTEX
  8
T71SSILL
 62
6
 10
1950.665
 20
-8643.175
 30
-1805.750
 70
    32
  0
VERTEX
  8
T71SSILL
 62
6
 10
1932.555
 20
-8610.648
 30
-1805.750
 70
    32
  0
VERTEX
  8
T71SSILL
 62
6
 10
1923.721
 20
-8596.687
 30
-1806.560
 70
    32
  0
VERTEX
  8
T71SSILL
 62
6
 10
1920.211
 20
-8594.986
 30
-1806.750
 70
    32
  0
VERTEX
  8
T71SSILL
 62
6
 10
1918.097
 20
-8597.475
 30
-1806.800
 70
    32
  0
VERTEX
  8
T71SSILL
 62
6
 10
1919.332
 20
-8599.703
 30
-1806.900
 70
    32
  0
VERTEX
  8
T71SSILL
 62
6
 10
1919.889
 20
-8601.246
 30
-1805.750
 70
    32
  0
VERTEX
  8
T71SSILL
 62
6
 10
1919.889
 20
-8601.246
 30
-1808.273
 70
    32
  0
VERTEX
  8
T71SSILL
 62
6
 10
1916.723
 20
-8609.103
 30
-1808.254
 70
    32
  0
VERTEX
  8
T71SSILL
 62
6
 10
1921.553
 20
-8706.287
 30
-1807.902
 70
    32
  0
VERTEX
  8
T71SSILL
 62
6
 10
1924.909
 20
-8711.492
 30
-1807.876
 70
    32
  0
VERTEX
  8
T71SSILL
 62
6
 10
1922.199
 20
-8728.071
 30
-1807.819
 70
    32
  0
VERTEX
  8
T71SSILL
 62
6
 10
1925.010
 20
-8765.701
 30
-1807.673
 70
    32
  0
VERTEX
  8
T71SSILL
 62
6
 10
1933.720
 20
-8769.706
 30
-1807.643
 70
    32
  0
VERTEX
  8
T71SSILL
 62
6
 10
1934.918
 20
-8786.960
 30
-1807.576
 70
    32
  0
VERTEX
  8
T71SSILL
 62
6
 10
1932.560
 20
-8788.739
 30
-1807.574
 70
    32
  0
VERTEX
  8
T71SSILL
 62
6
 10
1927.748
 20
-8806.253
 30
-1807.516
 70
    32
  0
VERTEX
  8
T71SSILL
 62
6
 10
1928.972
 20
-8834.655
 30
-1807.408
 70
    32
  0
VERTEX
  8
T71SSILL
 62
6
 10
1931.161
 20
-8836.170
 30
-1807.398
 70
    32
  0
VERTEX
  8
T71SSILL
 62
6
 10
1970.076
 20
-8909.243
 30
-1807.057
 70
    32
  0
VERTEX
  8
T71SSILL
 62
6
 10
1976.346
 20
-8918.625
 30
-1807.011
 70
    32
  0
VERTEX
  8
T71SSILL
 62
6
 10
1981.691
 20
-8921.628
 30
-1806.991
 70
    32
  0
VERTEX
  8
T71SSILL
 62
6
 10
1980.592
 20
-8927.995
 30
-1806.969
 70
    32
  0
VERTEX
  8
T71SSILL
 62
6
 10
2022.217
 20
-9003.141
 30
-1806.616
 70
    32
  0
VERTEX
  8
T71SSILL
 62
6
 10
2027.772
 20
-9006.748
 30
-1806.592
 70
    32
  0
VERTEX
  8
T71SSILL
 62
6
 10
2028.265
 20
-9015.218
 30
-1806.560
 70
    32
  0
VERTEX
  8
T71SSILL
 62
6
 10
2068.095
 20
-9088.891
 30
-1806.215
 70
    32
  0
VERTEX
  8
T71SSILL
 62
6
 10
2071.541
 20
-9090.395
 30
-1806.203
 70
    32
  0
VERTEX
  8
T71SSILL
 62
6
 10
2074.311
 20
-9095.000
 30
-1806.181
 70
    32
  0
VERTEX
  8
T71SSILL
 62
6
 10
2077.173
 20
-9105.901
 30
-1806.136
 70
    32
  0
VERTEX
  8
T71SSILL
 62
6
 10
2114.392
 20
-9172.771
 30
-1805.827
 70
    32
  0
SEQEND
  8
T71SSILL
  0
POLYLINE
  8
T71SSILL
 62
6
 66
     1
 70
     8
  0
VERTEX
  8
T71SSILL
 62
6
 10
2132.556
 20
-9203.920
 30
-1805.663
 70
    32
  0
VERTEX
  8
T71SSILL
 62
6
 10
2171.013
 20
-9274.151
 30
-1805.335
 70
    32
  0
VERTEX
  8
T71SSILL
 62
6
 10
2177.312
 20
-9276.820
 30
-1805.301
 70
    32
  0
VERTEX
  8
T71SSILL
 62
6
 10
2177.265
 20
-9285.316
 30
-1805.270
 70
    32
  0
VERTEX
  8
T71SSILL
 62
6
 10
2216.735
 20
-9357.972
 30
-1804.950
 70
    32
  0
VERTEX
  8
T71SSILL
 62
6
 10
2220.747
 20
-9359.835
 30
-1804.921
 70
    32
  0
VERTEX
  8
T71SSILL
 62
6
 10
2221.991
 20
-9367.560
 30
-1804.909
 70
    32
  0
VERTEX
  8
T71SSILL
 62
6
 10
2265.575
 20
-9448.544
 30
-1804.563
 70
    32
  0
VERTEX
  8
T71SSILL
 62
6
 10
2270.841
 20
-9451.712
 30
-1804.522
 70
    32
  0
VERTEX
  8
T71SSILL
 62
6
 10
2270.371
 20
-9457.437
 30
-1804.520
 70
    32
  0
VERTEX
  8
T71SSILL
 62
6
 10
2308.682
 20
-9526.552
 30
-1803.988
 70
    32
  0
VERTEX
  8
T71SSILL
 62
6
 10
2320.123
 20
-9539.977
 30
-1803.896
 70
    32
  0
VERTEX
  8
T71SSILL
 62
6
 10
2319.416
 20
-9540.332
 30
-1803.889
 70
    32
  0
VERTEX
  8
T71SSILL
 62
6
 10
2380.991
 20
-9604.160
 30
-1803.478
 70
    32
  0
VERTEX
  8
T71SSILL
 62
6
 10
2387.862
 20
-9605.403
 30
-1803.494
 70
    32
  0
VERTEX
  8
T71SSILL
 62
6
 10
2390.131
 20
-9613.634
 30
-1803.417
 70
    32
  0
VERTEX
  8
T71SSILL
 62
6
 10
2447.401
 20
-9673.000
 30
-1803.026
 70
    32
  0
VERTEX
  8
T71SSILL
 62
6
 10
2457.119
 20
-9671.841
 30
-1802.958
 70
    32
  0
VERTEX
  8
T71SSILL
 62
6
 10
2462.975
 20
-9677.184
 30
-1802.910
 70
    32
  0
VERTEX
  8
T71SSILL
 62
6
 10
2470.227
 20
-9687.033
 30
-1802.848
 70
    32
  0
VERTEX
  8
T71SSILL
 62
6
 10
2468.474
 20
-9694.844
 30
-1802.853
 70
    32
  0
VERTEX
  8
T71SSILL
 62
6
 10
2524.647
 20
-9753.072
 30
-1801.912
 70
    32
  0
VERTEX
  8
T71SSILL
 62
6
 10
2530.080
 20
-9752.722
 30
-1801.820
 70
    32
  0
VERTEX
  8
T71SSILL
 62
6
 10
2533.177
 20
-9756.012
 30
-1801.757
 70
    32
  0
VERTEX
  8
T71SSILL
 62
6
 10
2533.860
 20
-9762.621
 30
-1801.726
 70
    32
  0
VERTEX
  8
T71SSILL
 62
6
 10
2589.273
 20
-9820.062
 30
-1800.608
 70
    32
  0
VERTEX
  8
T71SSILL
 62
6
 10
2594.320
 20
-9820.840
 30
-1800.518
 70
    32
  0
VERTEX
  8
T71SSILL
 62
6
 10
2599.378
 20
-9826.521
 30
-1800.415
 70
    32
  0
VERTEX
  8
T71SSILL
 62
6
 10
2599.157
 20
-9830.307
 30
-1800.408
 70
    32
  0
VERTEX
  8
T71SSILL
 62
6
 10
2640.594
 20
-9873.260
 30
-1799.572
 70
    32
  0
VERTEX
  8
T71SSILL
 62
6
 10
2663.498
 20
-9897.002
 30
-1800.702
 70
    32
  0
VERTEX
  8
T71SSILL
 62
6
 10
2673.598
 20
-9899.935
 30
-1800.958
 70
    32
  0
VERTEX
  8
T71SSILL
 62
6
 10
2676.522
 20
-9910.503
 30
-1801.345
 70
    32
  0
VERTEX
  8
T71SSILL
 62
6
 10
2685.994
 20
-9920.322
 30
-1801.813
 70
    32
  0
VERTEX
  8
T71SSILL
 62
6
 10
2679.517
 20
-9926.571
 30
-1801.912
 70
    32
  0
VERTEX
  8
T71SSILL
 62
6
 10
2663.050
 20
-9909.501
 30
-1801.099
 70
    32
  0
VERTEX
  8
T71SSILL
 62
6
 10
2660.763
 20
-9910.920
 30
-1801.108
 70
    32
  0
VERTEX
  8
T71SSILL
 62
6
 10
2656.468
 20
-9906.658
 30
-1800.903
 70
    32
  0
VERTEX
  8
T71SSILL
 62
6
 10
2657.860
 20
-9904.121
 30
-1800.843
 70
    32
  0
VERTEX
  8
T71SSILL
 62
6
 10
2634.051
 20
-9879.441
 30
-1799.667
 70
    32
  0
VERTEX
  8
T71SSILL
 62
6
 10
2591.650
 20
-9835.489
 30
-1800.523
 70
    32
  0
VERTEX
  8
T71SSILL
 62
6
 10
2589.100
 20
-9836.348
 30
-1800.565
 70
    32
  0
VERTEX
  8
T71SSILL
 62
6
 10
2584.666
 20
-9828.249
 30
-1800.664
 70
    32
  0
VERTEX
  8
T71SSILL
 62
6
 10
2524.334
 20
-9765.710
 30
-1801.882
 70
    32
  0
VERTEX
  8
T71SSILL
 62
6
 10
2519.582
 20
-9765.768
 30
-1801.964
 70
    32
  0
VERTEX
  8
T71SSILL
 62
6
 10
2513.602
 20
-9754.585
 30
-1802.099
 70
    32
  0
VERTEX
  8
T71SSILL
 62
6
 10
2383.840
 20
-9620.076
 30
-1803.365
 70
    32
  0
VERTEX
  8
T71SSILL
 62
6
 10
2378.782
 20
-9620.467
 30
-1803.377
 70
    32
  0
VERTEX
  8
T71SSILL
 62
6
 10
2376.491
 20
-9618.639
 30
-1803.391
 70
    32
  0
VERTEX
  8
T71SSILL
 62
6
 10
2374.829
 20
-9610.736
 30
-1803.425
 70
    32
  0
VERTEX
  8
T71SSILL
 62
6
 10
2310.991
 20
-9544.562
 30
-1803.851
 70
    32
  0
VERTEX
  8
T71SSILL
 62
6
 10
2307.325
 20
-9546.403
 30
-1803.855
 70
    32
  0
VERTEX
  8
T71SSILL
 62
6
 10
2300.784
 20
-9530.866
 30
-1803.964
 70
    32
  0
VERTEX
  8
T71SSILL
 62
6
 10
2264.156
 20
-9465.402
 30
-1804.480
 70
    32
  0
VERTEX
  8
T71SSILL
 62
6
 10
2256.517
 20
-9459.495
 30
-1804.541
 70
    32
  0
VERTEX
  8
T71SSILL
 62
6
 10
2255.514
 20
-9450.932
 30
-1804.596
 70
    32
  0
VERTEX
  8
T71SSILL
 62
6
 10
2226.078
 20
-9399.228
 30
-1804.832
 70
    32
  0
VERTEX
  8
T71SSILL
 62
6
 10
2217.077
 20
-9381.317
 30
-1804.906
 70
    32
  0
VERTEX
  8
T71SSILL
 62
6
 10
2212.889
 20
-9374.332
 30
-1804.936
 70
    32
  0
VERTEX
  8
T71SSILL
 62
6
 10
2209.743
 20
-9372.467
 30
-1804.948
 70
    32
  0
VERTEX
  8
T71SSILL
 62
6
 10
2207.992
 20
-9365.547
 30
-1804.973
 70
    32
  0
VERTEX
  8
T71SSILL
 62
6
 10
2166.088
 20
-9287.239
 30
-1805.303
 70
    32
  0
VERTEX
  8
T71SSILL
 62
6
 10
2159.734
 20
-9284.017
 30
-1805.326
 70
    32
  0
VERTEX
  8
T71SSILL
 62
6
 10
2158.773
 20
-9281.655
 30
-1805.336
 70
    32
  0
VERTEX
  8
T71SSILL
 62
6
 10
2159.193
 20
-9275.496
 30
-1805.358
 70
    32
  0
VERTEX
  8
T71SSILL
 62
6
 10
2118.037
 20
-9201.043
 30
-1805.709
 70
    32
  0
VERTEX
  8
T71SSILL
 62
6
 10
2112.890
 20
-9197.860
 30
-1805.729
 70
    32
  0
VERTEX
  8
T71SSILL
 62
6
 10
2108.032
 20
-9197.410
 30
-1805.739
 70
    32
  0
VERTEX
  8
T71SSILL
 62
6
 10
2110.474
 20
-9189.203
 30
-1805.766
 70
    32
  0
VERTEX
  8
T71SSILL
 62
6
 10
2068.570
 20
-9110.294
 30
-1806.134
 70
    32
  0
VERTEX
  8
T71SSILL
 62
6
 10
2063.264
 20
-9106.965
 30
-1806.156
 70
    32
  0
VERTEX
  8
T71SSILL
 62
6
 10
2060.815
 20
-9103.946
 30
-1806.171
 70
    32
  0
VERTEX
  8
T71SSILL
 62
6
 10
2060.523
 20
-9095.453
 30
-1806.204
 70
    32
  0
VERTEX
  8
T71SSILL
 62
6
 10
2020.355
 20
-9021.229
 30
-1806.551
 70
    32
  0
VERTEX
  8
T71SSILL
 62
6
 10
2012.355
 20
-9016.444
 30
-1806.583
 70
    32
  0
VERTEX
  8
T71SSILL
 62
6
 10
2014.543
 20
-9010.706
 30
-1806.600
 70
    32
  0
VERTEX
  8
T71SSILL
 62
6
 10
1973.219
 20
-8934.918
 30
-1806.956
 70
    32
  0
VERTEX
  8
T71SSILL
 62
6
 10
1967.739
 20
-8930.505
 30
-1806.982
 70
    32
  0
VERTEX
  8
T71SSILL
 62
6
 10
1966.731
 20
-8922.829
 30
-1807.012
 70
    32
  0
VERTEX
  8
T71SSILL
 62
6
 10
1928.006
 20
-8851.760
 30
-1807.346
 70
    32
  0
VERTEX
  8
T71SSILL
 62
6
 10
1924.416
 20
-8850.646
 30
-1807.356
 70
    32
  0
VERTEX
  8
T71SSILL
 62
6
 10
1922.035
 20
-8848.351
 30
-1807.369
 70
    32
  0
VERTEX
  8
T71SSILL
 62
6
 10
1916.731
 20
-8834.347
 30
-1807.428
 70
    32
  0
VERTEX
  8
T71SSILL
 62
6
 10
1913.388
 20
-8832.519
 30
-1807.439
 70
    32
  0
VERTEX
  8
T71SSILL
 62
6
 10
1860.186
 20
-8873.489
 30
-1807.345
 70
    32
  0
VERTEX
  8
T71SSILL
 62
6
 10
1854.682
 20
-8864.365
 30
-1807.386
 70
    32
  0
VERTEX
  8
T71SSILL
 62
6
 10
1903.251
 20
-8825.819
 30
-1807.476
 70
    32
  0
VERTEX
  8
T71SSILL
 62
6
 10
1909.544
 20
-8818.448
 30
-1807.496
 70
    32
  0
VERTEX
  8
T71SSILL
 62
6
 10
1915.219
 20
-8803.517
 30
-1807.546
 70
    32
  0
VERTEX
  8
T71SSILL
 62
6
 10
1913.733
 20
-8739.494
 30
-1807.790
 70
    32
  0
VERTEX
  8
T71SSILL
 62
6
 10
1909.781
 20
-8731.376
 30
-1807.825
 70
    32
  0
VERTEX
  8
T71SSILL
 62
6
 10
1908.797
 20
-8724.589
 30
-1807.851
 70
    32
  0
VERTEX
  8
T71SSILL
 62
6
 10
1909.647
 20
-8719.802
 30
-1807.869
 70
    32
  0
VERTEX
  8
T71SSILL
 62
6
 10
1912.255
 20
-8716.508
 30
-1807.878
 70
    32
  0
VERTEX
  8
T71SSILL
 62
6
 10
1907.895
 20
-8623.113
 30
-1808.235
 70
    32
  0
VERTEX
  8
T71SSILL
 62
6
 10
1903.739
 20
-8613.197
 30
-1808.276
 70
    32
  0
VERTEX
  8
T71SSILL
 62
6
 10
1905.974
 20
-8591.334
 30
-1808.341
 70
    32
  0
VERTEX
  8
T71SSILL
 62
6
 10
1901.285
 20
-8513.779
 30
-1808.583
 70
    32
  0
VERTEX
  8
T71SSILL
 62
6
 10
1901.285
 20
-8513.779
 30
0.000
 70
    32
  0
VERTEX
  8
T71SSILL
 62
6
 10
1901.267
 20
-8513.506
 30
0.000
 70
    32
  0
VERTEX
  8
T71SSILL
 62
6
 10
1896.308
 20
-8508.444
 30
0.000
 70
    32
  0
VERTEX
  8
T71SSILL
 62
6
 10
1890.833
 20
-8504.892
 30
0.000
 70
    32
  0
VERTEX
  8
T71SSILL
 62
6
 10
1886.260
 20
-8493.537
 30
0.000
 70
    32
  0
VERTEX
  8
T71SSILL
 62
6
 10
1885.686
 20
-8485.492
 30
0.000
 70
    32
  0
VERTEX
  8
T71SSILL
 62
6
 10
1885.542
 20
-8477.139
 30
0.000
 70
    32
  0
VERTEX
  8
T71SSILL
 62
6
 10
1884.155
 20
-8475.207
 30
0.000
 70
    32
  0
VERTEX
  8
T71SSILL
 62
6
 10
1860.047
 20
-8473.318
 30
0.000
 70
    32
  0
VERTEX
  8
T71SSILL
 62
6
 10
1856.664
 20
-8470.868
 30
0.000
 70
    32
  0
VERTEX
  8
T71SSILL
 62
6
 10
1855.226
 20
-8461.166
 30
0.000
 70
    32
  0
VERTEX
  8
T71SSILL
 62
6
 10
1884.236
 20
-8458.561
 30
0.000
 70
    32
  0
VERTEX
  8
T71SSILL
 62
6
 10
1886.034
 20
-8453.367
 30
0.000
 70
    32
  0
VERTEX
  8
T71SSILL
 62
6
 10
1886.687
 20
-8444.767
 30
0.000
 70
    32
  0
VERTEX
  8
T71SSILL
 62
6
 10
1886.576
 20
-8437.365
 30
0.000
 70
    32
  0
VERTEX
  8
T71SSILL
 62
6
 10
1885.184
 20
-8433.161
 30
0.000
 70
    32
  0
VERTEX
  8
T71SSILL
 62
6
 10
1880.815
 20
-8429.791
 30
0.000
 70
    32
  0
VERTEX
  8
T71SSILL
 62
6
 10
1874.987
 20
-8420.312
 30
0.000
 70
    32
  0
VERTEX
  8
T71SSILL
 62
6
 10
1851.254
 20
-8420.757
 30
0.000
 70
    32
  0
VERTEX
  8
T71SSILL
 62
6
 10
1846.818
 20
-8415.483
 30
0.000
 70
    32
  0
VERTEX
  8
T71SSILL
 62
6
 10
1845.937
 20
-8407.009
 30
0.000
 70
    32
  0
VERTEX
  8
T71SSILL
 62
6
 10
1871.315
 20
-8401.155
 30
0.000
 70
    32
  0
VERTEX
  8
T71SSILL
 62
6
 10
1879.902
 20
-8397.269
 30
0.000
 70
    32
  0
VERTEX
  8
T71SSILL
 62
6
 10
1883.623
 20
-8388.163
 30
0.000
 70
    32
  0
VERTEX
  8
T71SSILL
 62
6
 10
1883.041
 20
-8370.487
 30
0.000
 70
    32
  0
VERTEX
  8
T71SSILL
 62
6
 10
1883.097
 20
-8350.581
 30
0.000
 70
    32
  0
VERTEX
  8
T71SSILL
 62
6
 10
1880.678
 20
-8332.598
 30
0.000
 70
    32
  0
VERTEX
  8
T71SSILL
 62
6
 10
1880.210
 20
-8309.902
 30
0.000
 70
    32
  0
VERTEX
  8
T71SSILL
 62
6
 10
1889.103
 20
-8305.242
 30
0.000
 70
    32
  0
VERTEX
  8
T71SSILL
 62
6
 10
1886.221
 20
-8256.064
 30
-1809.509
 70
    32
  0
VERTEX
  8
T71SSILL
 62
6
 10
1883.914
 20
-8253.331
 30
-1809.516
 70
    32
  0
VERTEX
  8
T71SSILL
 62
6
 10
1882.919
 20
-8248.761
 30
-1809.530
 70
    32
  0
VERTEX
  8
T71SSILL
 62
6
 10
1885.516
 20
-8238.346
 30
-1809.564
 70
    32
  0
VERTEX
  8
T71SSILL
 62
6
 10
1880.049
 20
-8149.166
 30
-1810.108
 70
    32
  0
VERTEX
  8
T71SSILL
 62
6
 10
1881.435
 20
-8139.873
 30
-1810.154
 70
    32
  0
VERTEX
  8
T71SSILL
 62
6
 10
1879.000
 20
-8136.521
 30
-1810.176
 70
    32
  0
VERTEX
  8
T71SSILL
 62
6
 10
1819.145
 20
-8181.025
 30
-1809.725
 70
    32
  0
VERTEX
  8
T71SSILL
 62
6
 10
1813.428
 20
-8173.600
 30
-1809.747
 70
    32
  0
VERTEX
  8
T71SSILL
 62
6
 10
1969.536
 20
-8061.289
 30
-1810.401
 70
    32
  0
VERTEX
  8
T71SSILL
 62
6
 10
1969.264
 20
-8051.488
 30
-1810.453
 70
    32
  0
VERTEX
  8
T71SSILL
 62
6
 10
1984.182
 20
-8040.560
 30
-1810.482
 70
    32
  0
VERTEX
  8
T71SSILL
 62
6
 10
1980.015
 20
-8032.657
 30
-1810.531
 70
    32
  0
VERTEX
  8
T71SSILL
 62
6
 10
1983.629
 20
-8030.063
 30
-1810.538
 70
    32
  0
VERTEX
  8
T71SSILL
 62
6
 10
1990.774
 20
-8030.041
 30
-1810.525
 70
    32
  0
VERTEX
  8
T71SSILL
 62
6
 10
1993.714
 20
-8033.584
 30
-1810.501
 70
    32
  0
VERTEX
  8
T71SSILL
 62
6
 10
2012.529
 20
-8019.794
 30
-1810.538
 70
    32
  0
VERTEX
  8
T71SSILL
 62
6
 10
2023.263
 20
-8022.635
 30
-1810.492
 70
    32
  0
VERTEX
  8
T71SSILL
 62
6
 10
2076.529
 20
-7984.312
 30
-1810.501
 70
    32
  0
VERTEX
  8
T71SSILL
 62
6
 10
2073.318
 20
-7973.278
 30
-1810.590
 70
    32
  0
VERTEX
  8
T71SSILL
 62
6
 10
2052.011
 20
-7956.117
 30
-1810.797
 70
    32
  0
VERTEX
  8
T71SSILL
 62
6
 10
1963.569
 20
-7903.916
 30
-1811.231
 70
    32
  0
VERTEX
  8
T71SSILL
 62
6
 10
1968.399
 20
-7895.228
 30
-1811.268
 70
    32
  0
VERTEX
  8
T71SSILL
 62
6
 10
1988.998
 20
-7907.385
 30
-1811.166
 70
    32
  0
VERTEX
  8
T71SSILL
 62
6
 10
1995.190
 20
-7907.374
 30
-1811.155
 70
    32
  0
VERTEX
  8
T71SSILL
 62
6
 10
2006.271
 20
-7912.028
 30
-1811.110
 70
    32
  0
VERTEX
  8
T71SSILL
 62
6
 10
2005.962
 20
-7916.793
 30
-1811.086
 70
    32
  0
VERTEX
  8
T71SSILL
 62
6
 10
2008.073
 20
-7918.642
 30
-1811.073
 70
    32
  0
VERTEX
  8
T71SSILL
 62
6
 10
2042.091
 20
-7938.719
 30
-1810.906
 70
    32
  0
VERTEX
  8
T71SSILL
 62
6
 10
2044.135
 20
-7936.560
 30
-1810.913
 70
    32
  0
VERTEX
  8
T71SSILL
 62
6
 10
2062.764
 20
-7898.646
 30
-1810.971
 70
    32
  0
VERTEX
  8
T71SSILL
 62
6
 10
2058.262
 20
-7892.258
 30
-1810.988
 70
    32
  0
VERTEX
  8
T71SSILL
 62
6
 10
2064.134
 20
-7883.699
 30
-1811.015
 70
    32
  0
VERTEX
  8
T71SSILL
 62
6
 10
2050.798
 20
-7860.779
 30
-1811.154
 70
    32
  0
VERTEX
  8
T71SSILL
 62
6
 10
2055.264
 20
-7856.744
 30
-1811.133
 70
    32
  0
VERTEX
  8
T71SSILL
 62
6
 10
2060.610
 20
-7855.775
 30
-1811.095
 70
    32
  0
VERTEX
  8
T71SSILL
 62
6
 10
2075.705
 20
-7879.162
 30
-1811.058
 70
    32
  0
VERTEX
  8
T71SSILL
 62
6
 10
2083.242
 20
-7879.156
 30
-1811.077
 70
    32
  0
VERTEX
  8
T71SSILL
 62
6
 10
2100.838
 20
-7906.842
 30
-1811.047
 70
    32
  0
VERTEX
  8
T71SSILL
 62
6
 10
2112.810
 20
-7915.649
 30
-1811.054
 70
    32
  0
VERTEX
  8
T71SSILL
 62
6
 10
2109.046
 20
-7924.776
 30
-1811.020
 70
    32
  0
VERTEX
  8
T71SSILL
 62
6
 10
2113.671
 20
-7930.981
 30
-1811.015
 70
    32
  0
VERTEX
  8
T71SSILL
 62
6
 10
2119.740
 20
-7929.198
 30
-1811.036
 70
    32
  0
VERTEX
  8
T71SSILL
 62
6
 10
2125.969
 20
-7937.403
 30
-1810.924
 70
    32
  0
VERTEX
  8
T71SSILL
 62
6
 10
2139.461
 20
-7938.290
 30
-1810.635
 70
    32
  0
SEQEND
  8
T71SSILL
  0
POLYLINE
  8
T71SSILL
 62
6
 66
     1
 70
     9
  0
VERTEX
  8
T71SSILL
 62
6
 10
1739.241
 20
-6499.447
 30
-1820.030
 70
    32
  0
VERTEX
  8
T71SSILL
 62
6
 10
1739.772
 20
-6509.518
 30
-1819.975
 70
    32
  0
VERTEX
  8
T71SSILL
 62
6
 10
1734.745
 20
-6510.812
 30
-1819.886
 70
    32
  0
VERTEX
  8
T71SSILL
 62
6
 10
1730.049
 20
-6515.113
 30
-1819.804
 70
    32
  0
VERTEX
  8
T71SSILL
 62
6
 10
1727.133
 20
-6523.211
 30
-1819.720
 70
    32
  0
VERTEX
  8
T71SSILL
 62
6
 10
1788.424
 20
-6614.952
 30
-1819.718
 70
    32
  0
VERTEX
  8
T71SSILL
 62
6
 10
1800.504
 20
-6616.012
 30
-1819.859
 70
    32
  0
VERTEX
  8
T71SSILL
 62
6
 10
1817.489
 20
-6607.327
 30
-1820.140
 70
    32
  0
VERTEX
  8
T71SSILL
 62
6
 10
1823.232
 20
-6616.344
 30
-1820.138
 70
    32
  0
VERTEX
  8
T71SSILL
 62
6
 10
1810.781
 20
-6624.256
 30
-1819.919
 70
    32
  0
VERTEX
  8
T71SSILL
 62
6
 10
1803.266
 20
-6635.312
 30
-1819.736
 70
    32
  0
VERTEX
  8
T71SSILL
 62
6
 10
1818.880
 20
-6659.914
 30
-1819.730
 70
    32
  0
VERTEX
  8
T71SSILL
 62
6
 10
1823.734
 20
-6656.581
 30
-1819.817
 70
    32
  0
VERTEX
  8
T71SSILL
 62
6
 10
1842.748
 20
-6675.258
 30
-1819.901
 70
    32
  0
VERTEX
  8
T71SSILL
 62
6
 10
1838.916
 20
-6679.492
 30
-1819.819
 70
    32
  0
VERTEX
  8
T71SSILL
 62
6
 10
1836.849
 20
-6685.845
 30
-1819.741
 70
    32
  0
VERTEX
  8
T71SSILL
 62
6
 10
1887.202
 20
-6760.481
 30
-1819.759
 70
    32
  0
VERTEX
  8
T71SSILL
 62
6
 10
1891.508
 20
-6759.118
 30
-1819.823
 70
    32
  0
VERTEX
  8
T71SSILL
 62
6
 10
1894.621
 20
-6763.485
 30
-1819.826
 70
    32
  0
VERTEX
  8
T71SSILL
 62
6
 10
1892.576
 20
-6768.726
 30
-1819.758
 70
    32
  0
VERTEX
  8
T71SSILL
 62
6
 10
1943.177
 20
-6843.450
 30
-1819.244
 70
    32
  0
VERTEX
  8
T71SSILL
 62
6
 10
1948.530
 20
-6842.552
 30
-1819.275
 70
    32
  0
VERTEX
  8
T71SSILL
 62
6
 10
1959.271
 20
-6834.754
 30
-1819.000
 70
    32
  0
VERTEX
  8
T71SSILL
 62
6
 10
1959.411
 20
-6833.995
 30
-1819.000
 70
    32
  0
VERTEX
  8
T71SSILL
 62
6
 10
1960.088
 20
-6825.980
 30
-1819.000
 70
    32
  0
VERTEX
  8
T71SSILL
 62
6
 10
1955.204
 20
-6815.934
 30
-1815.000
 70
    32
  0
VERTEX
  8
T71SSILL
 62
6
 10
1953.262
 20
-6811.959
 30
-1814.000
 70
    32
  0
VERTEX
  8
T71SSILL
 62
6
 10
1951.204
 20
-6804.545
 30
-1809.000
 70
    32
  0
VERTEX
  8
T71SSILL
 62
6
 10
1959.313
 20
-6799.805
 30
-1809.000
 70
    32
  0
VERTEX
  8
T71SSILL
 62
6
 10
1966.375
 20
-6813.392
 30
-1816.000
 70
    32
  0
VERTEX
  8
T71SSILL
 62
6
 10
1967.753
 20
-6816.646
 30
-1819.000
 70
    32
  0
VERTEX
  8
T71SSILL
 62
6
 10
1973.186
 20
-6823.835
 30
-1819.000
 70
    32
  0
VERTEX
  8
T71SSILL
 62
6
 10
1973.842
 20
-6824.177
 30
-1819.000
 70
    32
  0
VERTEX
  8
T71SSILL
 62
6
 10
1979.693
 20
-6819.930
 30
-1819.000
 70
    32
  0
VERTEX
  8
T71SSILL
 62
6
 10
1989.738
 20
-6812.395
 30
-1819.000
 70
    32
  0
VERTEX
  8
T71SSILL
 62
6
 10
1995.621
 20
-6808.556
 30
-1819.000
 70
    32
  0
VERTEX
  8
T71SSILL
 62
6
 10
1992.232
 20
-6801.871
 30
-1819.000
 70
    32
  0
VERTEX
  8
T71SSILL
 62
6
 10
1988.480
 20
-6794.944
 30
-1819.000
 70
    32
  0
VERTEX
  8
T71SSILL
 62
6
 10
1991.143
 20
-6793.850
 30
-1819.000
 70
    32
  0
VERTEX
  8
T71SSILL
 62
6
 10
1993.927
 20
-6792.270
 30
-1819.000
 70
    32
  0
VERTEX
  8
T71SSILL
 62
6
 10
1995.258
 20
-6790.812
 30
-1819.000
 70
    32
  0
VERTEX
  8
T71SSILL
 62
6
 10
1996.983
 20
-6790.266
 30
-1819.000
 70
    32
  0
VERTEX
  8
T71SSILL
 62
6
 10
1998.361
 20
-6793.521
 30
-1819.000
 70
    32
  0
VERTEX
  8
T71SSILL
 62
6
 10
2003.794
 20
-6800.710
 30
-1819.000
 70
    32
  0
VERTEX
  8
T71SSILL
 62
6
 10
2004.982
 20
-6801.328
 30
-1819.000
 70
    32
  0
VERTEX
  8
T71SSILL
 62
6
 10
2014.447
 20
-6794.700
 30
-1820.138
 70
    32
  0
VERTEX
  8
T71SSILL
 62
6
 10
2014.853
 20
-6790.928
 30
-1820.188
 70
    32
  0
VERTEX
  8
T71SSILL
 62
6
 10
2030.496
 20
-6776.525
 30
-1820.433
 70
    32
  0
VERTEX
  8
T71SSILL
 62
6
 10
2035.799
 20
-6763.675
 30
-1820.621
 70
    32
  0
VERTEX
  8
T71SSILL
 62
6
 10
2041.178
 20
-6742.461
 30
-1820.918
 70
    32
  0
VERTEX
  8
T71SSILL
 62
6
 10
2035.495
 20
-6732.987
 30
-1821.027
 70
    32
  0
VERTEX
  8
T71SSILL
 62
6
 10
2041.682
 20
-6718.959
 30
-1821.242
 70
    32
  0
VERTEX
  8
T71SSILL
 62
6
 10
1944.745
 20
-6437.610
 30
-1823.626
 70
    32
  0
VERTEX
  8
T71SSILL
 62
6
 10
1938.204
 20
-6427.925
 30
-1823.501
 70
    32
  0
VERTEX
  8
T71SSILL
 62
6
 10
1945.726
 20
-6365.704
 30
-1823.899
 70
    32
  0
VERTEX
  8
T71SSILL
 62
6
 10
1944.214
 20
-6363.396
 30
-1823.862
 70
    32
  0
VERTEX
  8
T71SSILL
 62
6
 10
1939.634
 20
-6362.813
 30
-1823.723
 70
    32
  0
VERTEX
  8
T71SSILL
 62
6
 10
1919.152
 20
-6382.012
 30
-1823.124
 70
    32
  0
VERTEX
  8
T71SSILL
 62
6
 10
1882.309
 20
-6407.822
 30
-1822.477
 70
    32
  0
VERTEX
  8
T71SSILL
 62
6
 10
1894.595
 20
-6431.013
 30
-1822.716
 70
    32
  0
VERTEX
  8
T71SSILL
 62
6
 10
1886.150
 20
-6436.688
 30
-1822.567
 70
    32
  0
VERTEX
  8
T71SSILL
 62
6
 10
1870.997
 20
-6416.583
 30
-1822.279
 70
    32
  0
VERTEX
  8
T71SSILL
 62
6
 10
1846.336
 20
-6434.595
 30
-1821.847
 70
    32
  0
VERTEX
  8
T71SSILL
 62
6
 10
1854.318
 20
-6448.893
 30
-1822.001
 70
    32
  0
VERTEX
  8
T71SSILL
 62
6
 10
1844.502
 20
-6455.014
 30
-1821.828
 70
    32
  0
VERTEX
  8
T71SSILL
 62
6
 10
1836.737
 20
-6442.471
 30
-1821.679
 70
    32
  0
VERTEX
  8
T71SSILL
 62
6
 10
1819.918
 20
-6454.238
 30
-1821.384
 70
    32
  0
VERTEX
  8
T71SSILL
 62
6
 10
1799.504
 20
-6464.636
 30
-1821.022
 70
    32
  0
VERTEX
  8
T71SSILL
 62
6
 10
1784.928
 20
-6468.540
 30
-1820.809
 70
    32
  0
VERTEX
  8
T71SSILL
 62
6
 10
1761.809
 20
-6468.540
 30
-1820.542
 70
    32
  0
VERTEX
  8
T71SSILL
 62
6
 10
1743.741
 20
-6465.435
 30
-1820.359
 70
    32
  0
VERTEX
  8
T71SSILL
 62
6
 10
1718.305
 20
-6455.358
 30
-1820.120
 70
    32
  0
VERTEX
  8
T71SSILL
 62
6
 10
1702.517
 20
-6444.490
 30
-1820.024
 70
    32
  0
VERTEX
  8
T71SSILL
 62
6
 10
1699.329
 20
-6445.599
 30
-1819.982
 70
    32
  0
VERTEX
  8
T71SSILL
 62
6
 10
1715.204
 20
-6495.186
 30
-1819.775
 70
    32
  0
VERTEX
  8
T71SSILL
 62
6
 10
1728.305
 20
-6497.509
 30
-1819.920
 70
    32
  0
SEQEND
  8
T71SSILL
  0
ENDSEC
  0
EOF
