999
********************************
999
*   DXF File - Entities Only   *
999
*        3D Data Format        *
999
*     Output from ENVISAGE     *
999
*     24-Dec-2007 12:29:02     *
999
********************************
  0
SECTION 
  2
HEADER
  9
$ACADVER
  1
AC1009
  9
$EXTMIN
 10
-290000.000
 20
-250000.000
 30
-4000.000
  9
$EXTMAX
 10
5000000.000
 20
600000.000
 30
6000.000
  0
ENDSEC
  0
SECTION
  2
ENTITIES
  0
POLYLINE
  8
T72SSILL
 62
4
 66
     1
 70
     9
  0
VERTEX
  8
T72SSILL
 62
4
 10
1752.583
 20
-6616.911
 30
-1971.803
 70
    32
  0
VERTEX
  8
T72SSILL
 62
4
 10
1672.391
 20
-6702.889
 30
-1970.416
 70
    32
  0
VERTEX
  8
T72SSILL
 62
4
 10
1645.933
 20
-6580.868
 30
-1970.377
 70
    32
  0
VERTEX
  8
T72SSILL
 62
4
 10
1644.150
 20
-6577.068
 30
-1970.362
 70
    32
  0
VERTEX
  8
T72SSILL
 62
4
 10
1644.953
 20
-6573.624
 30
-1970.383
 70
    32
  0
VERTEX
  8
T72SSILL
 62
4
 10
1651.545
 20
-6573.588
 30
-1970.477
 70
    32
  0
VERTEX
  8
T72SSILL
 62
4
 10
1667.867
 20
-6588.312
 30
-1970.670
 70
    32
  0
VERTEX
  8
T72SSILL
 62
4
 10
1683.771
 20
-6597.256
 30
-1970.873
 70
    32
  0
VERTEX
  8
T72SSILL
 62
4
 10
1697.891
 20
-6602.855
 30
-1971.059
 70
    32
  0
VERTEX
  8
T72SSILL
 62
4
 10
1720.305
 20
-6607.265
 30
-1971.368
 70
    32
  0
VERTEX
  8
T72SSILL
 62
4
 10
1743.434
 20
-6607.583
 30
-1971.698
 70
    32
  0
VERTEX
  8
T72SSILL
 62
4
 10
1752.579
 20
-6611.727
 30
-1971.817
 70
    32
  0
SEQEND
  8
T72SSILL
  0
POLYLINE
  8
T72SSILL
 62
4
 66
     1
 70
     9
  0
VERTEX
  8
T72SSILL
 62
4
 10
1846.773
 20
-7205.610
 30
-1966.918
 70
    32
  0
VERTEX
  8
T72SSILL
 62
4
 10
1851.988
 20
-7269.214
 30
-1966.598
 70
    32
  0
VERTEX
  8
T72SSILL
 62
4
 10
1848.981
 20
-7271.805
 30
-1966.589
 70
    32
  0
VERTEX
  8
T72SSILL
 62
4
 10
1832.403
 20
-7261.965
 30
-1966.657
 70
    32
  0
VERTEX
  8
T72SSILL
 62
4
 10
1807.297
 20
-7236.688
 30
-1966.812
 70
    32
  0
VERTEX
  8
T72SSILL
 62
4
 10
1799.434
 20
-7226.738
 30
-1966.871
 70
    32
  0
VERTEX
  8
T72SSILL
 62
4
 10
1795.386
 20
-7209.584
 30
-1966.960
 70
    32
  0
VERTEX
  8
T72SSILL
 62
4
 10
1796.987
 20
-7204.921
 30
-1966.981
 70
    32
  0
VERTEX
  8
T72SSILL
 62
4
 10
1792.259
 20
-7198.553
 30
-1967.018
 70
    32
  0
VERTEX
  8
T72SSILL
 62
4
 10
1781.327
 20
-7151.935
 30
-1967.262
 70
    32
  0
VERTEX
  8
T72SSILL
 62
4
 10
1787.497
 20
-7147.696
 30
-1967.275
 70
    32
  0
VERTEX
  8
T72SSILL
 62
4
 10
1798.184
 20
-7154.102
 30
-1967.231
 70
    32
  0
VERTEX
  8
T72SSILL
 62
4
 10
1819.019
 20
-7162.145
 30
-1967.166
 70
    32
  0
VERTEX
  8
T72SSILL
 62
4
 10
1825.878
 20
-7163.339
 30
-1967.152
 70
    32
  0
VERTEX
  8
T72SSILL
 62
4
 10
1829.974
 20
-7166.167
 30
-1967.133
 70
    32
  0
VERTEX
  8
T72SSILL
 62
4
 10
1838.812
 20
-7179.033
 30
-1967.059
 70
    32
  0
VERTEX
  8
T72SSILL
 62
4
 10
1846.606
 20
-7205.304
 30
-1966.920
 70
    32
  0
SEQEND
  8
T72SSILL
  0
POLYLINE
  8
T72SSILL
 62
4
 66
     1
 70
     9
  0
VERTEX
  8
T72SSILL
 62
4
 10
1526.157
 20
-6097.503
 30
-1969.552
 70
    32
  0
VERTEX
  8
T72SSILL
 62
4
 10
1518.958
 20
-6105.240
 30
-1969.502
 70
    32
  0
VERTEX
  8
T72SSILL
 62
4
 10
1504.447
 20
-6125.113
 30
-1969.391
 70
    32
  0
VERTEX
  8
T72SSILL
 62
4
 10
1496.606
 20
-6150.242
 30
-1969.298
 70
    32
  0
VERTEX
  8
T72SSILL
 62
4
 10
1495.208
 20
-6170.607
 30
-1969.245
 70
    32
  0
VERTEX
  8
T72SSILL
 62
4
 10
1464.280
 20
-6093.099
 30
-1969.280
 70
    32
  0
VERTEX
  8
T72SSILL
 62
4
 10
1465.575
 20
-6086.049
 30
-1969.302
 70
    32
  0
VERTEX
  8
T72SSILL
 62
4
 10
1461.272
 20
-6084.996
 30
-1969.284
 70
    32
  0
VERTEX
  8
T72SSILL
 62
4
 10
1452.865
 20
-6063.683
 30
-1969.289
 70
    32
  0
VERTEX
  8
T72SSILL
 62
4
 10
1468.609
 20
-6076.043
 30
-1969.338
 70
    32
  0
VERTEX
  8
T72SSILL
 62
4
 10
1493.599
 20
-6087.575
 30
-1969.426
 70
    32
  0
VERTEX
  8
T72SSILL
 62
4
 10
1510.956
 20
-6092.655
 30
-1969.494
 70
    32
  0
VERTEX
  8
T72SSILL
 62
4
 10
1524.181
 20
-6093.503
 30
-1969.553
 70
    32
  0
SEQEND
  8
T72SSILL
  0
POLYLINE
  8
T72SSILL
 62
4
 66
     1
 70
     9
  0
VERTEX
  8
T72SSILL
 62
4
 10
1409.496
 20
-6042.633
 30
-1968.945
 70
    32
  0
VERTEX
  8
T72SSILL
 62
4
 10
1382.606
 20
-6046.719
 30
-1958.725
 70
    32
  0
VERTEX
  8
T72SSILL
 62
4
 10
1388.801
 20
-6055.561
 30
-1959.389
 70
    32
  0
VERTEX
  8
T72SSILL
 62
4
 10
1408.434
 20
-6053.751
 30
-1968.983
 70
    32
  0
SEQEND
  8
T72SSILL
  0
TEXT
  8
T72SSILL
 62
4
 10
1381.345
 20
-6024.370
 30
-1963.973
 40
8.202
  1
U
 41
 1.0 
  0
POLYLINE
  8
T72SSILL
 62
4
 66
     1
 70
     9
  0
VERTEX
  8
T72SSILL
 62
4
 10
1607.667
 20
-6487.237
 30
-1960.086
 70
    32
  0
VERTEX
  8
T72SSILL
 62
4
 10
1598.830
 20
-6499.118
 30
-1960.687
 70
    32
  0
VERTEX
  8
T72SSILL
 62
4
 10
1598.830
 20
-6499.118
 30
-1960.687
 70
    32
  0
VERTEX
  8
T72SSILL
 62
4
 10
1603.027
 20
-6507.517
 30
-1960.320
 70
    32
  0
VERTEX
  8
T72SSILL
 62
4
 10
1613.701
 20
-6496.739
 30
-1970.149
 70
    32
  0
SEQEND
  8
T72SSILL
  0
TEXT
  8
T72SSILL
 62
4
 10
1586.253
 20
-6489.189
 30
-1960.320
 40
8.202
  1
U
 41
 1.0 
  0
POLYLINE
  8
T72SSILL
 62
4
 66
     1
 70
     9
  0
VERTEX
  8
T72SSILL
 62
4
 10
1471.205
 20
-6137.054
 30
-1969.171
 70
    32
  0
VERTEX
  8
T72SSILL
 62
4
 10
1467.195
 20
-6142.568
 30
-1979.729
 70
    32
  0
VERTEX
  8
T72SSILL
 62
4
 10
1436.628
 20
-6127.229
 30
-1981.245
 70
    32
  0
VERTEX
  8
T72SSILL
 62
4
 10
1438.262
 20
-6140.028
 30
-1980.909
 70
    32
  0
VERTEX
  8
T72SSILL
 62
4
 10
1470.331
 20
-6154.597
 30
-1979.509
 70
    32
  0
VERTEX
  8
T72SSILL
 62
4
 10
1481.857
 20
-6163.545
 30
-1969.161
 70
    32
  0
SEQEND
  8
T72SSILL
  0
TEXT
  8
T72SSILL
 62
4
 10
1454.747
 20
-6168.878
 30
-1980.318
 40
8.202
  1
D
 41
 1.0 
  0
POLYLINE
  8
T72SSILL
 62
4
 66
     1
 70
     9
  0
VERTEX
  8
T72SSILL
 62
4
 10
1725.142
 20
-6475.759
 30
-1971.211
 70
    32
  0
VERTEX
  8
T72SSILL
 62
4
 10
1733.022
 20
-6471.705
 30
-1971.272
 70
    32
  0
VERTEX
  8
T72SSILL
 62
4
 10
1737.081
 20
-6484.809
 30
-1974.190
 70
    32
  0
VERTEX
  8
T72SSILL
 62
4
 10
1738.518
 20
-6496.504
 30
-1974.714
 70
    32
  0
VERTEX
  8
T72SSILL
 62
4
 10
1734.219
 20
-6517.080
 30
-1978.215
 70
    32
  0
VERTEX
  8
T72SSILL
 62
4
 10
1719.920
 20
-6516.569
 30
-1978.485
 70
    32
  0
VERTEX
  8
T72SSILL
 62
4
 10
1722.627
 20
-6492.955
 30
-1974.505
 70
    32
  0
VERTEX
  8
T72SSILL
 62
4
 10
1722.869
 20
-6487.445
 30
-1974.190
 70
    32
  0
SEQEND
  8
T72SSILL
  0
TEXT
  8
T72SSILL
 62
4
 10
1750.595
 20
-6496.773
 30
-1974.714
 40
8.202
  1
D
 41
 1.0 
  0
POLYLINE
  8
T72SSILL
 62
4
 66
     1
 70
     9
  0
VERTEX
  8
T72SSILL
 62
4
 10
1798.459
 20
-6521.887
 30
-1977.785
 70
    32
  0
VERTEX
  8
T72SSILL
 62
4
 10
1774.140
 20
-6539.662
 30
-1981.184
 70
    32
  0
VERTEX
  8
T72SSILL
 62
4
 10
1778.591
 20
-6548.972
 30
-1982.645
 70
    32
  0
VERTEX
  8
T72SSILL
 62
4
 10
1801.859
 20
-6532.157
 30
-1979.425
 70
    32
  0
SEQEND
  8
T72SSILL
  0
TEXT
  8
T72SSILL
 62
4
 10
1778.324
 20
-6517.063
 30
-1981.184
 40
8.202
  1
D
 41
 1.0 
  0
TEXT
  8
T72SSILL
 62
4
 10
2571.957
 20
-6122.979
 30
-1956.064
 40
4.101
  1
7250
 41
 1.0 
  0
POLYLINE
  8
T72SSILL
 62
4
 66
     1
 70
     9
  0
VERTEX
  8
T72SSILL
 62
4
 10
1395.795
 20
-5708.341
 30
-1966.197
 70
    32
  0
VERTEX
  8
T72SSILL
 62
4
 10
1378.113
 20
-5719.081
 30
-1966.124
 70
    32
  0
VERTEX
  8
T72SSILL
 62
4
 10
1347.676
 20
-5754.769
 30
-1967.271
 70
    32
  0
VERTEX
  8
T72SSILL
 62
4
 10
1339.396
 20
-5777.432
 30
-1968.050
 70
    32
  0
VERTEX
  8
T72SSILL
 62
4
 10
1345.209
 20
-5792.151
 30
-1968.096
 70
    32
  0
VERTEX
  8
T72SSILL
 62
4
 10
1399.707
 20
-5742.289
 30
-1966.434
 70
    32
  0
VERTEX
  8
T72SSILL
 62
4
 10
1404.752
 20
-5736.196
 30
-1966.437
 70
    32
  0
VERTEX
  8
T72SSILL
 62
4
 10
1405.645
 20
-5731.789
 30
-1966.417
 70
    32
  0
VERTEX
  8
T72SSILL
 62
4
 10
1401.162
 20
-5718.452
 30
-1966.301
 70
    32
  0
SEQEND
  8
T72SSILL
  0
POLYLINE
  8
T72SSILL
 62
4
 66
     1
 70
     9
  0
VERTEX
  8
T72SSILL
 62
4
 10
1818.738
 20
-6542.311
 30
-1971.706
 70
    32
  0
VERTEX
  8
T72SSILL
 62
4
 10
1811.644
 20
-6553.996
 30
-1971.783
 70
    32
  0
VERTEX
  8
T72SSILL
 62
4
 10
1785.768
 20
-6579.337
 30
-1971.900
 70
    32
  0
VERTEX
  8
T72SSILL
 62
4
 10
1778.019
 20
-6584.708
 30
-1971.898
 70
    32
  0
VERTEX
  8
T72SSILL
 62
4
 10
1751.813
 20
-6595.363
 30
-1971.838
 70
    32
  0
VERTEX
  8
T72SSILL
 62
4
 10
1743.779
 20
-6597.443
 30
-1971.731
 70
    32
  0
VERTEX
  8
T72SSILL
 62
4
 10
1724.150
 20
-6598.310
 30
-1971.448
 70
    32
  0
VERTEX
  8
T72SSILL
 62
4
 10
1713.154
 20
-6596.806
 30
-1971.294
 70
    32
  0
VERTEX
  8
T72SSILL
 62
4
 10
1695.678
 20
-6592.074
 30
-1971.057
 70
    32
  0
VERTEX
  8
T72SSILL
 62
4
 10
1674.077
 20
-6581.315
 30
-1970.778
 70
    32
  0
VERTEX
  8
T72SSILL
 62
4
 10
1662.451
 20
-6571.619
 30
-1970.639
 70
    32
  0
VERTEX
  8
T72SSILL
 62
4
 10
1650.258
 20
-6556.977
 30
-1970.505
 70
    32
  0
VERTEX
  8
T72SSILL
 62
4
 10
1642.434
 20
-6543.098
 30
-1970.432
 70
    32
  0
VERTEX
  8
T72SSILL
 62
4
 10
1632.888
 20
-6519.409
 30
-1970.361
 70
    32
  0
VERTEX
  8
T72SSILL
 62
4
 10
1633.301
 20
-6513.484
 30
-1970.383
 70
    32
  0
VERTEX
  8
T72SSILL
 62
4
 10
1629.068
 20
-6501.079
 30
-1970.357
 70
    32
  0
VERTEX
  8
T72SSILL
 62
4
 10
1631.926
 20
-6482.663
 30
-1970.392
 70
    32
  0
VERTEX
  8
T72SSILL
 62
4
 10
1637.972
 20
-6471.057
 30
-1970.437
 70
    32
  0
VERTEX
  8
T72SSILL
 62
4
 10
1643.063
 20
-6464.895
 30
-1970.494
 70
    32
  0
VERTEX
  8
T72SSILL
 62
4
 10
1652.525
 20
-6458.138
 30
-1970.589
 70
    32
  0
VERTEX
  8
T72SSILL
 62
4
 10
1659.065
 20
-6456.990
 30
-1970.642
 70
    32
  0
VERTEX
  8
T72SSILL
 62
4
 10
1665.747
 20
-6461.461
 30
-1970.702
 70
    32
  0
VERTEX
  8
T72SSILL
 62
4
 10
1675.449
 20
-6454.433
 30
-1970.775
 70
    32
  0
VERTEX
  8
T72SSILL
 62
4
 10
1672.785
 20
-6444.528
 30
-1970.741
 70
    32
  0
VERTEX
  8
T72SSILL
 62
4
 10
1674.083
 20
-6442.036
 30
-1970.749
 70
    32
  0
VERTEX
  8
T72SSILL
 62
4
 10
1688.066
 20
-6442.189
 30
-1970.865
 70
    32
  0
VERTEX
  8
T72SSILL
 62
4
 10
1709.707
 20
-6453.100
 30
-1971.057
 70
    32
  0
VERTEX
  8
T72SSILL
 62
4
 10
1719.325
 20
-6464.398
 30
-1971.150
 70
    32
  0
VERTEX
  8
T72SSILL
 62
4
 10
1722.998
 20
-6469.871
 30
-1971.187
 70
    32
  0
VERTEX
  8
T72SSILL
 62
4
 10
1725.142
 20
-6475.759
 30
-1971.211
 70
    32
  0
VERTEX
  8
T72SSILL
 62
4
 10
1733.022
 20
-6471.705
 30
-1971.272
 70
    32
  0
VERTEX
  8
T72SSILL
 62
4
 10
1729.543
 20
-6461.720
 30
-1971.231
 70
    32
  0
VERTEX
  8
T72SSILL
 62
4
 10
1724.345
 20
-6453.883
 30
-1971.179
 70
    32
  0
VERTEX
  8
T72SSILL
 62
4
 10
1733.506
 20
-6456.634
 30
-1971.258
 70
    32
  0
VERTEX
  8
T72SSILL
 62
4
 10
1735.583
 20
-6448.044
 30
-1971.266
 70
    32
  0
VERTEX
  8
T72SSILL
 62
4
 10
1688.553
 20
-6431.748
 30
-1970.857
 70
    32
  0
VERTEX
  8
T72SSILL
 62
4
 10
1723.093
 20
-6407.454
 30
-1971.115
 70
    32
  0
VERTEX
  8
T72SSILL
 62
4
 10
1717.227
 20
-6398.754
 30
-1971.057
 70
    32
  0
VERTEX
  8
T72SSILL
 62
4
 10
1708.833
 20
-6404.912
 30
-1970.994
 70
    32
  0
VERTEX
  8
T72SSILL
 62
4
 10
1704.033
 20
-6405.552
 30
-1970.955
 70
    32
  0
VERTEX
  8
T72SSILL
 62
4
 10
1700.539
 20
-6398.783
 30
-1970.918
 70
    32
  0
VERTEX
  8
T72SSILL
 62
4
 10
1694.283
 20
-6330.588
 30
-1970.788
 70
    32
  0
VERTEX
  8
T72SSILL
 62
4
 10
1684.168
 20
-6330.881
 30
-1970.704
 70
    32
  0
VERTEX
  8
T72SSILL
 62
4
 10
1684.913
 20
-6407.143
 30
-1970.798
 70
    32
  0
VERTEX
  8
T72SSILL
 62
4
 10
1680.638
 20
-6410.687
 30
-1970.767
 70
    32
  0
VERTEX
  8
T72SSILL
 62
4
 10
1673.971
 20
-6420.942
 30
-1970.724
 70
    32
  0
VERTEX
  8
T72SSILL
 62
4
 10
1661.870
 20
-6434.684
 30
-1970.639
 70
    32
  0
VERTEX
  8
T72SSILL
 62
4
 10
1652.899
 20
-6440.310
 30
-1970.571
 70
    32
  0
VERTEX
  8
T72SSILL
 62
4
 10
1649.291
 20
-6447.046
 30
-1970.549
 70
    32
  0
VERTEX
  8
T72SSILL
 62
4
 10
1617.295
 20
-6469.496
 30
-1970.234
 70
    32
  0
VERTEX
  8
T72SSILL
 62
4
 10
1611.257
 20
-6466.450
 30
-1970.177
 70
    32
  0
VERTEX
  8
T72SSILL
 62
4
 10
1577.517
 20
-6380.842
 30
-1969.822
 70
    32
  0
VERTEX
  8
T72SSILL
 62
4
 10
1579.881
 20
-6375.735
 30
-1969.839
 70
    32
  0
VERTEX
  8
T72SSILL
 62
4
 10
1578.180
 20
-6374.057
 30
-1969.813
 70
    32
  0
VERTEX
  8
T72SSILL
 62
4
 10
1575.119
 20
-6373.849
 30
-1969.775
 70
    32
  0
VERTEX
  8
T72SSILL
 62
4
 10
1539.512
 20
-6284.792
 30
-1969.323
 70
    32
  0
VERTEX
  8
T72SSILL
 62
4
 10
1542.359
 20
-6278.947
 30
-1969.344
 70
    32
  0
VERTEX
  8
T72SSILL
 62
4
 10
1536.616
 20
-6277.045
 30
-1969.308
 70
    32
  0
VERTEX
  8
T72SSILL
 62
4
 10
1510.498
 20
-6212.737
 30
-1969.220
 70
    32
  0
VERTEX
  8
T72SSILL
 62
4
 10
1504.334
 20
-6169.816
 30
-1969.289
 70
    32
  0
VERTEX
  8
T72SSILL
 62
4
 10
1504.984
 20
-6159.063
 30
-1969.316
 70
    32
  0
VERTEX
  8
T72SSILL
 62
4
 10
1511.490
 20
-6136.308
 30
-1969.397
 70
    32
  0
VERTEX
  8
T72SSILL
 62
4
 10
1527.980
 20
-6110.733
 30
-1969.531
 70
    32
  0
VERTEX
  8
T72SSILL
 62
4
 10
1554.533
 20
-6089.606
 30
-1969.700
 70
    32
  0
VERTEX
  8
T72SSILL
 62
4
 10
1690.128
 20
-6035.757
 30
-1970.442
 70
    32
  0
VERTEX
  8
T72SSILL
 62
4
 10
1694.969
 20
-6035.209
 30
-1970.465
 70
    32
  0
VERTEX
  8
T72SSILL
 62
4
 10
1697.147
 20
-6036.541
 30
-1970.472
 70
    32
  0
VERTEX
  8
T72SSILL
 62
4
 10
1712.427
 20
-6027.170
 30
-1970.584
 70
    32
  0
VERTEX
  8
T72SSILL
 62
4
 10
1731.284
 20
-6022.337
 30
-1970.598
 70
    32
  0
VERTEX
  8
T72SSILL
 62
4
 10
1762.203
 20
-6024.578
 30
-1970.642
 70
    32
  0
VERTEX
  8
T72SSILL
 62
4
 10
1787.252
 20
-6034.853
 30
-1970.698
 70
    32
  0
VERTEX
  8
T72SSILL
 62
4
 10
1800.957
 20
-6044.665
 30
-1970.737
 70
    32
  0
VERTEX
  8
T72SSILL
 62
4
 10
1837.947
 20
-6095.326
 30
-1970.899
 70
    32
  0
VERTEX
  8
T72SSILL
 62
4
 10
1884.635
 20
-6169.953
 30
-1970.834
 70
    32
  0
VERTEX
  8
T72SSILL
 62
4
 10
1891.030
 20
-6189.425
 30
-1970.781
 70
    32
  0
VERTEX
  8
T72SSILL
 62
4
 10
1894.702
 20
-6193.022
 30
-1970.747
 70
    32
  0
VERTEX
  8
T72SSILL
 62
4
 10
1899.027
 20
-6195.176
 30
-1970.705
 70
    32
  0
VERTEX
  8
T72SSILL
 62
4
 10
1940.321
 20
-6263.420
 30
-1970.334
 70
    32
  0
VERTEX
  8
T72SSILL
 62
4
 10
1940.420
 20
-6274.075
 30
-1970.340
 70
    32
  0
VERTEX
  8
T72SSILL
 62
4
 10
1941.514
 20
-6279.200
 30
-1970.332
 70
    32
  0
VERTEX
  8
T72SSILL
 62
4
 10
1944.299
 20
-6281.839
 30
-1970.306
 70
    32
  0
VERTEX
  8
T72SSILL
 62
4
 10
1944.442
 20
-6291.083
 30
-1970.310
 70
    32
  0
VERTEX
  8
T72SSILL
 62
4
 10
1948.880
 20
-6297.931
 30
-1970.269
 70
    32
  0
VERTEX
  8
T72SSILL
 62
4
 10
1948.652
 20
-6312.767
 30
-1970.280
 70
    32
  0
VERTEX
  8
T72SSILL
 62
4
 10
1946.108
 20
-6326.116
 30
-1970.313
 70
    32
  0
VERTEX
  8
T72SSILL
 62
4
 10
1940.955
 20
-6340.913
 30
-1970.373
 70
    32
  0
VERTEX
  8
T72SSILL
 62
4
 10
1936.671
 20
-6348.573
 30
-1970.420
 70
    32
  0
VERTEX
  8
T72SSILL
 62
4
 10
1920.452
 20
-6364.882
 30
-1970.591
 70
    32
  0
VERTEX
  8
T72SSILL
 62
4
 10
1909.251
 20
-6372.317
 30
-1970.707
 70
    32
  0
VERTEX
  8
T72SSILL
 62
4
 10
1904.283
 20
-6380.524
 30
-1970.761
 70
    32
  0
VERTEX
  8
T72SSILL
 62
4
 10
1902.840
 20
-6389.378
 30
-1970.781
 70
    32
  0
VERTEX
  8
T72SSILL
 62
4
 10
1905.744
 20
-6399.011
 30
-1970.757
 70
    32
  0
VERTEX
  8
T72SSILL
 62
4
 10
1841.601
 20
-6504.656
 30
-1971.457
 70
    32
  0
VERTEX
  8
T72SSILL
 62
4
 10
1826.583
 20
-6471.483
 30
-1971.587
 70
    32
  0
VERTEX
  8
T72SSILL
 62
4
 10
1842.340
 20
-6447.415
 30
-1971.416
 70
    32
  0
VERTEX
  8
T72SSILL
 62
4
 10
1824.332
 20
-6427.146
 30
-1971.583
 70
    32
  0
VERTEX
  8
T72SSILL
 62
4
 10
1809.327
 20
-6399.944
 30
-1971.550
 70
    32
  0
VERTEX
  8
T72SSILL
 62
4
 10
1799.019
 20
-6384.895
 30
-1971.503
 70
    32
  0
VERTEX
  8
T72SSILL
 62
4
 10
1784.838
 20
-6382.593
 30
-1971.480
 70
    32
  0
VERTEX
  8
T72SSILL
 62
4
 10
1767.201
 20
-6354.209
 30
-1971.393
 70
    32
  0
VERTEX
  8
T72SSILL
 62
4
 10
1756.952
 20
-6334.571
 30
-1971.312
 70
    32
  0
VERTEX
  8
T72SSILL
 62
4
 10
1759.367
 20
-6325.246
 30
-1971.318
 70
    32
  0
VERTEX
  8
T72SSILL
 62
4
 10
1751.755
 20
-6292.844
 30
-1971.220
 70
    32
  0
VERTEX
  8
T72SSILL
 62
4
 10
1746.043
 20
-6290.917
 30
-1971.171
 70
    32
  0
VERTEX
  8
T72SSILL
 62
4
 10
1740.610
 20
-6267.457
 30
-1971.099
 70
    32
  0
VERTEX
  8
T72SSILL
 62
4
 10
1733.734
 20
-6266.750
 30
-1971.041
 70
    32
  0
VERTEX
  8
T72SSILL
 62
4
 10
1712.858
 20
-6215.818
 30
-1970.809
 70
    32
  0
VERTEX
  8
T72SSILL
 62
4
 10
1695.943
 20
-6192.916
 30
-1970.642
 70
    32
  0
VERTEX
  8
T72SSILL
 62
4
 10
1672.988
 20
-6173.025
 30
-1970.429
 70
    32
  0
VERTEX
  8
T72SSILL
 62
4
 10
1659.346
 20
-6163.228
 30
-1970.286
 70
    32
  0
VERTEX
  8
T72SSILL
 62
4
 10
1641.059
 20
-6171.376
 30
-1970.080
 70
    32
  0
VERTEX
  8
T72SSILL
 62
4
 10
1690.776
 20
-6217.121
 30
-1970.627
 70
    32
  0
VERTEX
  8
T72SSILL
 62
4
 10
1693.903
 20
-6227.841
 30
-1970.666
 70
    32
  0
VERTEX
  8
T72SSILL
 62
4
 10
1672.217
 20
-6246.272
 30
-1970.507
 70
    32
  0
VERTEX
  8
T72SSILL
 62
4
 10
1658.936
 20
-6242.658
 30
-1970.393
 70
    32
  0
VERTEX
  8
T72SSILL
 62
4
 10
1642.476
 20
-6232.383
 30
-1970.245
 70
    32
  0
VERTEX
  8
T72SSILL
 62
4
 10
1631.027
 20
-6244.062
 30
-1970.140
 70
    32
  0
VERTEX
  8
T72SSILL
 62
4
 10
1636.432
 20
-6249.251
 30
-1970.214
 70
    32
  0
VERTEX
  8
T72SSILL
 62
4
 10
1640.303
 20
-6257.068
 30
-1970.255
 70
    32
  0
VERTEX
  8
T72SSILL
 62
4
 10
1669.193
 20
-6261.678
 30
-1970.500
 70
    32
  0
VERTEX
  8
T72SSILL
 62
4
 10
1695.080
 20
-6286.903
 30
-1970.744
 70
    32
  0
VERTEX
  8
T72SSILL
 62
4
 10
1698.494
 20
-6295.862
 30
-1970.782
 70
    32
  0
VERTEX
  8
T72SSILL
 62
4
 10
1687.763
 20
-6317.926
 30
-1970.719
 70
    32
  0
VERTEX
  8
T72SSILL
 62
4
 10
1707.031
 20
-6345.487
 30
-1970.910
 70
    32
  0
VERTEX
  8
T72SSILL
 62
4
 10
1706.446
 20
-6349.804
 30
-1970.911
 70
    32
  0
VERTEX
  8
T72SSILL
 62
4
 10
1714.879
 20
-6359.710
 30
-1970.992
 70
    32
  0
VERTEX
  8
T72SSILL
 62
4
 10
1723.229
 20
-6362.378
 30
-1971.064
 70
    32
  0
VERTEX
  8
T72SSILL
 62
4
 10
1726.533
 20
-6366.216
 30
-1971.096
 70
    32
  0
VERTEX
  8
T72SSILL
 62
4
 10
1739.580
 20
-6374.240
 30
-1971.213
 70
    32
  0
VERTEX
  8
T72SSILL
 62
4
 10
1740.999
 20
-6380.525
 30
-1971.232
 70
    32
  0
VERTEX
  8
T72SSILL
 62
4
 10
1732.601
 20
-6388.360
 30
-1971.172
 70
    32
  0
VERTEX
  8
T72SSILL
 62
4
 10
1730.465
 20
-6403.425
 30
-1971.172
 70
    32
  0
VERTEX
  8
T72SSILL
 62
4
 10
1742.498
 20
-6394.313
 30
-1971.261
 70
    32
  0
VERTEX
  8
T72SSILL
 62
4
 10
1746.814
 20
-6394.987
 30
-1971.297
 70
    32
  0
VERTEX
  8
T72SSILL
 62
4
 10
1764.773
 20
-6405.369
 30
-1971.458
 70
    32
  0
VERTEX
  8
T72SSILL
 62
4
 10
1771.990
 20
-6413.759
 30
-1971.528
 70
    32
  0
VERTEX
  8
T72SSILL
 62
4
 10
1791.538
 20
-6485.504
 30
-1971.721
 70
    32
  0
VERTEX
  8
T72SSILL
 62
4
 10
1790.965
 20
-6495.647
 30
-1971.743
 70
    32
  0
VERTEX
  8
T72SSILL
 62
4
 10
1794.762
 20
-6509.200
 30
-1971.778
 70
    32
  0
VERTEX
  8
T72SSILL
 62
4
 10
1799.068
 20
-6517.464
 30
-1971.802
 70
    32
  0
VERTEX
  8
T72SSILL
 62
4
 10
1802.329
 20
-6531.451
 30
-1971.838
 70
    32
  0
VERTEX
  8
T72SSILL
 62
4
 10
1808.888
 20
-6536.126
 30
-1971.800
 70
    32
  0
VERTEX
  8
T72SSILL
 62
4
 10
1817.133
 20
-6533.320
 30
-1971.717
 70
    32
  0
SEQEND
  8
T72SSILL
  0
POLYLINE
  8
T72SSILL
 62
4
 66
     1
 70
     9
  0
VERTEX
  8
T72SSILL
 62
4
 10
2000.769
 20
-6962.126
 30
-1968.889
 70
    32
  0
VERTEX
  8
T72SSILL
 62
4
 10
1984.675
 20
-7015.078
 30
-1968.843
 70
    32
  0
VERTEX
  8
T72SSILL
 62
4
 10
1976.236
 20
-7014.607
 30
-1968.881
 70
    32
  0
VERTEX
  8
T72SSILL
 62
4
 10
1970.986
 20
-7008.123
 30
-1968.996
 70
    32
  0
VERTEX
  8
T72SSILL
 62
4
 10
1963.747
 20
-6996.472
 30
-1969.193
 70
    32
  0
VERTEX
  8
T72SSILL
 62
4
 10
1962.521
 20
-6983.554
 30
-1969.257
 70
    32
  0
VERTEX
  8
T72SSILL
 62
4
 10
1967.081
 20
-6945.786
 30
-1969.257
 70
    32
  0
VERTEX
  8
T72SSILL
 62
4
 10
1967.100
 20
-6945.482
 30
-1969.050
 70
    32
  0
VERTEX
  8
T72SSILL
 62
4
 10
1972.701
 20
-6941.945
 30
-1968.994
 70
    32
  0
VERTEX
  8
T72SSILL
 62
4
 10
1991.234
 20
-6953.341
 30
-1968.916
 70
    32
  0
VERTEX
  8
T72SSILL
 62
4
 10
2000.769
 20
-6962.126
 30
-1968.889
 70
    32
  0
SEQEND
  8
T72SSILL
  0
POLYLINE
  8
T72SSILL
 62
4
 66
     1
 70
     9
  0
VERTEX
  8
T72SSILL
 62
4
 10
2021.057
 20
-6994.983
 30
-1968.896
 70
    32
  0
VERTEX
  8
T72SSILL
 62
4
 10
2004.287
 20
-7045.386
 30
-1968.326
 70
    32
  0
VERTEX
  8
T72SSILL
 62
4
 10
1999.285
 20
-7046.967
 30
-1968.322
 70
    32
  0
VERTEX
  8
T72SSILL
 62
4
 10
1989.712
 20
-7035.227
 30
-1968.529
 70
    32
  0
VERTEX
  8
T72SSILL
 62
4
 10
2008.906
 20
-6973.666
 30
-1968.884
 70
    32
  0
VERTEX
  8
T72SSILL
 62
4
 10
2008.906
 20
-6973.666
 30
-1968.884
 70
    32
  0
VERTEX
  8
T72SSILL
 62
4
 10
2015.455
 20
-6982.098
 30
-1968.877
 70
    32
  0
VERTEX
  8
T72SSILL
 62
4
 10
2015.832
 20
-6986.327
 30
-1968.894
 70
    32
  0
VERTEX
  8
T72SSILL
 62
4
 10
2021.057
 20
-6994.983
 30
-1968.896
 70
    32
  0
SEQEND
  8
T72SSILL
  0
POLYLINE
  8
T72SSILL
 62
4
 66
     1
 70
     9
  0
VERTEX
  8
T72SSILL
 62
4
 10
1897.890
 20
-7359.583
 30
-1966.096
 70
    32
  0
VERTEX
  8
T72SSILL
 62
4
 10
1886.813
 20
-7352.073
 30
-1966.147
 70
    32
  0
VERTEX
  8
T72SSILL
 62
4
 10
1881.683
 20
-7352.845
 30
-1966.149
 70
    32
  0
VERTEX
  8
T72SSILL
 62
4
 10
1866.149
 20
-7341.366
 30
-1966.225
 70
    32
  0
VERTEX
  8
T72SSILL
 62
4
 10
1863.792
 20
-7341.822
 30
-1966.225
 70
    32
  0
VERTEX
  8
T72SSILL
 62
4
 10
1861.561
 20
-7358.928
 30
-1966.143
 70
    32
  0
VERTEX
  8
T72SSILL
 62
4
 10
1871.024
 20
-7369.534
 30
-1966.080
 70
    32
  0
VERTEX
  8
T72SSILL
 62
4
 10
1882.838
 20
-7388.845
 30
-1965.970
 70
    32
  0
VERTEX
  8
T72SSILL
 62
4
 10
1895.876
 20
-7390.695
 30
-1965.945
 70
    32
  0
VERTEX
  8
T72SSILL
 62
4
 10
1892.825
 20
-7376.664
 30
-1966.018
 70
    32
  0
SEQEND
  8
T72SSILL
  0
POLYLINE
  8
T72SSILL
 62
4
 66
     1
 70
     9
  0
VERTEX
  8
T72SSILL
 62
4
 10
1872.878
 20
-7157.933
 30
-1967.123
 70
    32
  0
VERTEX
  8
T72SSILL
 62
4
 10
1854.187
 20
-7161.670
 30
-1967.127
 70
    32
  0
VERTEX
  8
T72SSILL
 62
4
 10
1849.893
 20
-7171.289
 30
-1967.084
 70
    32
  0
VERTEX
  8
T72SSILL
 62
4
 10
1851.607
 20
-7174.120
 30
-1967.068
 70
    32
  0
VERTEX
  8
T72SSILL
 62
4
 10
1878.565
 20
-7178.617
 30
-1967.014
 70
    32
  0
VERTEX
  8
T72SSILL
 62
4
 10
1878.565
 20
-7178.617
 30
-1967.014
 70
    32
  0
VERTEX
  8
T72SSILL
 62
4
 10
1883.966
 20
-7175.542
 30
-1967.022
 70
    32
  0
VERTEX
  8
T72SSILL
 62
4
 10
1882.517
 20
-7165.053
 30
-1967.076
 70
    32
  0
VERTEX
  8
T72SSILL
 62
4
 10
1877.671
 20
-7159.681
 30
-1967.108
 70
    32
  0
VERTEX
  8
T72SSILL
 62
4
 10
1872.878
 20
-7157.933
 30
-1967.123
 70
    32
  0
SEQEND
  8
T72SSILL
  0
POLYLINE
  8
T72SSILL
 62
4
 66
     1
 70
     9
  0
VERTEX
  8
T72SSILL
 62
4
 10
1881.157
 20
-7189.842
 30
-1966.955
 70
    32
  0
VERTEX
  8
T72SSILL
 62
4
 10
1859.064
 20
-7185.981
 30
-1967.001
 70
    32
  0
VERTEX
  8
T72SSILL
 62
4
 10
1856.005
 20
-7189.808
 30
-1966.985
 70
    32
  0
VERTEX
  8
T72SSILL
 62
4
 10
1858.491
 20
-7201.332
 30
-1966.926
 70
    32
  0
VERTEX
  8
T72SSILL
 62
4
 10
1864.038
 20
-7206.833
 30
-1966.892
 70
    32
  0
VERTEX
  8
T72SSILL
 62
4
 10
1885.461
 20
-7214.927
 30
-1966.826
 70
    32
  0
VERTEX
  8
T72SSILL
 62
4
 10
1890.740
 20
-7215.792
 30
-1966.816
 70
    32
  0
VERTEX
  8
T72SSILL
 62
4
 10
1888.408
 20
-7195.500
 30
-1966.919
 70
    32
  0
VERTEX
  8
T72SSILL
 62
4
 10
1888.408
 20
-7195.500
 30
-1966.919
 70
    32
  0
SEQEND
  8
T72SSILL
  0
POLYLINE
  8
T72SSILL
 62
4
 66
     1
 70
     9
  0
VERTEX
  8
T72SSILL
 62
4
 10
2165.233
 20
-8308.687
 30
-1954.666
 70
    32
  0
VERTEX
  8
T72SSILL
 62
4
 10
2166.711
 20
-8305.888
 30
-1954.662
 70
    32
  0
VERTEX
  8
T72SSILL
 62
4
 10
2162.719
 20
-8289.286
 30
-1954.680
 70
    32
  0
VERTEX
  8
T72SSILL
 62
4
 10
2160.611
 20
-8280.517
 30
-1954.690
 70
    32
  0
VERTEX
  8
T72SSILL
 62
4
 10
2160.554
 20
-8280.358
 30
-1954.690
 70
    32
  0
VERTEX
  8
T72SSILL
 62
4
 10
2155.292
 20
-8265.617
 30
-1954.699
 70
    32
  0
VERTEX
  8
T72SSILL
 62
4
 10
2148.041
 20
-8245.604
 30
-1954.382
 70
    32
  0
VERTEX
  8
T72SSILL
 62
4
 10
2141.749
 20
-8228.985
 30
-1954.106
 70
    32
  0
VERTEX
  8
T72SSILL
 62
4
 10
2139.098
 20
-8221.985
 30
-1953.986
 70
    32
  0
VERTEX
  8
T72SSILL
 62
4
 10
2136.522
 20
-8212.616
 30
-1953.832
 70
    32
  0
VERTEX
  8
T72SSILL
 62
4
 10
2140.885
 20
-8206.922
 30
-1953.766
 70
    32
  0
VERTEX
  8
T72SSILL
 62
4
 10
2140.282
 20
-8197.531
 30
-1953.619
 70
    32
  0
VERTEX
  8
T72SSILL
 62
4
 10
2148.556
 20
-8195.461
 30
-1953.627
 70
    32
  0
VERTEX
  8
T72SSILL
 62
4
 10
2153.192
 20
-8207.107
 30
-1953.827
 70
    32
  0
VERTEX
  8
T72SSILL
 62
4
 10
2160.808
 20
-8222.389
 30
-1954.106
 70
    32
  0
VERTEX
  8
T72SSILL
 62
4
 10
2166.439
 20
-8233.322
 30
-1954.306
 70
    32
  0
VERTEX
  8
T72SSILL
 62
4
 10
2176.005
 20
-8249.691
 30
-1954.598
 70
    32
  0
VERTEX
  8
T72SSILL
 62
4
 10
2176.018
 20
-8258.225
 30
-1954.715
 70
    32
  0
VERTEX
  8
T72SSILL
 62
4
 10
2176.022
 20
-8260.801
 30
-1954.710
 70
    32
  0
VERTEX
  8
T72SSILL
 62
4
 10
2177.546
 20
-8269.854
 30
-1954.693
 70
    32
  0
VERTEX
  8
T72SSILL
 62
4
 10
2179.557
 20
-8281.805
 30
-1954.683
 70
    32
  0
VERTEX
  8
T72SSILL
 62
4
 10
2185.001
 20
-8293.074
 30
-1954.669
 70
    32
  0
VERTEX
  8
T72SSILL
 62
4
 10
2197.439
 20
-8312.228
 30
-1954.077
 70
    32
  0
VERTEX
  8
T72SSILL
 62
4
 10
2197.118
 20
-8320.943
 30
-1954.049
 70
    32
  0
VERTEX
  8
T72SSILL
 62
4
 10
2196.929
 20
-8326.077
 30
-1953.857
 70
    32
  0
VERTEX
  8
T72SSILL
 62
4
 10
2200.543
 20
-8333.086
 30
-1953.458
 70
    32
  0
VERTEX
  8
T72SSILL
 62
4
 10
2207.426
 20
-8346.437
 30
-1952.978
 70
    32
  0
VERTEX
  8
T72SSILL
 62
4
 10
2212.339
 20
-8365.824
 30
-1953.500
 70
    32
  0
VERTEX
  8
T72SSILL
 62
4
 10
2190.901
 20
-8370.584
 30
-1953.500
 70
    32
  0
VERTEX
  8
T72SSILL
 62
4
 10
2185.019
 20
-8347.805
 30
-1953.170
 70
    32
  0
VERTEX
  8
T72SSILL
 62
4
 10
2176.456
 20
-8340.941
 30
-1953.605
 70
    32
  0
VERTEX
  8
T72SSILL
 62
4
 10
2177.588
 20
-8333.752
 30
-1953.704
 70
    32
  0
VERTEX
  8
T72SSILL
 62
4
 10
2174.773
 20
-8329.603
 30
-1953.856
 70
    32
  0
VERTEX
  8
T72SSILL
 62
4
 10
2169.239
 20
-8324.870
 30
-1954.078
 70
    32
  0
VERTEX
  8
T72SSILL
 62
4
 10
2165.233
 20
-8308.687
 30
-1954.666
 70
    32
  0
SEQEND
  8
T72SSILL
  0
POLYLINE
  8
T72SSILL
 62
4
 66
     1
 70
     9
  0
VERTEX
  8
T72SSILL
 62
4
 10
1897.410
 20
-7233.518
 30
-1966.720
 70
    32
  0
VERTEX
  8
T72SSILL
 62
4
 10
1869.544
 20
-7220.484
 30
-1966.818
 70
    32
  0
VERTEX
  8
T72SSILL
 62
4
 10
1863.201
 20
-7223.589
 30
-1966.810
 70
    32
  0
VERTEX
  8
T72SSILL
 62
4
 10
1863.212
 20
-7276.920
 30
-1966.546
 70
    32
  0
VERTEX
  8
T72SSILL
 62
4
 10
1867.611
 20
-7282.040
 30
-1966.516
 70
    32
  0
VERTEX
  8
T72SSILL
 62
4
 10
1926.390
 20
-7299.382
 30
-1966.358
 70
    32
  0
VERTEX
  8
T72SSILL
 62
4
 10
1923.507
 20
-7308.958
 30
-1966.314
 70
    32
  0
VERTEX
  8
T72SSILL
 62
4
 10
1867.479
 20
-7292.427
 30
-1966.465
 70
    32
  0
VERTEX
  8
T72SSILL
 62
4
 10
1863.179
 20
-7297.523
 30
-1966.445
 70
    32
  0
VERTEX
  8
T72SSILL
 62
4
 10
1863.162
 20
-7307.949
 30
-1966.393
 70
    32
  0
VERTEX
  8
T72SSILL
 62
4
 10
1871.948
 20
-7320.251
 30
-1966.322
 70
    32
  0
VERTEX
  8
T72SSILL
 62
4
 10
1871.942
 20
-7325.492
 30
-1966.296
 70
    32
  0
VERTEX
  8
T72SSILL
 62
4
 10
1876.593
 20
-7336.381
 30
-1966.237
 70
    32
  0
VERTEX
  8
T72SSILL
 62
4
 10
1883.752
 20
-7338.694
 30
-1966.217
 70
    32
  0
VERTEX
  8
T72SSILL
 62
4
 10
1904.611
 20
-7350.763
 30
-1966.131
 70
    32
  0
VERTEX
  8
T72SSILL
 62
4
 10
1911.898
 20
-7349.246
 30
-1966.130
 70
    32
  0
VERTEX
  8
T72SSILL
 62
4
 10
1919.974
 20
-7355.200
 30
-1966.090
 70
    32
  0
VERTEX
  8
T72SSILL
 62
4
 10
1922.718
 20
-7372.753
 30
-1966.000
 70
    32
  0
VERTEX
  8
T72SSILL
 62
4
 10
1943.017
 20
-7373.667
 30
-1965.969
 70
    32
  0
VERTEX
  8
T72SSILL
 62
4
 10
1955.072
 20
-7378.576
 30
-1965.930
 70
    32
  0
VERTEX
  8
T72SSILL
 62
4
 10
1969.033
 20
-7399.053
 30
-1965.811
 70
    32
  0
VERTEX
  8
T72SSILL
 62
4
 10
1962.423
 20
-7404.483
 30
-1965.793
 70
    32
  0
VERTEX
  8
T72SSILL
 62
4
 10
1943.148
 20
-7393.776
 30
-1965.870
 70
    32
  0
VERTEX
  8
T72SSILL
 62
4
 10
1932.437
 20
-7398.839
 30
-1965.858
 70
    32
  0
VERTEX
  8
T72SSILL
 62
4
 10
1927.673
 20
-7402.457
 30
-1965.847
 70
    32
  0
VERTEX
  8
T72SSILL
 62
4
 10
1932.663
 20
-7420.166
 30
-1965.753
 70
    32
  0
VERTEX
  8
T72SSILL
 62
4
 10
1922.724
 20
-7424.801
 30
-1965.742
 70
    32
  0
VERTEX
  8
T72SSILL
 62
4
 10
1916.517
 20
-7408.576
 30
-1965.831
 70
    32
  0
VERTEX
  8
T72SSILL
 62
4
 10
1901.399
 20
-7401.404
 30
-1965.885
 70
    32
  0
VERTEX
  8
T72SSILL
 62
4
 10
1882.506
 20
-7408.404
 30
-1965.874
 70
    32
  0
VERTEX
  8
T72SSILL
 62
4
 10
1861.037
 20
-7376.397
 30
-1966.058
 70
    32
  0
VERTEX
  8
T72SSILL
 62
4
 10
1858.553
 20
-7374.024
 30
-1966.072
 70
    32
  0
VERTEX
  8
T72SSILL
 62
4
 10
1849.465
 20
-7374.397
 30
-1966.081
 70
    32
  0
VERTEX
  8
T72SSILL
 62
4
 10
1851.514
 20
-7294.654
 30
-1966.473
 70
    32
  0
VERTEX
  8
T72SSILL
 62
4
 10
1837.581
 20
-7279.683
 30
-1966.563
 70
    32
  0
VERTEX
  8
T72SSILL
 62
4
 10
1810.199
 20
-7257.115
 30
-1966.708
 70
    32
  0
VERTEX
  8
T72SSILL
 62
4
 10
1807.468
 20
-7260.785
 30
-1966.693
 70
    32
  0
VERTEX
  8
T72SSILL
 62
4
 10
1817.896
 20
-7304.977
 30
-1966.462
 70
    32
  0
VERTEX
  8
T72SSILL
 62
4
 10
1823.336
 20
-7308.409
 30
-1966.439
 70
    32
  0
VERTEX
  8
T72SSILL
 62
4
 10
1819.948
 20
-7315.384
 30
-1966.408
 70
    32
  0
VERTEX
  8
T72SSILL
 62
4
 10
1842.903
 20
-7409.440
 30
-1965.916
 70
    32
  0
VERTEX
  8
T72SSILL
 62
4
 10
1848.227
 20
-7413.394
 30
-1965.890
 70
    32
  0
VERTEX
  8
T72SSILL
 62
4
 10
1845.376
 20
-7420.681
 30
-1965.858
 70
    32
  0
VERTEX
  8
T72SSILL
 62
4
 10
1861.791
 20
-7490.567
 30
-1965.493
 70
    32
  0
VERTEX
  8
T72SSILL
 62
4
 10
1894.146
 20
-7618.388
 30
-1964.769
 70
    32
  0
VERTEX
  8
T72SSILL
 62
4
 10
1899.013
 20
-7622.201
 30
-1964.730
 70
    32
  0
VERTEX
  8
T72SSILL
 62
4
 10
1896.776
 20
-7625.655
 30
-1964.715
 70
    32
  0
VERTEX
  8
T72SSILL
 62
4
 10
1918.609
 20
-7724.188
 30
-1964.021
 70
    32
  0
VERTEX
  8
T72SSILL
 62
4
 10
1923.642
 20
-7729.969
 30
-1963.969
 70
    32
  0
VERTEX
  8
T72SSILL
 62
4
 10
1921.853
 20
-7735.619
 30
-1963.939
 70
    32
  0
VERTEX
  8
T72SSILL
 62
4
 10
1942.287
 20
-7822.538
 30
-1963.249
 70
    32
  0
VERTEX
  8
T72SSILL
 62
4
 10
1950.126
 20
-7835.673
 30
-1963.119
 70
    32
  0
VERTEX
  8
T72SSILL
 62
4
 10
1946.024
 20
-7838.555
 30
-1963.117
 70
    32
  0
VERTEX
  8
T72SSILL
 62
4
 10
1969.113
 20
-7934.815
 30
-1962.322
 70
    32
  0
VERTEX
  8
T72SSILL
 62
4
 10
1973.622
 20
-7937.135
 30
-1962.284
 70
    32
  0
VERTEX
  8
T72SSILL
 62
4
 10
1971.716
 20
-7944.087
 30
-1962.243
 70
    32
  0
VERTEX
  8
T72SSILL
 62
4
 10
1975.269
 20
-7959.219
 30
-1962.580
 70
    32
  0
VERTEX
  8
T72SSILL
 62
4
 10
1983.551
 20
-8000.915
 30
-1961.099
 70
    32
  0
VERTEX
  8
T72SSILL
 62
4
 10
1992.985
 20
-8006.450
 30
-1960.286
 70
    32
  0
VERTEX
  8
T72SSILL
 62
4
 10
1998.519
 20
-8009.696
 30
-1958.078
 70
    32
  0
VERTEX
  8
T72SSILL
 62
4
 10
2003.031
 20
-8012.161
 30
-1957.697
 70
    32
  0
VERTEX
  8
T72SSILL
 62
4
 10
2017.558
 20
-8016.566
 30
-1957.285
 70
    32
  0
VERTEX
  8
T72SSILL
 62
4
 10
2014.339
 20
-8026.350
 30
-1957.099
 70
    32
  0
VERTEX
  8
T72SSILL
 62
4
 10
2004.101
 20
-8035.526
 30
-1956.582
 70
    32
  0
VERTEX
  8
T72SSILL
 62
4
 10
1995.955
 20
-8029.608
 30
-1959.069
 70
    32
  0
VERTEX
  8
T72SSILL
 62
4
 10
1990.696
 20
-8032.546
 30
-1960.550
 70
    32
  0
VERTEX
  8
T72SSILL
 62
4
 10
2002.787
 20
-8076.405
 30
-1958.738
 70
    32
  0
VERTEX
  8
T72SSILL
 62
4
 10
2010.481
 20
-8092.846
 30
-1958.172
 70
    32
  0
VERTEX
  8
T72SSILL
 62
4
 10
2014.490
 20
-8097.671
 30
-1957.734
 70
    32
  0
VERTEX
  8
T72SSILL
 62
4
 10
2021.364
 20
-8106.656
 30
-1957.777
 70
    32
  0
VERTEX
  8
T72SSILL
 62
4
 10
2031.027
 20
-8114.335
 30
-1957.826
 70
    32
  0
VERTEX
  8
T72SSILL
 62
4
 10
2039.807
 20
-8118.677
 30
-1957.877
 70
    32
  0
VERTEX
  8
T72SSILL
 62
4
 10
2047.811
 20
-8122.719
 30
-1957.921
 70
    32
  0
VERTEX
  8
T72SSILL
 62
4
 10
2053.010
 20
-8123.954
 30
-1957.943
 70
    32
  0
VERTEX
  8
T72SSILL
 62
4
 10
2056.323
 20
-8124.315
 30
-1958.000
 70
    32
  0
VERTEX
  8
T72SSILL
 62
4
 10
2056.323
 20
-8124.315
 30
-1958.000
 70
    32
  0
VERTEX
  8
T72SSILL
 62
4
 10
2062.987
 20
-8120.913
 30
-1958.000
 70
    32
  0
VERTEX
  8
T72SSILL
 62
4
 10
2069.449
 20
-8120.229
 30
-1958.000
 70
    32
  0
VERTEX
  8
T72SSILL
 62
4
 10
2072.453
 20
-8121.552
 30
-1958.000
 70
    32
  0
VERTEX
  8
T72SSILL
 62
4
 10
2085.299
 20
-8118.974
 30
-1958.000
 70
    32
  0
VERTEX
  8
T72SSILL
 62
4
 10
2092.487
 20
-8120.421
 30
-1958.000
 70
    32
  0
VERTEX
  8
T72SSILL
 62
4
 10
2096.405
 20
-8118.898
 30
-1958.147
 70
    32
  0
VERTEX
  8
T72SSILL
 62
4
 10
2101.246
 20
-8115.537
 30
-1957.858
 70
    32
  0
VERTEX
  8
T72SSILL
 62
4
 10
2109.170
 20
-8109.023
 30
-1957.250
 70
    32
  0
VERTEX
  8
T72SSILL
 62
4
 10
2116.112
 20
-8103.610
 30
-1956.777
 70
    32
  0
VERTEX
  8
T72SSILL
 62
4
 10
2122.884
 20
-8096.315
 30
-1956.230
 70
    32
  0
VERTEX
  8
T72SSILL
 62
4
 10
2130.623
 20
-8087.978
 30
-1955.607
 70
    32
  0
VERTEX
  8
T72SSILL
 62
4
 10
2134.111
 20
-8084.221
 30
-1955.336
 70
    32
  0
VERTEX
  8
T72SSILL
 62
4
 10
2143.530
 20
-8074.064
 30
-1954.566
 70
    32
  0
VERTEX
  8
T72SSILL
 62
4
 10
2139.400
 20
-8064.723
 30
-1952.200
 70
    32
  0
VERTEX
  8
T72SSILL
 62
4
 10
2134.921
 20
-8060.218
 30
-1952.200
 70
    32
  0
VERTEX
  8
T72SSILL
 62
4
 10
2127.338
 20
-8050.963
 30
-1952.200
 70
    32
  0
VERTEX
  8
T72SSILL
 62
4
 10
2127.339
 20
-8050.961
 30
-1952.200
 70
    32
  0
VERTEX
  8
T72SSILL
 62
4
 10
2136.124
 20
-8043.583
 30
-1952.200
 70
    32
  0
VERTEX
  8
T72SSILL
 62
4
 10
2145.306
 20
-8053.640
 30
-1952.200
 70
    32
  0
VERTEX
  8
T72SSILL
 62
4
 10
2150.022
 20
-8054.408
 30
-1953.511
 70
    32
  0
VERTEX
  8
T72SSILL
 62
4
 10
2157.836
 20
-8046.387
 30
-1952.900
 70
    32
  0
VERTEX
  8
T72SSILL
 62
4
 10
2162.675
 20
-8051.108
 30
-1952.941
 70
    32
  0
VERTEX
  8
T72SSILL
 62
4
 10
2170.273
 20
-8042.393
 30
-1951.398
 70
    32
  0
VERTEX
  8
T72SSILL
 62
4
 10
2180.847
 20
-8042.241
 30
-1951.618
 70
    32
  0
VERTEX
  8
T72SSILL
 62
4
 10
2184.788
 20
-8048.655
 30
-1952.479
 70
    32
  0
VERTEX
  8
T72SSILL
 62
4
 10
2179.949
 20
-8056.879
 30
-1952.770
 70
    32
  0
VERTEX
  8
T72SSILL
 62
4
 10
2179.303
 20
-8061.881
 30
-1952.934
 70
    32
  0
VERTEX
  8
T72SSILL
 62
4
 10
2173.190
 20
-8069.053
 30
-1953.331
 70
    32
  0
VERTEX
  8
T72SSILL
 62
4
 10
2167.530
 20
-8074.302
 30
-1953.708
 70
    32
  0
VERTEX
  8
T72SSILL
 62
4
 10
2169.752
 20
-8079.097
 30
-1953.833
 70
    32
  0
VERTEX
  8
T72SSILL
 62
4
 10
2159.232
 20
-8086.936
 30
-1954.457
 70
    32
  0
VERTEX
  8
T72SSILL
 62
4
 10
2159.133
 20
-8087.010
 30
-1954.464
 70
    32
  0
VERTEX
  8
T72SSILL
 62
4
 10
2153.530
 20
-8089.095
 30
-1954.779
 70
    32
  0
VERTEX
  8
T72SSILL
 62
4
 10
2142.745
 20
-8093.108
 30
-1955.339
 70
    32
  0
VERTEX
  8
T72SSILL
 62
4
 10
2139.703
 20
-8095.715
 30
-1955.550
 70
    32
  0
VERTEX
  8
T72SSILL
 62
4
 10
2126.897
 20
-8106.691
 30
-1956.462
 70
    32
  0
VERTEX
  8
T72SSILL
 62
4
 10
2128.163
 20
-8108.682
 30
-1956.490
 70
    32
  0
VERTEX
  8
T72SSILL
 62
4
 10
2117.004
 20
-8117.490
 30
-1957.244
 70
    32
  0
VERTEX
  8
T72SSILL
 62
4
 10
2120.008
 20
-8123.652
 30
-1957.312
 70
    32
  0
VERTEX
  8
T72SSILL
 62
4
 10
2120.198
 20
-8123.690
 30
-1957.305
 70
    32
  0
VERTEX
  8
T72SSILL
 62
4
 10
2131.025
 20
-8125.829
 30
-1957.000
 70
    32
  0
VERTEX
  8
T72SSILL
 62
4
 10
2147.102
 20
-8125.187
 30
-1957.000
 70
    32
  0
VERTEX
  8
T72SSILL
 62
4
 10
2149.055
 20
-8125.321
 30
-1957.000
 70
    32
  0
VERTEX
  8
T72SSILL
 62
4
 10
2156.476
 20
-8125.089
 30
-1957.000
 70
    32
  0
VERTEX
  8
T72SSILL
 62
4
 10
2156.235
 20
-8136.156
 30
-1957.000
 70
    32
  0
VERTEX
  8
T72SSILL
 62
4
 10
2148.146
 20
-8136.788
 30
-1957.000
 70
    32
  0
VERTEX
  8
T72SSILL
 62
4
 10
2122.839
 20
-8133.548
 30
-1957.000
 70
    32
  0
VERTEX
  8
T72SSILL
 62
4
 10
2117.553
 20
-8134.580
 30
-1957.000
 70
    32
  0
VERTEX
  8
T72SSILL
 62
4
 10
2113.800
 20
-8133.021
 30
-1957.000
 70
    32
  0
VERTEX
  8
T72SSILL
 62
4
 10
2102.504
 20
-8130.255
 30
-1958.207
 70
    32
  0
VERTEX
  8
T72SSILL
 62
4
 10
2098.909
 20
-8129.387
 30
-1958.177
 70
    32
  0
VERTEX
  8
T72SSILL
 62
4
 10
2093.430
 20
-8131.248
 30
-1958.133
 70
    32
  0
VERTEX
  8
T72SSILL
 62
4
 10
2087.828
 20
-8131.941
 30
-1958.122
 70
    32
  0
VERTEX
  8
T72SSILL
 62
4
 10
2076.019
 20
-8134.358
 30
-1958.061
 70
    32
  0
VERTEX
  8
T72SSILL
 62
4
 10
2075.984
 20
-8134.363
 30
-1958.061
 70
    32
  0
VERTEX
  8
T72SSILL
 62
4
 10
2068.037
 20
-8135.486
 30
-1958.029
 70
    32
  0
VERTEX
  8
T72SSILL
 62
4
 10
2055.612
 20
-8134.729
 30
-1957.978
 70
    32
  0
VERTEX
  8
T72SSILL
 62
4
 10
2048.151
 20
-8133.368
 30
-1957.940
 70
    32
  0
VERTEX
  8
T72SSILL
 62
4
 10
2043.153
 20
-8131.557
 30
-1957.918
 70
    32
  0
VERTEX
  8
T72SSILL
 62
4
 10
2034.553
 20
-8127.467
 30
-1957.872
 70
    32
  0
VERTEX
  8
T72SSILL
 62
4
 10
2026.224
 20
-8122.265
 30
-1957.826
 70
    32
  0
VERTEX
  8
T72SSILL
 62
4
 10
2018.518
 20
-8116.301
 30
-1957.782
 70
    32
  0
VERTEX
  8
T72SSILL
 62
4
 10
2013.955
 20
-8122.506
 30
-1957.775
 70
    32
  0
VERTEX
  8
T72SSILL
 62
4
 10
2013.955
 20
-8122.506
 30
-1957.732
 70
    32
  0
VERTEX
  8
T72SSILL
 62
4
 10
2020.369
 20
-8149.117
 30
-1957.770
 70
    32
  0
VERTEX
  8
T72SSILL
 62
4
 10
2023.801
 20
-8154.014
 30
-1957.778
 70
    32
  0
VERTEX
  8
T72SSILL
 62
4
 10
2022.716
 20
-8160.766
 30
-1957.787
 70
    32
  0
VERTEX
  8
T72SSILL
 62
4
 10
2036.583
 20
-8217.985
 30
-1957.871
 70
    32
  0
VERTEX
  8
T72SSILL
 62
4
 10
2043.503
 20
-8246.538
 30
-1957.913
 70
    32
  0
VERTEX
  8
T72SSILL
 62
4
 10
2049.164
 20
-8256.767
 30
-1957.929
 70
    32
  0
VERTEX
  8
T72SSILL
 62
4
 10
2048.301
 20
-8262.143
 30
-1957.936
 70
    32
  0
VERTEX
  8
T72SSILL
 62
4
 10
2048.301
 20
-8262.143
 30
-1957.861
 70
    32
  0
VERTEX
  8
T72SSILL
 62
4
 10
2054.154
 20
-8266.797
 30
-1957.592
 70
    32
  0
VERTEX
  8
T72SSILL
 62
4
 10
2061.129
 20
-8270.759
 30
-1957.304
 70
    32
  0
VERTEX
  8
T72SSILL
 62
4
 10
2080.631
 20
-8277.080
 30
-1956.567
 70
    32
  0
VERTEX
  8
T72SSILL
 62
4
 10
2097.939
 20
-8282.689
 30
-1955.933
 70
    32
  0
VERTEX
  8
T72SSILL
 62
4
 10
2110.711
 20
-8286.829
 30
-1955.445
 70
    32
  0
VERTEX
  8
T72SSILL
 62
4
 10
2121.504
 20
-8292.626
 30
-1955.006
 70
    32
  0
VERTEX
  8
T72SSILL
 62
4
 10
2133.483
 20
-8299.447
 30
-1954.799
 70
    32
  0
VERTEX
  8
T72SSILL
 62
4
 10
2143.355
 20
-8302.511
 30
-1954.661
 70
    32
  0
VERTEX
  8
T72SSILL
 62
4
 10
2165.233
 20
-8308.687
 30
-1954.240
 70
    32
  0
VERTEX
  8
T72SSILL
 62
4
 10
2169.239
 20
-8324.870
 30
-1954.078
 70
    32
  0
VERTEX
  8
T72SSILL
 62
4
 10
2164.931
 20
-8322.090
 30
-1954.120
 70
    32
  0
VERTEX
  8
T72SSILL
 62
4
 10
2144.966
 20
-8315.681
 30
-1954.578
 70
    32
  0
VERTEX
  8
T72SSILL
 62
4
 10
2131.952
 20
-8311.817
 30
-1954.759
 70
    32
  0
VERTEX
  8
T72SSILL
 62
4
 10
2121.074
 20
-8306.941
 30
-1954.918
 70
    32
  0
VERTEX
  8
T72SSILL
 62
4
 10
2104.012
 20
-8299.294
 30
-1955.484
 70
    32
  0
VERTEX
  8
T72SSILL
 62
4
 10
2098.841
 20
-8296.898
 30
-1955.692
 70
    32
  0
VERTEX
  8
T72SSILL
 62
4
 10
2098.841
 20
-8296.898
 30
-1955.405
 70
    32
  0
VERTEX
  8
T72SSILL
 62
4
 10
2088.378
 20
-8298.039
 30
-1955.604
 70
    32
  0
VERTEX
  8
T72SSILL
 62
4
 10
2080.138
 20
-8295.707
 30
-1955.788
 70
    32
  0
VERTEX
  8
T72SSILL
 62
4
 10
2072.066
 20
-8286.583
 30
-1956.025
 70
    32
  0
VERTEX
  8
T72SSILL
 62
4
 10
2072.066
 20
-8286.583
 30
-1956.742
 70
    32
  0
VERTEX
  8
T72SSILL
 62
4
 10
2059.950
 20
-8282.939
 30
-1957.194
 70
    32
  0
VERTEX
  8
T72SSILL
 62
4
 10
2056.543
 20
-8281.948
 30
-1957.319
 70
    32
  0
VERTEX
  8
T72SSILL
 62
4
 10
2052.497
 20
-8287.355
 30
-1957.386
 70
    32
  0
VERTEX
  8
T72SSILL
 62
4
 10
2052.497
 20
-8287.355
 30
-1957.874
 70
    32
  0
VERTEX
  8
T72SSILL
 62
4
 10
2055.147
 20
-8298.180
 30
-1957.836
 70
    32
  0
VERTEX
  8
T72SSILL
 62
4
 10
2066.373
 20
-8344.042
 30
-1957.677
 70
    32
  0
VERTEX
  8
T72SSILL
 62
4
 10
2070.449
 20
-8352.379
 30
-1957.646
 70
    32
  0
VERTEX
  8
T72SSILL
 62
4
 10
2068.950
 20
-8356.610
 30
-1957.634
 70
    32
  0
VERTEX
  8
T72SSILL
 62
4
 10
2069.956
 20
-8360.524
 30
-1957.620
 70
    32
  0
VERTEX
  8
T72SSILL
 62
4
 10
2081.270
 20
-8404.559
 30
-1958.373
 70
    32
  0
VERTEX
  8
T72SSILL
 62
4
 10
2143.007
 20
-8670.728
 30
-1956.584
 70
    32
  0
VERTEX
  8
T72SSILL
 62
4
 10
2148.040
 20
-8676.656
 30
-1956.566
 70
    32
  0
VERTEX
  8
T72SSILL
 62
4
 10
2146.245
 20
-8682.582
 30
-1956.524
 70
    32
  0
VERTEX
  8
T72SSILL
 62
4
 10
2168.316
 20
-8776.953
 30
-1956.126
 70
    32
  0
VERTEX
  8
T72SSILL
 62
4
 10
2172.860
 20
-8782.790
 30
-1956.198
 70
    32
  0
VERTEX
  8
T72SSILL
 62
4
 10
2171.567
 20
-8789.757
 30
-1956.139
 70
    32
  0
VERTEX
  8
T72SSILL
 62
4
 10
2195.357
 20
-8888.493
 30
-1956.206
 70
    32
  0
VERTEX
  8
T72SSILL
 62
4
 10
2200.839
 20
-8893.366
 30
-1956.303
 70
    32
  0
VERTEX
  8
T72SSILL
 62
4
 10
2197.469
 20
-8898.241
 30
-1956.208
 70
    32
  0
VERTEX
  8
T72SSILL
 62
4
 10
2217.427
 20
-8986.277
 30
-1956.241
 70
    32
  0
VERTEX
  8
T72SSILL
 62
4
 10
2223.176
 20
-8991.073
 30
-1956.344
 70
    32
  0
VERTEX
  8
T72SSILL
 62
4
 10
2220.109
 20
-8996.700
 30
-1956.252
 70
    32
  0
VERTEX
  8
T72SSILL
 62
4
 10
2222.036
 20
-9003.695
 30
-1956.262
 70
    32
  0
VERTEX
  8
T72SSILL
 62
4
 10
2212.988
 20
-9007.631
 30
-1956.047
 70
    32
  0
VERTEX
  8
T72SSILL
 62
4
 10
2207.060
 20
-9001.613
 30
-1956.064
 70
    32
  0
VERTEX
  8
T72SSILL
 62
4
 10
2208.709
 20
-8995.787
 30
-1956.008
 70
    32
  0
VERTEX
  8
T72SSILL
 62
4
 10
2186.539
 20
-8901.271
 30
-1956.052
 70
    32
  0
VERTEX
  8
T72SSILL
 62
4
 10
2181.370
 20
-8897.783
 30
-1956.166
 70
    32
  0
VERTEX
  8
T72SSILL
 62
4
 10
2184.052
 20
-8889.114
 30
-1956.050
 70
    32
  0
VERTEX
  8
T72SSILL
 62
4
 10
2164.021
 20
-8802.835
 30
-1956.100
 70
    32
  0
VERTEX
  8
T72SSILL
 62
4
 10
2159.766
 20
-8798.505
 30
-1956.186
 70
    32
  0
VERTEX
  8
T72SSILL
 62
4
 10
2160.977
 20
-8792.661
 30
-1956.124
 70
    32
  0
VERTEX
  8
T72SSILL
 62
4
 10
2138.599
 20
-8697.221
 30
-1956.329
 70
    32
  0
VERTEX
  8
T72SSILL
 62
4
 10
2133.624
 20
-8692.000
 30
-1956.285
 70
    32
  0
VERTEX
  8
T72SSILL
 62
4
 10
2135.750
 20
-8685.314
 30
-1956.391
 70
    32
  0
VERTEX
  8
T72SSILL
 62
4
 10
2116.351
 20
-8602.439
 30
-1956.831
 70
    32
  0
VERTEX
  8
T72SSILL
 62
4
 10
2108.448
 20
-8596.990
 30
-1956.731
 70
    32
  0
VERTEX
  8
T72SSILL
 62
4
 10
2104.590
 20
-8584.389
 30
-1956.780
 70
    32
  0
VERTEX
  8
T72SSILL
 62
4
 10
2109.942
 20
-8573.371
 30
-1956.993
 70
    32
  0
VERTEX
  8
T72SSILL
 62
4
 10
2062.262
 20
-8370.018
 30
-1958.544
 70
    32
  0
VERTEX
  8
T72SSILL
 62
4
 10
2056.635
 20
-8363.887
 30
-1958.396
 70
    32
  0
VERTEX
  8
T72SSILL
 62
4
 10
2056.638
 20
-8363.817
 30
-1957.620
 70
    32
  0
VERTEX
  8
T72SSILL
 62
4
 10
2057.189
 20
-8350.249
 30
-1957.664
 70
    32
  0
VERTEX
  8
T72SSILL
 62
4
 10
2054.422
 20
-8338.397
 30
-1957.705
 70
    32
  0
VERTEX
  8
T72SSILL
 62
4
 10
2040.218
 20
-8277.559
 30
-1957.915
 70
    32
  0
VERTEX
  8
T72SSILL
 62
4
 10
2035.157
 20
-8270.260
 30
-1957.943
 70
    32
  0
VERTEX
  8
T72SSILL
 62
4
 10
2035.159
 20
-8270.249
 30
-1957.943
 70
    32
  0
VERTEX
  8
T72SSILL
 62
4
 10
2036.320
 20
-8261.064
 30
-1957.931
 70
    32
  0
VERTEX
  8
T72SSILL
 62
4
 10
2014.539
 20
-8169.717
 30
-1957.797
 70
    32
  0
VERTEX
  8
T72SSILL
 62
4
 10
2011.519
 20
-8165.390
 30
-1957.790
 70
    32
  0
VERTEX
  8
T72SSILL
 62
4
 10
2008.956
 20
-8157.044
 30
-1957.778
 70
    32
  0
VERTEX
  8
T72SSILL
 62
4
 10
2008.848
 20
-8147.140
 30
-1957.764
 70
    32
  0
VERTEX
  8
T72SSILL
 62
4
 10
1999.985
 20
-8110.230
 30
-1957.710
 70
    32
  0
VERTEX
  8
T72SSILL
 62
4
 10
1991.047
 20
-8073.003
 30
-1958.931
 70
    32
  0
VERTEX
  8
T72SSILL
 62
4
 10
1989.601
 20
-8066.982
 30
-1959.129
 70
    32
  0
VERTEX
  8
T72SSILL
 62
4
 10
1978.826
 20
-8058.270
 30
-1959.483
 70
    32
  0
VERTEX
  8
T72SSILL
 62
4
 10
1976.389
 20
-8046.448
 30
-1959.868
 70
    32
  0
VERTEX
  8
T72SSILL
 62
4
 10
1979.597
 20
-8039.615
 30
-1960.055
 70
    32
  0
VERTEX
  8
T72SSILL
 62
4
 10
1982.738
 20
-8038.232
 30
-1960.073
 70
    32
  0
VERTEX
  8
T72SSILL
 62
4
 10
1965.134
 20
-7961.780
 30
-1962.580
 70
    32
  0
VERTEX
  8
T72SSILL
 62
4
 10
1963.245
 20
-7953.577
 30
-1961.984
 70
    32
  0
VERTEX
  8
T72SSILL
 62
4
 10
1957.219
 20
-7949.980
 30
-1961.766
 70
    32
  0
VERTEX
  8
T72SSILL
 62
4
 10
1956.483
 20
-7946.238
 30
-1961.804
 70
    32
  0
VERTEX
  8
T72SSILL
 62
4
 10
1959.807
 20
-7942.182
 30
-1962.043
 70
    32
  0
VERTEX
  8
T72SSILL
 62
4
 10
1939.979
 20
-7852.712
 30
-1962.825
 70
    32
  0
VERTEX
  8
T72SSILL
 62
4
 10
1936.980
 20
-7849.911
 30
-1962.742
 70
    32
  0
VERTEX
  8
T72SSILL
 62
4
 10
1936.214
 20
-7847.295
 30
-1962.756
 70
    32
  0
VERTEX
  8
T72SSILL
 62
4
 10
1936.167
 20
-7839.947
 30
-1962.891
 70
    32
  0
VERTEX
  8
T72SSILL
 62
4
 10
1915.154
 20
-7748.619
 30
-1963.645
 70
    32
  0
VERTEX
  8
T72SSILL
 62
4
 10
1908.466
 20
-7742.105
 30
-1963.465
 70
    32
  0
VERTEX
  8
T72SSILL
 62
4
 10
1911.973
 20
-7735.377
 30
-1963.749
 70
    32
  0
VERTEX
  8
T72SSILL
 62
4
 10
1888.984
 20
-7637.938
 30
-1964.476
 70
    32
  0
VERTEX
  8
T72SSILL
 62
4
 10
1883.114
 20
-7633.672
 30
-1964.308
 70
    32
  0
VERTEX
  8
T72SSILL
 62
4
 10
1886.436
 20
-7629.176
 30
-1964.521
 70
    32
  0
VERTEX
  8
T72SSILL
 62
4
 10
1865.592
 20
-7539.803
 30
-1965.133
 70
    32
  0
VERTEX
  8
T72SSILL
 62
4
 10
1856.773
 20
-7535.375
 30
-1964.908
 70
    32
  0
VERTEX
  8
T72SSILL
 62
4
 10
1853.702
 20
-7518.872
 30
-1965.056
 70
    32
  0
VERTEX
  8
T72SSILL
 62
4
 10
1857.411
 20
-7506.919
 30
-1965.296
 70
    32
  0
VERTEX
  8
T72SSILL
 62
4
 10
1854.103
 20
-7492.404
 30
-1965.376
 70
    32
  0
VERTEX
  8
T72SSILL
 62
4
 10
1844.254
 20
-7486.123
 30
-1965.183
 70
    32
  0
VERTEX
  8
T72SSILL
 62
4
 10
1838.292
 20
-7496.620
 30
-1964.812
 70
    32
  0
VERTEX
  8
T72SSILL
 62
4
 10
1828.957
 20
-7509.157
 30
-1964.214
 70
    32
  0
VERTEX
  8
T72SSILL
 62
4
 10
1807.434
 20
-7528.621
 30
-1962.876
 70
    32
  0
VERTEX
  8
T72SSILL
 62
4
 10
1802.934
 20
-7531.544
 30
-1962.604
 70
    32
  0
VERTEX
  8
T72SSILL
 62
4
 10
1795.019
 20
-7526.258
 30
-1962.329
 70
    32
  0
VERTEX
  8
T72SSILL
 62
4
 10
1805.053
 20
-7519.029
 30
-1962.951
 70
    32
  0
VERTEX
  8
T72SSILL
 62
4
 10
1821.684
 20
-7502.519
 30
-1964.015
 70
    32
  0
VERTEX
  8
T72SSILL
 62
4
 10
1829.441
 20
-7492.948
 30
-1964.511
 70
    32
  0
VERTEX
  8
T72SSILL
 62
4
 10
1834.910
 20
-7483.874
 30
-1964.891
 70
    32
  0
VERTEX
  8
T72SSILL
 62
4
 10
1840.985
 20
-7465.562
 30
-1965.335
 70
    32
  0
VERTEX
  8
T72SSILL
 62
4
 10
1837.249
 20
-7451.345
 30
-1965.400
 70
    32
  0
VERTEX
  8
T72SSILL
 62
4
 10
1840.790
 20
-7438.362
 30
-1965.647
 70
    32
  0
VERTEX
  8
T72SSILL
 62
4
 10
1838.004
 20
-7427.658
 30
-1965.697
 70
    32
  0
VERTEX
  8
T72SSILL
 62
4
 10
1833.037
 20
-7424.228
 30
-1965.603
 70
    32
  0
VERTEX
  8
T72SSILL
 62
4
 10
1835.642
 20
-7417.315
 30
-1965.754
 70
    32
  0
VERTEX
  8
T72SSILL
 62
4
 10
1812.723
 20
-7322.231
 30
-1966.245
 70
    32
  0
VERTEX
  8
T72SSILL
 62
4
 10
1808.797
 20
-7319.980
 30
-1966.165
 70
    32
  0
VERTEX
  8
T72SSILL
 62
4
 10
1807.907
 20
-7317.724
 30
-1966.167
 70
    32
  0
VERTEX
  8
T72SSILL
 62
4
 10
1810.050
 20
-7311.952
 30
-1966.292
 70
    32
  0
VERTEX
  8
T72SSILL
 62
4
 10
1799.971
 20
-7270.040
 30
-1966.509
 70
    32
  0
VERTEX
  8
T72SSILL
 62
4
 10
1793.012
 20
-7265.978
 30
-1966.368
 70
    32
  0
VERTEX
  8
T72SSILL
 62
4
 10
1765.018
 20
-7272.976
 30
-1965.529
 70
    32
  0
VERTEX
  8
T72SSILL
 62
4
 10
1763.485
 20
-7262.122
 30
-1965.614
 70
    32
  0
VERTEX
  8
T72SSILL
 62
4
 10
1793.242
 20
-7242.056
 30
-1966.654
 70
    32
  0
VERTEX
  8
T72SSILL
 62
4
 10
1791.223
 20
-7233.661
 30
-1966.698
 70
    32
  0
VERTEX
  8
T72SSILL
 62
4
 10
1787.551
 20
-7228.934
 30
-1966.653
 70
    32
  0
VERTEX
  8
T72SSILL
 62
4
 10
1749.095
 20
-7204.776
 30
-1965.895
 70
    32
  0
VERTEX
  8
T72SSILL
 62
4
 10
1753.713
 20
-7195.111
 30
-1966.133
 70
    32
  0
VERTEX
  8
T72SSILL
 62
4
 10
1784.056
 20
-7201.446
 30
-1966.880
 70
    32
  0
VERTEX
  8
T72SSILL
 62
4
 10
1762.332
 20
-7113.532
 30
-1967.319
 70
    32
  0
VERTEX
  8
T72SSILL
 62
4
 10
1757.842
 20
-7109.157
 30
-1967.249
 70
    32
  0
VERTEX
  8
T72SSILL
 62
4
 10
1760.636
 20
-7104.122
 30
-1967.383
 70
    32
  0
VERTEX
  8
T72SSILL
 62
4
 10
1743.625
 20
-7032.193
 30
-1967.763
 70
    32
  0
VERTEX
  8
T72SSILL
 62
4
 10
1734.523
 20
-7029.842
 30
-1967.544
 70
    32
  0
VERTEX
  8
T72SSILL
 62
4
 10
1729.476
 20
-7012.535
 30
-1967.610
 70
    32
  0
VERTEX
  8
T72SSILL
 62
4
 10
1737.358
 20
-7004.531
 30
-1968.481
 70
    32
  0
VERTEX
  8
T72SSILL
 62
4
 10
1712.594
 20
-6900.640
 30
-1970.636
 70
    32
  0
VERTEX
  8
T72SSILL
 62
4
 10
1705.046
 20
-6893.037
 30
-1970.649
 70
    32
  0
VERTEX
  8
T72SSILL
 62
4
 10
1708.672
 20
-6888.055
 30
-1970.605
 70
    32
  0
VERTEX
  8
T72SSILL
 62
4
 10
1709.305
 20
-6884.612
 30
-1970.586
 70
    32
  0
VERTEX
  8
T72SSILL
 62
4
 10
1701.274
 20
-6851.593
 30
-1970.491
 70
    32
  0
VERTEX
  8
T72SSILL
 62
4
 10
1689.953
 20
-6830.540
 30
-1970.468
 70
    32
  0
VERTEX
  8
T72SSILL
 62
4
 10
1687.830
 20
-6807.850
 30
-1970.391
 70
    32
  0
VERTEX
  8
T72SSILL
 62
4
 10
1681.778
 20
-6797.264
 30
-1970.379
 70
    32
  0
VERTEX
  8
T72SSILL
 62
4
 10
1680.879
 20
-6784.524
 30
-1970.342
 70
    32
  0
VERTEX
  8
T72SSILL
 62
4
 10
1660.851
 20
-6718.042
 30
-1970.202
 70
    32
  0
VERTEX
  8
T72SSILL
 62
4
 10
1664.966
 20
-6713.257
 30
-1970.183
 70
    32
  0
VERTEX
  8
T72SSILL
 62
4
 10
1664.475
 20
-6709.075
 30
-1970.215
 70
    32
  0
VERTEX
  8
T72SSILL
 62
4
 10
1627.167
 20
-6544.652
 30
-1970.209
 70
    32
  0
VERTEX
  8
T72SSILL
 62
4
 10
1624.841
 20
-6540.371
 30
-1970.187
 70
    32
  0
VERTEX
  8
T72SSILL
 62
4
 10
1621.876
 20
-6515.455
 30
-1970.214
 70
    32
  0
VERTEX
  8
T72SSILL
 62
4
 10
1613.701
 20
-6496.739
 30
-1970.149
 70
    32
  0
VERTEX
  8
T72SSILL
 62
4
 10
1602.795
 20
-6479.273
 30
-1970.031
 70
    32
  0
VERTEX
  8
T72SSILL
 62
4
 10
1605.479
 20
-6473.739
 30
-1970.093
 70
    32
  0
VERTEX
  8
T72SSILL
 62
4
 10
1588.915
 20
-6435.006
 30
-1969.885
 70
    32
  0
VERTEX
  8
T72SSILL
 62
4
 10
1579.499
 20
-6439.014
 30
-1969.613
 70
    32
  0
VERTEX
  8
T72SSILL
 62
4
 10
1571.290
 20
-6419.983
 30
-1969.576
 70
    32
  0
VERTEX
  8
T72SSILL
 62
4
 10
1581.648
 20
-6416.069
 30
-1969.749
 70
    32
  0
VERTEX
  8
T72SSILL
 62
4
 10
1569.921
 20
-6386.491
 30
-1969.516
 70
    32
  0
VERTEX
  8
T72SSILL
 62
4
 10
1564.489
 20
-6384.751
 30
-1969.501
 70
    32
  0
VERTEX
  8
T72SSILL
 62
4
 10
1567.164
 20
-6379.806
 30
-1969.494
 70
    32
  0
VERTEX
  8
T72SSILL
 62
4
 10
1553.972
 20
-6346.196
 30
-1969.422
 70
    32
  0
VERTEX
  8
T72SSILL
 62
4
 10
1535.371
 20
-6345.024
 30
-1969.463
 70
    32
  0
VERTEX
  8
T72SSILL
 62
4
 10
1533.276
 20
-6341.061
 30
-1969.458
 70
    32
  0
VERTEX
  8
T72SSILL
 62
4
 10
1528.796
 20
-6324.566
 30
-1969.421
 70
    32
  0
VERTEX
  8
T72SSILL
 62
4
 10
1542.727
 20
-6318.354
 30
-1969.362
 70
    32
  0
VERTEX
  8
T72SSILL
 62
4
 10
1532.314
 20
-6290.055
 30
-1969.303
 70
    32
  0
VERTEX
  8
T72SSILL
 62
4
 10
1528.167
 20
-6289.083
 30
-1969.313
 70
    32
  0
VERTEX
  8
T72SSILL
 62
4
 10
1526.740
 20
-6287.448
 30
-1969.313
 70
    32
  0
VERTEX
  8
T72SSILL
 62
4
 10
1528.646
 20
-6281.509
 30
-1969.288
 70
    32
  0
VERTEX
  8
T72SSILL
 62
4
 10
1497.562
 20
-6203.919
 30
-1969.151
 70
    32
  0
VERTEX
  8
T72SSILL
 62
4
 10
1494.182
 20
-6196.910
 30
-1969.140
 70
    32
  0
VERTEX
  8
T72SSILL
 62
4
 10
1488.709
 20
-6192.970
 30
-1969.146
 70
    32
  0
VERTEX
  8
T72SSILL
 62
4
 10
1491.434
 20
-6187.358
 30
-1969.152
 70
    32
  0
VERTEX
  8
T72SSILL
 62
4
 10
1455.969
 20
-6099.168
 30
-1969.185
 70
    32
  0
VERTEX
  8
T72SSILL
 62
4
 10
1451.383
 20
-6096.185
 30
-1969.145
 70
    32
  0
VERTEX
  8
T72SSILL
 62
4
 10
1452.922
 20
-6088.668
 30
-1969.203
 70
    32
  0
VERTEX
  8
T72SSILL
 62
4
 10
1441.362
 20
-6060.184
 30
-1969.212
 70
    32
  0
VERTEX
  8
T72SSILL
 62
4
 10
1414.876
 20
-6053.819
 30
-1968.962
 70
    32
  0
VERTEX
  8
T72SSILL
 62
4
 10
1408.434
 20
-6053.751
 30
-1968.983
 70
    32
  0
VERTEX
  8
T72SSILL
 62
4
 10
1409.496
 20
-6042.633
 30
-1968.945
 70
    32
  0
VERTEX
  8
T72SSILL
 62
4
 10
1417.437
 20
-6042.429
 30
-1969.015
 70
    32
  0
VERTEX
  8
T72SSILL
 62
4
 10
1431.324
 20
-6046.115
 30
-1969.164
 70
    32
  0
VERTEX
  8
T72SSILL
 62
4
 10
1434.171
 20
-6042.464
 30
-1969.217
 70
    32
  0
VERTEX
  8
T72SSILL
 62
4
 10
1418.879
 20
-6004.783
 30
-1969.101
 70
    32
  0
VERTEX
  8
T72SSILL
 62
4
 10
1415.590
 20
-6001.783
 30
-1969.118
 70
    32
  0
VERTEX
  8
T72SSILL
 62
4
 10
1413.267
 20
-5997.305
 30
-1969.108
 70
    32
  0
VERTEX
  8
T72SSILL
 62
4
 10
1415.419
 20
-5995.455
 30
-1969.059
 70
    32
  0
VERTEX
  8
T72SSILL
 62
4
 10
1379.733
 20
-5904.079
 30
-1968.711
 70
    32
  0
VERTEX
  8
T72SSILL
 62
4
 10
1374.639
 20
-5900.931
 30
-1968.732
 70
    32
  0
VERTEX
  8
T72SSILL
 62
4
 10
1373.229
 20
-5898.315
 30
-1968.728
 70
    32
  0
VERTEX
  8
T72SSILL
 62
4
 10
1375.373
 20
-5894.579
 30
-1968.688
 70
    32
  0
VERTEX
  8
T72SSILL
 62
4
 10
1340.931
 20
-5809.794
 30
-1968.454
 70
    32
  0
VERTEX
  8
T72SSILL
 62
4
 10
1336.052
 20
-5806.757
 30
-1968.475
 70
    32
  0
VERTEX
  8
T72SSILL
 62
4
 10
1337.641
 20
-5798.573
 30
-1968.413
 70
    32
  0
VERTEX
  8
T72SSILL
 62
4
 10
1304.835
 20
-5715.927
 30
-1968.100
 70
    32
  0
VERTEX
  8
T72SSILL
 62
4
 10
1300.822
 20
-5713.936
 30
-1968.143
 70
    32
  0
VERTEX
  8
T72SSILL
 62
4
 10
1298.629
 20
-5711.110
 30
-1968.147
 70
    32
  0
VERTEX
  8
T72SSILL
 62
4
 10
1301.108
 20
-5706.162
 30
-1968.048
 70
    32
  0
VERTEX
  8
T72SSILL
 62
4
 10
1269.668
 20
-5626.406
 30
-1967.755
 70
    32
  0
VERTEX
  8
T72SSILL
 62
4
 10
1261.682
 20
-5622.346
 30
-1967.789
 70
    32
  0
VERTEX
  8
T72SSILL
 62
4
 10
1258.286
 20
-5611.565
 30
-1967.761
 70
    32
  0
VERTEX
  8
T72SSILL
 62
4
 10
1261.811
 20
-5607.459
 30
-1967.719
 70
    32
  0
VERTEX
  8
T72SSILL
 62
4
 10
1254.403
 20
-5587.459
 30
-1967.676
 70
    32
  0
VERTEX
  8
T72SSILL
 62
4
 10
1262.709
 20
-5584.061
 30
-1967.606
 70
    32
  0
VERTEX
  8
T72SSILL
 62
4
 10
1270.621
 20
-5604.423
 30
-1967.648
 70
    32
  0
VERTEX
  8
T72SSILL
 62
4
 10
1276.835
 20
-5606.373
 30
-1967.616
 70
    32
  0
VERTEX
  8
T72SSILL
 62
4
 10
1274.308
 20
-5614.266
 30
-1967.669
 70
    32
  0
VERTEX
  8
T72SSILL
 62
4
 10
1309.626
 20
-5701.786
 30
-1967.721
 70
    32
  0
VERTEX
  8
T72SSILL
 62
4
 10
1314.550
 20
-5703.360
 30
-1967.556
 70
    32
  0
VERTEX
  8
T72SSILL
 62
4
 10
1312.940
 20
-5710.444
 30
-1967.765
 70
    32
  0
VERTEX
  8
T72SSILL
 62
4
 10
1315.029
 20
-5715.735
 30
-1967.790
 70
    32
  0
VERTEX
  8
T72SSILL
 62
4
 10
1320.547
 20
-5713.232
 30
-1967.518
 70
    32
  0
VERTEX
  8
T72SSILL
 62
4
 10
1336.270
 20
-5670.083
 30
-1967.268
 70
    32
  0
VERTEX
  8
T72SSILL
 62
4
 10
1345.437
 20
-5675.759
 30
-1967.045
 70
    32
  0
VERTEX
  8
T72SSILL
 62
4
 10
1323.308
 20
-5736.696
 30
-1967.888
 70
    32
  0
VERTEX
  8
T72SSILL
 62
4
 10
1328.957
 20
-5750.999
 30
-1967.955
 70
    32
  0
VERTEX
  8
T72SSILL
 62
4
 10
1341.424
 20
-5746.574
 30
-1967.365
 70
    32
  0
VERTEX
  8
T72SSILL
 62
4
 10
1356.089
 20
-5727.305
 30
-1966.384
 70
    32
  0
VERTEX
  8
T72SSILL
 62
4
 10
1369.939
 20
-5711.708
 30
-1966.185
 70
    32
  0
VERTEX
  8
T72SSILL
 62
4
 10
1383.780
 20
-5701.542
 30
-1966.087
 70
    32
  0
VERTEX
  8
T72SSILL
 62
4
 10
1390.428
 20
-5698.231
 30
-1966.094
 70
    32
  0
VERTEX
  8
T72SSILL
 62
4
 10
1387.241
 20
-5692.226
 30
-1966.149
 70
    32
  0
VERTEX
  8
T72SSILL
 62
4
 10
1397.741
 20
-5686.144
 30
-1966.078
 70
    32
  0
VERTEX
  8
T72SSILL
 62
4
 10
1405.356
 20
-5686.071
 30
-1966.137
 70
    32
  0
VERTEX
  8
T72SSILL
 62
4
 10
1415.748
 20
-5702.740
 30
-1966.320
 70
    32
  0
VERTEX
  8
T72SSILL
 62
4
 10
1436.291
 20
-5725.939
 30
-1966.621
 70
    32
  0
VERTEX
  8
T72SSILL
 62
4
 10
1444.784
 20
-5728.162
 30
-1966.701
 70
    32
  0
VERTEX
  8
T72SSILL
 62
4
 10
1444.888
 20
-5736.161
 30
-1966.751
 70
    32
  0
VERTEX
  8
T72SSILL
 62
4
 10
1455.002
 20
-5744.433
 30
-1966.880
 70
    32
  0
VERTEX
  8
T72SSILL
 62
4
 10
1454.804
 20
-5751.489
 30
-1966.922
 70
    32
  0
VERTEX
  8
T72SSILL
 62
4
 10
1436.926
 20
-5764.749
 30
-1966.862
 70
    32
  0
VERTEX
  8
T72SSILL
 62
4
 10
1427.505
 20
-5753.720
 30
-1966.721
 70
    32
  0
VERTEX
  8
T72SSILL
 62
4
 10
1423.698
 20
-5750.996
 30
-1966.675
 70
    32
  0
VERTEX
  8
T72SSILL
 62
4
 10
1414.387
 20
-5747.151
 30
-1966.579
 70
    32
  0
VERTEX
  8
T72SSILL
 62
4
 10
1409.048
 20
-5748.611
 30
-1966.546
 70
    32
  0
VERTEX
  8
T72SSILL
 62
4
 10
1367.982
 20
-5785.351
 30
-1967.028
 70
    32
  0
VERTEX
  8
T72SSILL
 62
4
 10
1357.885
 20
-5803.263
 30
-1967.789
 70
    32
  0
VERTEX
  8
T72SSILL
 62
4
 10
1354.277
 20
-5815.284
 30
-1968.170
 70
    32
  0
VERTEX
  8
T72SSILL
 62
4
 10
1362.468
 20
-5835.743
 30
-1968.229
 70
    32
  0
VERTEX
  8
T72SSILL
 62
4
 10
1371.488
 20
-5836.629
 30
-1967.875
 70
    32
  0
VERTEX
  8
T72SSILL
 62
4
 10
1394.782
 20
-5798.953
 30
-1966.998
 70
    32
  0
VERTEX
  8
T72SSILL
 62
4
 10
1428.611
 20
-5772.920
 30
-1966.847
 70
    32
  0
VERTEX
  8
T72SSILL
 62
4
 10
1436.367
 20
-5780.974
 30
-1966.956
 70
    32
  0
VERTEX
  8
T72SSILL
 62
4
 10
1403.886
 20
-5806.497
 30
-1967.114
 70
    32
  0
VERTEX
  8
T72SSILL
 62
4
 10
1382.629
 20
-5839.530
 30
-1967.473
 70
    32
  0
VERTEX
  8
T72SSILL
 62
4
 10
1376.710
 20
-5859.743
 30
-1968.107
 70
    32
  0
VERTEX
  8
T72SSILL
 62
4
 10
1376.245
 20
-5870.158
 30
-1968.328
 70
    32
  0
VERTEX
  8
T72SSILL
 62
4
 10
1383.718
 20
-5888.825
 30
-1968.382
 70
    32
  0
VERTEX
  8
T72SSILL
 62
4
 10
1389.936
 20
-5892.856
 30
-1968.204
 70
    32
  0
VERTEX
  8
T72SSILL
 62
4
 10
1388.950
 20
-5895.704
 30
-1968.300
 70
    32
  0
VERTEX
  8
T72SSILL
 62
4
 10
1392.047
 20
-5894.447
 30
-1968.148
 70
    32
  0
VERTEX
  8
T72SSILL
 62
4
 10
1406.114
 20
-5863.140
 30
-1967.789
 70
    32
  0
VERTEX
  8
T72SSILL
 62
4
 10
1414.201
 20
-5864.413
 30
-1967.828
 70
    32
  0
VERTEX
  8
T72SSILL
 62
4
 10
1411.935
 20
-5876.031
 30
-1967.959
 70
    32
  0
VERTEX
  8
T72SSILL
 62
4
 10
1395.643
 20
-5910.112
 30
-1968.312
 70
    32
  0
VERTEX
  8
T72SSILL
 62
4
 10
1394.729
 20
-5918.141
 30
-1968.496
 70
    32
  0
VERTEX
  8
T72SSILL
 62
4
 10
1413.206
 20
-5965.484
 30
-1968.895
 70
    32
  0
VERTEX
  8
T72SSILL
 62
4
 10
1417.258
 20
-5965.120
 30
-1968.916
 70
    32
  0
VERTEX
  8
T72SSILL
 62
4
 10
1419.173
 20
-5953.838
 30
-1968.898
 70
    32
  0
VERTEX
  8
T72SSILL
 62
4
 10
1423.944
 20
-5943.349
 30
-1968.788
 70
    32
  0
VERTEX
  8
T72SSILL
 62
4
 10
1429.629
 20
-5934.526
 30
-1968.701
 70
    32
  0
VERTEX
  8
T72SSILL
 62
4
 10
1500.630
 20
-5852.972
 30
-1967.952
 70
    32
  0
VERTEX
  8
T72SSILL
 62
4
 10
1504.005
 20
-5841.361
 30
-1967.853
 70
    32
  0
VERTEX
  8
T72SSILL
 62
4
 10
1509.951
 20
-5842.874
 30
-1967.909
 70
    32
  0
VERTEX
  8
T72SSILL
 62
4
 10
1543.498
 20
-5807.387
 30
-1967.956
 70
    32
  0
VERTEX
  8
T72SSILL
 62
4
 10
1561.268
 20
-5786.632
 30
-1967.969
 70
    32
  0
VERTEX
  8
T72SSILL
 62
4
 10
1561.304
 20
-5770.527
 30
-1967.871
 70
    32
  0
VERTEX
  8
T72SSILL
 62
4
 10
1565.220
 20
-5767.775
 30
-1967.885
 70
    32
  0
VERTEX
  8
T72SSILL
 62
4
 10
1575.708
 20
-5770.806
 30
-1967.986
 70
    32
  0
VERTEX
  8
T72SSILL
 62
4
 10
1590.205
 20
-5759.458
 30
-1967.999
 70
    32
  0
VERTEX
  8
T72SSILL
 62
4
 10
1603.387
 20
-5754.346
 30
-1968.018
 70
    32
  0
VERTEX
  8
T72SSILL
 62
4
 10
1607.638
 20
-5756.358
 30
-1968.052
 70
    32
  0
VERTEX
  8
T72SSILL
 62
4
 10
1604.392
 20
-5763.793
 30
-1968.095
 70
    32
  0
VERTEX
  8
T72SSILL
 62
4
 10
1582.920
 20
-5778.533
 30
-1968.089
 70
    32
  0
VERTEX
  8
T72SSILL
 62
4
 10
1563.641
 20
-5797.170
 30
-1968.051
 70
    32
  0
VERTEX
  8
T72SSILL
 62
4
 10
1523.394
 20
-5842.350
 30
-1968.011
 70
    32
  0
VERTEX
  8
T72SSILL
 62
4
 10
1521.356
 20
-5851.588
 30
-1968.051
 70
    32
  0
VERTEX
  8
T72SSILL
 62
4
 10
1524.561
 20
-5854.940
 30
-1968.096
 70
    32
  0
VERTEX
  8
T72SSILL
 62
4
 10
1522.816
 20
-5858.290
 30
-1968.103
 70
    32
  0
VERTEX
  8
T72SSILL
 62
4
 10
1517.790
 20
-5860.524
 30
-1968.092
 70
    32
  0
VERTEX
  8
T72SSILL
 62
4
 10
1515.294
 20
-5859.422
 30
-1968.072
 70
    32
  0
VERTEX
  8
T72SSILL
 62
4
 10
1512.204
 20
-5860.982
 30
-1968.081
 70
    32
  0
VERTEX
  8
T72SSILL
 62
4
 10
1507.095
 20
-5861.093
 30
-1968.067
 70
    32
  0
VERTEX
  8
T72SSILL
 62
4
 10
1438.147
 20
-5939.657
 30
-1968.787
 70
    32
  0
VERTEX
  8
T72SSILL
 62
4
 10
1434.112
 20
-5946.071
 30
-1968.851
 70
    32
  0
VERTEX
  8
T72SSILL
 62
4
 10
1430.512
 20
-5954.693
 30
-1968.942
 70
    32
  0
VERTEX
  8
T72SSILL
 62
4
 10
1428.722
 20
-5996.344
 30
-1969.035
 70
    32
  0
VERTEX
  8
T72SSILL
 62
4
 10
1427.334
 20
-6001.859
 30
-1969.038
 70
    32
  0
VERTEX
  8
T72SSILL
 62
4
 10
1431.298
 20
-6011.550
 30
-1969.077
 70
    32
  0
VERTEX
  8
T72SSILL
 62
4
 10
1445.619
 20
-6026.833
 30
-1969.182
 70
    32
  0
VERTEX
  8
T72SSILL
 62
4
 10
1453.000
 20
-6048.404
 30
-1969.261
 70
    32
  0
VERTEX
  8
T72SSILL
 62
4
 10
1475.338
 20
-6068.259
 30
-1969.387
 70
    32
  0
VERTEX
  8
T72SSILL
 62
4
 10
1512.164
 20
-6081.401
 30
-1969.525
 70
    32
  0
VERTEX
  8
T72SSILL
 62
4
 10
1541.956
 20
-6080.480
 30
-1969.663
 70
    32
  0
VERTEX
  8
T72SSILL
 62
4
 10
1582.043
 20
-6067.592
 30
-1969.876
 70
    32
  0
VERTEX
  8
T72SSILL
 62
4
 10
1592.403
 20
-6058.729
 30
-1969.943
 70
    32
  0
VERTEX
  8
T72SSILL
 62
4
 10
1605.056
 20
-6044.325
 30
-1970.034
 70
    32
  0
VERTEX
  8
T72SSILL
 62
4
 10
1608.658
 20
-6023.721
 30
-1970.034
 70
    32
  0
VERTEX
  8
T72SSILL
 62
4
 10
1606.234
 20
-6008.793
 30
-1969.993
 70
    32
  0
VERTEX
  8
T72SSILL
 62
4
 10
1598.423
 20
-5990.152
 30
-1969.862
 70
    32
  0
VERTEX
  8
T72SSILL
 62
4
 10
1592.265
 20
-5986.264
 30
-1969.798
 70
    32
  0
VERTEX
  8
T72SSILL
 62
4
 10
1574.706
 20
-5984.188
 30
-1969.721
 70
    32
  0
VERTEX
  8
T72SSILL
 62
4
 10
1571.095
 20
-5977.137
 30
-1969.627
 70
    32
  0
VERTEX
  8
T72SSILL
 62
4
 10
1558.079
 20
-5967.779
 30
-1969.478
 70
    32
  0
VERTEX
  8
T72SSILL
 62
4
 10
1556.051
 20
-5960.422
 30
-1969.385
 70
    32
  0
VERTEX
  8
T72SSILL
 62
4
 10
1546.019
 20
-5945.952
 30
-1969.184
 70
    32
  0
VERTEX
  8
T72SSILL
 62
4
 10
1548.216
 20
-5937.214
 30
-1969.088
 70
    32
  0
VERTEX
  8
T72SSILL
 62
4
 10
1547.907
 20
-5924.596
 30
-1968.938
 70
    32
  0
VERTEX
  8
T72SSILL
 62
4
 10
1546.132
 20
-5916.081
 30
-1968.832
 70
    32
  0
VERTEX
  8
T72SSILL
 62
4
 10
1548.477
 20
-5911.983
 30
-1968.791
 70
    32
  0
VERTEX
  8
T72SSILL
 62
4
 10
1549.814
 20
-5906.017
 30
-1968.725
 70
    32
  0
VERTEX
  8
T72SSILL
 62
4
 10
1555.106
 20
-5902.606
 30
-1968.700
 70
    32
  0
VERTEX
  8
T72SSILL
 62
4
 10
1559.886
 20
-5896.836
 30
-1968.646
 70
    32
  0
VERTEX
  8
T72SSILL
 62
4
 10
1566.213
 20
-5902.323
 30
-1968.730
 70
    32
  0
VERTEX
  8
T72SSILL
 62
4
 10
1565.190
 20
-5908.747
 30
-1968.803
 70
    32
  0
VERTEX
  8
T72SSILL
 62
4
 10
1557.458
 20
-5920.157
 30
-1968.914
 70
    32
  0
VERTEX
  8
T72SSILL
 62
4
 10
1560.953
 20
-5940.491
 30
-1969.164
 70
    32
  0
VERTEX
  8
T72SSILL
 62
4
 10
1569.050
 20
-5949.572
 30
-1969.296
 70
    32
  0
VERTEX
  8
T72SSILL
 62
4
 10
1577.503
 20
-5946.532
 30
-1969.285
 70
    32
  0
VERTEX
  8
T72SSILL
 62
4
 10
1588.375
 20
-5944.560
 30
-1969.294
 70
    32
  0
VERTEX
  8
T72SSILL
 62
4
 10
1593.455
 20
-5952.850
 30
-1969.407
 70
    32
  0
VERTEX
  8
T72SSILL
 62
4
 10
1605.891
 20
-5985.549
 30
-1970.035
 70
    32
  0
VERTEX
  8
T72SSILL
 62
4
 10
1614.704
 20
-6007.362
 30
-1970.035
 70
    32
  0
VERTEX
  8
T72SSILL
 62
4
 10
1618.648
 20
-6027.737
 30
-1970.095
 70
    32
  0
VERTEX
  8
T72SSILL
 62
4
 10
1613.705
 20
-6048.632
 30
-1970.063
 70
    32
  0
VERTEX
  8
T72SSILL
 62
4
 10
1611.217
 20
-6054.169
 30
-1970.040
 70
    32
  0
VERTEX
  8
T72SSILL
 62
4
 10
1612.145
 20
-6055.049
 30
-1970.042
 70
    32
  0
VERTEX
  8
T72SSILL
 62
4
 10
1613.402
 20
-6055.571
 30
-1970.046
 70
    32
  0
VERTEX
  8
T72SSILL
 62
4
 10
1742.976
 20
-6004.264
 30
-1970.572
 70
    32
  0
VERTEX
  8
T72SSILL
 62
4
 10
1749.425
 20
-6013.366
 30
-1970.601
 70
    32
  0
VERTEX
  8
T72SSILL
 62
4
 10
1757.226
 20
-6014.360
 30
-1970.613
 70
    32
  0
VERTEX
  8
T72SSILL
 62
4
 10
1785.122
 20
-6023.543
 30
-1970.669
 70
    32
  0
VERTEX
  8
T72SSILL
 62
4
 10
1810.105
 20
-6040.221
 30
-1970.739
 70
    32
  0
VERTEX
  8
T72SSILL
 62
4
 10
1831.061
 20
-6065.199
 30
-1970.822
 70
    32
  0
VERTEX
  8
T72SSILL
 62
4
 10
1889.467
 20
-6160.487
 30
-1970.780
 70
    32
  0
VERTEX
  8
T72SSILL
 62
4
 10
1903.483
 20
-6175.215
 30
-1970.649
 70
    32
  0
VERTEX
  8
T72SSILL
 62
4
 10
1904.768
 20
-6178.261
 30
-1970.638
 70
    32
  0
VERTEX
  8
T72SSILL
 62
4
 10
1904.720
 20
-6188.238
 30
-1970.645
 70
    32
  0
VERTEX
  8
T72SSILL
 62
4
 10
1926.810
 20
-6223.017
 30
-1970.445
 70
    32
  0
VERTEX
  8
T72SSILL
 62
4
 10
1938.720
 20
-6227.339
 30
-1970.329
 70
    32
  0
VERTEX
  8
T72SSILL
 62
4
 10
1958.894
 20
-6261.614
 30
-1970.149
 70
    32
  0
VERTEX
  8
T72SSILL
 62
4
 10
2000.654
 20
-6327.831
 30
-1969.772
 70
    32
  0
VERTEX
  8
T72SSILL
 62
4
 10
2001.597
 20
-6339.711
 30
-1969.770
 70
    32
  0
VERTEX
  8
T72SSILL
 62
4
 10
2004.092
 20
-6345.566
 30
-1969.748
 70
    32
  0
VERTEX
  8
T72SSILL
 62
4
 10
2007.553
 20
-6352.419
 30
-1969.718
 70
    32
  0
VERTEX
  8
T72SSILL
 62
4
 10
2015.943
 20
-6362.929
 30
-1969.640
 70
    32
  0
VERTEX
  8
T72SSILL
 62
4
 10
2016.477
 20
-6366.277
 30
-1969.637
 70
    32
  0
VERTEX
  8
T72SSILL
 62
4
 10
2003.531
 20
-6375.525
 30
-1969.771
 70
    32
  0
VERTEX
  8
T72SSILL
 62
4
 10
1990.822
 20
-6356.974
 30
-1969.887
 70
    32
  0
VERTEX
  8
T72SSILL
 62
4
 10
1983.473
 20
-6338.192
 30
-1969.949
 70
    32
  0
VERTEX
  8
T72SSILL
 62
4
 10
1959.008
 20
-6296.719
 30
-1970.168
 70
    32
  0
VERTEX
  8
T72SSILL
 62
4
 10
1957.669
 20
-6313.522
 30
-1970.191
 70
    32
  0
VERTEX
  8
T72SSILL
 62
4
 10
1955.185
 20
-6326.980
 30
-1970.224
 70
    32
  0
VERTEX
  8
T72SSILL
 62
4
 10
1945.329
 20
-6351.490
 30
-1970.336
 70
    32
  0
VERTEX
  8
T72SSILL
 62
4
 10
1945.431
 20
-6355.711
 30
-1970.337
 70
    32
  0
VERTEX
  8
T72SSILL
 62
4
 10
1940.903
 20
-6363.453
 30
-1970.387
 70
    32
  0
VERTEX
  8
T72SSILL
 62
4
 10
1935.257
 20
-6369.920
 30
-1970.447
 70
    32
  0
VERTEX
  8
T72SSILL
 62
4
 10
1926.123
 20
-6385.364
 30
-1970.547
 70
    32
  0
VERTEX
  8
T72SSILL
 62
4
 10
1923.503
 20
-6386.970
 30
-1970.574
 70
    32
  0
VERTEX
  8
T72SSILL
 62
4
 10
1819.343
 20
-6558.798
 30
-1971.710
 70
    32
  0
VERTEX
  8
T72SSILL
 62
4
 10
1795.480
 20
-6585.059
 30
-1971.873
 70
    32
  0
VERTEX
  8
T72SSILL
 62
4
 10
1797.909
 20
-6588.435
 30
-1971.843
 70
    32
  0
VERTEX
  8
T72SSILL
 62
4
 10
1809.758
 20
-6596.900
 30
-1971.747
 70
    32
  0
VERTEX
  8
T72SSILL
 62
4
 10
1803.617
 20
-6605.380
 30
-1971.716
 70
    32
  0
VERTEX
  8
T72SSILL
 62
4
 10
1792.250
 20
-6597.586
 30
-1971.806
 70
    32
  0
VERTEX
  8
T72SSILL
 62
4
 10
1785.398
 20
-6596.155
 30
-1971.881
 70
    32
  0
VERTEX
  8
T72SSILL
 62
4
 10
1776.452
 20
-6605.932
 30
-1971.894
 70
    32
  0
VERTEX
  8
T72SSILL
 62
4
 10
1776.341
 20
-6614.733
 30
-1971.819
 70
    32
  0
VERTEX
  8
T72SSILL
 62
4
 10
1801.515
 20
-6646.887
 30
-1971.462
 70
    32
  0
VERTEX
  8
T72SSILL
 62
4
 10
1827.099
 20
-6645.961
 30
-1971.377
 70
    32
  0
VERTEX
  8
T72SSILL
 62
4
 10
1836.701
 20
-6652.824
 30
-1971.299
 70
    32
  0
VERTEX
  8
T72SSILL
 62
4
 10
1842.163
 20
-6651.664
 30
-1971.287
 70
    32
  0
VERTEX
  8
T72SSILL
 62
4
 10
1856.585
 20
-6662.981
 30
-1971.164
 70
    32
  0
VERTEX
  8
T72SSILL
 62
4
 10
1853.175
 20
-6675.795
 30
-1971.096
 70
    32
  0
VERTEX
  8
T72SSILL
 62
4
 10
1863.230
 20
-6708.734
 30
-1970.853
 70
    32
  0
VERTEX
  8
T72SSILL
 62
4
 10
1863.636
 20
-6726.532
 30
-1970.739
 70
    32
  0
VERTEX
  8
T72SSILL
 62
4
 10
1858.658
 20
-6730.173
 30
-1970.734
 70
    32
  0
VERTEX
  8
T72SSILL
 62
4
 10
1857.595
 20
-6743.345
 30
-1970.655
 70
    32
  0
VERTEX
  8
T72SSILL
 62
4
 10
1866.296
 20
-6759.476
 30
-1970.523
 70
    32
  0
VERTEX
  8
T72SSILL
 62
4
 10
1863.233
 20
-6773.499
 30
-1970.445
 70
    32
  0
VERTEX
  8
T72SSILL
 62
4
 10
1853.958
 20
-6781.472
 30
-1970.428
 70
    32
  0
VERTEX
  8
T72SSILL
 62
4
 10
1819.630
 20
-6785.531
 30
-1970.525
 70
    32
  0
VERTEX
  8
T72SSILL
 62
4
 10
1791.764
 20
-6807.409
 30
-1970.487
 70
    32
  0
VERTEX
  8
T72SSILL
 62
4
 10
1765.984
 20
-6823.650
 30
-1970.477
 70
    32
  0
VERTEX
  8
T72SSILL
 62
4
 10
1757.748
 20
-6824.579
 30
-1970.501
 70
    32
  0
VERTEX
  8
T72SSILL
 62
4
 10
1749.675
 20
-6804.312
 30
-1970.657
 70
    32
  0
VERTEX
  8
T72SSILL
 62
4
 10
1760.558
 20
-6793.468
 30
-1970.687
 70
    32
  0
VERTEX
  8
T72SSILL
 62
4
 10
1759.860
 20
-6785.697
 30
-1970.738
 70
    32
  0
VERTEX
  8
T72SSILL
 62
4
 10
1777.538
 20
-6770.601
 30
-1970.770
 70
    32
  0
VERTEX
  8
T72SSILL
 62
4
 10
1778.383
 20
-6756.542
 30
-1970.855
 70
    32
  0
VERTEX
  8
T72SSILL
 62
4
 10
1804.539
 20
-6739.574
 30
-1970.868
 70
    32
  0
VERTEX
  8
T72SSILL
 62
4
 10
1818.780
 20
-6724.049
 30
-1970.915
 70
    32
  0
VERTEX
  8
T72SSILL
 62
4
 10
1823.351
 20
-6712.365
 30
-1970.972
 70
    32
  0
VERTEX
  8
T72SSILL
 62
4
 10
1824.649
 20
-6688.741
 30
-1971.116
 70
    32
  0
VERTEX
  8
T72SSILL
 62
4
 10
1796.907
 20
-6661.593
 30
-1971.386
 70
    32
  0
VERTEX
  8
T72SSILL
 62
4
 10
1783.867
 20
-6640.690
 30
-1971.564
 70
    32
  0
VERTEX
  8
T72SSILL
 62
4
 10
1768.015
 20
-6620.641
 30
-1971.858
 70
    32
  0
VERTEX
  8
T72SSILL
 62
4
 10
1763.685
 20
-6620.052
 30
-1971.910
 70
    32
  0
VERTEX
  8
T72SSILL
 62
4
 10
1695.421
 20
-6695.179
 30
-1970.767
 70
    32
  0
VERTEX
  8
T72SSILL
 62
4
 10
1695.997
 20
-6705.480
 30
-1970.746
 70
    32
  0
VERTEX
  8
T72SSILL
 62
4
 10
1687.168
 20
-6716.726
 30
-1970.589
 70
    32
  0
VERTEX
  8
T72SSILL
 62
4
 10
1687.530
 20
-6724.901
 30
-1970.571
 70
    32
  0
VERTEX
  8
T72SSILL
 62
4
 10
1693.196
 20
-6748.916
 30
-1970.586
 70
    32
  0
VERTEX
  8
T72SSILL
 62
4
 10
1696.537
 20
-6780.495
 30
-1970.546
 70
    32
  0
VERTEX
  8
T72SSILL
 62
4
 10
1701.834
 20
-6791.107
 30
-1970.592
 70
    32
  0
VERTEX
  8
T72SSILL
 62
4
 10
1701.979
 20
-6803.873
 30
-1970.558
 70
    32
  0
VERTEX
  8
T72SSILL
 62
4
 10
1707.812
 20
-6824.929
 30
-1970.583
 70
    32
  0
VERTEX
  8
T72SSILL
 62
4
 10
1709.907
 20
-6850.821
 30
-1970.507
 70
    32
  0
VERTEX
  8
T72SSILL
 62
4
 10
1717.799
 20
-6883.304
 30
-1970.524
 70
    32
  0
VERTEX
  8
T72SSILL
 62
4
 10
1723.630
 20
-6887.179
 30
-1970.500
 70
    32
  0
VERTEX
  8
T72SSILL
 62
4
 10
1723.505
 20
-6890.068
 30
-1970.515
 70
    32
  0
VERTEX
  8
T72SSILL
 62
4
 10
1720.727
 20
-6895.298
 30
-1970.558
 70
    32
  0
VERTEX
  8
T72SSILL
 62
4
 10
1733.640
 20
-6950.884
 30
-1970.722
 70
    32
  0
VERTEX
  8
T72SSILL
 62
4
 10
1767.793
 20
-7097.912
 30
-1967.545
 70
    32
  0
VERTEX
  8
T72SSILL
 62
4
 10
1773.638
 20
-7102.455
 30
-1967.515
 70
    32
  0
VERTEX
  8
T72SSILL
 62
4
 10
1770.520
 20
-7106.885
 30
-1967.497
 70
    32
  0
VERTEX
  8
T72SSILL
 62
4
 10
1784.418
 20
-7123.408
 30
-1967.399
 70
    32
  0
VERTEX
  8
T72SSILL
 62
4
 10
1795.289
 20
-7142.027
 30
-1967.294
 70
    32
  0
VERTEX
  8
T72SSILL
 62
4
 10
1806.185
 20
-7149.086
 30
-1967.246
 70
    32
  0
VERTEX
  8
T72SSILL
 62
4
 10
1826.611
 20
-7152.981
 30
-1967.202
 70
    32
  0
VERTEX
  8
T72SSILL
 62
4
 10
1845.060
 20
-7152.852
 30
-1967.181
 70
    32
  0
VERTEX
  8
T72SSILL
 62
4
 10
1866.055
 20
-7148.537
 30
-1967.177
 70
    32
  0
VERTEX
  8
T72SSILL
 62
4
 10
1891.666
 20
-7136.320
 30
-1967.419
 70
    32
  0
VERTEX
  8
T72SSILL
 62
4
 10
1934.568
 20
-7109.946
 30
-1967.643
 70
    32
  0
VERTEX
  8
T72SSILL
 62
4
 10
1994.598
 20
-7069.823
 30
-1968.005
 70
    32
  0
VERTEX
  8
T72SSILL
 62
4
 10
1989.490
 20
-7055.715
 30
-1968.230
 70
    32
  0
VERTEX
  8
T72SSILL
 62
4
 10
1954.799
 20
-7001.485
 30
-1969.153
 70
    32
  0
VERTEX
  8
T72SSILL
 62
4
 10
1915.232
 20
-6945.473
 30
-1969.416
 70
    32
  0
VERTEX
  8
T72SSILL
 62
4
 10
1924.640
 20
-6939.793
 30
-1969.323
 70
    32
  0
VERTEX
  8
T72SSILL
 62
4
 10
1948.759
 20
-6974.198
 30
-1969.311
 70
    32
  0
VERTEX
  8
T72SSILL
 62
4
 10
1953.980
 20
-6975.360
 30
-1969.280
 70
    32
  0
VERTEX
  8
T72SSILL
 62
4
 10
1957.639
 20
-6938.624
 30
-1969.085
 70
    32
  0
VERTEX
  8
T72SSILL
 62
4
 10
1955.010
 20
-6934.337
 30
-1969.105
 70
    32
  0
VERTEX
  8
T72SSILL
 62
4
 10
1952.219
 20
-6920.596
 30
-1969.202
 70
    32
  0
VERTEX
  8
T72SSILL
 62
4
 10
1955.221
 20
-6916.689
 30
-1969.216
 70
    32
  0
VERTEX
  8
T72SSILL
 62
4
 10
1962.254
 20
-6913.368
 30
-1969.211
 70
    32
  0
VERTEX
  8
T72SSILL
 62
4
 10
1972.574
 20
-6921.617
 30
-1969.123
 70
    32
  0
VERTEX
  8
T72SSILL
 62
4
 10
1978.703
 20
-6924.284
 30
-1969.084
 70
    32
  0
VERTEX
  8
T72SSILL
 62
4
 10
1990.907
 20
-6926.467
 30
-1969.026
 70
    32
  0
VERTEX
  8
T72SSILL
 62
4
 10
1995.647
 20
-6929.521
 30
-1968.990
 70
    32
  0
VERTEX
  8
T72SSILL
 62
4
 10
2000.933
 20
-6934.977
 30
-1968.937
 70
    32
  0
VERTEX
  8
T72SSILL
 62
4
 10
2006.200
 20
-6936.727
 30
-1968.907
 70
    32
  0
VERTEX
  8
T72SSILL
 62
4
 10
2012.624
 20
-6943.591
 30
-1968.841
 70
    32
  0
VERTEX
  8
T72SSILL
 62
4
 10
2016.597
 20
-6950.886
 30
-1968.781
 70
    32
  0
VERTEX
  8
T72SSILL
 62
4
 10
2019.557
 20
-6953.885
 30
-1968.752
 70
    32
  0
VERTEX
  8
T72SSILL
 62
4
 10
2028.080
 20
-6958.373
 30
-1968.693
 70
    32
  0
VERTEX
  8
T72SSILL
 62
4
 10
2030.934
 20
-6963.510
 30
-1968.682
 70
    32
  0
VERTEX
  8
T72SSILL
 62
4
 10
2035.102
 20
-6962.349
 30
-1968.647
 70
    32
  0
VERTEX
  8
T72SSILL
 62
4
 10
2037.661
 20
-6963.289
 30
-1968.634
 70
    32
  0
VERTEX
  8
T72SSILL
 62
4
 10
2044.191
 20
-6968.015
 30
-1968.609
 70
    32
  0
VERTEX
  8
T72SSILL
 62
4
 10
2050.599
 20
-6970.226
 30
-1968.574
 70
    32
  0
VERTEX
  8
T72SSILL
 62
4
 10
2052.600
 20
-6972.078
 30
-1968.569
 70
    32
  0
VERTEX
  8
T72SSILL
 62
4
 10
2050.700
 20
-6991.793
 30
-1968.673
 70
    32
  0
VERTEX
  8
T72SSILL
 62
4
 10
2040.527
 20
-6992.327
 30
-1968.747
 70
    32
  0
VERTEX
  8
T72SSILL
 62
4
 10
2036.617
 20
-6999.186
 30
-1968.806
 70
    32
  0
VERTEX
  8
T72SSILL
 62
4
 10
2030.894
 20
-7002.077
 30
-1968.860
 70
    32
  0
VERTEX
  8
T72SSILL
 62
4
 10
2014.619
 20
-7050.321
 30
-1968.215
 70
    32
  0
VERTEX
  8
T72SSILL
 62
4
 10
2016.251
 20
-7054.963
 30
-1968.141
 70
    32
  0
VERTEX
  8
T72SSILL
 62
4
 10
2041.850
 20
-7037.147
 30
-1968.306
 70
    32
  0
VERTEX
  8
T72SSILL
 62
4
 10
2053.753
 20
-7023.182
 30
-1968.465
 70
    32
  0
VERTEX
  8
T72SSILL
 62
4
 10
2121.102
 20
-6882.844
 30
-1968.836
 70
    32
  0
VERTEX
  8
T72SSILL
 62
4
 10
2129.838
 20
-6887.039
 30
-1968.778
 70
    32
  0
VERTEX
  8
T72SSILL
 62
4
 10
2108.353
 20
-6931.743
 30
-1968.574
 70
    32
  0
VERTEX
  8
T72SSILL
 62
4
 10
2121.780
 20
-6943.334
 30
-1968.453
 70
    32
  0
VERTEX
  8
T72SSILL
 62
4
 10
2132.591
 20
-6942.394
 30
-1968.420
 70
    32
  0
VERTEX
  8
T72SSILL
 62
4
 10
2137.134
 20
-6950.394
 30
-1968.353
 70
    32
  0
VERTEX
  8
T72SSILL
 62
4
 10
2134.619
 20
-6954.972
 30
-1968.333
 70
    32
  0
VERTEX
  8
T72SSILL
 62
4
 10
2128.190
 20
-6958.443
 30
-1968.335
 70
    32
  0
VERTEX
  8
T72SSILL
 62
4
 10
2127.421
 20
-6963.632
 30
-1968.305
 70
    32
  0
VERTEX
  8
T72SSILL
 62
4
 10
2132.610
 20
-6977.773
 30
-1968.197
 70
    32
  0
VERTEX
  8
T72SSILL
 62
4
 10
2161.426
 20
-7027.068
 30
-1968.005
 70
    32
  0
VERTEX
  8
T72SSILL
 62
4
 10
2160.444
 20
-7036.533
 30
-1967.870
 70
    32
  0
VERTEX
  8
T72SSILL
 62
4
 10
2165.207
 20
-7051.260
 30
-1967.637
 70
    32
  0
VERTEX
  8
T72SSILL
 62
4
 10
2167.436
 20
-7062.403
 30
-1967.466
 70
    32
  0
VERTEX
  8
T72SSILL
 62
4
 10
2147.577
 20
-7068.600
 30
-1967.450
 70
    32
  0
VERTEX
  8
T72SSILL
 62
4
 10
2131.739
 20
-7019.809
 30
-1968.222
 70
    32
  0
VERTEX
  8
T72SSILL
 62
4
 10
2120.695
 20
-7003.965
 30
-1968.234
 70
    32
  0
VERTEX
  8
T72SSILL
 62
4
 10
2115.476
 20
-6988.959
 30
-1968.202
 70
    32
  0
VERTEX
  8
T72SSILL
 62
4
 10
2106.855
 20
-6975.801
 30
-1968.302
 70
    32
  0
VERTEX
  8
T72SSILL
 62
4
 10
2092.727
 20
-6963.832
 30
-1968.427
 70
    32
  0
VERTEX
  8
T72SSILL
 62
4
 10
2060.502
 20
-7030.652
 30
-1968.331
 70
    32
  0
VERTEX
  8
T72SSILL
 62
4
 10
2052.335
 20
-7040.532
 30
-1968.217
 70
    32
  0
VERTEX
  8
T72SSILL
 62
4
 10
2034.818
 20
-7053.839
 30
-1968.088
 70
    32
  0
VERTEX
  8
T72SSILL
 62
4
 10
2032.653
 20
-7079.137
 30
-1967.726
 70
    32
  0
VERTEX
  8
T72SSILL
 62
4
 10
2033.558
 20
-7090.503
 30
-1967.557
 70
    32
  0
VERTEX
  8
T72SSILL
 62
4
 10
2026.146
 20
-7099.455
 30
-1967.454
 70
    32
  0
VERTEX
  8
T72SSILL
 62
4
 10
2013.660
 20
-7098.675
 30
-1967.512
 70
    32
  0
VERTEX
  8
T72SSILL
 62
4
 10
2002.206
 20
-7123.726
 30
-1967.188
 70
    32
  0
VERTEX
  8
T72SSILL
 62
4
 10
1994.204
 20
-7119.828
 30
-1967.275
 70
    32
  0
VERTEX
  8
T72SSILL
 62
4
 10
2006.501
 20
-7087.531
 30
-1967.702
 70
    32
  0
VERTEX
  8
T72SSILL
 62
4
 10
2000.914
 20
-7079.299
 30
-1967.843
 70
    32
  0
VERTEX
  8
T72SSILL
 62
4
 10
1998.060
 20
-7078.619
 30
-1967.863
 70
    32
  0
VERTEX
  8
T72SSILL
 62
4
 10
1903.598
 20
-7141.522
 30
-1967.298
 70
    32
  0
VERTEX
  8
T72SSILL
 62
4
 10
1905.216
 20
-7167.781
 30
-1967.035
 70
    32
  0
VERTEX
  8
T72SSILL
 62
4
 10
1926.280
 20
-7220.770
 30
-1966.746
 70
    32
  0
VERTEX
  8
T72SSILL
 62
4
 10
1932.470
 20
-7242.522
 30
-1966.631
 70
    32
  0
VERTEX
  8
T72SSILL
 62
4
 10
1932.443
 20
-7245.640
 30
-1966.616
 70
    32
  0
VERTEX
  8
T72SSILL
 62
4
 10
1924.240
 20
-7256.549
 30
-1966.572
 70
    32
  0
VERTEX
  8
T72SSILL
 62
4
 10
1923.709
 20
-7263.257
 30
-1966.540
 70
    32
  0
VERTEX
  8
T72SSILL
 62
4
 10
1920.786
 20
-7268.144
 30
-1966.519
 70
    32
  0
VERTEX
  8
T72SSILL
 62
4
 10
1917.940
 20
-7269.554
 30
-1966.516
 70
    32
  0
VERTEX
  8
T72SSILL
 62
4
 10
1912.964
 20
-7268.491
 30
-1966.527
 70
    32
  0
VERTEX
  8
T72SSILL
 62
4
 10
1899.366
 20
-7259.201
 30
-1966.591
 70
    32
  0
VERTEX
  8
T72SSILL
 62
4
 10
1898.055
 20
-7256.111
 30
-1966.608
 70
    32
  0
VERTEX
  8
T72SSILL
 62
4
 10
1897.410
 20
-7233.518
 30
-1966.720
 70
    32
  0
SEQEND
  8
T72SSILL
  0
POLYLINE
  8
T72SSILL
 62
1
 66
     1
 70
     8
  0
VERTEX
  8
T72SSILL
 62
1
 10
1737.051
 20
-6966.661
 30
-1966.580
 70
    32
  0
VERTEX
  8
T72SSILL
 62
1
 10
1741.088
 20
-6961.542
 30
-1966.264
 70
    32
  0
VERTEX
  8
T72SSILL
 62
1
 10
1748.157
 20
-6952.115
 30
-1966.804
 70
    32
  0
VERTEX
  8
T72SSILL
 62
1
 10
1737.875
 20
-6941.296
 30
-1966.613
 70
    32
  0
VERTEX
  8
T72SSILL
 62
1
 10
1729.189
 20
-6933.210
 30
-1966.600
 70
    32
  0
SEQEND
  8
T72SSILL
  0
ENDSEC
  0
EOF
