999
********************************
999
*   DXF File - Entities Only   *
999
*        3D Data Format        *
999
*     Output from ENVISAGE     *
999
*     24-Dec-2007 12:29:47     *
999
********************************
  0
SECTION 
  2
HEADER
  9
$ACADVER
  1
AC1009
  9
$EXTMIN
 10
-290000.000
 20
-250000.000
 30
-4000.000
  9
$EXTMAX
 10
5000000.000
 20
600000.000
 30
6000.000
  0
ENDSEC
  0
SECTION
  2
ENTITIES
  0
POLYLINE
  8
T75SSILL
 62
13
 66
     1
 70
     9
  0
VERTEX
  8
T75SSILL
 62
13
 10
5889.665
 20
-8444.710
 30
10.000
 70
    32
  0
VERTEX
  8
T75SSILL
 62
13
 10
5876.666
 20
-8453.566
 30
10.000
 70
    32
  0
SEQEND
  8
T75SSILL
  0
POLYLINE
  8
T75SSILL
 62
13
 66
     1
 70
     9
  0
VERTEX
  8
T75SSILL
 62
13
 10
5876.666
 20
-8453.566
 30
10.000
 70
    32
  0
VERTEX
  8
T75SSILL
 62
13
 10
5870.240
 20
-8444.143
 30
10.000
 70
    32
  0
SEQEND
  8
T75SSILL
  0
POLYLINE
  8
T75SSILL
 62
13
 66
     1
 70
     9
  0
VERTEX
  8
T75SSILL
 62
13
 10
5870.240
 20
-8444.143
 30
10.000
 70
    32
  0
VERTEX
  8
T75SSILL
 62
13
 10
5883.852
 20
-8435.673
 30
10.000
 70
    32
  0
SEQEND
  8
T75SSILL
  0
POLYLINE
  8
T75SSILL
 62
13
 66
     1
 70
     9
  0
VERTEX
  8
T75SSILL
 62
13
 10
5883.852
 20
-8435.673
 30
10.000
 70
    32
  0
VERTEX
  8
T75SSILL
 62
13
 10
5889.665
 20
-8444.710
 30
10.000
 70
    32
  0
SEQEND
  8
T75SSILL
  0
POLYLINE
  8
T75SSILL
 62
13
 66
     1
 70
     9
  0
VERTEX
  8
T75SSILL
 62
13
 10
5865.186
 20
-8421.850
 30
10.000
 70
    32
  0
VERTEX
  8
T75SSILL
 62
13
 10
5872.350
 20
-8416.708
 30
10.000
 70
    32
  0
SEQEND
  8
T75SSILL
  0
POLYLINE
  8
T75SSILL
 62
13
 66
     1
 70
     9
  0
VERTEX
  8
T75SSILL
 62
13
 10
5865.186
 20
-8421.850
 30
10.000
 70
    32
  0
VERTEX
  8
T75SSILL
 62
13
 10
5860.668
 20
-8441.319
 30
10.000
 70
    32
  0
SEQEND
  8
T75SSILL
  0
POLYLINE
  8
T75SSILL
 62
13
 66
     1
 70
     9
  0
VERTEX
  8
T75SSILL
 62
13
 10
5898.130
 20
-8420.900
 30
10.000
 70
    32
  0
VERTEX
  8
T75SSILL
 62
13
 10
5906.485
 20
-8433.890
 30
10.000
 70
    32
  0
SEQEND
  8
T75SSILL
  0
POLYLINE
  8
T75SSILL
 62
13
 66
     1
 70
     9
  0
VERTEX
  8
T75SSILL
 62
13
 10
5898.130
 20
-8420.900
 30
10.000
 70
    32
  0
VERTEX
  8
T75SSILL
 62
13
 10
5872.350
 20
-8416.708
 30
10.000
 70
    32
  0
SEQEND
  8
T75SSILL
  0
POLYLINE
  8
T75SSILL
 62
13
 66
     1
 70
     9
  0
VERTEX
  8
T75SSILL
 62
13
 10
5906.485
 20
-8433.890
 30
10.000
 70
    32
  0
VERTEX
  8
T75SSILL
 62
13
 10
5889.665
 20
-8444.710
 30
10.000
 70
    32
  0
SEQEND
  8
T75SSILL
  0
POLYLINE
  8
T75SSILL
 62
13
 66
     1
 70
     9
  0
VERTEX
  8
T75SSILL
 62
13
 10
5864.033
 20
-8449.044
 30
10.000
 70
    32
  0
VERTEX
  8
T75SSILL
 62
13
 10
5860.668
 20
-8441.319
 30
10.000
 70
    32
  0
SEQEND
  8
T75SSILL
  0
POLYLINE
  8
T75SSILL
 62
13
 66
     1
 70
     9
  0
VERTEX
  8
T75SSILL
 62
13
 10
5895.626
 20
-8430.515
 30
10.000
 70
    32
  0
VERTEX
  8
T75SSILL
 62
13
 10
5885.187
 20
-8438.007
 30
10.000
 70
    32
  0
SEQEND
  8
T75SSILL
  0
POLYLINE
  8
T75SSILL
 62
13
 66
     1
 70
     9
  0
VERTEX
  8
T75SSILL
 62
13
 10
5867.677
 20
-8445.571
 30
10.000
 70
    32
  0
VERTEX
  8
T75SSILL
 62
13
 10
5864.033
 20
-8449.044
 30
10.000
 70
    32
  0
SEQEND
  8
T75SSILL
  0
POLYLINE
  8
T75SSILL
 62
13
 66
     1
 70
     9
  0
VERTEX
  8
T75SSILL
 62
13
 10
5864.033
 20
-8449.044
 30
10.000
 70
    32
  0
VERTEX
  8
T75SSILL
 62
13
 10
5869.476
 20
-8457.269
 30
10.000
 70
    32
  0
SEQEND
  8
T75SSILL
  0
POLYLINE
  8
T75SSILL
 62
13
 66
     1
 70
     9
  0
VERTEX
  8
T75SSILL
 62
13
 10
5869.476
 20
-8457.269
 30
10.000
 70
    32
  0
VERTEX
  8
T75SSILL
 62
13
 10
5873.564
 20
-8454.652
 30
10.000
 70
    32
  0
SEQEND
  8
T75SSILL
  0
POLYLINE
  8
T75SSILL
 62
13
 66
     1
 70
     9
  0
VERTEX
  8
T75SSILL
 62
13
 10
5883.656
 20
-8435.875
 30
10.000
 70
    32
  0
VERTEX
  8
T75SSILL
 62
13
 10
5879.391
 20
-8438.936
 30
10.000
 70
    32
  0
SEQEND
  8
T75SSILL
  0
POLYLINE
  8
T75SSILL
 62
13
 66
     1
 70
     9
  0
VERTEX
  8
T75SSILL
 62
13
 10
5879.391
 20
-8438.936
 30
10.000
 70
    32
  0
VERTEX
  8
T75SSILL
 62
13
 10
5882.452
 20
-8443.201
 30
10.000
 70
    32
  0
SEQEND
  8
T75SSILL
  0
POLYLINE
  8
T75SSILL
 62
13
 66
     1
 70
     9
  0
VERTEX
  8
T75SSILL
 62
13
 10
5882.452
 20
-8443.201
 30
10.000
 70
    32
  0
VERTEX
  8
T75SSILL
 62
13
 10
5886.718
 20
-8440.140
 30
10.000
 70
    32
  0
SEQEND
  8
T75SSILL
  0
POLYLINE
  8
T75SSILL
 62
13
 66
     1
 70
     9
  0
VERTEX
  8
T75SSILL
 62
13
 10
5886.718
 20
-8440.140
 30
10.000
 70
    32
  0
VERTEX
  8
T75SSILL
 62
13
 10
5883.656
 20
-8435.875
 30
10.000
 70
    32
  0
SEQEND
  8
T75SSILL
  0
POLYLINE
  8
T75SSILL
 62
13
 66
     1
 70
     9
  0
VERTEX
  8
T75SSILL
 62
13
 10
5897.189
 20
-8427.547
 30
10.000
 70
    32
  0
VERTEX
  8
T75SSILL
 62
13
 10
5894.752
 20
-8429.297
 30
10.000
 70
    32
  0
SEQEND
  8
T75SSILL
  0
POLYLINE
  8
T75SSILL
 62
13
 66
     1
 70
     9
  0
VERTEX
  8
T75SSILL
 62
13
 10
5894.752
 20
-8429.297
 30
10.000
 70
    32
  0
VERTEX
  8
T75SSILL
 62
13
 10
5896.501
 20
-8431.734
 30
10.000
 70
    32
  0
SEQEND
  8
T75SSILL
  0
POLYLINE
  8
T75SSILL
 62
13
 66
     1
 70
     9
  0
VERTEX
  8
T75SSILL
 62
13
 10
5896.501
 20
-8431.734
 30
10.000
 70
    32
  0
VERTEX
  8
T75SSILL
 62
13
 10
5898.938
 20
-8429.985
 30
10.000
 70
    32
  0
SEQEND
  8
T75SSILL
  0
POLYLINE
  8
T75SSILL
 62
13
 66
     1
 70
     9
  0
VERTEX
  8
T75SSILL
 62
13
 10
5898.938
 20
-8429.985
 30
10.000
 70
    32
  0
VERTEX
  8
T75SSILL
 62
13
 10
5897.189
 20
-8427.547
 30
10.000
 70
    32
  0
SEQEND
  8
T75SSILL
  0
POLYLINE
  8
T75SSILL
 62
13
 66
     1
 70
     9
  0
VERTEX
  8
T75SSILL
 62
13
 10
5868.384
 20
-8445.567
 30
10.000
 70
    32
  0
VERTEX
  8
T75SSILL
 62
13
 10
5892.219
 20
-8481.629
 30
10.000
 70
    32
  0
VERTEX
  8
T75SSILL
 62
13
 10
5892.177
 20
-8485.408
 30
10.000
 70
    32
  0
VERTEX
  8
T75SSILL
 62
13
 10
5889.485
 20
-8493.865
 30
10.000
 70
    32
  0
VERTEX
  8
T75SSILL
 62
13
 10
5893.707
 20
-8500.990
 30
10.000
 70
    32
  0
VERTEX
  8
T75SSILL
 62
13
 10
5894.949
 20
-8506.209
 30
10.000
 70
    32
  0
VERTEX
  8
T75SSILL
 62
13
 10
5888.729
 20
-8537.464
 30
10.000
 70
    32
  0
VERTEX
  8
T75SSILL
 62
13
 10
5885.376
 20
-8569.848
 30
10.000
 70
    32
  0
VERTEX
  8
T75SSILL
 62
13
 10
5895.027
 20
-8572.285
 30
10.000
 70
    32
  0
VERTEX
  8
T75SSILL
 62
13
 10
5904.791
 20
-8515.092
 30
10.000
 70
    32
  0
VERTEX
  8
T75SSILL
 62
13
 10
5904.418
 20
-8512.010
 30
10.000
 70
    32
  0
VERTEX
  8
T75SSILL
 62
13
 10
5907.274
 20
-8510.360
 30
10.000
 70
    32
  0
VERTEX
  8
T75SSILL
 62
13
 10
5910.107
 20
-8510.182
 30
10.000
 70
    32
  0
VERTEX
  8
T75SSILL
 62
13
 10
5913.064
 20
-8513.284
 30
10.000
 70
    32
  0
VERTEX
  8
T75SSILL
 62
13
 10
5919.889
 20
-8525.429
 30
10.000
 70
    32
  0
VERTEX
  8
T75SSILL
 62
13
 10
5922.928
 20
-8528.279
 30
10.000
 70
    32
  0
VERTEX
  8
T75SSILL
 62
13
 10
5926.678
 20
-8535.434
 30
10.000
 70
    32
  0
VERTEX
  8
T75SSILL
 62
13
 10
5944.667
 20
-8561.154
 30
10.000
 70
    32
  0
VERTEX
  8
T75SSILL
 62
13
 10
5950.624
 20
-8556.547
 30
10.000
 70
    32
  0
VERTEX
  8
T75SSILL
 62
13
 10
5941.390
 20
-8531.490
 30
10.000
 70
    32
  0
VERTEX
  8
T75SSILL
 62
13
 10
5932.605
 20
-8522.770
 30
10.000
 70
    32
  0
VERTEX
  8
T75SSILL
 62
13
 10
5914.021
 20
-8494.080
 30
10.000
 70
    32
  0
VERTEX
  8
T75SSILL
 62
13
 10
5909.483
 20
-8476.675
 30
10.000
 70
    32
  0
VERTEX
  8
T75SSILL
 62
13
 10
5890.768
 20
-8444.000
 30
10.000
 70
    32
  0
SEQEND
  8
T75SSILL
  0
POLYLINE
  8
T75SSILL
 62
13
 66
     1
 70
     9
  0
VERTEX
  8
T75SSILL
 62
13
 10
1962.708
 20
-6306.250
 30
-2265.438
 70
    32
  0
VERTEX
  8
T75SSILL
 62
13
 10
1952.491
 20
-6300.775
 30
-2265.311
 70
    32
  0
VERTEX
  8
T75SSILL
 62
13
 10
1920.534
 20
-6296.825
 30
-2265.093
 70
    32
  0
VERTEX
  8
T75SSILL
 62
13
 10
1918.883
 20
-6292.967
 30
-2265.033
 70
    32
  0
VERTEX
  8
T75SSILL
 62
13
 10
1978.266
 20
-6250.196
 30
-2264.767
 70
    32
  0
VERTEX
  8
T75SSILL
 62
13
 10
1979.744
 20
-6252.041
 30
-2264.800
 70
    32
  0
VERTEX
  8
T75SSILL
 62
13
 10
1974.013
 20
-6287.327
 30
-2265.243
 70
    32
  0
VERTEX
  8
T75SSILL
 62
13
 10
1966.572
 20
-6308.334
 30
-2265.485
 70
    32
  0
SEQEND
  8
T75SSILL
  0
POLYLINE
  8
T75SSILL
 62
13
 66
     1
 70
     9
  0
VERTEX
  8
T75SSILL
 62
13
 10
1622.954
 20
-6488.314
 30
-2265.186
 70
    32
  0
VERTEX
  8
T75SSILL
 62
13
 10
1608.367
 20
-6523.030
 30
-2264.574
 70
    32
  0
VERTEX
  8
T75SSILL
 62
13
 10
1605.289
 20
-6526.582
 30
-2264.466
 70
    32
  0
VERTEX
  8
T75SSILL
 62
13
 10
1585.004
 20
-6478.247
 30
-2264.175
 70
    32
  0
VERTEX
  8
T75SSILL
 62
13
 10
1591.092
 20
-6476.575
 30
-2264.357
 70
    32
  0
VERTEX
  8
T75SSILL
 62
13
 10
1608.607
 20
-6482.118
 30
-2264.818
 70
    32
  0
VERTEX
  8
T75SSILL
 62
13
 10
1623.018
 20
-6483.207
 30
-2265.218
 70
    32
  0
VERTEX
  8
T75SSILL
 62
13
 10
1623.756
 20
-6484.935
 30
-2265.229
 70
    32
  0
SEQEND
  8
T75SSILL
  0
POLYLINE
  8
T75SSILL
 62
3
 66
     1
 70
     9
  0
VERTEX
  8
T75SSILL
 62
3
 10
1430.111
 20
-5893.437
 30
-2259.337
 70
    32
  0
VERTEX
  8
T75SSILL
 62
3
 10
1410.364
 20
-5869.779
 30
-2239.815
 70
    32
  0
VERTEX
  8
T75SSILL
 62
3
 10
1404.515
 20
-5851.862
 30
-2236.650
 70
    32
  0
VERTEX
  8
T75SSILL
 62
3
 10
1393.596
 20
-5857.090
 30
-2237.254
 70
    32
  0
VERTEX
  8
T75SSILL
 62
3
 10
1398.322
 20
-5875.641
 30
-2239.760
 70
    32
  0
VERTEX
  8
T75SSILL
 62
3
 10
1406.473
 20
-5889.557
 30
-2241.984
 70
    32
  0
VERTEX
  8
T75SSILL
 62
3
 10
1427.747
 20
-5906.549
 30
-2245.992
 70
    32
  0
SEQEND
  8
T75SSILL
  0
TEXT
  8
T75SSILL
 62
3
 10
1429.528
 20
-5862.886
 30
-2239.815
 40
8.202
  1
U
 41
 1.0 
  0
POLYLINE
  8
T75SSILL
 62
3
 66
     1
 70
     9
  0
VERTEX
  8
T75SSILL
 62
3
 10
1758.749
 20
-6899.029
 30
-2258.399
 70
    32
  0
VERTEX
  8
T75SSILL
 62
3
 10
1803.605
 20
-6899.114
 30
-2244.859
 70
    32
  0
VERTEX
  8
T75SSILL
 62
3
 10
1803.768
 20
-6910.443
 30
-2244.259
 70
    32
  0
VERTEX
  8
T75SSILL
 62
3
 10
1764.908
 20
-6920.272
 30
-2258.153
 70
    32
  0
SEQEND
  8
T75SSILL
  0
TEXT
  8
T75SSILL
 62
3
 10
1782.091
 20
-6889.500
 30
-2252.300
 40
8.202
  1
U
 41
 1.0 
  0
TEXT
  8
T75SSILL
 62
3
 10
1782.421
 20
-6709.104
 30
-2253.790
 40
8.202
  1
U
 41
 1.0 
  0
POLYLINE
  8
T75SSILL
 62
3
 66
     1
 70
     9
  0
VERTEX
  8
T75SSILL
 62
3
 10
1467.560
 20
-5689.192
 30
-2257.432
 70
    32
  0
VERTEX
  8
T75SSILL
 62
3
 10
1471.613
 20
-5686.443
 30
-2258.605
 70
    32
  0
VERTEX
  8
T75SSILL
 62
3
 10
1475.250
 20
-5682.664
 30
-2259.693
 70
    32
  0
VERTEX
  8
T75SSILL
 62
3
 10
1483.627
 20
-5660.302
 30
-2264.890
 70
    32
  0
VERTEX
  8
T75SSILL
 62
3
 10
1496.264
 20
-5658.242
 30
-2266.516
 70
    32
  0
VERTEX
  8
T75SSILL
 62
3
 10
1482.558
 20
-5689.373
 30
-2261.790
 70
    32
  0
VERTEX
  8
T75SSILL
 62
3
 10
1470.590
 20
-5716.292
 30
-2257.670
 70
    32
  0
SEQEND
  8
T75SSILL
  0
TEXT
  8
T75SSILL
 62
3
 10
1496.347
 20
-5680.338
 30
-2263.546
 40
8.202
  1
D
 41
 1.0 
  0
TEXT
  8
T75SSILL
 62
3
 10
1833.948
 20
-6727.760
 30
-2260.851
 40
8.202
  1
D
 41
 1.0 
  0
TEXT
  8
T75SSILL
 62
13
 10
2685.995
 20
-6143.331
 30
-2256.447
 40
4.101
  1
7550
 41
 1.0 
  0
TEXT
  8
T75SSILL
 62
13
 10
6168.943
 20
-8773.737
 30
10.103
 40
4.101
  1
7550
 41
 1.0 
  0
POLYLINE
  8
T75SSILL
 62
13
 66
     1
 70
     8
  0
VERTEX
  8
T75SSILL
 62
13
 10
1612.397
 20
-5818.453
 30
-2254.000
 70
    32
  0
VERTEX
  8
T75SSILL
 62
13
 10
1612.051
 20
-5816.671
 30
-2254.000
 70
    32
  0
VERTEX
  8
T75SSILL
 62
13
 10
1619.531
 20
-5789.216
 30
-2254.000
 70
    32
  0
VERTEX
  8
T75SSILL
 62
13
 10
1628.545
 20
-5760.624
 30
-2254.000
 70
    32
  0
VERTEX
  8
T75SSILL
 62
13
 10
1634.044
 20
-5753.050
 30
-2254.000
 70
    32
  0
VERTEX
  8
T75SSILL
 62
13
 10
1638.393
 20
-5738.720
 30
-2254.000
 70
    32
  0
VERTEX
  8
T75SSILL
 62
13
 10
1646.094
 20
-5728.713
 30
-2254.000
 70
    32
  0
VERTEX
  8
T75SSILL
 62
13
 10
1652.288
 20
-5735.917
 30
-2254.000
 70
    32
  0
VERTEX
  8
T75SSILL
 62
13
 10
1668.913
 20
-5733.795
 30
-2254.000
 70
    32
  0
VERTEX
  8
T75SSILL
 62
13
 10
1685.119
 20
-5723.509
 30
-2254.000
 70
    32
  0
VERTEX
  8
T75SSILL
 62
13
 10
1686.218
 20
-5721.524
 30
-2254.000
 70
    32
  0
VERTEX
  8
T75SSILL
 62
13
 10
1682.415
 20
-5716.487
 30
-2254.000
 70
    32
  0
VERTEX
  8
T75SSILL
 62
13
 10
1682.317
 20
-5714.191
 30
-2254.000
 70
    32
  0
VERTEX
  8
T75SSILL
 62
13
 10
1687.968
 20
-5709.864
 30
-2254.000
 70
    32
  0
VERTEX
  8
T75SSILL
 62
13
 10
1682.469
 20
-5702.021
 30
-2254.000
 70
    32
  0
VERTEX
  8
T75SSILL
 62
13
 10
1674.923
 20
-5694.222
 30
-2254.000
 70
    32
  0
VERTEX
  8
T75SSILL
 62
13
 10
1671.668
 20
-5692.434
 30
-2254.000
 70
    32
  0
VERTEX
  8
T75SSILL
 62
13
 10
1662.463
 20
-5695.228
 30
-2254.000
 70
    32
  0
VERTEX
  8
T75SSILL
 62
13
 10
1660.183
 20
-5693.810
 30
-2254.000
 70
    32
  0
VERTEX
  8
T75SSILL
 62
13
 10
1654.223
 20
-5678.359
 30
-2254.000
 70
    32
  0
VERTEX
  8
T75SSILL
 62
13
 10
1652.632
 20
-5677.415
 30
-2254.000
 70
    32
  0
VERTEX
  8
T75SSILL
 62
13
 10
1645.739
 20
-5678.285
 30
-2254.000
 70
    32
  0
VERTEX
  8
T75SSILL
 62
13
 10
1636.911
 20
-5682.441
 30
-2254.000
 70
    32
  0
VERTEX
  8
T75SSILL
 62
13
 10
1635.835
 20
-5684.458
 30
-2254.000
 70
    32
  0
VERTEX
  8
T75SSILL
 62
13
 10
1638.319
 20
-5692.089
 30
-2254.000
 70
    32
  0
VERTEX
  8
T75SSILL
 62
13
 10
1637.881
 20
-5695.260
 30
-2254.000
 70
    32
  0
VERTEX
  8
T75SSILL
 62
13
 10
1632.125
 20
-5702.002
 30
-2254.000
 70
    32
  0
VERTEX
  8
T75SSILL
 62
13
 10
1635.160
 20
-5708.746
 30
-2254.000
 70
    32
  0
VERTEX
  8
T75SSILL
 62
13
 10
1633.885
 20
-5712.120
 30
-2254.000
 70
    32
  0
VERTEX
  8
T75SSILL
 62
13
 10
1627.050
 20
-5716.222
 30
-2254.000
 70
    32
  0
VERTEX
  8
T75SSILL
 62
13
 10
1632.834
 20
-5726.416
 30
-2254.000
 70
    32
  0
VERTEX
  8
T75SSILL
 62
13
 10
1629.000
 20
-5732.510
 30
-2254.000
 70
    32
  0
VERTEX
  8
T75SSILL
 62
13
 10
1623.793
 20
-5741.112
 30
-2254.000
 70
    32
  0
VERTEX
  8
T75SSILL
 62
13
 10
1620.902
 20
-5750.216
 30
-2254.000
 70
    32
  0
VERTEX
  8
T75SSILL
 62
13
 10
1617.470
 20
-5752.809
 30
-2254.000
 70
    32
  0
VERTEX
  8
T75SSILL
 62
13
 10
1613.174
 20
-5769.896
 30
-2254.000
 70
    32
  0
VERTEX
  8
T75SSILL
 62
13
 10
1602.037
 20
-5792.670
 30
-2254.000
 70
    32
  0
VERTEX
  8
T75SSILL
 62
13
 10
1601.331
 20
-5795.565
 30
-2254.000
 70
    32
  0
VERTEX
  8
T75SSILL
 62
13
 10
1600.271
 20
-5801.895
 30
-2254.000
 70
    32
  0
VERTEX
  8
T75SSILL
 62
13
 10
1597.960
 20
-5811.830
 30
-2254.000
 70
    32
  0
VERTEX
  8
T75SSILL
 62
13
 10
1596.706
 20
-5822.191
 30
-2254.000
 70
    32
  0
VERTEX
  8
T75SSILL
 62
13
 10
1591.225
 20
-5829.694
 30
-2254.000
 70
    32
  0
SEQEND
  8
T75SSILL
  0
POLYLINE
  8
T75SSILL
 62
13
 66
     1
 70
     8
  0
VERTEX
  8
T75SSILL
 62
13
 10
1698.700
 20
-5823.900
 30
-2253.168
 70
    32
  0
VERTEX
  8
T75SSILL
 62
13
 10
1695.400
 20
-5824.500
 30
-2253.162
 70
    32
  0
VERTEX
  8
T75SSILL
 62
13
 10
1693.400
 20
-5829.000
 30
-2253.182
 70
    32
  0
VERTEX
  8
T75SSILL
 62
13
 10
1695.900
 20
-5839.300
 30
-2253.251
 70
    32
  0
VERTEX
  8
T75SSILL
 62
13
 10
1703.149
 20
-5843.758
 30
-2253.300
 70
    32
  0
VERTEX
  8
T75SSILL
 62
13
 10
1703.900
 20
-5849.100
 30
-2253.317
 70
    32
  0
VERTEX
  8
T75SSILL
 62
13
 10
1710.900
 20
-5857.800
 30
-2253.351
 70
    32
  0
VERTEX
  8
T75SSILL
 62
13
 10
1708.800
 20
-5861.700
 30
-2253.359
 70
    32
  0
VERTEX
  8
T75SSILL
 62
13
 10
1710.800
 20
-5868.000
 30
-2253.380
 70
    32
  0
VERTEX
  8
T75SSILL
 62
13
 10
1710.200
 20
-5870.800
 30
-2253.387
 70
    32
  0
VERTEX
  8
T75SSILL
 62
13
 10
1711.358
 20
-5874.936
 30
-2253.400
 70
    32
  0
VERTEX
  8
T75SSILL
 62
13
 10
1713.700
 20
-5883.300
 30
-2253.400
 70
    32
  0
VERTEX
  8
T75SSILL
 62
13
 10
1705.821
 20
-5892.524
 30
-2253.400
 70
    32
  0
SEQEND
  8
T75SSILL
  0
POLYLINE
  8
T75SSILL
 62
13
 66
     1
 70
     8
  0
VERTEX
  8
T75SSILL
 62
13
 10
1702.312
 20
-5884.366
 30
-2253.399
 70
    32
  0
VERTEX
  8
T75SSILL
 62
13
 10
1696.847
 20
-5875.666
 30
-2253.383
 70
    32
  0
VERTEX
  8
T75SSILL
 62
13
 10
1686.462
 20
-5857.629
 30
-2253.314
 70
    32
  0
SEQEND
  8
T75SSILL
  0
POLYLINE
  8
T75SSILL
 62
13
 66
     1
 70
     8
  0
VERTEX
  8
T75SSILL
 62
13
 10
1679.967
 20
-5847.814
 30
-2253.251
 70
    32
  0
VERTEX
  8
T75SSILL
 62
13
 10
1676.133
 20
-5833.457
 30
-2253.154
 70
    32
  0
VERTEX
  8
T75SSILL
 62
13
 10
1671.718
 20
-5822.880
 30
-2253.077
 70
    32
  0
SEQEND
  8
T75SSILL
  0
POLYLINE
  8
T75SSILL
 62
3
 66
     1
 70
     8
  0
VERTEX
  8
T75SSILL
 62
3
 10
1778.565
 20
-6412.820
 30
-2263.429
 70
    32
  0
VERTEX
  8
T75SSILL
 62
3
 10
1791.434
 20
-6413.141
 30
-2259.408
 70
    32
  0
VERTEX
  8
T75SSILL
 62
3
 10
1830.653
 20
-6414.118
 30
-2247.155
 70
    32
  0
VERTEX
  8
T75SSILL
 62
3
 10
1827.220
 20
-6401.626
 30
-2248.280
 70
    32
  0
VERTEX
  8
T75SSILL
 62
3
 10
1820.797
 20
-6401.554
 30
-2250.286
 70
    32
  0
VERTEX
  8
T75SSILL
 62
3
 10
1819.791
 20
-6401.251
 30
-2250.601
 70
    32
  0
VERTEX
  8
T75SSILL
 62
3
 10
1816.861
 20
-6400.370
 30
-2251.520
 70
    32
  0
VERTEX
  8
T75SSILL
 62
3
 10
1808.636
 20
-6402.258
 30
-2254.081
 70
    32
  0
VERTEX
  8
T75SSILL
 62
3
 10
1779.953
 20
-6401.914
 30
-2263.041
 70
    32
  0
SEQEND
  8
T75SSILL
  0
TEXT
  8
T75SSILL
 62
3
 10
1803.201
 20
-6436.703
 30
-2253.790
 40
8.202
  1
U
 41
 1.0 
  0
POLYLINE
  8
T75SSILL
 62
4
 66
     1
 70
     9
  0
VERTEX
  8
T75SSILL
 62
4
 10
1865.205
 20
-6402.529
 30
-2258.412
 70
    32
  0
VERTEX
  8
T75SSILL
 62
4
 10
1865.036
 20
-6397.326
 30
-2258.476
 70
    32
  0
VERTEX
  8
T75SSILL
 62
4
 10
1864.909
 20
-6393.438
 30
-2258.769
 70
    32
  0
VERTEX
  8
T75SSILL
 62
4
 10
1864.880
 20
-6392.534
 30
-2258.709
 70
    32
  0
VERTEX
  8
T75SSILL
 62
4
 10
1864.097
 20
-6387.128
 30
-2258.334
 70
    32
  0
VERTEX
  8
T75SSILL
 62
4
 10
1862.557
 20
-6376.494
 30
-2257.601
 70
    32
  0
VERTEX
  8
T75SSILL
 62
4
 10
1861.982
 20
-6372.524
 30
-2257.601
 70
    32
  0
VERTEX
  8
T75SSILL
 62
4
 10
1860.609
 20
-6367.315
 30
-2257.600
 70
    32
  0
VERTEX
  8
T75SSILL
 62
4
 10
1859.939
 20
-6364.774
 30
-2257.600
 70
    32
  0
VERTEX
  8
T75SSILL
 62
4
 10
1871.202
 20
-6361.325
 30
-2257.600
 70
    32
  0
VERTEX
  8
T75SSILL
 62
4
 10
1874.880
 20
-6368.192
 30
-2257.601
 70
    32
  0
VERTEX
  8
T75SSILL
 62
4
 10
1876.691
 20
-6371.574
 30
-2257.601
 70
    32
  0
VERTEX
  8
T75SSILL
 62
4
 10
1878.263
 20
-6374.507
 30
-2257.829
 70
    32
  0
VERTEX
  8
T75SSILL
 62
4
 10
1881.239
 20
-6380.064
 30
-2258.265
 70
    32
  0
VERTEX
  8
T75SSILL
 62
4
 10
1882.815
 20
-6390.394
 30
-2258.984
 70
    32
  0
VERTEX
  8
T75SSILL
 62
4
 10
1883.599
 20
-6392.399
 30
-2259.134
 70
    32
  0
VERTEX
  8
T75SSILL
 62
4
 10
1888.319
 20
-6404.472
 30
-2258.291
 70
    32
  0
VERTEX
  8
T75SSILL
 62
4
 10
1888.362
 20
-6406.664
 30
-2258.126
 70
    32
  0
VERTEX
  8
T75SSILL
 62
4
 10
1888.382
 20
-6407.686
 30
-2258.113
 70
    32
  0
VERTEX
  8
T75SSILL
 62
4
 10
1888.403
 20
-6408.735
 30
-2257.939
 70
    32
  0
VERTEX
  8
T75SSILL
 62
4
 10
1888.439
 20
-6410.550
 30
-2257.773
 70
    32
  0
VERTEX
  8
T75SSILL
 62
4
 10
1887.996
 20
-6415.491
 30
-2257.312
 70
    32
  0
VERTEX
  8
T75SSILL
 62
4
 10
1887.887
 20
-6416.708
 30
-2257.389
 70
    32
  0
VERTEX
  8
T75SSILL
 62
4
 10
1888.797
 20
-6418.769
 30
-2257.559
 70
    32
  0
VERTEX
  8
T75SSILL
 62
4
 10
1893.613
 20
-6429.680
 30
-2258.134
 70
    32
  0
VERTEX
  8
T75SSILL
 62
4
 10
1893.541
 20
-6432.480
 30
-2258.262
 70
    32
  0
VERTEX
  8
T75SSILL
 62
4
 10
1893.511
 20
-6433.663
 30
-2258.423
 70
    32
  0
VERTEX
  8
T75SSILL
 62
4
 10
1893.400
 20
-6437.964
 30
-2258.942
 70
    32
  0
VERTEX
  8
T75SSILL
 62
4
 10
1894.940
 20
-6445.744
 30
-2259.944
 70
    32
  0
VERTEX
  8
T75SSILL
 62
4
 10
1895.547
 20
-6448.811
 30
-2259.959
 70
    32
  0
VERTEX
  8
T75SSILL
 62
4
 10
1886.490
 20
-6450.705
 30
-2259.932
 70
    32
  0
VERTEX
  8
T75SSILL
 62
4
 10
1883.580
 20
-6453.046
 30
-2259.931
 70
    32
  0
VERTEX
  8
T75SSILL
 62
4
 10
1883.343
 20
-6453.237
 30
-2259.933
 70
    32
  0
VERTEX
  8
T75SSILL
 62
4
 10
1880.973
 20
-6453.132
 30
-2259.921
 70
    32
  0
VERTEX
  8
T75SSILL
 62
4
 10
1874.038
 20
-6452.825
 30
-2259.894
 70
    32
  0
VERTEX
  8
T75SSILL
 62
4
 10
1873.704
 20
-6451.707
 30
-2259.888
 70
    32
  0
VERTEX
  8
T75SSILL
 62
4
 10
1872.931
 20
-6449.125
 30
-2259.546
 70
    32
  0
VERTEX
  8
T75SSILL
 62
4
 10
1871.099
 20
-6443.001
 30
-2258.616
 70
    32
  0
VERTEX
  8
T75SSILL
 62
4
 10
1869.682
 20
-6441.220
 30
-2258.302
 70
    32
  0
VERTEX
  8
T75SSILL
 62
4
 10
1868.031
 20
-6439.142
 30
-2258.182
 70
    32
  0
VERTEX
  8
T75SSILL
 62
4
 10
1865.709
 20
-6436.223
 30
-2257.904
 70
    32
  0
VERTEX
  8
T75SSILL
 62
4
 10
1862.613
 20
-6417.853
 30
-2256.566
 70
    32
  0
VERTEX
  8
T75SSILL
 62
4
 10
1862.622
 20
-6417.800
 30
-2256.563
 70
    32
  0
VERTEX
  8
T75SSILL
 62
4
 10
1862.932
 20
-6415.964
 30
-2256.738
 70
    32
  0
VERTEX
  8
T75SSILL
 62
4
 10
1864.594
 20
-6406.140
 30
-2258.375
 70
    32
  0
VERTEX
  8
T75SSILL
 62
4
 10
1865.205
 20
-6402.529
 30
-2258.412
 70
    32
  0
SEQEND
  8
T75SSILL
  0
POLYLINE
  8
T75SSILL
 62
3
 66
     1
 70
     9
  0
VERTEX
  8
T75SSILL
 62
3
 10
1802.270
 20
-6733.892
 30
-2260.362
 70
    32
  0
VERTEX
  8
T75SSILL
 62
3
 10
1792.609
 20
-6706.500
 30
-2253.948
 70
    32
  0
VERTEX
  8
T75SSILL
 62
3
 10
1785.375
 20
-6685.992
 30
-2249.146
 70
    32
  0
VERTEX
  8
T75SSILL
 62
3
 10
1794.678
 20
-6682.107
 30
-2250.205
 70
    32
  0
VERTEX
  8
T75SSILL
 62
3
 10
1801.384
 20
-6701.044
 30
-2254.900
 70
    32
  0
VERTEX
  8
T75SSILL
 62
3
 10
1809.419
 20
-6723.735
 30
-2260.527
 70
    32
  0
VERTEX
  8
T75SSILL
 62
3
 10
1825.703
 20
-6759.464
 30
-2256.558
 70
    32
  0
VERTEX
  8
T75SSILL
 62
3
 10
1833.767
 20
-6771.971
 30
-2258.398
 70
    32
  0
VERTEX
  8
T75SSILL
 62
3
 10
1824.671
 20
-6776.433
 30
-2259.206
 70
    32
  0
SEQEND
  8
T75SSILL
  0
POLYLINE
  8
T75SSILL
 62
13
 66
     1
 70
     9
  0
VERTEX
  8
T75SSILL
 62
13
 10
1911.601
 20
-6585.035
 30
-2255.152
 70
    32
  0
VERTEX
  8
T75SSILL
 62
13
 10
1917.704
 20
-6581.969
 30
-2254.944
 70
    32
  0
VERTEX
  8
T75SSILL
 62
13
 10
1925.222
 20
-6581.031
 30
-2254.658
 70
    32
  0
VERTEX
  8
T75SSILL
 62
13
 10
1928.053
 20
-6582.956
 30
-2254.527
 70
    32
  0
VERTEX
  8
T75SSILL
 62
13
 10
1927.500
 20
-6587.368
 30
-2254.503
 70
    32
  0
VERTEX
  8
T75SSILL
 62
13
 10
1924.033
 20
-6591.565
 30
-2254.596
 70
    32
  0
VERTEX
  8
T75SSILL
 62
13
 10
1920.933
 20
-6596.213
 30
-2254.670
 70
    32
  0
VERTEX
  8
T75SSILL
 62
13
 10
1911.935
 20
-6590.732
 30
-2255.080
 70
    32
  0
VERTEX
  8
T75SSILL
 62
13
 10
1911.601
 20
-6585.035
 30
-2255.152
 70
    32
  0
SEQEND
  8
T75SSILL
  0
POLYLINE
  8
T75SSILL
 62
13
 66
     1
 70
     9
  0
VERTEX
  8
T75SSILL
 62
13
 10
1886.893
 20
-6584.683
 30
-2254.252
 70
    32
  0
VERTEX
  8
T75SSILL
 62
13
 10
1896.132
 20
-6577.304
 30
-2254.762
 70
    32
  0
VERTEX
  8
T75SSILL
 62
13
 10
1900.347
 20
-6576.771
 30
-2254.867
 70
    32
  0
VERTEX
  8
T75SSILL
 62
13
 10
1901.736
 20
-6575.774
 30
-2254.939
 70
    32
  0
VERTEX
  8
T75SSILL
 62
13
 10
1903.619
 20
-6574.422
 30
-2255.575
 70
    32
  0
VERTEX
  8
T75SSILL
 62
13
 10
1913.068
 20
-6567.638
 30
-2255.273
 70
    32
  0
VERTEX
  8
T75SSILL
 62
13
 10
1915.573
 20
-6565.839
 30
-2255.194
 70
    32
  0
VERTEX
  8
T75SSILL
 62
13
 10
1924.880
 20
-6560.408
 30
-2254.884
 70
    32
  0
VERTEX
  8
T75SSILL
 62
13
 10
1930.539
 20
-6561.813
 30
-2254.647
 70
    32
  0
VERTEX
  8
T75SSILL
 62
13
 10
1939.004
 20
-6559.631
 30
-2254.338
 70
    32
  0
VERTEX
  8
T75SSILL
 62
13
 10
1945.578
 20
-6560.802
 30
-2254.067
 70
    32
  0
VERTEX
  8
T75SSILL
 62
13
 10
1959.163
 20
-6557.497
 30
-2253.568
 70
    32
  0
VERTEX
  8
T75SSILL
 62
13
 10
1963.613
 20
-6571.980
 30
-2253.243
 70
    32
  0
VERTEX
  8
T75SSILL
 62
13
 10
1960.931
 20
-6572.951
 30
-2253.339
 70
    32
  0
VERTEX
  8
T75SSILL
 62
13
 10
1960.424
 20
-6581.101
 30
-2253.274
 70
    32
  0
VERTEX
  8
T75SSILL
 62
13
 10
1952.748
 20
-6586.934
 30
-2253.515
 70
    32
  0
VERTEX
  8
T75SSILL
 62
13
 10
1951.139
 20
-6592.098
 30
-2253.525
 70
    32
  0
VERTEX
  8
T75SSILL
 62
13
 10
1951.548
 20
-6599.099
 30
-2253.437
 70
    32
  0
VERTEX
  8
T75SSILL
 62
13
 10
1951.892
 20
-6604.981
 30
-2253.363
 70
    32
  0
VERTEX
  8
T75SSILL
 62
13
 10
1951.518
 20
-6610.396
 30
-2253.322
 70
    32
  0
VERTEX
  8
T75SSILL
 62
13
 10
1951.349
 20
-6612.849
 30
-2252.978
 70
    32
  0
VERTEX
  8
T75SSILL
 62
13
 10
1951.190
 20
-6615.159
 30
-2252.692
 70
    32
  0
VERTEX
  8
T75SSILL
 62
13
 10
1950.889
 20
-6619.518
 30
-2252.953
 70
    32
  0
VERTEX
  8
T75SSILL
 62
13
 10
1950.036
 20
-6629.517
 30
-2253.547
 70
    32
  0
VERTEX
  8
T75SSILL
 62
13
 10
1949.871
 20
-6631.458
 30
-2253.640
 70
    32
  0
VERTEX
  8
T75SSILL
 62
13
 10
1950.566
 20
-6640.484
 30
-2254.081
 70
    32
  0
VERTEX
  8
T75SSILL
 62
13
 10
1941.086
 20
-6644.610
 30
-2254.254
 70
    32
  0
VERTEX
  8
T75SSILL
 62
13
 10
1937.315
 20
-6643.378
 30
-2254.183
 70
    32
  0
VERTEX
  8
T75SSILL
 62
13
 10
1926.503
 20
-6639.847
 30
-2253.793
 70
    32
  0
VERTEX
  8
T75SSILL
 62
13
 10
1923.854
 20
-6635.151
 30
-2253.464
 70
    32
  0
VERTEX
  8
T75SSILL
 62
13
 10
1929.156
 20
-6631.598
 30
-2253.334
 70
    32
  0
VERTEX
  8
T75SSILL
 62
13
 10
1926.384
 20
-6626.512
 30
-2252.980
 70
    32
  0
VERTEX
  8
T75SSILL
 62
13
 10
1922.341
 20
-6623.426
 30
-2252.727
 70
    32
  0
VERTEX
  8
T75SSILL
 62
13
 10
1913.694
 20
-6624.205
 30
-2252.634
 70
    32
  0
VERTEX
  8
T75SSILL
 62
13
 10
1908.689
 20
-6616.832
 30
-2253.704
 70
    32
  0
VERTEX
  8
T75SSILL
 62
13
 10
1908.688
 20
-6616.802
 30
-2253.708
 70
    32
  0
VERTEX
  8
T75SSILL
 62
13
 10
1908.388
 20
-6607.438
 30
-2255.048
 70
    32
  0
VERTEX
  8
T75SSILL
 62
13
 10
1908.385
 20
-6607.338
 30
-2255.049
 70
    32
  0
VERTEX
  8
T75SSILL
 62
13
 10
1901.676
 20
-6598.654
 30
-2255.402
 70
    32
  0
VERTEX
  8
T75SSILL
 62
13
 10
1901.048
 20
-6597.842
 30
-2255.163
 70
    32
  0
VERTEX
  8
T75SSILL
 62
13
 10
1897.520
 20
-6596.991
 30
-2253.899
 70
    32
  0
VERTEX
  8
T75SSILL
 62
13
 10
1893.450
 20
-6596.010
 30
-2253.866
 70
    32
  0
VERTEX
  8
T75SSILL
 62
13
 10
1893.450
 20
-6596.010
 30
-2253.866
 70
    32
  0
VERTEX
  8
T75SSILL
 62
13
 10
1886.893
 20
-6584.683
 30
-2254.252
 70
    32
  0
SEQEND
  8
T75SSILL
  0
POLYLINE
  8
T75SSILL
 62
4
 66
     1
 70
     9
  0
VERTEX
  8
T75SSILL
 62
4
 10
2052.548
 20
-7108.071
 30
-2261.283
 70
    32
  0
VERTEX
  8
T75SSILL
 62
4
 10
2061.008
 20
-7102.221
 30
-2261.117
 70
    32
  0
VERTEX
  8
T75SSILL
 62
4
 10
2050.138
 20
-7076.244
 30
-2263.898
 70
    32
  0
VERTEX
  8
T75SSILL
 62
4
 10
2041.733
 20
-7066.589
 30
-2265.151
 70
    32
  0
VERTEX
  8
T75SSILL
 62
4
 10
2040.017
 20
-7064.618
 30
-2265.457
 70
    32
  0
VERTEX
  8
T75SSILL
 62
4
 10
2038.673
 20
-7061.995
 30
-2265.787
 70
    32
  0
VERTEX
  8
T75SSILL
 62
4
 10
2037.589
 20
-7059.878
 30
-2266.002
 70
    32
  0
VERTEX
  8
T75SSILL
 62
4
 10
2028.948
 20
-7043.006
 30
-2268.015
 70
    32
  0
VERTEX
  8
T75SSILL
 62
4
 10
2028.356
 20
-7042.000
 30
-2268.140
 70
    32
  0
VERTEX
  8
T75SSILL
 62
4
 10
2023.891
 20
-7034.413
 30
-2268.203
 70
    32
  0
VERTEX
  8
T75SSILL
 62
4
 10
2019.059
 20
-7037.284
 30
-2268.196
 70
    32
  0
VERTEX
  8
T75SSILL
 62
4
 10
2007.700
 20
-7044.034
 30
-2268.783
 70
    32
  0
VERTEX
  8
T75SSILL
 62
4
 10
2000.019
 20
-7034.879
 30
-2269.980
 70
    32
  0
VERTEX
  8
T75SSILL
 62
4
 10
1999.902
 20
-7034.980
 30
-2269.984
 70
    32
  0
VERTEX
  8
T75SSILL
 62
4
 10
1997.349
 20
-7037.181
 30
-2269.691
 70
    32
  0
VERTEX
  8
T75SSILL
 62
4
 10
1989.422
 20
-7044.014
 30
-2269.669
 70
    32
  0
VERTEX
  8
T75SSILL
 62
4
 10
1995.900
 20
-7050.162
 30
-2268.664
 70
    32
  0
VERTEX
  8
T75SSILL
 62
4
 10
1999.167
 20
-7053.263
 30
-2268.604
 70
    32
  0
VERTEX
  8
T75SSILL
 62
4
 10
2002.102
 20
-7055.076
 30
-2268.621
 70
    32
  0
VERTEX
  8
T75SSILL
 62
4
 10
2006.440
 20
-7057.756
 30
-2268.090
 70
    32
  0
VERTEX
  8
T75SSILL
 62
4
 10
2008.279
 20
-7058.892
 30
-2268.078
 70
    32
  0
VERTEX
  8
T75SSILL
 62
4
 10
2013.730
 20
-7062.259
 30
-2267.423
 70
    32
  0
VERTEX
  8
T75SSILL
 62
4
 10
2022.802
 20
-7067.862
 30
-2266.445
 70
    32
  0
VERTEX
  8
T75SSILL
 62
4
 10
2027.592
 20
-7072.858
 30
-2265.791
 70
    32
  0
VERTEX
  8
T75SSILL
 62
4
 10
2037.821
 20
-7083.528
 30
-2264.056
 70
    32
  0
VERTEX
  8
T75SSILL
 62
4
 10
2043.752
 20
-7093.412
 30
-2262.741
 70
    32
  0
VERTEX
  8
T75SSILL
 62
4
 10
2051.625
 20
-7106.532
 30
-2261.217
 70
    32
  0
VERTEX
  8
T75SSILL
 62
4
 10
2052.548
 20
-7108.071
 30
-2261.283
 70
    32
  0
SEQEND
  8
T75SSILL
  0
TEXT
  8
T75SSILL
 62
13
 10
2064.141
 20
-7098.831
 30
-1489.785
 40
2.000
  1
-2234.57
 41
 1.0 
  0
TEXT
  8
T75SSILL
 62
13
 10
2064.903
 20
-7096.164
 30
-1489.785
 40
2.000
  1
ST-361R
 41
 1.0 
  0
TEXT
  8
T75SSILL
 62
13
 10
2059.993
 20
-7092.380
 30
-1490.128
 40
2.000
  1
-2235.08
 41
 1.0 
  0
TEXT
  8
T75SSILL
 62
13
 10
2060.660
 20
-7089.713
 30
-1490.128
 40
2.000
  1
ST-361Q
 41
 1.0 
  0
POINT
  8
T75SSILL
 62
13
 10
2055.030
 20
-7100.282
 30
-2234.566
  0
POLYLINE
  8
T75SSILL
 62
13
 66
     1
 70
     9
  0
VERTEX
  8
T75SSILL
 62
13
 10
2055.030
 20
-7098.072
 30
-2234.566
 70
    32
  0
VERTEX
  8
T75SSILL
 62
13
 10
2056.779
 20
-7101.252
 30
-2234.566
 70
    32
  0
VERTEX
  8
T75SSILL
 62
13
 10
2053.280
 20
-7101.250
 30
-2234.566
 70
    32
  0
SEQEND
  8
T75SSILL
  0
POLYLINE
  8
T75SSILL
 62
13
 66
     1
 70
     9
  0
VERTEX
  8
T75SSILL
 62
13
 10
2049.848
 20
-7092.190
 30
-2235.080
 70
    32
  0
VERTEX
  8
T75SSILL
 62
13
 10
2051.597
 20
-7095.370
 30
-2235.080
 70
    32
  0
VERTEX
  8
T75SSILL
 62
13
 10
2048.098
 20
-7095.368
 30
-2235.080
 70
    32
  0
SEQEND
  8
T75SSILL
  0
POINT
  8
T75SSILL
 62
13
 10
2049.848
 20
-7094.400
 30
-2235.080
  0
TEXT
  8
T75SSILL
 62
13
 10
2041.282
 20
-7082.916
 30
-2237.136
 40
2.000
  1
BK-2237.1
 41
 1.0 
  0
POLYLINE
  8
T75SSILL
 62
13
 66
     1
 70
     8
  0
VERTEX
  8
T75SSILL
 62
13
 10
2042.282
 20
-7084.216
 30
-2237.136
 70
    32
  0
VERTEX
  8
T75SSILL
 62
13
 10
2042.280
 20
-7084.172
 30
-2237.136
 70
    32
  0
VERTEX
  8
T75SSILL
 62
13
 10
2042.274
 20
-7084.129
 30
-2237.136
 70
    32
  0
VERTEX
  8
T75SSILL
 62
13
 10
2042.265
 20
-7084.087
 30
-2237.136
 70
    32
  0
VERTEX
  8
T75SSILL
 62
13
 10
2042.252
 20
-7084.045
 30
-2237.136
 70
    32
  0
VERTEX
  8
T75SSILL
 62
13
 10
2042.235
 20
-7084.005
 30
-2237.136
 70
    32
  0
VERTEX
  8
T75SSILL
 62
13
 10
2042.215
 20
-7083.966
 30
-2237.136
 70
    32
  0
VERTEX
  8
T75SSILL
 62
13
 10
2042.192
 20
-7083.929
 30
-2237.136
 70
    32
  0
VERTEX
  8
T75SSILL
 62
13
 10
2042.165
 20
-7083.895
 30
-2237.136
 70
    32
  0
VERTEX
  8
T75SSILL
 62
13
 10
2042.136
 20
-7083.862
 30
-2237.136
 70
    32
  0
VERTEX
  8
T75SSILL
 62
13
 10
2042.103
 20
-7083.833
 30
-2237.136
 70
    32
  0
VERTEX
  8
T75SSILL
 62
13
 10
2042.069
 20
-7083.806
 30
-2237.136
 70
    32
  0
VERTEX
  8
T75SSILL
 62
13
 10
2042.032
 20
-7083.783
 30
-2237.136
 70
    32
  0
VERTEX
  8
T75SSILL
 62
13
 10
2041.993
 20
-7083.763
 30
-2237.136
 70
    32
  0
VERTEX
  8
T75SSILL
 62
13
 10
2041.953
 20
-7083.746
 30
-2237.136
 70
    32
  0
VERTEX
  8
T75SSILL
 62
13
 10
2041.911
 20
-7083.733
 30
-2237.136
 70
    32
  0
VERTEX
  8
T75SSILL
 62
13
 10
2041.869
 20
-7083.724
 30
-2237.136
 70
    32
  0
VERTEX
  8
T75SSILL
 62
13
 10
2041.826
 20
-7083.718
 30
-2237.136
 70
    32
  0
VERTEX
  8
T75SSILL
 62
13
 10
2041.782
 20
-7083.716
 30
-2237.136
 70
    32
  0
VERTEX
  8
T75SSILL
 62
13
 10
2041.738
 20
-7083.718
 30
-2237.136
 70
    32
  0
VERTEX
  8
T75SSILL
 62
13
 10
2041.695
 20
-7083.724
 30
-2237.136
 70
    32
  0
VERTEX
  8
T75SSILL
 62
13
 10
2041.653
 20
-7083.733
 30
-2237.136
 70
    32
  0
VERTEX
  8
T75SSILL
 62
13
 10
2041.611
 20
-7083.746
 30
-2237.136
 70
    32
  0
VERTEX
  8
T75SSILL
 62
13
 10
2041.571
 20
-7083.763
 30
-2237.136
 70
    32
  0
VERTEX
  8
T75SSILL
 62
13
 10
2041.532
 20
-7083.783
 30
-2237.136
 70
    32
  0
VERTEX
  8
T75SSILL
 62
13
 10
2041.495
 20
-7083.806
 30
-2237.136
 70
    32
  0
VERTEX
  8
T75SSILL
 62
13
 10
2041.461
 20
-7083.833
 30
-2237.136
 70
    32
  0
VERTEX
  8
T75SSILL
 62
13
 10
2041.428
 20
-7083.862
 30
-2237.136
 70
    32
  0
VERTEX
  8
T75SSILL
 62
13
 10
2041.399
 20
-7083.895
 30
-2237.136
 70
    32
  0
VERTEX
  8
T75SSILL
 62
13
 10
2041.372
 20
-7083.929
 30
-2237.136
 70
    32
  0
VERTEX
  8
T75SSILL
 62
13
 10
2041.349
 20
-7083.966
 30
-2237.136
 70
    32
  0
VERTEX
  8
T75SSILL
 62
13
 10
2041.329
 20
-7084.005
 30
-2237.136
 70
    32
  0
VERTEX
  8
T75SSILL
 62
13
 10
2041.312
 20
-7084.045
 30
-2237.136
 70
    32
  0
VERTEX
  8
T75SSILL
 62
13
 10
2041.299
 20
-7084.087
 30
-2237.136
 70
    32
  0
VERTEX
  8
T75SSILL
 62
13
 10
2041.290
 20
-7084.129
 30
-2237.136
 70
    32
  0
VERTEX
  8
T75SSILL
 62
13
 10
2041.284
 20
-7084.172
 30
-2237.136
 70
    32
  0
VERTEX
  8
T75SSILL
 62
13
 10
2041.282
 20
-7084.216
 30
-2237.136
 70
    32
  0
VERTEX
  8
T75SSILL
 62
13
 10
2041.284
 20
-7084.260
 30
-2237.136
 70
    32
  0
VERTEX
  8
T75SSILL
 62
13
 10
2041.290
 20
-7084.303
 30
-2237.136
 70
    32
  0
VERTEX
  8
T75SSILL
 62
13
 10
2041.299
 20
-7084.345
 30
-2237.136
 70
    32
  0
VERTEX
  8
T75SSILL
 62
13
 10
2041.312
 20
-7084.387
 30
-2237.136
 70
    32
  0
VERTEX
  8
T75SSILL
 62
13
 10
2041.329
 20
-7084.427
 30
-2237.136
 70
    32
  0
VERTEX
  8
T75SSILL
 62
13
 10
2041.349
 20
-7084.466
 30
-2237.136
 70
    32
  0
VERTEX
  8
T75SSILL
 62
13
 10
2041.372
 20
-7084.503
 30
-2237.136
 70
    32
  0
VERTEX
  8
T75SSILL
 62
13
 10
2041.399
 20
-7084.537
 30
-2237.136
 70
    32
  0
VERTEX
  8
T75SSILL
 62
13
 10
2041.428
 20
-7084.570
 30
-2237.136
 70
    32
  0
VERTEX
  8
T75SSILL
 62
13
 10
2041.461
 20
-7084.599
 30
-2237.136
 70
    32
  0
VERTEX
  8
T75SSILL
 62
13
 10
2041.495
 20
-7084.626
 30
-2237.136
 70
    32
  0
VERTEX
  8
T75SSILL
 62
13
 10
2041.532
 20
-7084.649
 30
-2237.136
 70
    32
  0
VERTEX
  8
T75SSILL
 62
13
 10
2041.571
 20
-7084.669
 30
-2237.136
 70
    32
  0
VERTEX
  8
T75SSILL
 62
13
 10
2041.611
 20
-7084.686
 30
-2237.136
 70
    32
  0
VERTEX
  8
T75SSILL
 62
13
 10
2041.653
 20
-7084.699
 30
-2237.136
 70
    32
  0
VERTEX
  8
T75SSILL
 62
13
 10
2041.695
 20
-7084.708
 30
-2237.136
 70
    32
  0
VERTEX
  8
T75SSILL
 62
13
 10
2041.738
 20
-7084.714
 30
-2237.136
 70
    32
  0
VERTEX
  8
T75SSILL
 62
13
 10
2041.782
 20
-7084.716
 30
-2237.136
 70
    32
  0
VERTEX
  8
T75SSILL
 62
13
 10
2041.826
 20
-7084.714
 30
-2237.136
 70
    32
  0
VERTEX
  8
T75SSILL
 62
13
 10
2041.869
 20
-7084.708
 30
-2237.136
 70
    32
  0
VERTEX
  8
T75SSILL
 62
13
 10
2041.911
 20
-7084.699
 30
-2237.136
 70
    32
  0
VERTEX
  8
T75SSILL
 62
13
 10
2041.953
 20
-7084.686
 30
-2237.136
 70
    32
  0
VERTEX
  8
T75SSILL
 62
13
 10
2041.993
 20
-7084.669
 30
-2237.136
 70
    32
  0
VERTEX
  8
T75SSILL
 62
13
 10
2042.032
 20
-7084.649
 30
-2237.136
 70
    32
  0
VERTEX
  8
T75SSILL
 62
13
 10
2042.069
 20
-7084.626
 30
-2237.136
 70
    32
  0
VERTEX
  8
T75SSILL
 62
13
 10
2042.103
 20
-7084.599
 30
-2237.136
 70
    32
  0
VERTEX
  8
T75SSILL
 62
13
 10
2042.136
 20
-7084.570
 30
-2237.136
 70
    32
  0
VERTEX
  8
T75SSILL
 62
13
 10
2042.165
 20
-7084.537
 30
-2237.136
 70
    32
  0
VERTEX
  8
T75SSILL
 62
13
 10
2042.192
 20
-7084.503
 30
-2237.136
 70
    32
  0
VERTEX
  8
T75SSILL
 62
13
 10
2042.215
 20
-7084.466
 30
-2237.136
 70
    32
  0
VERTEX
  8
T75SSILL
 62
13
 10
2042.235
 20
-7084.427
 30
-2237.136
 70
    32
  0
VERTEX
  8
T75SSILL
 62
13
 10
2042.252
 20
-7084.387
 30
-2237.136
 70
    32
  0
VERTEX
  8
T75SSILL
 62
13
 10
2042.265
 20
-7084.345
 30
-2237.136
 70
    32
  0
VERTEX
  8
T75SSILL
 62
13
 10
2042.274
 20
-7084.303
 30
-2237.136
 70
    32
  0
VERTEX
  8
T75SSILL
 62
13
 10
2042.280
 20
-7084.260
 30
-2237.136
 70
    32
  0
VERTEX
  8
T75SSILL
 62
13
 10
2042.282
 20
-7084.216
 30
-2237.136
 70
    32
  0
SEQEND
  8
T75SSILL
  0
POLYLINE
  8
T75SSILL
 62
13
 66
     1
 70
     9
  0
VERTEX
  8
T75SSILL
 62
13
 10
2050.263
 20
-7115.555
 30
-2235.935
 70
    32
  0
VERTEX
  8
T75SSILL
 62
13
 10
2050.007
 20
-7112.182
 30
-2234.573
 70
    32
  0
VERTEX
  8
T75SSILL
 62
13
 10
2047.947
 20
-7106.098
 30
-2234.386
 70
    32
  0
VERTEX
  8
T75SSILL
 62
13
 10
2046.424
 20
-7102.854
 30
-2234.614
 70
    32
  0
VERTEX
  8
T75SSILL
 62
13
 10
2043.909
 20
-7099.213
 30
-2235.060
 70
    32
  0
VERTEX
  8
T75SSILL
 62
13
 10
2037.655
 20
-7090.159
 30
-2236.751
 70
    32
  0
VERTEX
  8
T75SSILL
 62
13
 10
2035.312
 20
-7086.767
 30
-2237.174
 70
    32
  0
VERTEX
  8
T75SSILL
 62
13
 10
2023.398
 20
-7077.861
 30
-2237.151
 70
    32
  0
VERTEX
  8
T75SSILL
 62
13
 10
2017.935
 20
-7073.663
 30
-2237.147
 70
    32
  0
VERTEX
  8
T75SSILL
 62
13
 10
2017.400
 20
-7056.359
 30
-2237.124
 70
    32
  0
VERTEX
  8
T75SSILL
 62
13
 10
2016.060
 20
-7048.537
 30
-2237.110
 70
    32
  0
VERTEX
  8
T75SSILL
 62
13
 10
2023.697
 20
-7044.897
 30
-2237.112
 70
    32
  0
VERTEX
  8
T75SSILL
 62
13
 10
2036.201
 20
-7062.605
 30
-2237.112
 70
    32
  0
VERTEX
  8
T75SSILL
 62
13
 10
2052.215
 20
-7064.567
 30
-2237.092
 70
    32
  0
VERTEX
  8
T75SSILL
 62
13
 10
2055.309
 20
-7075.233
 30
-2237.109
 70
    32
  0
VERTEX
  8
T75SSILL
 62
13
 10
2056.308
 20
-7078.678
 30
-2236.521
 70
    32
  0
VERTEX
  8
T75SSILL
 62
13
 10
2057.122
 20
-7086.928
 30
-2235.268
 70
    32
  0
VERTEX
  8
T75SSILL
 62
13
 10
2057.717
 20
-7092.959
 30
-2234.844
 70
    32
  0
VERTEX
  8
T75SSILL
 62
13
 10
2062.809
 20
-7095.413
 30
-2234.660
 70
    32
  0
VERTEX
  8
T75SSILL
 62
13
 10
2062.516
 20
-7101.906
 30
-2234.212
 70
    32
  0
VERTEX
  8
T75SSILL
 62
13
 10
2064.895
 20
-7111.815
 30
-2235.945
 70
    32
  0
VERTEX
  8
T75SSILL
 62
13
 10
2050.263
 20
-7115.555
 30
-2235.935
 70
    32
  0
VERTEX
  8
T75SSILL
 62
13
 10
2050.263
 20
-7115.555
 30
-2235.935
 70
    32
  0
SEQEND
  8
T75SSILL
  0
TEXT
  8
T75SSILL
 62
3
 10
2037.380
 20
-7132.537
 30
-2252.300
 40
8.202
  1
U
 41
 1.0 
  0
POLYLINE
  8
T75SSILL
 62
3
 66
     1
 70
     9
  0
VERTEX
  8
T75SSILL
 62
3
 10
2064.895
 20
-7111.815
 30
-2235.945
 70
    32
  0
VERTEX
  8
T75SSILL
 62
3
 10
2070.609
 20
-7135.623
 30
-2245.953
 70
    32
  0
VERTEX
  8
T75SSILL
 62
3
 10
2073.769
 20
-7145.874
 30
-2250.216
 70
    32
  0
VERTEX
  8
T75SSILL
 62
3
 10
2062.127
 20
-7150.972
 30
-2249.599
 70
    32
  0
VERTEX
  8
T75SSILL
 62
3
 10
2056.336
 20
-7138.268
 30
-2245.413
 70
    32
  0
VERTEX
  8
T75SSILL
 62
3
 10
2051.168
 20
-7127.462
 30
-2240.657
 70
    32
  0
VERTEX
  8
T75SSILL
 62
3
 10
2050.263
 20
-7115.555
 30
-2235.935
 70
    32
  0
VERTEX
  8
T75SSILL
 62
3
 10
2064.895
 20
-7111.815
 30
-2235.945
 70
    32
  0
VERTEX
  8
T75SSILL
 62
3
 10
2064.895
 20
-7111.815
 30
-2235.945
 70
    32
  0
SEQEND
  8
T75SSILL
  0
POLYLINE
  8
T75SSILL
 62
4
 66
     1
 70
     9
  0
VERTEX
  8
T75SSILL
 62
4
 10
2222.912
 20
-6992.910
 30
-2242.570
 70
    32
  0
VERTEX
  8
T75SSILL
 62
4
 10
2222.087
 20
-6990.794
 30
-2242.452
 70
    32
  0
VERTEX
  8
T75SSILL
 62
4
 10
2220.479
 20
-6984.902
 30
-2242.133
 70
    32
  0
VERTEX
  8
T75SSILL
 62
4
 10
2218.839
 20
-6980.142
 30
-2241.973
 70
    32
  0
VERTEX
  8
T75SSILL
 62
4
 10
2212.168
 20
-6968.622
 30
-2241.592
 70
    32
  0
VERTEX
  8
T75SSILL
 62
4
 10
2208.158
 20
-6963.342
 30
-2241.513
 70
    32
  0
VERTEX
  8
T75SSILL
 62
4
 10
2200.658
 20
-6953.642
 30
-2241.507
 70
    32
  0
VERTEX
  8
T75SSILL
 62
4
 10
2196.878
 20
-6945.699
 30
-2241.503
 70
    32
  0
VERTEX
  8
T75SSILL
 62
4
 10
2195.772
 20
-6940.964
 30
-2241.501
 70
    32
  0
VERTEX
  8
T75SSILL
 62
4
 10
2195.772
 20
-6940.964
 30
-2241.501
 70
    32
  0
VERTEX
  8
T75SSILL
 62
4
 10
2193.793
 20
-6931.434
 30
-2241.501
 70
    32
  0
VERTEX
  8
T75SSILL
 62
4
 10
2194.899
 20
-6929.333
 30
-2241.501
 70
    32
  0
VERTEX
  8
T75SSILL
 62
4
 10
2192.753
 20
-6922.702
 30
-2241.501
 70
    32
  0
VERTEX
  8
T75SSILL
 62
4
 10
2202.210
 20
-6917.222
 30
-2241.501
 70
    32
  0
VERTEX
  8
T75SSILL
 62
4
 10
2209.867
 20
-6934.737
 30
-2241.501
 70
    32
  0
VERTEX
  8
T75SSILL
 62
4
 10
2209.867
 20
-6934.737
 30
-2241.503
 70
    32
  0
VERTEX
  8
T75SSILL
 62
4
 10
2214.477
 20
-6941.923
 30
-2241.500
 70
    32
  0
VERTEX
  8
T75SSILL
 62
4
 10
2226.486
 20
-6955.365
 30
-2241.488
 70
    32
  0
VERTEX
  8
T75SSILL
 62
4
 10
2230.305
 20
-6957.940
 30
-2241.548
 70
    32
  0
VERTEX
  8
T75SSILL
 62
4
 10
2231.199
 20
-6967.939
 30
-2241.779
 70
    32
  0
VERTEX
  8
T75SSILL
 62
4
 10
2231.556
 20
-6972.939
 30
-2241.894
 70
    32
  0
VERTEX
  8
T75SSILL
 62
4
 10
2233.723
 20
-6979.776
 30
-2242.093
 70
    32
  0
VERTEX
  8
T75SSILL
 62
4
 10
2235.844
 20
-6986.687
 30
-2242.423
 70
    32
  0
VERTEX
  8
T75SSILL
 62
4
 10
2236.303
 20
-6989.484
 30
-2242.533
 70
    32
  0
VERTEX
  8
T75SSILL
 62
4
 10
2222.912
 20
-6992.910
 30
-2242.570
 70
    32
  0
SEQEND
  8
T75SSILL
  0
POLYLINE
  8
T75SSILL
 62
13
 66
     1
 70
     9
  0
VERTEX
  8
T75SSILL
 62
13
 10
1893.450
 20
-6596.010
 30
-2253.866
 70
    32
  0
VERTEX
  8
T75SSILL
 62
13
 10
1889.505
 20
-6599.181
 30
-2252.438
 70
    32
  0
VERTEX
  8
T75SSILL
 62
13
 10
1888.603
 20
-6602.709
 30
-2251.594
 70
    32
  0
VERTEX
  8
T75SSILL
 62
13
 10
1880.727
 20
-6610.620
 30
-2252.398
 70
    32
  0
VERTEX
  8
T75SSILL
 62
13
 10
1870.517
 20
-6620.876
 30
-2253.425
 70
    32
  0
VERTEX
  8
T75SSILL
 62
13
 10
1865.246
 20
-6628.285
 30
-2254.066
 70
    32
  0
VERTEX
  8
T75SSILL
 62
13
 10
1859.039
 20
-6635.572
 30
-2254.746
 70
    32
  0
VERTEX
  8
T75SSILL
 62
13
 10
1858.635
 20
-6636.089
 30
-2254.792
 70
    32
  0
VERTEX
  8
T75SSILL
 62
13
 10
1850.241
 20
-6646.813
 30
-2255.000
 70
    32
  0
VERTEX
  8
T75SSILL
 62
13
 10
1844.737
 20
-6659.138
 30
-2256.000
 70
    32
  0
VERTEX
  8
T75SSILL
 62
13
 10
1835.717
 20
-6687.409
 30
-2258.000
 70
    32
  0
VERTEX
  8
T75SSILL
 62
13
 10
1831.962
 20
-6709.825
 30
-2258.000
 70
    32
  0
VERTEX
  8
T75SSILL
 62
13
 10
1830.225
 20
-6720.316
 30
-2258.000
 70
    32
  0
VERTEX
  8
T75SSILL
 62
13
 10
1833.948
 20
-6727.760
 30
-2260.476
 70
    32
  0
VERTEX
  8
T75SSILL
 62
13
 10
1838.115
 20
-6745.665
 30
-2260.285
 70
    32
  0
VERTEX
  8
T75SSILL
 62
13
 10
1830.933
 20
-6750.819
 30
-2260.233
 70
    32
  0
VERTEX
  8
T75SSILL
 62
13
 10
1825.703
 20
-6759.464
 30
-2260.144
 70
    32
  0
VERTEX
  8
T75SSILL
 62
13
 10
1810.613
 20
-6760.071
 30
-2260.143
 70
    32
  0
VERTEX
  8
T75SSILL
 62
13
 10
1797.276
 20
-6757.880
 30
-2260.085
 70
    32
  0
VERTEX
  8
T75SSILL
 62
13
 10
1771.011
 20
-6774.587
 30
-2259.759
 70
    32
  0
VERTEX
  8
T75SSILL
 62
13
 10
1761.048
 20
-6782.910
 30
-2259.671
 70
    32
  0
VERTEX
  8
T75SSILL
 62
13
 10
1749.433
 20
-6788.288
 30
-2259.649
 70
    32
  0
VERTEX
  8
T75SSILL
 62
13
 10
1738.277
 20
-6789.116
 30
-2259.676
 70
    32
  0
VERTEX
  8
T75SSILL
 62
13
 10
1713.266
 20
-6785.653
 30
-2259.797
 70
    32
  0
VERTEX
  8
T75SSILL
 62
13
 10
1705.592
 20
-6788.689
 30
-2259.788
 70
    32
  0
VERTEX
  8
T75SSILL
 62
13
 10
1730.745
 20
-6853.672
 30
-2258.978
 70
    32
  0
VERTEX
  8
T75SSILL
 62
13
 10
1740.102
 20
-6860.139
 30
-2258.875
 70
    32
  0
VERTEX
  8
T75SSILL
 62
13
 10
1745.403
 20
-6872.676
 30
-2258.717
 70
    32
  0
VERTEX
  8
T75SSILL
 62
13
 10
1743.913
 20
-6879.200
 30
-2258.649
 70
    32
  0
VERTEX
  8
T75SSILL
 62
13
 10
1746.422
 20
-6884.795
 30
-2258.582
 70
    32
  0
VERTEX
  8
T75SSILL
 62
13
 10
1743.644
 20
-6887.012
 30
-2258.564
 70
    32
  0
VERTEX
  8
T75SSILL
 62
13
 10
1744.741
 20
-6889.780
 30
-2258.531
 70
    32
  0
VERTEX
  8
T75SSILL
 62
13
 10
1752.221
 20
-6892.941
 30
-2258.480
 70
    32
  0
VERTEX
  8
T75SSILL
 62
13
 10
1758.749
 20
-6899.029
 30
-2258.399
 70
    32
  0
VERTEX
  8
T75SSILL
 62
13
 10
1764.908
 20
-6920.272
 30
-2258.153
 70
    32
  0
VERTEX
  8
T75SSILL
 62
13
 10
1791.211
 20
-6956.947
 30
-2257.963
 70
    32
  0
VERTEX
  8
T75SSILL
 62
13
 10
1797.739
 20
-6962.438
 30
-2257.970
 70
    32
  0
VERTEX
  8
T75SSILL
 62
13
 10
1798.518
 20
-6967.424
 30
-2257.923
 70
    32
  0
VERTEX
  8
T75SSILL
 62
13
 10
1849.783
 20
-7038.879
 30
-2257.559
 70
    32
  0
VERTEX
  8
T75SSILL
 62
13
 10
1856.223
 20
-7040.108
 30
-2257.581
 70
    32
  0
VERTEX
  8
T75SSILL
 62
13
 10
1858.498
 20
-7043.640
 30
-2257.559
 70
    32
  0
VERTEX
  8
T75SSILL
 62
13
 10
1857.018
 20
-7048.798
 30
-2257.499
 70
    32
  0
VERTEX
  8
T75SSILL
 62
13
 10
1903.209
 20
-7112.359
 30
-2257.201
 70
    32
  0
VERTEX
  8
T75SSILL
 62
13
 10
1911.429
 20
-7120.310
 30
-2257.201
 70
    32
  0
VERTEX
  8
T75SSILL
 62
13
 10
1915.588
 20
-7127.342
 30
-2257.174
 70
    32
  0
VERTEX
  8
T75SSILL
 62
13
 10
1916.285
 20
-7131.540
 30
-2257.142
 70
    32
  0
VERTEX
  8
T75SSILL
 62
13
 10
1964.029
 20
-7198.382
 30
-2256.857
 70
    32
  0
VERTEX
  8
T75SSILL
 62
13
 10
1971.773
 20
-7199.820
 30
-2256.885
 70
    32
  0
VERTEX
  8
T75SSILL
 62
13
 10
1971.561
 20
-7209.167
 30
-2256.791
 70
    32
  0
VERTEX
  8
T75SSILL
 62
13
 10
1986.622
 20
-7229.912
 30
-2256.665
 70
    32
  0
VERTEX
  8
T75SSILL
 62
13
 10
1997.231
 20
-7230.896
 30
-2255.391
 70
    32
  0
VERTEX
  8
T75SSILL
 62
13
 10
2005.797
 20
-7231.691
 30
-2255.018
 70
    32
  0
VERTEX
  8
T75SSILL
 62
13
 10
2021.590
 20
-7219.600
 30
-2253.895
 70
    32
  0
VERTEX
  8
T75SSILL
 62
13
 10
2028.475
 20
-7215.654
 30
-2253.448
 70
    32
  0
VERTEX
  8
T75SSILL
 62
13
 10
2036.550
 20
-7211.026
 30
-2252.975
 70
    32
  0
VERTEX
  8
T75SSILL
 62
13
 10
2038.732
 20
-7207.414
 30
-2252.756
 70
    32
  0
VERTEX
  8
T75SSILL
 62
13
 10
2046.510
 20
-7194.537
 30
-2251.587
 70
    32
  0
VERTEX
  8
T75SSILL
 62
13
 10
2049.455
 20
-7189.721
 30
-2251.379
 70
    32
  0
VERTEX
  8
T75SSILL
 62
13
 10
2057.213
 20
-7177.413
 30
-2251.163
 70
    32
  0
VERTEX
  8
T75SSILL
 62
13
 10
2061.245
 20
-7173.071
 30
-2250.716
 70
    32
  0
VERTEX
  8
T75SSILL
 62
13
 10
2064.196
 20
-7169.892
 30
-2250.389
 70
    32
  0
VERTEX
  8
T75SSILL
 62
13
 10
2067.333
 20
-7163.426
 30
-2249.788
 70
    32
  0
VERTEX
  8
T75SSILL
 62
13
 10
2063.821
 20
-7155.073
 30
-2249.838
 70
    32
  0
VERTEX
  8
T75SSILL
 62
13
 10
2059.457
 20
-7144.509
 30
-2249.222
 70
    32
  0
VERTEX
  8
T75SSILL
 62
13
 10
2050.395
 20
-7129.230
 30
-2248.148
 70
    32
  0
VERTEX
  8
T75SSILL
 62
13
 10
2046.082
 20
-7123.469
 30
-2247.684
 70
    32
  0
VERTEX
  8
T75SSILL
 62
13
 10
2038.656
 20
-7113.549
 30
-2246.682
 70
    32
  0
VERTEX
  8
T75SSILL
 62
13
 10
2040.107
 20
-7106.008
 30
-2246.097
 70
    32
  0
VERTEX
  8
T75SSILL
 62
13
 10
2040.410
 20
-7104.432
 30
-2246.108
 70
    32
  0
VERTEX
  8
T75SSILL
 62
13
 10
2042.230
 20
-7105.208
 30
-2246.083
 70
    32
  0
VERTEX
  8
T75SSILL
 62
13
 10
2046.729
 20
-7107.128
 30
-2246.353
 70
    32
  0
VERTEX
  8
T75SSILL
 62
13
 10
2051.190
 20
-7104.924
 30
-2246.282
 70
    32
  0
VERTEX
  8
T75SSILL
 62
13
 10
2051.476
 20
-7102.420
 30
-2246.083
 70
    32
  0
VERTEX
  8
T75SSILL
 62
13
 10
2051.035
 20
-7101.893
 30
-2246.028
 70
    32
  0
VERTEX
  8
T75SSILL
 62
13
 10
2042.311
 20
-7091.459
 30
-2246.208
 70
    32
  0
VERTEX
  8
T75SSILL
 62
13
 10
2033.155
 20
-7078.047
 30
-2246.419
 70
    32
  0
VERTEX
  8
T75SSILL
 62
13
 10
2022.474
 20
-7068.875
 30
-2247.000
 70
    32
  0
VERTEX
  8
T75SSILL
 62
13
 10
1997.518
 20
-7053.710
 30
-2247.000
 70
    32
  0
VERTEX
  8
T75SSILL
 62
13
 10
2007.635
 20
-7042.251
 30
-2247.000
 70
    32
  0
VERTEX
  8
T75SSILL
 62
13
 10
2024.835
 20
-7032.815
 30
-2247.000
 70
    32
  0
VERTEX
  8
T75SSILL
 62
13
 10
2030.409
 20
-7045.106
 30
-2247.000
 70
    32
  0
VERTEX
  8
T75SSILL
 62
13
 10
2033.314
 20
-7054.694
 30
-2246.777
 70
    32
  0
VERTEX
  8
T75SSILL
 62
13
 10
2039.528
 20
-7066.529
 30
-2246.538
 70
    32
  0
VERTEX
  8
T75SSILL
 62
13
 10
2045.963
 20
-7072.252
 30
-2246.411
 70
    32
  0
VERTEX
  8
T75SSILL
 62
13
 10
2050.190
 20
-7074.378
 30
-2246.358
 70
    32
  0
VERTEX
  8
T75SSILL
 62
13
 10
2051.417
 20
-7068.973
 30
-2246.452
 70
    32
  0
VERTEX
  8
T75SSILL
 62
13
 10
2054.395
 20
-7063.302
 30
-2246.545
 70
    32
  0
VERTEX
  8
T75SSILL
 62
13
 10
2053.204
 20
-7057.137
 30
-2246.662
 70
    32
  0
VERTEX
  8
T75SSILL
 62
13
 10
2058.260
 20
-7056.179
 30
-2246.662
 70
    32
  0
VERTEX
  8
T75SSILL
 62
13
 10
2065.198
 20
-7055.253
 30
-2246.654
 70
    32
  0
VERTEX
  8
T75SSILL
 62
13
 10
2066.123
 20
-7062.177
 30
-2246.524
 70
    32
  0
VERTEX
  8
T75SSILL
 62
13
 10
2061.513
 20
-7081.057
 30
-2246.196
 70
    32
  0
VERTEX
  8
T75SSILL
 62
13
 10
2063.345
 20
-7090.898
 30
-2246.010
 70
    32
  0
VERTEX
  8
T75SSILL
 62
13
 10
2064.451
 20
-7096.841
 30
-2245.945
 70
    32
  0
VERTEX
  8
T75SSILL
 62
13
 10
2066.153
 20
-7105.984
 30
-2246.740
 70
    32
  0
VERTEX
  8
T75SSILL
 62
13
 10
2070.534
 20
-7114.167
 30
-2247.523
 70
    32
  0
VERTEX
  8
T75SSILL
 62
13
 10
2067.429
 20
-7126.436
 30
-2248.457
 70
    32
  0
VERTEX
  8
T75SSILL
 62
13
 10
2073.769
 20
-7145.874
 30
-2250.216
 70
    32
  0
VERTEX
  8
T75SSILL
 62
13
 10
2077.750
 20
-7146.269
 30
-2250.210
 70
    32
  0
VERTEX
  8
T75SSILL
 62
13
 10
2084.798
 20
-7135.795
 30
-2250.170
 70
    32
  0
VERTEX
  8
T75SSILL
 62
13
 10
2090.556
 20
-7126.712
 30
-2250.173
 70
    32
  0
VERTEX
  8
T75SSILL
 62
13
 10
2095.649
 20
-7120.829
 30
-2249.100
 70
    32
  0
VERTEX
  8
T75SSILL
 62
13
 10
2102.450
 20
-7113.309
 30
-2249.079
 70
    32
  0
VERTEX
  8
T75SSILL
 62
13
 10
2105.272
 20
-7110.188
 30
-2248.907
 70
    32
  0
VERTEX
  8
T75SSILL
 62
13
 10
2112.049
 20
-7103.608
 30
-2248.516
 70
    32
  0
VERTEX
  8
T75SSILL
 62
13
 10
2118.522
 20
-7101.278
 30
-2248.233
 70
    32
  0
VERTEX
  8
T75SSILL
 62
13
 10
2155.649
 20
-7074.957
 30
-2246.311
 70
    32
  0
VERTEX
  8
T75SSILL
 62
13
 10
2158.419
 20
-7072.993
 30
-2246.171
 70
    32
  0
VERTEX
  8
T75SSILL
 62
13
 10
2170.267
 20
-7060.404
 30
-2245.466
 70
    32
  0
VERTEX
  8
T75SSILL
 62
13
 10
2176.409
 20
-7055.401
 30
-2245.139
 70
    32
  0
VERTEX
  8
T75SSILL
 62
13
 10
2183.351
 20
-7050.171
 30
-2244.763
 70
    32
  0
VERTEX
  8
T75SSILL
 62
13
 10
2183.386
 20
-7050.145
 30
-2244.762
 70
    32
  0
VERTEX
  8
T75SSILL
 62
13
 10
2186.944
 20
-7047.465
 30
-2244.688
 70
    32
  0
VERTEX
  8
T75SSILL
 62
13
 10
2196.665
 20
-7054.495
 30
-2244.636
 70
    32
  0
VERTEX
  8
T75SSILL
 62
13
 10
2205.512
 20
-7047.507
 30
-2244.448
 70
    32
  0
VERTEX
  8
T75SSILL
 62
13
 10
2208.493
 20
-7045.152
 30
-2244.394
 70
    32
  0
VERTEX
  8
T75SSILL
 62
13
 10
2213.041
 20
-7039.156
 30
-2244.284
 70
    32
  0
VERTEX
  8
T75SSILL
 62
13
 10
2221.114
 20
-7028.513
 30
-2243.988
 70
    32
  0
VERTEX
  8
T75SSILL
 62
13
 10
2224.100
 20
-7018.691
 30
-2243.848
 70
    32
  0
VERTEX
  8
T75SSILL
 62
13
 10
2228.161
 20
-7011.327
 30
-2243.536
 70
    32
  0
VERTEX
  8
T75SSILL
 62
13
 10
2226.196
 20
-7001.328
 30
-2242.978
 70
    32
  0
VERTEX
  8
T75SSILL
 62
13
 10
2222.912
 20
-6992.910
 30
-2242.570
 70
    32
  0
VERTEX
  8
T75SSILL
 62
13
 10
2236.303
 20
-6989.484
 30
-2242.533
 70
    32
  0
VERTEX
  8
T75SSILL
 62
13
 10
2237.631
 20
-6997.579
 30
-2242.854
 70
    32
  0
VERTEX
  8
T75SSILL
 62
13
 10
2242.991
 20
-7000.078
 30
-2242.993
 70
    32
  0
VERTEX
  8
T75SSILL
 62
13
 10
2241.562
 20
-7010.256
 30
-2243.393
 70
    32
  0
VERTEX
  8
T75SSILL
 62
13
 10
2238.902
 20
-7017.528
 30
-2243.691
 70
    32
  0
VERTEX
  8
T75SSILL
 62
13
 10
2234.406
 20
-7031.380
 30
-2244.023
 70
    32
  0
VERTEX
  8
T75SSILL
 62
13
 10
2230.212
 20
-7035.777
 30
-2244.081
 70
    32
  0
VERTEX
  8
T75SSILL
 62
13
 10
2228.237
 20
-7040.602
 30
-2244.146
 70
    32
  0
VERTEX
  8
T75SSILL
 62
13
 10
2224.990
 20
-7043.832
 30
-2244.188
 70
    32
  0
VERTEX
  8
T75SSILL
 62
13
 10
2221.769
 20
-7047.035
 30
-2244.289
 70
    32
  0
VERTEX
  8
T75SSILL
 62
13
 10
2221.515
 20
-7047.288
 30
-2244.294
 70
    32
  0
VERTEX
  8
T75SSILL
 62
13
 10
2219.890
 20
-7051.661
 30
-2244.358
 70
    32
  0
VERTEX
  8
T75SSILL
 62
13
 10
2214.753
 20
-7055.580
 30
-2244.451
 70
    32
  0
VERTEX
  8
T75SSILL
 62
13
 10
2213.351
 20
-7058.544
 30
-2244.497
 70
    32
  0
VERTEX
  8
T75SSILL
 62
13
 10
2204.222
 20
-7063.130
 30
-2244.635
 70
    32
  0
VERTEX
  8
T75SSILL
 62
13
 10
2202.433
 20
-7064.544
 30
-2244.667
 70
    32
  0
VERTEX
  8
T75SSILL
 62
13
 10
2201.301
 20
-7065.439
 30
-2244.691
 70
    32
  0
VERTEX
  8
T75SSILL
 62
13
 10
2197.927
 20
-7068.106
 30
-2244.763
 70
    32
  0
VERTEX
  8
T75SSILL
 62
13
 10
2197.750
 20
-7068.246
 30
-2244.748
 70
    32
  0
VERTEX
  8
T75SSILL
 62
13
 10
2197.650
 20
-7068.325
 30
-2244.753
 70
    32
  0
VERTEX
  8
T75SSILL
 62
13
 10
2174.287
 20
-7076.109
 30
-2245.721
 70
    32
  0
VERTEX
  8
T75SSILL
 62
13
 10
2166.698
 20
-7081.185
 30
-2246.098
 70
    32
  0
VERTEX
  8
T75SSILL
 62
13
 10
2166.197
 20
-7084.851
 30
-2246.206
 70
    32
  0
VERTEX
  8
T75SSILL
 62
13
 10
2149.824
 20
-7096.136
 30
-2247.028
 70
    32
  0
VERTEX
  8
T75SSILL
 62
13
 10
2126.817
 20
-7110.850
 30
-2248.155
 70
    32
  0
VERTEX
  8
T75SSILL
 62
13
 10
2115.686
 20
-7117.969
 30
-2248.714
 70
    32
  0
VERTEX
  8
T75SSILL
 62
13
 10
2109.872
 20
-7124.911
 30
-2249.079
 70
    32
  0
VERTEX
  8
T75SSILL
 62
13
 10
2109.588
 20
-7125.250
 30
-2249.100
 70
    32
  0
VERTEX
  8
T75SSILL
 62
13
 10
2102.745
 20
-7133.712
 30
-2250.170
 70
    32
  0
VERTEX
  8
T75SSILL
 62
13
 10
2097.799
 20
-7140.163
 30
-2250.166
 70
    32
  0
VERTEX
  8
T75SSILL
 62
13
 10
2096.472
 20
-7142.517
 30
-2250.164
 70
    32
  0
VERTEX
  8
T75SSILL
 62
13
 10
2094.402
 20
-7146.189
 30
-2250.177
 70
    32
  0
VERTEX
  8
T75SSILL
 62
13
 10
2092.350
 20
-7148.881
 30
-2250.188
 70
    32
  0
VERTEX
  8
T75SSILL
 62
13
 10
2086.759
 20
-7156.217
 30
-2249.457
 70
    32
  0
VERTEX
  8
T75SSILL
 62
13
 10
2085.360
 20
-7159.116
 30
-2249.159
 70
    32
  0
VERTEX
  8
T75SSILL
 62
13
 10
2082.552
 20
-7164.936
 30
-2249.569
 70
    32
  0
VERTEX
  8
T75SSILL
 62
13
 10
2084.482
 20
-7173.154
 30
-2250.226
 70
    32
  0
VERTEX
  8
T75SSILL
 62
13
 10
2082.031
 20
-7174.884
 30
-2250.424
 70
    32
  0
VERTEX
  8
T75SSILL
 62
13
 10
2085.470
 20
-7182.165
 30
-2250.970
 70
    32
  0
VERTEX
  8
T75SSILL
 62
13
 10
2079.999
 20
-7183.773
 30
-2251.222
 70
    32
  0
VERTEX
  8
T75SSILL
 62
13
 10
2074.335
 20
-7185.438
 30
-2251.226
 70
    32
  0
VERTEX
  8
T75SSILL
 62
13
 10
2074.209
 20
-7183.945
 30
-2251.217
 70
    32
  0
VERTEX
  8
T75SSILL
 62
13
 10
2068.479
 20
-7187.924
 30
-2251.236
 70
    32
  0
VERTEX
  8
T75SSILL
 62
13
 10
2066.682
 20
-7191.084
 30
-2251.253
 70
    32
  0
VERTEX
  8
T75SSILL
 62
13
 10
2070.944
 20
-7204.361
 30
-2251.346
 70
    32
  0
VERTEX
  8
T75SSILL
 62
13
 10
2051.662
 20
-7215.163
 30
-2252.481
 70
    32
  0
VERTEX
  8
T75SSILL
 62
13
 10
2048.225
 20
-7217.088
 30
-2252.782
 70
    32
  0
VERTEX
  8
T75SSILL
 62
13
 10
2042.976
 20
-7220.029
 30
-2253.087
 70
    32
  0
VERTEX
  8
T75SSILL
 62
13
 10
2009.608
 20
-7245.168
 30
-2255.273
 70
    32
  0
VERTEX
  8
T75SSILL
 62
13
 10
2006.321
 20
-7247.645
 30
-2255.505
 70
    32
  0
VERTEX
  8
T75SSILL
 62
13
 10
2006.616
 20
-7249.849
 30
-2255.563
 70
    32
  0
VERTEX
  8
T75SSILL
 62
13
 10
2007.222
 20
-7254.377
 30
-2255.715
 70
    32
  0
VERTEX
  8
T75SSILL
 62
13
 10
2007.884
 20
-7259.320
 30
-2256.628
 70
    32
  0
VERTEX
  8
T75SSILL
 62
13
 10
2023.044
 20
-7280.288
 30
-2256.819
 70
    32
  0
VERTEX
  8
T75SSILL
 62
13
 10
2027.659
 20
-7283.098
 30
-2256.902
 70
    32
  0
VERTEX
  8
T75SSILL
 62
13
 10
2028.677
 20
-7287.864
 30
-2256.891
 70
    32
  0
VERTEX
  8
T75SSILL
 62
13
 10
2067.162
 20
-7343.257
 30
-2257.360
 70
    32
  0
VERTEX
  8
T75SSILL
 62
13
 10
2058.053
 20
-7349.795
 30
-2257.111
 70
    32
  0
VERTEX
  8
T75SSILL
 62
13
 10
2050.054
 20
-7334.591
 30
-2257.039
 70
    32
  0
VERTEX
  8
T75SSILL
 62
13
 10
2032.597
 20
-7310.756
 30
-2256.817
 70
    32
  0
VERTEX
  8
T75SSILL
 62
13
 10
2027.757
 20
-7314.242
 30
-2256.684
 70
    32
  0
VERTEX
  8
T75SSILL
 62
13
 10
2024.591
 20
-7333.696
 30
-2256.476
 70
    32
  0
VERTEX
  8
T75SSILL
 62
13
 10
2014.119
 20
-7356.840
 30
-2256.520
 70
    32
  0
VERTEX
  8
T75SSILL
 62
13
 10
1997.325
 20
-7373.659
 30
-2256.630
 70
    32
  0
VERTEX
  8
T75SSILL
 62
13
 10
1962.608
 20
-7400.377
 30
-2256.845
 70
    32
  0
VERTEX
  8
T75SSILL
 62
13
 10
1956.959
 20
-7390.573
 30
-2256.858
 70
    32
  0
VERTEX
  8
T75SSILL
 62
13
 10
1977.620
 20
-7376.872
 30
-2256.733
 70
    32
  0
VERTEX
  8
T75SSILL
 62
13
 10
1995.642
 20
-7361.935
 30
-2256.620
 70
    32
  0
VERTEX
  8
T75SSILL
 62
13
 10
2004.226
 20
-7351.833
 30
-2256.562
 70
    32
  0
VERTEX
  8
T75SSILL
 62
13
 10
2012.434
 20
-7338.099
 30
-2256.499
 70
    32
  0
VERTEX
  8
T75SSILL
 62
13
 10
2016.605
 20
-7327.100
 30
-2256.461
 70
    32
  0
VERTEX
  8
T75SSILL
 62
13
 10
2017.017
 20
-7319.111
 30
-2256.447
 70
    32
  0
VERTEX
  8
T75SSILL
 62
13
 10
2015.252
 20
-7301.175
 30
-2256.497
 70
    32
  0
VERTEX
  8
T75SSILL
 62
13
 10
2009.858
 20
-7283.892
 30
-2256.498
 70
    32
  0
VERTEX
  8
T75SSILL
 62
13
 10
2004.934
 20
-7273.317
 30
-2256.463
 70
    32
  0
VERTEX
  8
T75SSILL
 62
13
 10
1965.101
 20
-7216.459
 30
-2256.713
 70
    32
  0
VERTEX
  8
T75SSILL
 62
13
 10
1956.596
 20
-7212.001
 30
-2256.747
 70
    32
  0
VERTEX
  8
T75SSILL
 62
13
 10
1953.419
 20
-7201.170
 30
-2256.809
 70
    32
  0
VERTEX
  8
T75SSILL
 62
13
 10
1905.849
 20
-7135.044
 30
-2257.101
 70
    32
  0
VERTEX
  8
T75SSILL
 62
13
 10
1897.917
 20
-7130.090
 30
-2257.128
 70
    32
  0
VERTEX
  8
T75SSILL
 62
13
 10
1898.181
 20
-7123.888
 30
-2257.134
 70
    32
  0
VERTEX
  8
T75SSILL
 62
13
 10
1848.448
 20
-7053.463
 30
-2257.451
 70
    32
  0
VERTEX
  8
T75SSILL
 62
13
 10
1844.414
 20
-7053.177
 30
-2257.463
 70
    32
  0
VERTEX
  8
T75SSILL
 62
13
 10
1841.833
 20
-7050.999
 30
-2257.478
 70
    32
  0
VERTEX
  8
T75SSILL
 62
13
 10
1839.101
 20
-7040.931
 30
-2257.523
 70
    32
  0
VERTEX
  8
T75SSILL
 62
13
 10
1793.736
 20
-6977.870
 30
-2257.814
 70
    32
  0
VERTEX
  8
T75SSILL
 62
13
 10
1791.087
 20
-6977.498
 30
-2257.820
 70
    32
  0
VERTEX
  8
T75SSILL
 62
13
 10
1788.152
 20
-6969.462
 30
-2257.845
 70
    32
  0
VERTEX
  8
T75SSILL
 62
13
 10
1738.759
 20
-6900.680
 30
-2258.439
 70
    32
  0
VERTEX
  8
T75SSILL
 62
13
 10
1691.420
 20
-6781.725
 30
-2259.922
 70
    32
  0
VERTEX
  8
T75SSILL
 62
13
 10
1687.339
 20
-6780.589
 30
-2259.957
 70
    32
  0
VERTEX
  8
T75SSILL
 62
13
 10
1683.624
 20
-6763.259
 30
-2260.156
 70
    32
  0
VERTEX
  8
T75SSILL
 62
13
 10
1654.261
 20
-6687.656
 30
-2262.237
 70
    32
  0
VERTEX
  8
T75SSILL
 62
13
 10
1648.473
 20
-6681.660
 30
-2262.844
 70
    32
  0
VERTEX
  8
T75SSILL
 62
13
 10
1647.279
 20
-6670.395
 30
-2263.235
 70
    32
  0
VERTEX
  8
T75SSILL
 62
13
 10
1619.470
 20
-6598.999
 30
-2263.633
 70
    32
  0
VERTEX
  8
T75SSILL
 62
13
 10
1612.031
 20
-6593.784
 30
-2263.619
 70
    32
  0
VERTEX
  8
T75SSILL
 62
13
 10
1615.465
 20
-6587.355
 30
-2263.848
 70
    32
  0
VERTEX
  8
T75SSILL
 62
13
 10
1602.942
 20
-6557.767
 30
-2264.348
 70
    32
  0
VERTEX
  8
T75SSILL
 62
13
 10
1587.338
 20
-6533.747
 30
-2264.242
 70
    32
  0
VERTEX
  8
T75SSILL
 62
13
 10
1571.434
 20
-6483.870
 30
-2263.969
 70
    32
  0
VERTEX
  8
T75SSILL
 62
13
 10
1549.894
 20
-6431.034
 30
-2263.673
 70
    32
  0
VERTEX
  8
T75SSILL
 62
13
 10
1544.631
 20
-6409.228
 30
-2263.556
 70
    32
  0
VERTEX
  8
T75SSILL
 62
13
 10
1533.979
 20
-6380.617
 30
-2263.252
 70
    32
  0
VERTEX
  8
T75SSILL
 62
13
 10
1535.738
 20
-6372.334
 30
-2263.130
 70
    32
  0
VERTEX
  8
T75SSILL
 62
13
 10
1529.734
 20
-6306.610
 30
-2262.122
 70
    32
  0
VERTEX
  8
T75SSILL
 62
13
 10
1524.169
 20
-6299.329
 30
-2262.004
 70
    32
  0
VERTEX
  8
T75SSILL
 62
13
 10
1526.899
 20
-6291.291
 30
-2261.896
 70
    32
  0
VERTEX
  8
T75SSILL
 62
13
 10
1514.893
 20
-6186.774
 30
-2260.560
 70
    32
  0
VERTEX
  8
T75SSILL
 62
13
 10
1510.345
 20
-6180.370
 30
-2260.528
 70
    32
  0
VERTEX
  8
T75SSILL
 62
13
 10
1513.487
 20
-6171.960
 30
-2260.454
 70
    32
  0
VERTEX
  8
T75SSILL
 62
13
 10
1502.444
 20
-6073.231
 30
-2259.752
 70
    32
  0
VERTEX
  8
T75SSILL
 62
13
 10
1495.723
 20
-6065.498
 30
-2259.719
 70
    32
  0
VERTEX
  8
T75SSILL
 62
13
 10
1500.556
 20
-6057.842
 30
-2259.644
 70
    32
  0
VERTEX
  8
T75SSILL
 62
13
 10
1489.321
 20
-5963.375
 30
-2259.146
 70
    32
  0
VERTEX
  8
T75SSILL
 62
13
 10
1428.570
 20
-5905.441
 30
-2259.413
 70
    32
  0
VERTEX
  8
T75SSILL
 62
13
 10
1430.111
 20
-5893.437
 30
-2259.337
 70
    32
  0
VERTEX
  8
T75SSILL
 62
13
 10
1436.525
 20
-5899.131
 30
-2259.345
 70
    32
  0
VERTEX
  8
T75SSILL
 62
13
 10
1480.465
 20
-5938.137
 30
-2259.106
 70
    32
  0
VERTEX
  8
T75SSILL
 62
13
 10
1485.682
 20
-5931.710
 30
-2259.021
 70
    32
  0
VERTEX
  8
T75SSILL
 62
13
 10
1475.712
 20
-5845.110
 30
-2258.679
 70
    32
  0
VERTEX
  8
T75SSILL
 62
13
 10
1469.247
 20
-5836.210
 30
-2258.698
 70
    32
  0
VERTEX
  8
T75SSILL
 62
13
 10
1467.268
 20
-5824.904
 30
-2258.660
 70
    32
  0
VERTEX
  8
T75SSILL
 62
13
 10
1467.070
 20
-5819.548
 30
-2258.635
 70
    32
  0
VERTEX
  8
T75SSILL
 62
13
 10
1471.773
 20
-5812.122
 30
-2258.550
 70
    32
  0
VERTEX
  8
T75SSILL
 62
13
 10
1471.359
 20
-5808.757
 30
-2258.537
 70
    32
  0
VERTEX
  8
T75SSILL
 62
13
 10
1458.288
 20
-5791.695
 30
-2258.580
 70
    32
  0
VERTEX
  8
T75SSILL
 62
13
 10
1468.059
 20
-5781.955
 30
-2258.433
 70
    32
  0
VERTEX
  8
T75SSILL
 62
13
 10
1461.349
 20
-5727.460
 30
-2258.222
 70
    32
  0
VERTEX
  8
T75SSILL
 62
13
 10
1458.180
 20
-5722.541
 30
-2258.220
 70
    32
  0
VERTEX
  8
T75SSILL
 62
13
 10
1460.627
 20
-5716.966
 30
-2258.176
 70
    32
  0
VERTEX
  8
T75SSILL
 62
13
 10
1450.398
 20
-5617.689
 30
-2256.956
 70
    32
  0
VERTEX
  8
T75SSILL
 62
13
 10
1449.292
 20
-5613.937
 30
-2256.916
 70
    32
  0
VERTEX
  8
T75SSILL
 62
13
 10
1444.235
 20
-5608.254
 30
-2256.947
 70
    32
  0
VERTEX
  8
T75SSILL
 62
13
 10
1447.860
 20
-5595.780
 30
-2256.727
 70
    32
  0
VERTEX
  8
T75SSILL
 62
13
 10
1437.566
 20
-5506.250
 30
-2256.686
 70
    32
  0
VERTEX
  8
T75SSILL
 62
13
 10
1433.534
 20
-5498.221
 30
-2256.685
 70
    32
  0
VERTEX
  8
T75SSILL
 62
13
 10
1435.230
 20
-5490.406
 30
-2256.679
 70
    32
  0
VERTEX
  8
T75SSILL
 62
13
 10
1425.249
 20
-5402.464
 30
-2256.639
 70
    32
  0
VERTEX
  8
T75SSILL
 62
13
 10
1420.890
 20
-5394.654
 30
-2256.638
 70
    32
  0
VERTEX
  8
T75SSILL
 62
13
 10
1423.181
 20
-5388.285
 30
-2256.633
 70
    32
  0
VERTEX
  8
T75SSILL
 62
13
 10
1433.892
 20
-5377.902
 30
-2256.618
 70
    32
  0
VERTEX
  8
T75SSILL
 62
13
 10
1436.042
 20
-5381.235
 30
-2256.619
 70
    32
  0
VERTEX
  8
T75SSILL
 62
13
 10
1432.874
 20
-5388.622
 30
-2256.625
 70
    32
  0
VERTEX
  8
T75SSILL
 62
13
 10
1443.688
 20
-5480.262
 30
-2256.667
 70
    32
  0
VERTEX
  8
T75SSILL
 62
13
 10
1448.193
 20
-5486.743
 30
-2256.667
 70
    32
  0
VERTEX
  8
T75SSILL
 62
13
 10
1445.832
 20
-5496.804
 30
-2256.674
 70
    32
  0
VERTEX
  8
T75SSILL
 62
13
 10
1457.101
 20
-5592.635
 30
-2256.715
 70
    32
  0
VERTEX
  8
T75SSILL
 62
13
 10
1460.636
 20
-5598.869
 30
-2256.712
 70
    32
  0
VERTEX
  8
T75SSILL
 62
13
 10
1458.534
 20
-5608.473
 30
-2256.720
 70
    32
  0
VERTEX
  8
T75SSILL
 62
13
 10
1480.348
 20
-5803.556
 30
-2258.439
 70
    32
  0
VERTEX
  8
T75SSILL
 62
13
 10
1487.191
 20
-5816.603
 30
-2258.460
 70
    32
  0
VERTEX
  8
T75SSILL
 62
13
 10
1483.684
 20
-5823.697
 30
-2258.513
 70
    32
  0
VERTEX
  8
T75SSILL
 62
13
 10
1491.228
 20
-5889.688
 30
-2258.775
 70
    32
  0
VERTEX
  8
T75SSILL
 62
13
 10
1499.171
 20
-5888.291
 30
-2258.722
 70
    32
  0
VERTEX
  8
T75SSILL
 62
13
 10
1510.888
 20
-5880.275
 30
-2258.617
 70
    32
  0
VERTEX
  8
T75SSILL
 62
13
 10
1529.292
 20
-5849.156
 30
-2257.648
 70
    32
  0
VERTEX
  8
T75SSILL
 62
13
 10
1530.117
 20
-5834.033
 30
-2257.391
 70
    32
  0
VERTEX
  8
T75SSILL
 62
13
 10
1534.104
 20
-5822.783
 30
-2257.062
 70
    32
  0
VERTEX
  8
T75SSILL
 62
13
 10
1544.517
 20
-5822.824
 30
-2256.639
 70
    32
  0
VERTEX
  8
T75SSILL
 62
13
 10
1552.088
 20
-5829.208
 30
-2256.426
 70
    32
  0
VERTEX
  8
T75SSILL
 62
13
 10
1559.212
 20
-5832.666
 30
-2256.187
 70
    32
  0
VERTEX
  8
T75SSILL
 62
13
 10
1560.467
 20
-5837.424
 30
-2256.206
 70
    32
  0
VERTEX
  8
T75SSILL
 62
13
 10
1556.966
 20
-5842.762
 30
-2256.428
 70
    32
  0
VERTEX
  8
T75SSILL
 62
13
 10
1552.721
 20
-5841.122
 30
-2256.576
 70
    32
  0
VERTEX
  8
T75SSILL
 62
13
 10
1548.713
 20
-5843.054
 30
-2256.768
 70
    32
  0
VERTEX
  8
T75SSILL
 62
13
 10
1542.199
 20
-5855.142
 30
-2257.212
 70
    32
  0
VERTEX
  8
T75SSILL
 62
13
 10
1542.970
 20
-5860.399
 30
-2257.258
 70
    32
  0
VERTEX
  8
T75SSILL
 62
13
 10
1551.819
 20
-5859.095
 30
-2256.879
 70
    32
  0
VERTEX
  8
T75SSILL
 62
13
 10
1575.899
 20
-5844.090
 30
-2255.678
 70
    32
  0
VERTEX
  8
T75SSILL
 62
13
 10
1591.225
 20
-5829.694
 30
-2254.841
 70
    32
  0
VERTEX
  8
T75SSILL
 62
13
 10
1612.397
 20
-5818.453
 30
-2254.461
 70
    32
  0
VERTEX
  8
T75SSILL
 62
13
 10
1621.850
 20
-5814.610
 30
-2254.397
 70
    32
  0
VERTEX
  8
T75SSILL
 62
13
 10
1636.840
 20
-5802.538
 30
-2254.740
 70
    32
  0
VERTEX
  8
T75SSILL
 62
13
 10
1641.297
 20
-5802.540
 30
-2254.737
 70
    32
  0
VERTEX
  8
T75SSILL
 62
13
 10
1670.705
 20
-5780.315
 30
-2255.368
 70
    32
  0
VERTEX
  8
T75SSILL
 62
13
 10
1667.997
 20
-5772.801
 30
-2255.589
 70
    32
  0
VERTEX
  8
T75SSILL
 62
13
 10
1673.937
 20
-5766.686
 30
-2255.764
 70
    32
  0
VERTEX
  8
T75SSILL
 62
13
 10
1688.090
 20
-5761.794
 30
-2255.898
 70
    32
  0
VERTEX
  8
T75SSILL
 62
13
 10
1695.358
 20
-5752.752
 30
-2256.157
 70
    32
  0
VERTEX
  8
T75SSILL
 62
13
 10
1698.830
 20
-5740.673
 30
-2256.266
 70
    32
  0
VERTEX
  8
T75SSILL
 62
13
 10
1697.387
 20
-5734.600
 30
-2256.190
 70
    32
  0
VERTEX
  8
T75SSILL
 62
13
 10
1691.621
 20
-5725.586
 30
-2256.212
 70
    32
  0
VERTEX
  8
T75SSILL
 62
13
 10
1692.878
 20
-5720.542
 30
-2256.217
 70
    32
  0
VERTEX
  8
T75SSILL
 62
13
 10
1703.955
 20
-5714.761
 30
-2256.210
 70
    32
  0
VERTEX
  8
T75SSILL
 62
13
 10
1717.942
 20
-5724.519
 30
-2256.176
 70
    32
  0
VERTEX
  8
T75SSILL
 62
13
 10
1729.242
 20
-5739.645
 30
-2256.137
 70
    32
  0
VERTEX
  8
T75SSILL
 62
13
 10
1735.339
 20
-5736.594
 30
-2256.132
 70
    32
  0
VERTEX
  8
T75SSILL
 62
13
 10
1741.774
 20
-5746.302
 30
-2256.120
 70
    32
  0
VERTEX
  8
T75SSILL
 62
13
 10
1737.128
 20
-5751.755
 30
-2256.130
 70
    32
  0
VERTEX
  8
T75SSILL
 62
13
 10
1738.094
 20
-5758.995
 30
-2256.180
 70
    32
  0
VERTEX
  8
T75SSILL
 62
13
 10
1753.218
 20
-5786.002
 30
-2256.401
 70
    32
  0
VERTEX
  8
T75SSILL
 62
13
 10
1773.957
 20
-5817.254
 30
-2256.699
 70
    32
  0
VERTEX
  8
T75SSILL
 62
13
 10
1786.324
 20
-5846.522
 30
-2256.887
 70
    32
  0
VERTEX
  8
T75SSILL
 62
13
 10
1782.968
 20
-5851.478
 30
-2256.849
 70
    32
  0
VERTEX
  8
T75SSILL
 62
13
 10
1782.394
 20
-5858.375
 30
-2256.849
 70
    32
  0
VERTEX
  8
T75SSILL
 62
13
 10
1796.862
 20
-5883.305
 30
-2257.060
 70
    32
  0
VERTEX
  8
T75SSILL
 62
13
 10
1792.603
 20
-5884.782
 30
-2257.006
 70
    32
  0
VERTEX
  8
T75SSILL
 62
13
 10
1797.057
 20
-5894.312
 30
-2257.162
 70
    32
  0
VERTEX
  8
T75SSILL
 62
13
 10
1784.003
 20
-5895.904
 30
-2257.001
 70
    32
  0
VERTEX
  8
T75SSILL
 62
13
 10
1770.795
 20
-5867.638
 30
-2256.709
 70
    32
  0
VERTEX
  8
T75SSILL
 62
13
 10
1728.382
 20
-5798.673
 30
-2256.095
 70
    32
  0
VERTEX
  8
T75SSILL
 62
13
 10
1718.215
 20
-5771.125
 30
-2255.887
 70
    32
  0
VERTEX
  8
T75SSILL
 62
13
 10
1713.031
 20
-5766.184
 30
-2255.775
 70
    32
  0
VERTEX
  8
T75SSILL
 62
13
 10
1706.261
 20
-5769.831
 30
-2255.660
 70
    32
  0
VERTEX
  8
T75SSILL
 62
13
 10
1704.776
 20
-5774.461
 30
-2255.646
 70
    32
  0
VERTEX
  8
T75SSILL
 62
13
 10
1709.720
 20
-5791.477
 30
-2255.791
 70
    32
  0
VERTEX
  8
T75SSILL
 62
13
 10
1710.703
 20
-5816.515
 30
-2255.886
 70
    32
  0
VERTEX
  8
T75SSILL
 62
13
 10
1709.690
 20
-5819.366
 30
-2255.876
 70
    32
  0
VERTEX
  8
T75SSILL
 62
13
 10
1706.219
 20
-5820.143
 30
-2253.169
 70
    32
  0
VERTEX
  8
T75SSILL
 62
13
 10
1671.718
 20
-5822.880
 30
-2255.179
 70
    32
  0
VERTEX
  8
T75SSILL
 62
13
 10
1654.892
 20
-5820.501
 30
-2254.858
 70
    32
  0
VERTEX
  8
T75SSILL
 62
13
 10
1652.065
 20
-5822.870
 30
-2254.812
 70
    32
  0
VERTEX
  8
T75SSILL
 62
13
 10
1629.331
 20
-5824.580
 30
-2254.393
 70
    32
  0
VERTEX
  8
T75SSILL
 62
13
 10
1604.013
 20
-5838.108
 30
-2254.652
 70
    32
  0
VERTEX
  8
T75SSILL
 62
13
 10
1611.656
 20
-5848.001
 30
-2254.908
 70
    32
  0
VERTEX
  8
T75SSILL
 62
13
 10
1624.689
 20
-5858.203
 30
-2255.055
 70
    32
  0
VERTEX
  8
T75SSILL
 62
13
 10
1646.373
 20
-5857.208
 30
-2254.811
 70
    32
  0
VERTEX
  8
T75SSILL
 62
13
 10
1679.967
 20
-5847.814
 30
-2255.407
 70
    32
  0
VERTEX
  8
T75SSILL
 62
13
 10
1686.462
 20
-5857.629
 30
-2255.564
 70
    32
  0
VERTEX
  8
T75SSILL
 62
13
 10
1678.543
 20
-5861.227
 30
-2255.424
 70
    32
  0
VERTEX
  8
T75SSILL
 62
13
 10
1648.786
 20
-5868.639
 30
-2254.964
 70
    32
  0
VERTEX
  8
T75SSILL
 62
13
 10
1648.187
 20
-5873.368
 30
-2255.182
 70
    32
  0
VERTEX
  8
T75SSILL
 62
13
 10
1665.220
 20
-5885.780
 30
-2255.336
 70
    32
  0
VERTEX
  8
T75SSILL
 62
13
 10
1685.169
 20
-5888.372
 30
-2255.631
 70
    32
  0
VERTEX
  8
T75SSILL
 62
13
 10
1702.312
 20
-5884.366
 30
-2255.847
 70
    32
  0
VERTEX
  8
T75SSILL
 62
13
 10
1705.821
 20
-5892.524
 30
-2255.900
 70
    32
  0
VERTEX
  8
T75SSILL
 62
13
 10
1684.557
 20
-5904.898
 30
-2255.725
 70
    32
  0
VERTEX
  8
T75SSILL
 62
13
 10
1678.615
 20
-5913.391
 30
-2255.841
 70
    32
  0
VERTEX
  8
T75SSILL
 62
13
 10
1626.889
 20
-5875.252
 30
-2255.744
 70
    32
  0
VERTEX
  8
T75SSILL
 62
13
 10
1591.651
 20
-5854.218
 30
-2255.628
 70
    32
  0
VERTEX
  8
T75SSILL
 62
13
 10
1571.805
 20
-5861.314
 30
-2256.382
 70
    32
  0
VERTEX
  8
T75SSILL
 62
13
 10
1528.191
 20
-5882.329
 30
-2258.275
 70
    32
  0
VERTEX
  8
T75SSILL
 62
13
 10
1504.420
 20
-5904.444
 30
-2258.766
 70
    32
  0
VERTEX
  8
T75SSILL
 62
13
 10
1502.060
 20
-5910.629
 30
-2258.809
 70
    32
  0
VERTEX
  8
T75SSILL
 62
13
 10
1497.079
 20
-5946.448
 30
-2259.003
 70
    32
  0
VERTEX
  8
T75SSILL
 62
13
 10
1506.202
 20
-6027.150
 30
-2259.336
 70
    32
  0
VERTEX
  8
T75SSILL
 62
13
 10
1512.321
 20
-6030.951
 30
-2259.278
 70
    32
  0
VERTEX
  8
T75SSILL
 62
13
 10
1518.815
 20
-6037.822
 30
-2259.242
 70
    32
  0
VERTEX
  8
T75SSILL
 62
13
 10
1516.939
 20
-6054.381
 30
-2259.416
 70
    32
  0
VERTEX
  8
T75SSILL
 62
13
 10
1511.922
 20
-6066.923
 30
-2259.602
 70
    32
  0
VERTEX
  8
T75SSILL
 62
13
 10
1521.481
 20
-6160.141
 30
-2260.283
 70
    32
  0
VERTEX
  8
T75SSILL
 62
13
 10
1526.142
 20
-6165.096
 30
-2260.257
 70
    32
  0
VERTEX
  8
T75SSILL
 62
13
 10
1522.931
 20
-6172.559
 30
-2260.371
 70
    32
  0
VERTEX
  8
T75SSILL
 62
13
 10
1533.683
 20
-6262.349
 30
-2261.550
 70
    32
  0
VERTEX
  8
T75SSILL
 62
13
 10
1540.766
 20
-6268.371
 30
-2261.694
 70
    32
  0
VERTEX
  8
T75SSILL
 62
13
 10
1544.088
 20
-6278.015
 30
-2261.852
 70
    32
  0
VERTEX
  8
T75SSILL
 62
13
 10
1536.526
 20
-6291.389
 30
-2261.962
 70
    32
  0
VERTEX
  8
T75SSILL
 62
13
 10
1545.908
 20
-6384.135
 30
-2263.366
 70
    32
  0
VERTEX
  8
T75SSILL
 62
13
 10
1568.046
 20
-6439.517
 30
-2263.922
 70
    32
  0
VERTEX
  8
T75SSILL
 62
13
 10
1580.638
 20
-6454.705
 30
-2264.189
 70
    32
  0
VERTEX
  8
T75SSILL
 62
13
 10
1590.613
 20
-6461.858
 30
-2264.429
 70
    32
  0
VERTEX
  8
T75SSILL
 62
13
 10
1612.526
 20
-6470.013
 30
-2264.999
 70
    32
  0
VERTEX
  8
T75SSILL
 62
13
 10
1636.684
 20
-6471.166
 30
-2265.673
 70
    32
  0
VERTEX
  8
T75SSILL
 62
13
 10
1662.941
 20
-6464.329
 30
-2266.011
 70
    32
  0
VERTEX
  8
T75SSILL
 62
13
 10
1785.180
 20
-6377.266
 30
-2264.549
 70
    32
  0
VERTEX
  8
T75SSILL
 62
13
 10
1789.029
 20
-6371.130
 30
-2264.680
 70
    32
  0
VERTEX
  8
T75SSILL
 62
13
 10
1794.735
 20
-6365.042
 30
-2264.840
 70
    32
  0
VERTEX
  8
T75SSILL
 62
13
 10
1803.346
 20
-6360.732
 30
-2265.027
 70
    32
  0
VERTEX
  8
T75SSILL
 62
13
 10
1813.007
 20
-6352.668
 30
-2265.273
 70
    32
  0
VERTEX
  8
T75SSILL
 62
13
 10
1824.510
 20
-6345.119
 30
-2265.543
 70
    32
  0
VERTEX
  8
T75SSILL
 62
13
 10
1829.302
 20
-6340.327
 30
-2265.674
 70
    32
  0
VERTEX
  8
T75SSILL
 62
13
 10
1837.978
 20
-6335.340
 30
-2265.869
 70
    32
  0
VERTEX
  8
T75SSILL
 62
13
 10
1846.232
 20
-6329.681
 30
-2266.066
 70
    32
  0
VERTEX
  8
T75SSILL
 62
13
 10
1853.167
 20
-6328.606
 30
-2266.189
 70
    32
  0
VERTEX
  8
T75SSILL
 62
13
 10
1876.143
 20
-6312.370
 30
-2265.072
 70
    32
  0
VERTEX
  8
T75SSILL
 62
13
 10
1890.612
 20
-6304.616
 30
-2265.043
 70
    32
  0
VERTEX
  8
T75SSILL
 62
13
 10
1897.725
 20
-6295.426
 30
-2264.957
 70
    32
  0
VERTEX
  8
T75SSILL
 62
13
 10
1905.332
 20
-6291.961
 30
-2264.950
 70
    32
  0
VERTEX
  8
T75SSILL
 62
13
 10
1920.025
 20
-6280.602
 30
-2264.873
 70
    32
  0
VERTEX
  8
T75SSILL
 62
13
 10
1917.959
 20
-6276.408
 30
-2264.807
 70
    32
  0
VERTEX
  8
T75SSILL
 62
13
 10
1923.054
 20
-6271.322
 30
-2264.765
 70
    32
  0
VERTEX
  8
T75SSILL
 62
13
 10
1925.540
 20
-6269.601
 30
-2264.755
 70
    32
  0
VERTEX
  8
T75SSILL
 62
13
 10
1928.410
 20
-6273.443
 30
-2264.821
 70
    32
  0
VERTEX
  8
T75SSILL
 62
13
 10
1969.850
 20
-6243.320
 30
-2264.632
 70
    32
  0
VERTEX
  8
T75SSILL
 62
13
 10
1984.188
 20
-6225.810
 30
-2264.471
 70
    32
  0
VERTEX
  8
T75SSILL
 62
13
 10
1985.564
 20
-6205.005
 30
-2264.200
 70
    32
  0
VERTEX
  8
T75SSILL
 62
13
 10
1981.302
 20
-6192.207
 30
-2264.006
 70
    32
  0
VERTEX
  8
T75SSILL
 62
13
 10
1985.780
 20
-6183.040
 30
-2263.907
 70
    32
  0
VERTEX
  8
T75SSILL
 62
13
 10
1986.752
 20
-6174.008
 30
-2263.791
 70
    32
  0
VERTEX
  8
T75SSILL
 62
13
 10
1991.084
 20
-6168.475
 30
-2263.739
 70
    32
  0
VERTEX
  8
T75SSILL
 62
13
 10
1995.581
 20
-6135.027
 30
-2263.314
 70
    32
  0
VERTEX
  8
T75SSILL
 62
13
 10
1985.782
 20
-6109.013
 30
-2262.915
 70
    32
  0
VERTEX
  8
T75SSILL
 62
13
 10
2002.171
 20
-6089.839
 30
-2262.743
 70
    32
  0
VERTEX
  8
T75SSILL
 62
13
 10
2003.948
 20
-6073.497
 30
-2262.533
 70
    32
  0
VERTEX
  8
T75SSILL
 62
13
 10
1997.712
 20
-6028.519
 30
-2261.899
 70
    32
  0
VERTEX
  8
T75SSILL
 62
13
 10
1968.907
 20
-5891.105
 30
-2259.578
 70
    32
  0
VERTEX
  8
T75SSILL
 62
13
 10
1979.166
 20
-5888.837
 30
-2259.687
 70
    32
  0
VERTEX
  8
T75SSILL
 62
13
 10
2014.686
 20
-6064.138
 30
-2262.457
 70
    32
  0
VERTEX
  8
T75SSILL
 62
13
 10
2014.824
 20
-6077.629
 30
-2262.638
 70
    32
  0
VERTEX
  8
T75SSILL
 62
13
 10
2012.073
 20
-6090.698
 30
-2262.805
 70
    32
  0
VERTEX
  8
T75SSILL
 62
13
 10
2016.213
 20
-6098.182
 30
-2262.917
 70
    32
  0
VERTEX
  8
T75SSILL
 62
13
 10
2016.288
 20
-6102.864
 30
-2262.979
 70
    32
  0
VERTEX
  8
T75SSILL
 62
13
 10
2012.986
 20
-6116.731
 30
-2263.156
 70
    32
  0
VERTEX
  8
T75SSILL
 62
13
 10
2013.324
 20
-6126.301
 30
-2263.284
 70
    32
  0
VERTEX
  8
T75SSILL
 62
13
 10
2008.295
 20
-6131.627
 30
-2263.334
 70
    32
  0
VERTEX
  8
T75SSILL
 62
13
 10
2003.864
 20
-6143.745
 30
-2263.474
 70
    32
  0
VERTEX
  8
T75SSILL
 62
13
 10
2000.855
 20
-6169.578
 30
-2263.804
 70
    32
  0
VERTEX
  8
T75SSILL
 62
13
 10
2005.208
 20
-6173.652
 30
-2263.881
 70
    32
  0
VERTEX
  8
T75SSILL
 62
13
 10
2004.510
 20
-6175.779
 30
-2263.906
 70
    32
  0
VERTEX
  8
T75SSILL
 62
13
 10
2006.078
 20
-6178.178
 30
-2263.946
 70
    32
  0
VERTEX
  8
T75SSILL
 62
13
 10
2011.646
 20
-6181.529
 30
-2264.018
 70
    32
  0
VERTEX
  8
T75SSILL
 62
13
 10
2005.357
 20
-6188.480
 30
-2264.081
 70
    32
  0
VERTEX
  8
T75SSILL
 62
13
 10
2004.244
 20
-6191.766
 30
-2264.119
 70
    32
  0
VERTEX
  8
T75SSILL
 62
13
 10
2006.406
 20
-6204.889
 30
-2264.306
 70
    32
  0
VERTEX
  8
T75SSILL
 62
13
 10
2000.080
 20
-6217.146
 30
-2264.437
 70
    32
  0
VERTEX
  8
T75SSILL
 62
13
 10
1985.111
 20
-6309.437
 30
-2265.596
 70
    32
  0
VERTEX
  8
T75SSILL
 62
13
 10
1990.123
 20
-6322.155
 30
-2265.792
 70
    32
  0
VERTEX
  8
T75SSILL
 62
13
 10
1999.339
 20
-6334.930
 30
-2266.011
 70
    32
  0
VERTEX
  8
T75SSILL
 62
13
 10
2017.471
 20
-6366.362
 30
-2266.505
 70
    32
  0
VERTEX
  8
T75SSILL
 62
13
 10
2003.523
 20
-6373.906
 30
-2266.423
 70
    32
  0
VERTEX
  8
T75SSILL
 62
13
 10
1986.310
 20
-6355.298
 30
-2266.217
 70
    32
  0
VERTEX
  8
T75SSILL
 62
13
 10
1968.338
 20
-6323.048
 30
-2265.692
 70
    32
  0
VERTEX
  8
T75SSILL
 62
13
 10
1951.452
 20
-6311.887
 30
-2265.455
 70
    32
  0
VERTEX
  8
T75SSILL
 62
13
 10
1919.339
 20
-6307.143
 30
-2265.225
 70
    32
  0
VERTEX
  8
T75SSILL
 62
13
 10
1903.482
 20
-6308.968
 30
-2265.168
 70
    32
  0
VERTEX
  8
T75SSILL
 62
13
 10
1879.713
 20
-6321.751
 30
-2265.216
 70
    32
  0
VERTEX
  8
T75SSILL
 62
13
 10
1861.336
 20
-6334.034
 30
-2265.755
 70
    32
  0
VERTEX
  8
T75SSILL
 62
13
 10
1863.294
 20
-6339.849
 30
-2265.463
 70
    32
  0
VERTEX
  8
T75SSILL
 62
13
 10
1867.311
 20
-6342.120
 30
-2265.199
 70
    32
  0
VERTEX
  8
T75SSILL
 62
13
 10
1874.813
 20
-6343.631
 30
-2264.800
 70
    32
  0
VERTEX
  8
T75SSILL
 62
13
 10
1868.478
 20
-6354.140
 30
-2264.727
 70
    32
  0
VERTEX
  8
T75SSILL
 62
13
 10
1861.011
 20
-6350.359
 30
-2265.203
 70
    32
  0
VERTEX
  8
T75SSILL
 62
13
 10
1853.962
 20
-6349.305
 30
-2265.565
 70
    32
  0
VERTEX
  8
T75SSILL
 62
13
 10
1848.894
 20
-6348.869
 30
-2265.813
 70
    32
  0
VERTEX
  8
T75SSILL
 62
13
 10
1836.468
 20
-6352.332
 30
-2266.266
 70
    32
  0
VERTEX
  8
T75SSILL
 62
13
 10
1832.624
 20
-6354.731
 30
-2265.414
 70
    32
  0
VERTEX
  8
T75SSILL
 62
13
 10
1828.276
 20
-6368.308
 30
-2265.594
 70
    32
  0
VERTEX
  8
T75SSILL
 62
13
 10
1830.736
 20
-6380.188
 30
-2265.795
 70
    32
  0
VERTEX
  8
T75SSILL
 62
13
 10
1821.786
 20
-6387.633
 30
-2265.868
 70
    32
  0
VERTEX
  8
T75SSILL
 62
13
 10
1803.270
 20
-6389.165
 30
-2265.799
 70
    32
  0
VERTEX
  8
T75SSILL
 62
13
 10
1796.938
 20
-6380.744
 30
-2265.633
 70
    32
  0
VERTEX
  8
T75SSILL
 62
13
 10
1774.502
 20
-6396.701
 30
-2265.773
 70
    32
  0
VERTEX
  8
T75SSILL
 62
13
 10
1777.913
 20
-6401.427
 30
-2263.904
 70
    32
  0
VERTEX
  8
T75SSILL
 62
13
 10
1784.294
 20
-6400.555
 30
-2263.446
 70
    32
  0
VERTEX
  8
T75SSILL
 62
13
 10
1799.426
 20
-6400.684
 30
-2262.342
 70
    32
  0
VERTEX
  8
T75SSILL
 62
13
 10
1810.993
 20
-6401.973
 30
-2261.489
 70
    32
  0
VERTEX
  8
T75SSILL
 62
13
 10
1829.470
 20
-6399.297
 30
-2260.149
 70
    32
  0
VERTEX
  8
T75SSILL
 62
13
 10
1829.159
 20
-6394.308
 30
-2260.195
 70
    32
  0
VERTEX
  8
T75SSILL
 62
13
 10
1840.647
 20
-6387.916
 30
-2259.384
 70
    32
  0
VERTEX
  8
T75SSILL
 62
13
 10
1850.652
 20
-6403.661
 30
-2258.578
 70
    32
  0
VERTEX
  8
T75SSILL
 62
13
 10
1865.205
 20
-6402.529
 30
-2257.518
 70
    32
  0
VERTEX
  8
T75SSILL
 62
13
 10
1862.613
 20
-6417.853
 30
-2256.566
 70
    32
  0
VERTEX
  8
T75SSILL
 62
13
 10
1856.094
 20
-6417.885
 30
-2258.114
 70
    32
  0
VERTEX
  8
T75SSILL
 62
13
 10
1849.367
 20
-6423.239
 30
-2258.581
 70
    32
  0
VERTEX
  8
T75SSILL
 62
13
 10
1838.523
 20
-6416.230
 30
-2259.408
 70
    32
  0
VERTEX
  8
T75SSILL
 62
13
 10
1824.922
 20
-6415.570
 30
-2260.406
 70
    32
  0
VERTEX
  8
T75SSILL
 62
13
 10
1798.446
 20
-6414.287
 30
-2262.337
 70
    32
  0
VERTEX
  8
T75SSILL
 62
13
 10
1772.446
 20
-6413.217
 30
-2264.231
 70
    32
  0
VERTEX
  8
T75SSILL
 62
13
 10
1769.099
 20
-6411.999
 30
-2264.482
 70
    32
  0
VERTEX
  8
T75SSILL
 62
13
 10
1765.809
 20
-6411.267
 30
-2264.725
 70
    32
  0
VERTEX
  8
T75SSILL
 62
13
 10
1764.798
 20
-6411.042
 30
-2265.000
 70
    32
  0
VERTEX
  8
T75SSILL
 62
13
 10
1748.949
 20
-6414.866
 30
-2265.000
 70
    32
  0
VERTEX
  8
T75SSILL
 62
13
 10
1632.231
 20
-6497.593
 30
-2265.394
 70
    32
  0
VERTEX
  8
T75SSILL
 62
13
 10
1623.004
 20
-6511.236
 30
-2265.055
 70
    32
  0
VERTEX
  8
T75SSILL
 62
13
 10
1617.947
 20
-6524.816
 30
-2264.833
 70
    32
  0
VERTEX
  8
T75SSILL
 62
13
 10
1614.401
 20
-6549.639
 30
-2264.589
 70
    32
  0
VERTEX
  8
T75SSILL
 62
13
 10
1617.295
 20
-6570.740
 30
-2264.242
 70
    32
  0
VERTEX
  8
T75SSILL
 62
13
 10
1620.332
 20
-6576.491
 30
-2264.141
 70
    32
  0
VERTEX
  8
T75SSILL
 62
13
 10
1625.074
 20
-6578.121
 30
-2264.117
 70
    32
  0
VERTEX
  8
T75SSILL
 62
13
 10
1629.454
 20
-6584.651
 30
-2264.003
 70
    32
  0
VERTEX
  8
T75SSILL
 62
13
 10
1630.536
 20
-6587.494
 30
-2263.953
 70
    32
  0
VERTEX
  8
T75SSILL
 62
13
 10
1628.418
 20
-6597.364
 30
-2263.769
 70
    32
  0
VERTEX
  8
T75SSILL
 62
13
 10
1657.633
 20
-6670.920
 30
-2262.979
 70
    32
  0
VERTEX
  8
T75SSILL
 62
13
 10
1662.444
 20
-6674.432
 30
-2262.910
 70
    32
  0
VERTEX
  8
T75SSILL
 62
13
 10
1666.543
 20
-6682.700
 30
-2262.431
 70
    32
  0
VERTEX
  8
T75SSILL
 62
13
 10
1665.137
 20
-6689.469
 30
-2261.831
 70
    32
  0
VERTEX
  8
T75SSILL
 62
13
 10
1690.049
 20
-6753.384
 30
-2260.234
 70
    32
  0
VERTEX
  8
T75SSILL
 62
13
 10
1694.418
 20
-6759.015
 30
-2260.156
 70
    32
  0
VERTEX
  8
T75SSILL
 62
13
 10
1705.058
 20
-6767.887
 30
-2260.022
 70
    32
  0
VERTEX
  8
T75SSILL
 62
13
 10
1719.332
 20
-6776.759
 30
-2259.876
 70
    32
  0
VERTEX
  8
T75SSILL
 62
13
 10
1738.017
 20
-6779.927
 30
-2259.780
 70
    32
  0
VERTEX
  8
T75SSILL
 62
13
 10
1763.043
 20
-6766.943
 30
-2259.936
 70
    32
  0
VERTEX
  8
T75SSILL
 62
13
 10
1797.214
 20
-6745.947
 30
-2260.206
 70
    32
  0
VERTEX
  8
T75SSILL
 62
13
 10
1802.270
 20
-6733.892
 30
-2260.362
 70
    32
  0
VERTEX
  8
T75SSILL
 62
13
 10
1793.109
 20
-6706.486
 30
-2260.882
 70
    32
  0
VERTEX
  8
T75SSILL
 62
13
 10
1802.594
 20
-6703.316
 30
-2260.925
 70
    32
  0
VERTEX
  8
T75SSILL
 62
13
 10
1809.419
 20
-6723.735
 30
-2260.527
 70
    32
  0
VERTEX
  8
T75SSILL
 62
13
 10
1816.760
 20
-6724.780
 30
-2258.000
 70
    32
  0
VERTEX
  8
T75SSILL
 62
13
 10
1819.793
 20
-6716.902
 30
-2258.000
 70
    32
  0
VERTEX
  8
T75SSILL
 62
13
 10
1824.610
 20
-6685.439
 30
-2258.000
 70
    32
  0
VERTEX
  8
T75SSILL
 62
13
 10
1826.738
 20
-6673.772
 30
-2258.000
 70
    32
  0
VERTEX
  8
T75SSILL
 62
13
 10
1832.167
 20
-6647.870
 30
-2256.000
 70
    32
  0
VERTEX
  8
T75SSILL
 62
13
 10
1840.341
 20
-6640.378
 30
-2255.000
 70
    32
  0
VERTEX
  8
T75SSILL
 62
13
 10
1849.353
 20
-6627.721
 30
-2254.792
 70
    32
  0
VERTEX
  8
T75SSILL
 62
13
 10
1849.429
 20
-6627.615
 30
-2254.783
 70
    32
  0
VERTEX
  8
T75SSILL
 62
13
 10
1857.073
 20
-6618.940
 30
-2253.962
 70
    32
  0
VERTEX
  8
T75SSILL
 62
13
 10
1860.121
 20
-6615.481
 30
-2253.637
 70
    32
  0
VERTEX
  8
T75SSILL
 62
13
 10
1866.445
 20
-6607.285
 30
-2252.912
 70
    32
  0
VERTEX
  8
T75SSILL
 62
13
 10
1876.924
 20
-6595.703
 30
-2251.874
 70
    32
  0
VERTEX
  8
T75SSILL
 62
13
 10
1880.332
 20
-6591.936
 30
-2252.104
 70
    32
  0
VERTEX
  8
T75SSILL
 62
13
 10
1880.354
 20
-6591.911
 30
-2252.120
 70
    32
  0
VERTEX
  8
T75SSILL
 62
13
 10
1884.010
 20
-6587.869
 30
-2254.053
 70
    32
  0
VERTEX
  8
T75SSILL
 62
13
 10
1886.893
 20
-6584.683
 30
-2254.252
 70
    32
  0
VERTEX
  8
T75SSILL
 62
13
 10
1893.450
 20
-6596.010
 30
-2253.866
 70
    32
  0
SEQEND
  8
T75SSILL
  0
ENDSEC
  0
EOF
