999
********************************
999
*   DXF File - Entities Only   *
999
*        3D Data Format        *
999
*     Output from ENVISAGE     *
999
*     24-Dec-2007 12:30:09     *
999
********************************
  0
SECTION 
  2
HEADER
  9
$ACADVER
  1
AC1009
  9
$EXTMIN
 10
-290000.000
 20
-250000.000
 30
-4000.000
  9
$EXTMAX
 10
5000000.000
 20
600000.000
 30
6000.000
  0
ENDSEC
  0
SECTION
  2
ENTITIES
  0
POLYLINE
  8
T77SSILL
 62
8
 66
     1
 70
     9
  0
VERTEX
  8
T77SSILL
 62
8
 10
2004.401
 20
-6790.299
 30
-2402.223
 70
    32
  0
VERTEX
  8
T77SSILL
 62
8
 10
2001.531
 20
-6781.404
 30
-2402.283
 70
    32
  0
VERTEX
  8
T77SSILL
 62
8
 10
2005.025
 20
-6777.321
 30
-2402.283
 70
    32
  0
VERTEX
  8
T77SSILL
 62
8
 10
2013.880
 20
-6780.011
 30
-2402.219
 70
    32
  0
VERTEX
  8
T77SSILL
 62
8
 10
2024.204
 20
-6802.657
 30
-2402.048
 70
    32
  0
VERTEX
  8
T77SSILL
 62
8
 10
2020.799
 20
-6805.934
 30
-2402.052
 70
    32
  0
VERTEX
  8
T77SSILL
 62
8
 10
2016.019
 20
-6803.447
 30
-2402.092
 70
    32
  0
VERTEX
  8
T77SSILL
 62
8
 10
2009.623
 20
-6796.209
 30
-2402.164
 70
    32
  0
SEQEND
  8
T77SSILL
  0
POLYLINE
  8
T77SSILL
 62
8
 66
     1
 70
     9
  0
VERTEX
  8
T77SSILL
 62
8
 10
1923.285
 20
-6579.294
 30
-2403.101
 70
    32
  0
VERTEX
  8
T77SSILL
 62
8
 10
1944.037
 20
-6564.559
 30
-2403.162
 70
    32
  0
VERTEX
  8
T77SSILL
 62
8
 10
1948.430
 20
-6570.139
 30
-2403.140
 70
    32
  0
VERTEX
  8
T77SSILL
 62
8
 10
1941.786
 20
-6605.198
 30
-2402.998
 70
    32
  0
VERTEX
  8
T77SSILL
 62
8
 10
1933.335
 20
-6625.425
 30
-2402.915
 70
    32
  0
VERTEX
  8
T77SSILL
 62
8
 10
1910.767
 20
-6650.696
 30
-2402.811
 70
    32
  0
VERTEX
  8
T77SSILL
 62
8
 10
1907.958
 20
-6647.822
 30
-2402.822
 70
    32
  0
VERTEX
  8
T77SSILL
 62
8
 10
1911.750
 20
-6608.111
 30
-2402.983
 70
    32
  0
VERTEX
  8
T77SSILL
 62
8
 10
1915.336
 20
-6596.199
 30
-2403.032
 70
    32
  0
SEQEND
  8
T77SSILL
  0
POLYLINE
  8
T77SSILL
 62
8
 66
     1
 70
     9
  0
VERTEX
  8
T77SSILL
 62
8
 10
1856.278
 20
-6596.318
 30
-2403.026
 70
    32
  0
VERTEX
  8
T77SSILL
 62
8
 10
1855.000
 20
-6590.000
 30
-2403.051
 70
    32
  0
VERTEX
  8
T77SSILL
 62
8
 10
1860.000
 20
-6585.000
 30
-2403.072
 70
    32
  0
VERTEX
  8
T77SSILL
 62
8
 10
1860.000
 20
-6580.000
 30
-2403.092
 70
    32
  0
VERTEX
  8
T77SSILL
 62
8
 10
1875.000
 20
-6570.000
 30
-2403.134
 70
    32
  0
VERTEX
  8
T77SSILL
 62
8
 10
1885.000
 20
-6565.000
 30
-2403.155
 70
    32
  0
VERTEX
  8
T77SSILL
 62
8
 10
1890.000
 20
-6560.000
 30
-2403.176
 70
    32
  0
VERTEX
  8
T77SSILL
 62
8
 10
1905.000
 20
-6555.000
 30
-2403.197
 70
    32
  0
VERTEX
  8
T77SSILL
 62
8
 10
1920.000
 20
-6555.000
 30
-2403.199
 70
    32
  0
VERTEX
  8
T77SSILL
 62
8
 10
1925.888
 20
-6561.881
 30
-2403.171
 70
    32
  0
VERTEX
  8
T77SSILL
 62
8
 10
1925.141
 20
-6565.156
 30
-2403.158
 70
    32
  0
VERTEX
  8
T77SSILL
 62
8
 10
1886.779
 20
-6591.267
 30
-2403.049
 70
    32
  0
VERTEX
  8
T77SSILL
 62
8
 10
1870.487
 20
-6604.226
 30
-2402.995
 70
    32
  0
VERTEX
  8
T77SSILL
 62
8
 10
1861.682
 20
-6609.412
 30
-2402.973
 70
    32
  0
VERTEX
  8
T77SSILL
 62
8
 10
1857.211
 20
-6605.459
 30
-2402.989
 70
    32
  0
VERTEX
  8
T77SSILL
 62
8
 10
1856.865
 20
-6599.908
 30
-2403.011
 70
    32
  0
SEQEND
  8
T77SSILL
  0
POLYLINE
  8
T77SSILL
 62
8
 66
     1
 70
     9
  0
VERTEX
  8
T77SSILL
 62
8
 10
2099.789
 20
-6524.874
 30
-2402.586
 70
    32
  0
VERTEX
  8
T77SSILL
 62
8
 10
2118.844
 20
-6577.585
 30
-2402.439
 70
    32
  0
VERTEX
  8
T77SSILL
 62
8
 10
2116.082
 20
-6580.749
 30
-2402.514
 70
    32
  0
VERTEX
  8
T77SSILL
 62
8
 10
2112.984
 20
-6581.932
 30
-2402.585
 70
    32
  0
VERTEX
  8
T77SSILL
 62
8
 10
2101.695
 20
-6579.909
 30
-2402.696
 70
    32
  0
VERTEX
  8
T77SSILL
 62
8
 10
2061.928
 20
-6564.254
 30
-2403.002
 70
    32
  0
VERTEX
  8
T77SSILL
 62
8
 10
2053.519
 20
-6563.571
 30
-2403.053
 70
    32
  0
VERTEX
  8
T77SSILL
 62
8
 10
2042.225
 20
-6556.728
 30
-2403.152
 70
    32
  0
VERTEX
  8
T77SSILL
 62
8
 10
2034.578
 20
-6544.642
 30
-2403.251
 70
    32
  0
VERTEX
  8
T77SSILL
 62
8
 10
2033.303
 20
-6538.402
 30
-2403.276
 70
    32
  0
VERTEX
  8
T77SSILL
 62
8
 10
2021.428
 20
-6522.881
 30
-2403.337
 70
    32
  0
VERTEX
  8
T77SSILL
 62
8
 10
2017.317
 20
-6509.973
 30
-2403.389
 70
    32
  0
VERTEX
  8
T77SSILL
 62
8
 10
2046.973
 20
-6484.894
 30
-2403.477
 70
    32
  0
VERTEX
  8
T77SSILL
 62
8
 10
2060.968
 20
-6465.752
 30
-2403.253
 70
    32
  0
VERTEX
  8
T77SSILL
 62
8
 10
2065.601
 20
-6453.788
 30
-2403.175
 70
    32
  0
VERTEX
  8
T77SSILL
 62
8
 10
2071.332
 20
-6455.922
 30
-2403.077
 70
    32
  0
VERTEX
  8
T77SSILL
 62
8
 10
2073.661
 20
-6455.464
 30
-2403.037
 70
    32
  0
VERTEX
  8
T77SSILL
 62
8
 10
2087.539
 20
-6493.712
 30
-2402.798
 70
    32
  0
VERTEX
  8
T77SSILL
 62
8
 10
2085.082
 20
-6501.558
 30
-2402.839
 70
    32
  0
VERTEX
  8
T77SSILL
 62
8
 10
2088.304
 20
-6510.318
 30
-2402.783
 70
    32
  0
VERTEX
  8
T77SSILL
 62
8
 10
2094.220
 20
-6509.469
 30
-2402.682
 70
    32
  0
SEQEND
  8
T77SSILL
  0
POLYLINE
  8
T77SSILL
 62
3
 66
     1
 70
     9
  0
VERTEX
  8
T77SSILL
 62
3
 10
1854.134
 20
-6691.969
 30
-2402.639
 70
    32
  0
VERTEX
  8
T77SSILL
 62
3
 10
1864.587
 20
-6692.558
 30
-2402.638
 70
    32
  0
VERTEX
  8
T77SSILL
 62
3
 10
1867.892
 20
-6705.822
 30
-2402.584
 70
    32
  0
VERTEX
  8
T77SSILL
 62
3
 10
1871.718
 20
-6703.754
 30
-2402.593
 70
    32
  0
VERTEX
  8
T77SSILL
 62
3
 10
1879.189
 20
-6690.507
 30
-2402.647
 70
    32
  0
VERTEX
  8
T77SSILL
 62
3
 10
1889.584
 20
-6694.818
 30
-2402.631
 70
    32
  0
VERTEX
  8
T77SSILL
 62
3
 10
1872.022
 20
-6724.620
 30
-2402.509
 70
    32
  0
VERTEX
  8
T77SSILL
 62
3
 10
1854.930
 20
-6725.927
 30
-2402.502
 70
    32
  0
VERTEX
  8
T77SSILL
 62
3
 10
1854.493
 20
-6707.308
 30
-2402.577
 70
    32
  0
SEQEND
  8
T77SSILL
  0
POLYLINE
  8
T77SSILL
 62
3
 66
     1
 70
     9
  0
VERTEX
  8
T77SSILL
 62
3
 10
2203.184
 20
-6703.823
 30
-2401.761
 70
    32
  0
VERTEX
  8
T77SSILL
 62
3
 10
2213.013
 20
-6701.730
 30
-2401.765
 70
    32
  0
VERTEX
  8
T77SSILL
 62
3
 10
2222.621
 20
-6725.306
 30
-2401.628
 70
    32
  0
VERTEX
  8
T77SSILL
 62
3
 10
2213.515
 20
-6729.237
 30
-2401.614
 70
    32
  0
SEQEND
  8
T77SSILL
  0
POLYLINE
  8
T77SSILL
 62
8
 66
     1
 70
     9
  0
VERTEX
  8
T77SSILL
 62
8
 10
1749.884
 20
-5836.144
 30
-2406.112
 70
    32
  0
VERTEX
  8
T77SSILL
 62
8
 10
1741.905
 20
-5836.222
 30
-2406.107
 70
    32
  0
VERTEX
  8
T77SSILL
 62
8
 10
1734.156
 20
-5843.478
 30
-2406.072
 70
    32
  0
VERTEX
  8
T77SSILL
 62
8
 10
1728.166
 20
-5859.379
 30
-2406.001
 70
    32
  0
VERTEX
  8
T77SSILL
 62
8
 10
1724.928
 20
-5875.627
 30
-2405.930
 70
    32
  0
VERTEX
  8
T77SSILL
 62
8
 10
1737.521
 20
-5894.511
 30
-2405.856
 70
    32
  0
VERTEX
  8
T77SSILL
 62
8
 10
1745.333
 20
-5887.067
 30
-2405.892
 70
    32
  0
VERTEX
  8
T77SSILL
 62
8
 10
1756.482
 20
-5872.201
 30
-2405.961
 70
    32
  0
VERTEX
  8
T77SSILL
 62
8
 10
1760.382
 20
-5863.777
 30
-2405.999
 70
    32
  0
SEQEND
  8
T77SSILL
  0
POLYLINE
  8
T77SSILL
 62
8
 66
     1
 70
     9
  0
VERTEX
  8
T77SSILL
 62
8
 10
1757.970
 20
-5766.134
 30
-2406.242
 70
    32
  0
VERTEX
  8
T77SSILL
 62
8
 10
1785.000
 20
-5735.000
 30
-2407.092
 70
    32
  0
VERTEX
  8
T77SSILL
 62
8
 10
1785.000
 20
-5730.000
 30
-2407.164
 70
    32
  0
VERTEX
  8
T77SSILL
 62
8
 10
1780.000
 20
-5730.000
 30
-2407.094
 70
    32
  0
VERTEX
  8
T77SSILL
 62
8
 10
1780.000
 20
-5725.000
 30
-2407.166
 70
    32
  0
VERTEX
  8
T77SSILL
 62
8
 10
1790.000
 20
-5715.000
 30
-2407.452
 70
    32
  0
VERTEX
  8
T77SSILL
 62
8
 10
1795.000
 20
-5705.000
 30
-2407.667
 70
    32
  0
VERTEX
  8
T77SSILL
 62
8
 10
1770.000
 20
-5640.000
 30
-2408.176
 70
    32
  0
VERTEX
  8
T77SSILL
 62
8
 10
1765.437
 20
-5640.000
 30
-2408.123
 70
    32
  0
VERTEX
  8
T77SSILL
 62
8
 10
1754.224
 20
-5649.321
 30
-2407.882
 70
    32
  0
VERTEX
  8
T77SSILL
 62
8
 10
1682.348
 20
-5771.816
 30
-2406.352
 70
    32
  0
VERTEX
  8
T77SSILL
 62
8
 10
1683.036
 20
-5787.613
 30
-2406.285
 70
    32
  0
VERTEX
  8
T77SSILL
 62
8
 10
1689.702
 20
-5802.542
 30
-2406.225
 70
    32
  0
VERTEX
  8
T77SSILL
 62
8
 10
1699.820
 20
-5817.070
 30
-2406.168
 70
    32
  0
VERTEX
  8
T77SSILL
 62
8
 10
1704.146
 20
-5812.703
 30
-2406.189
 70
    32
  0
VERTEX
  8
T77SSILL
 62
8
 10
1713.157
 20
-5816.744
 30
-2406.176
 70
    32
  0
VERTEX
  8
T77SSILL
 62
8
 10
1708.153
 20
-5831.068
 30
-2406.112
 70
    32
  0
VERTEX
  8
T77SSILL
 62
8
 10
1709.312
 20
-5844.039
 30
-2406.057
 70
    32
  0
VERTEX
  8
T77SSILL
 62
8
 10
1712.515
 20
-5850.519
 30
-2406.031
 70
    32
  0
VERTEX
  8
T77SSILL
 62
8
 10
1715.339
 20
-5851.482
 30
-2406.029
 70
    32
  0
VERTEX
  8
T77SSILL
 62
8
 10
1723.206
 20
-5840.638
 30
-2406.079
 70
    32
  0
VERTEX
  8
T77SSILL
 62
8
 10
1724.038
 20
-5837.040
 30
-2406.095
 70
    32
  0
VERTEX
  8
T77SSILL
 62
8
 10
1738.178
 20
-5822.175
 30
-2406.165
 70
    32
  0
VERTEX
  8
T77SSILL
 62
8
 10
1743.456
 20
-5814.449
 30
-2406.201
 70
    32
  0
VERTEX
  8
T77SSILL
 62
8
 10
1738.752
 20
-5794.378
 30
-2406.284
 70
    32
  0
VERTEX
  8
T77SSILL
 62
8
 10
1738.214
 20
-5786.679
 30
-2406.288
 70
    32
  0
VERTEX
  8
T77SSILL
 62
8
 10
1734.408
 20
-5777.716
 30
-2406.303
 70
    32
  0
VERTEX
  8
T77SSILL
 62
8
 10
1726.567
 20
-5765.150
 30
-2406.348
 70
    32
  0
VERTEX
  8
T77SSILL
 62
8
 10
1725.276
 20
-5757.097
 30
-2406.341
 70
    32
  0
VERTEX
  8
T77SSILL
 62
8
 10
1733.604
 20
-5748.242
 30
-2406.240
 70
    32
  0
VERTEX
  8
T77SSILL
 62
8
 10
1747.552
 20
-5747.478
 30
-2406.370
 70
    32
  0
VERTEX
  8
T77SSILL
 62
8
 10
1752.116
 20
-5762.133
 30
-2406.215
 70
    32
  0
SEQEND
  8
T77SSILL
  0
TEXT
  8
T77SSILL
 62
3
 10
1837.300
 20
-6707.774
 30
-2376.988
 40
8.202
  1
U
 41
 1.0 
  0
TEXT
  8
T77SSILL
 62
3
 10
2188.914
 20
-6717.188
 30
-2379.898
 40
8.202
  1
U
 41
 1.0 
  0
TEXT
  8
T77SSILL
 62
8
 10
3037.524
 20
-6481.204
 30
-2380.928
 40
4.101
  1
7700
 41
 1.0 
  0
POLYLINE
  8
T77SSILL
 62
8
 66
     1
 70
     8
  0
VERTEX
  8
T77SSILL
 62
8
 10
1846.981
 20
-6636.047
 30
-2402.864
 70
    32
  0
VERTEX
  8
T77SSILL
 62
8
 10
1817.163
 20
-6664.820
 30
-2403.000
 70
    32
  0
VERTEX
  8
T77SSILL
 62
8
 10
1812.192
 20
-6664.883
 30
-2403.000
 70
    32
  0
VERTEX
  8
T77SSILL
 62
8
 10
1803.964
 20
-6673.215
 30
-2403.000
 70
    32
  0
VERTEX
  8
T77SSILL
 62
8
 10
1800.080
 20
-6677.499
 30
-2403.000
 70
    32
  0
VERTEX
  8
T77SSILL
 62
8
 10
1786.628
 20
-6666.233
 30
-2403.000
 70
    32
  0
VERTEX
  8
T77SSILL
 62
8
 10
1776.514
 20
-6649.580
 30
-2403.000
 70
    32
  0
VERTEX
  8
T77SSILL
 62
8
 10
1775.868
 20
-6639.533
 30
-2403.000
 70
    32
  0
VERTEX
  8
T77SSILL
 62
8
 10
1780.198
 20
-6629.669
 30
-2403.000
 70
    32
  0
VERTEX
  8
T77SSILL
 62
8
 10
1798.588
 20
-6627.713
 30
-2403.000
 70
    32
  0
VERTEX
  8
T77SSILL
 62
8
 10
1803.181
 20
-6621.245
 30
-2403.000
 70
    32
  0
VERTEX
  8
T77SSILL
 62
8
 10
1809.302
 20
-6619.889
 30
-2403.000
 70
    32
  0
VERTEX
  8
T77SSILL
 62
8
 10
1827.210
 20
-6621.718
 30
-2403.000
 70
    32
  0
VERTEX
  8
T77SSILL
 62
8
 10
1839.933
 20
-6624.502
 30
-2402.911
 70
    32
  0
SEQEND
  8
T77SSILL
  0
POLYLINE
  8
T77SSILL
 62
8
 66
     1
 70
     9
  0
VERTEX
  8
T77SSILL
 62
8
 10
1799.666
 20
-6674.852
 30
-2394.000
 70
    32
  0
VERTEX
  8
T77SSILL
 62
8
 10
1791.050
 20
-6665.820
 30
-2394.000
 70
    32
  0
VERTEX
  8
T77SSILL
 62
8
 10
1787.798
 20
-6655.342
 30
-2394.000
 70
    32
  0
VERTEX
  8
T77SSILL
 62
8
 10
1782.550
 20
-6642.826
 30
-2394.000
 70
    32
  0
VERTEX
  8
T77SSILL
 62
8
 10
1809.073
 20
-6628.862
 30
-2394.000
 70
    32
  0
VERTEX
  8
T77SSILL
 62
8
 10
1823.750
 20
-6623.667
 30
-2394.000
 70
    32
  0
VERTEX
  8
T77SSILL
 62
8
 10
1838.275
 20
-6627.924
 30
-2394.000
 70
    32
  0
VERTEX
  8
T77SSILL
 62
8
 10
1839.888
 20
-6637.977
 30
-2394.000
 70
    32
  0
VERTEX
  8
T77SSILL
 62
8
 10
1825.158
 20
-6652.019
 30
-2394.000
 70
    32
  0
VERTEX
  8
T77SSILL
 62
8
 10
1815.980
 20
-6659.673
 30
-2394.000
 70
    32
  0
SEQEND
  8
T77SSILL
  0
POLYLINE
  8
T77SSILL
 62
3
 66
     1
 70
     9
  0
VERTEX
  8
T77SSILL
 62
3
 10
2045.183
 20
-6583.634
 30
-2403.011
 70
    32
  0
VERTEX
  8
T77SSILL
 62
3
 10
2047.117
 20
-6592.487
 30
-2404.262
 70
    32
  0
VERTEX
  8
T77SSILL
 62
3
 10
2051.230
 20
-6599.919
 30
-2405.712
 70
    32
  0
VERTEX
  8
T77SSILL
 62
3
 10
2055.521
 20
-6607.448
 30
-2407.008
 70
    32
  0
VERTEX
  8
T77SSILL
 62
3
 10
2061.980
 20
-6616.082
 30
-2408.618
 70
    32
  0
VERTEX
  8
T77SSILL
 62
3
 10
2067.986
 20
-6628.483
 30
-2410.667
 70
    32
  0
VERTEX
  8
T77SSILL
 62
3
 10
2083.794
 20
-6621.285
 30
-2411.040
 70
    32
  0
VERTEX
  8
T77SSILL
 62
3
 10
2067.522
 20
-6596.931
 30
-2406.103
 70
    32
  0
VERTEX
  8
T77SSILL
 62
3
 10
2059.761
 20
-6580.425
 30
-2402.935
 70
    32
  0
SEQEND
  8
T77SSILL
  0
TEXT
  8
T77SSILL
 62
3
 10
2081.284
 20
-6610.093
 30
-2405.103
 40
8.202
  1
D
 41
 1.0 
  0
POLYLINE
  8
T77SSILL
 62
7
 66
     1
 70
     8
  0
VERTEX
  8
T77SSILL
 62
7
 10
3501.152
 20
-8378.029
 30
-2382.000
 70
    32
  0
VERTEX
  8
T77SSILL
 62
7
 10
3501.139
 20
-8377.724
 30
-2382.000
 70
    32
  0
VERTEX
  8
T77SSILL
 62
7
 10
3501.099
 20
-8377.421
 30
-2382.000
 70
    32
  0
VERTEX
  8
T77SSILL
 62
7
 10
3501.033
 20
-8377.123
 30
-2382.000
 70
    32
  0
VERTEX
  8
T77SSILL
 62
7
 10
3500.941
 20
-8376.832
 30
-2382.000
 70
    32
  0
VERTEX
  8
T77SSILL
 62
7
 10
3500.824
 20
-8376.550
 30
-2382.000
 70
    32
  0
VERTEX
  8
T77SSILL
 62
7
 10
3500.683
 20
-8376.279
 30
-2382.000
 70
    32
  0
VERTEX
  8
T77SSILL
 62
7
 10
3500.519
 20
-8376.022
 30
-2382.000
 70
    32
  0
VERTEX
  8
T77SSILL
 62
7
 10
3500.333
 20
-8375.779
 30
-2382.000
 70
    32
  0
VERTEX
  8
T77SSILL
 62
7
 10
3500.127
 20
-8375.554
 30
-2382.000
 70
    32
  0
VERTEX
  8
T77SSILL
 62
7
 10
3499.902
 20
-8375.348
 30
-2382.000
 70
    32
  0
VERTEX
  8
T77SSILL
 62
7
 10
3499.660
 20
-8375.162
 30
-2382.000
 70
    32
  0
VERTEX
  8
T77SSILL
 62
7
 10
3499.402
 20
-8374.998
 30
-2382.000
 70
    32
  0
VERTEX
  8
T77SSILL
 62
7
 10
3499.131
 20
-8374.857
 30
-2382.000
 70
    32
  0
VERTEX
  8
T77SSILL
 62
7
 10
3498.849
 20
-8374.740
 30
-2382.000
 70
    32
  0
VERTEX
  8
T77SSILL
 62
7
 10
3498.558
 20
-8374.648
 30
-2382.000
 70
    32
  0
VERTEX
  8
T77SSILL
 62
7
 10
3498.260
 20
-8374.582
 30
-2382.000
 70
    32
  0
VERTEX
  8
T77SSILL
 62
7
 10
3497.957
 20
-8374.543
 30
-2382.000
 70
    32
  0
VERTEX
  8
T77SSILL
 62
7
 10
3497.652
 20
-8374.529
 30
-2382.000
 70
    32
  0
VERTEX
  8
T77SSILL
 62
7
 10
3497.347
 20
-8374.543
 30
-2382.000
 70
    32
  0
VERTEX
  8
T77SSILL
 62
7
 10
3497.044
 20
-8374.582
 30
-2382.000
 70
    32
  0
VERTEX
  8
T77SSILL
 62
7
 10
3496.746
 20
-8374.648
 30
-2382.000
 70
    32
  0
VERTEX
  8
T77SSILL
 62
7
 10
3496.455
 20
-8374.740
 30
-2382.000
 70
    32
  0
VERTEX
  8
T77SSILL
 62
7
 10
3496.173
 20
-8374.857
 30
-2382.000
 70
    32
  0
VERTEX
  8
T77SSILL
 62
7
 10
3495.902
 20
-8374.998
 30
-2382.000
 70
    32
  0
VERTEX
  8
T77SSILL
 62
7
 10
3495.645
 20
-8375.162
 30
-2382.000
 70
    32
  0
VERTEX
  8
T77SSILL
 62
7
 10
3495.402
 20
-8375.348
 30
-2382.000
 70
    32
  0
VERTEX
  8
T77SSILL
 62
7
 10
3495.177
 20
-8375.554
 30
-2382.000
 70
    32
  0
VERTEX
  8
T77SSILL
 62
7
 10
3494.971
 20
-8375.779
 30
-2382.000
 70
    32
  0
VERTEX
  8
T77SSILL
 62
7
 10
3494.785
 20
-8376.022
 30
-2382.000
 70
    32
  0
VERTEX
  8
T77SSILL
 62
7
 10
3494.621
 20
-8376.279
 30
-2382.000
 70
    32
  0
VERTEX
  8
T77SSILL
 62
7
 10
3494.480
 20
-8376.550
 30
-2382.000
 70
    32
  0
VERTEX
  8
T77SSILL
 62
7
 10
3494.363
 20
-8376.832
 30
-2382.000
 70
    32
  0
VERTEX
  8
T77SSILL
 62
7
 10
3494.271
 20
-8377.123
 30
-2382.000
 70
    32
  0
VERTEX
  8
T77SSILL
 62
7
 10
3494.205
 20
-8377.421
 30
-2382.000
 70
    32
  0
VERTEX
  8
T77SSILL
 62
7
 10
3494.165
 20
-8377.724
 30
-2382.000
 70
    32
  0
VERTEX
  8
T77SSILL
 62
7
 10
3494.152
 20
-8378.029
 30
-2382.000
 70
    32
  0
VERTEX
  8
T77SSILL
 62
7
 10
3494.165
 20
-8378.334
 30
-2382.000
 70
    32
  0
VERTEX
  8
T77SSILL
 62
7
 10
3494.205
 20
-8378.637
 30
-2382.000
 70
    32
  0
VERTEX
  8
T77SSILL
 62
7
 10
3494.271
 20
-8378.935
 30
-2382.000
 70
    32
  0
VERTEX
  8
T77SSILL
 62
7
 10
3494.363
 20
-8379.226
 30
-2382.000
 70
    32
  0
VERTEX
  8
T77SSILL
 62
7
 10
3494.480
 20
-8379.508
 30
-2382.000
 70
    32
  0
VERTEX
  8
T77SSILL
 62
7
 10
3494.621
 20
-8379.779
 30
-2382.000
 70
    32
  0
VERTEX
  8
T77SSILL
 62
7
 10
3494.785
 20
-8380.037
 30
-2382.000
 70
    32
  0
VERTEX
  8
T77SSILL
 62
7
 10
3494.971
 20
-8380.279
 30
-2382.000
 70
    32
  0
VERTEX
  8
T77SSILL
 62
7
 10
3495.177
 20
-8380.504
 30
-2382.000
 70
    32
  0
VERTEX
  8
T77SSILL
 62
7
 10
3495.402
 20
-8380.710
 30
-2382.000
 70
    32
  0
VERTEX
  8
T77SSILL
 62
7
 10
3495.645
 20
-8380.896
 30
-2382.000
 70
    32
  0
VERTEX
  8
T77SSILL
 62
7
 10
3495.902
 20
-8381.060
 30
-2382.000
 70
    32
  0
VERTEX
  8
T77SSILL
 62
7
 10
3496.173
 20
-8381.201
 30
-2382.000
 70
    32
  0
VERTEX
  8
T77SSILL
 62
7
 10
3496.455
 20
-8381.318
 30
-2382.000
 70
    32
  0
VERTEX
  8
T77SSILL
 62
7
 10
3496.746
 20
-8381.410
 30
-2382.000
 70
    32
  0
VERTEX
  8
T77SSILL
 62
7
 10
3497.044
 20
-8381.476
 30
-2382.000
 70
    32
  0
VERTEX
  8
T77SSILL
 62
7
 10
3497.347
 20
-8381.516
 30
-2382.000
 70
    32
  0
VERTEX
  8
T77SSILL
 62
7
 10
3497.652
 20
-8381.529
 30
-2382.000
 70
    32
  0
VERTEX
  8
T77SSILL
 62
7
 10
3497.957
 20
-8381.516
 30
-2382.000
 70
    32
  0
VERTEX
  8
T77SSILL
 62
7
 10
3498.260
 20
-8381.476
 30
-2382.000
 70
    32
  0
VERTEX
  8
T77SSILL
 62
7
 10
3498.558
 20
-8381.410
 30
-2382.000
 70
    32
  0
VERTEX
  8
T77SSILL
 62
7
 10
3498.849
 20
-8381.318
 30
-2382.000
 70
    32
  0
VERTEX
  8
T77SSILL
 62
7
 10
3499.131
 20
-8381.201
 30
-2382.000
 70
    32
  0
VERTEX
  8
T77SSILL
 62
7
 10
3499.402
 20
-8381.060
 30
-2382.000
 70
    32
  0
VERTEX
  8
T77SSILL
 62
7
 10
3499.660
 20
-8380.896
 30
-2382.000
 70
    32
  0
VERTEX
  8
T77SSILL
 62
7
 10
3499.902
 20
-8380.710
 30
-2382.000
 70
    32
  0
VERTEX
  8
T77SSILL
 62
7
 10
3500.127
 20
-8380.504
 30
-2382.000
 70
    32
  0
VERTEX
  8
T77SSILL
 62
7
 10
3500.333
 20
-8380.279
 30
-2382.000
 70
    32
  0
VERTEX
  8
T77SSILL
 62
7
 10
3500.519
 20
-8380.037
 30
-2382.000
 70
    32
  0
VERTEX
  8
T77SSILL
 62
7
 10
3500.683
 20
-8379.779
 30
-2382.000
 70
    32
  0
VERTEX
  8
T77SSILL
 62
7
 10
3500.824
 20
-8379.508
 30
-2382.000
 70
    32
  0
VERTEX
  8
T77SSILL
 62
7
 10
3500.941
 20
-8379.226
 30
-2382.000
 70
    32
  0
VERTEX
  8
T77SSILL
 62
7
 10
3501.033
 20
-8378.935
 30
-2382.000
 70
    32
  0
VERTEX
  8
T77SSILL
 62
7
 10
3501.099
 20
-8378.637
 30
-2382.000
 70
    32
  0
VERTEX
  8
T77SSILL
 62
7
 10
3501.139
 20
-8378.334
 30
-2382.000
 70
    32
  0
VERTEX
  8
T77SSILL
 62
7
 10
3501.152
 20
-8378.029
 30
-2382.000
 70
    32
  0
SEQEND
  8
T77SSILL
  0
LINE
  8
T77SSILL
 62
1
 10
1911.265
 20
-4927.148
 30
-2406.000
 11
1892.364
 21
-4901.411
 31
-2406.000
  0
TEXT
  8
T77SSILL
 62
1
 10
1890.675
 20
-4896.530
 30
-2406.000
 40
2.000
  1
AIR DOOR
 50
305.667
 41
 1.0 
  0
POLYLINE
  8
T77SSILL
 62
8
 66
     1
 70
     8
  0
VERTEX
  8
T77SSILL
 62
8
 10
1736.059
 20
-5029.952
 30
-2411.516
 70
    32
  0
VERTEX
  8
T77SSILL
 62
8
 10
1738.921
 20
-5034.984
 30
-2411.510
 70
    32
  0
VERTEX
  8
T77SSILL
 62
8
 10
1739.242
 20
-5039.677
 30
-2411.477
 70
    32
  0
VERTEX
  8
T77SSILL
 62
8
 10
1623.718
 20
-5124.217
 30
-2410.303
 70
    32
  0
VERTEX
  8
T77SSILL
 62
8
 10
1585.507
 20
-5151.412
 30
-2409.942
 70
    32
  0
VERTEX
  8
T77SSILL
 62
8
 10
1578.919
 20
-5143.781
 30
-2410.004
 70
    32
  0
VERTEX
  8
T77SSILL
 62
8
 10
1574.844
 20
-5146.534
 30
-2409.967
 70
    32
  0
VERTEX
  8
T77SSILL
 62
8
 10
1579.759
 20
-5155.370
 30
-2409.889
 70
    32
  0
VERTEX
  8
T77SSILL
 62
8
 10
1552.431
 20
-5175.317
 30
-2409.626
 70
    32
  0
VERTEX
  8
T77SSILL
 62
8
 10
1557.209
 20
-5182.167
 30
-2409.568
 70
    32
  0
VERTEX
  8
T77SSILL
 62
8
 10
1589.122
 20
-5159.340
 30
-2409.871
 70
    32
  0
VERTEX
  8
T77SSILL
 62
8
 10
1593.917
 20
-5168.004
 30
-2409.794
 70
    32
  0
VERTEX
  8
T77SSILL
 62
8
 10
1598.341
 20
-5180.470
 30
-2409.679
 70
    32
  0
VERTEX
  8
T77SSILL
 62
8
 10
1602.730
 20
-5198.357
 30
-2409.508
 70
    32
  0
VERTEX
  8
T77SSILL
 62
8
 10
1645.833
 20
-5314.962
 30
-2408.431
 70
    32
  0
VERTEX
  8
T77SSILL
 62
8
 10
1647.592
 20
-5315.928
 30
-2408.425
 70
    32
  0
VERTEX
  8
T77SSILL
 62
8
 10
1655.594
 20
-5336.856
 30
-2408.213
 70
    32
  0
VERTEX
  8
T77SSILL
 62
8
 10
1652.289
 20
-5344.206
 30
-2408.121
 70
    32
  0
VERTEX
  8
T77SSILL
 62
8
 10
1659.858
 20
-5348.107
 30
-2408.096
 70
    32
  0
VERTEX
  8
T77SSILL
 62
8
 10
1691.842
 20
-5434.166
 30
-2407.766
 70
    32
  0
VERTEX
  8
T77SSILL
 62
8
 10
1689.369
 20
-5441.445
 30
-2407.786
 70
    32
  0
VERTEX
  8
T77SSILL
 62
8
 10
1695.680
 20
-5450.201
 30
-2407.782
 70
    32
  0
VERTEX
  8
T77SSILL
 62
8
 10
1697.689
 20
-5450.503
 30
-2407.776
 70
    32
  0
VERTEX
  8
T77SSILL
 62
8
 10
1725.297
 20
-5524.650
 30
-2408.000
 70
    32
  0
VERTEX
  8
T77SSILL
 62
8
 10
1721.833
 20
-5535.673
 30
-2408.223
 70
    32
  0
VERTEX
  8
T77SSILL
 62
8
 10
1723.355
 20
-5538.754
 30
-2408.251
 70
    32
  0
VERTEX
  8
T77SSILL
 62
8
 10
1731.222
 20
-5540.283
 30
-2408.169
 70
    32
  0
VERTEX
  8
T77SSILL
 62
8
 10
1753.240
 20
-5599.770
 30
-2408.471
 70
    32
  0
VERTEX
  8
T77SSILL
 62
8
 10
1750.250
 20
-5634.792
 30
-2408.012
 70
    32
  0
VERTEX
  8
T77SSILL
 62
8
 10
1623.524
 20
-5856.676
 30
-2405.996
 70
    32
  0
VERTEX
  8
T77SSILL
 62
8
 10
1617.657
 20
-5855.580
 30
-2406.000
 70
    32
  0
VERTEX
  8
T77SSILL
 62
8
 10
1613.936
 20
-5857.480
 30
-2405.992
 70
    32
  0
VERTEX
  8
T77SSILL
 62
8
 10
1611.143
 20
-5862.720
 30
-2405.971
 70
    32
  0
VERTEX
  8
T77SSILL
 62
8
 10
1612.653
 20
-5867.185
 30
-2405.953
 70
    32
  0
VERTEX
  8
T77SSILL
 62
8
 10
1612.617
 20
-5876.570
 30
-2405.915
 70
    32
  0
VERTEX
  8
T77SSILL
 62
8
 10
1582.304
 20
-5931.866
 30
-2405.689
 70
    32
  0
VERTEX
  8
T77SSILL
 62
8
 10
1590.856
 20
-5937.067
 30
-2405.668
 70
    32
  0
VERTEX
  8
T77SSILL
 62
8
 10
1666.172
 20
-5799.319
 30
-2406.232
 70
    32
  0
VERTEX
  8
T77SSILL
 62
8
 10
1677.323
 20
-5807.607
 30
-2406.199
 70
    32
  0
VERTEX
  8
T77SSILL
 62
8
 10
1693.932
 20
-5835.493
 30
-2406.088
 70
    32
  0
VERTEX
  8
T77SSILL
 62
8
 10
1765.971
 20
-5981.217
 30
-2405.505
 70
    32
  0
VERTEX
  8
T77SSILL
 62
8
 10
1774.849
 20
-5976.610
 30
-2405.525
 70
    32
  0
VERTEX
  8
T77SSILL
 62
8
 10
1743.884
 20
-5913.974
 30
-2405.776
 70
    32
  0
VERTEX
  8
T77SSILL
 62
8
 10
1749.864
 20
-5904.152
 30
-2405.821
 70
    32
  0
VERTEX
  8
T77SSILL
 62
8
 10
1752.097
 20
-5896.536
 30
-2405.855
 70
    32
  0
VERTEX
  8
T77SSILL
 62
8
 10
1766.571
 20
-5881.740
 30
-2405.925
 70
    32
  0
VERTEX
  8
T77SSILL
 62
8
 10
1771.949
 20
-5882.224
 30
-2405.926
 70
    32
  0
VERTEX
  8
T77SSILL
 62
8
 10
1773.331
 20
-5889.488
 30
-2405.896
 70
    32
  0
VERTEX
  8
T77SSILL
 62
8
 10
1782.339
 20
-5892.248
 30
-2405.889
 70
    32
  0
VERTEX
  8
T77SSILL
 62
8
 10
1787.510
 20
-5898.818
 30
-2405.863
 70
    32
  0
VERTEX
  8
T77SSILL
 62
8
 10
1796.973
 20
-5897.235
 30
-2405.875
 70
    32
  0
VERTEX
  8
T77SSILL
 62
8
 10
1805.126
 20
-5890.619
 30
-2405.895
 70
    32
  0
VERTEX
  8
T77SSILL
 62
8
 10
1798.153
 20
-5870.952
 30
-2405.915
 70
    32
  0
VERTEX
  8
T77SSILL
 62
8
 10
1794.198
 20
-5855.856
 30
-2405.917
 70
    32
  0
VERTEX
  8
T77SSILL
 62
8
 10
1789.135
 20
-5846.349
 30
-2405.942
 70
    32
  0
VERTEX
  8
T77SSILL
 62
8
 10
1775.839
 20
-5812.264
 30
-2405.988
 70
    32
  0
VERTEX
  8
T77SSILL
 62
8
 10
1776.692
 20
-5810.016
 30
-2405.974
 70
    32
  0
VERTEX
  8
T77SSILL
 62
8
 10
1773.864
 20
-5798.552
 30
-2405.988
 70
    32
  0
VERTEX
  8
T77SSILL
 62
8
 10
1766.365
 20
-5781.139
 30
-2406.140
 70
    32
  0
VERTEX
  8
T77SSILL
 62
8
 10
1765.386
 20
-5774.407
 30
-2406.228
 70
    32
  0
VERTEX
  8
T77SSILL
 62
8
 10
1788.994
 20
-5749.284
 30
-2406.941
 70
    32
  0
VERTEX
  8
T77SSILL
 62
8
 10
1790.984
 20
-5750.415
 30
-2406.953
 70
    32
  0
VERTEX
  8
T77SSILL
 62
8
 10
1794.996
 20
-5746.259
 30
-2407.069
 70
    32
  0
VERTEX
  8
T77SSILL
 62
8
 10
1800.000
 20
-5745.000
 30
-2407.158
 70
    32
  0
VERTEX
  8
T77SSILL
 62
8
 10
1805.000
 20
-5755.000
 30
-2407.083
 70
    32
  0
VERTEX
  8
T77SSILL
 62
8
 10
1810.000
 20
-5755.000
 30
-2407.154
 70
    32
  0
VERTEX
  8
T77SSILL
 62
8
 10
1835.000
 20
-5820.000
 30
-2406.563
 70
    32
  0
VERTEX
  8
T77SSILL
 62
8
 10
1827.041
 20
-5824.739
 30
-2406.382
 70
    32
  0
VERTEX
  8
T77SSILL
 62
8
 10
1830.138
 20
-5830.352
 30
-2406.345
 70
    32
  0
VERTEX
  8
T77SSILL
 62
8
 10
1835.897
 20
-5827.308
 30
-2406.470
 70
    32
  0
VERTEX
  8
T77SSILL
 62
8
 10
1869.820
 20
-5914.536
 30
-2405.662
 70
    32
  0
VERTEX
  8
T77SSILL
 62
8
 10
1864.032
 20
-5918.741
 30
-2405.512
 70
    32
  0
VERTEX
  8
T77SSILL
 62
8
 10
1868.052
 20
-5925.239
 30
-2405.473
 70
    32
  0
VERTEX
  8
T77SSILL
 62
8
 10
1875.143
 20
-5920.430
 30
-2405.652
 70
    32
  0
VERTEX
  8
T77SSILL
 62
8
 10
1900.000
 20
-5995.000
 30
-2405.234
 70
    32
  0
VERTEX
  8
T77SSILL
 62
8
 10
1895.000
 20
-6000.000
 30
-2405.294
 70
    32
  0
VERTEX
  8
T77SSILL
 62
8
 10
1895.000
 20
-6005.000
 30
-2405.307
 70
    32
  0
VERTEX
  8
T77SSILL
 62
8
 10
1900.000
 20
-6010.000
 30
-2405.270
 70
    32
  0
VERTEX
  8
T77SSILL
 62
8
 10
1905.000
 20
-6020.000
 30
-2405.246
 70
    32
  0
VERTEX
  8
T77SSILL
 62
8
 10
1900.000
 20
-6025.000
 30
-2405.307
 70
    32
  0
VERTEX
  8
T77SSILL
 62
8
 10
1905.000
 20
-6040.000
 30
-2405.295
 70
    32
  0
VERTEX
  8
T77SSILL
 62
8
 10
1925.000
 20
-6080.000
 30
-2405.159
 70
    32
  0
VERTEX
  8
T77SSILL
 62
8
 10
1930.000
 20
-6085.000
 30
-2405.140
 70
    32
  0
VERTEX
  8
T77SSILL
 62
8
 10
1941.864
 20
-6105.101
 30
-2405.061
 70
    32
  0
VERTEX
  8
T77SSILL
 62
8
 10
1942.318
 20
-6107.627
 30
-2405.050
 70
    32
  0
VERTEX
  8
T77SSILL
 62
8
 10
1940.173
 20
-6117.327
 30
-2405.007
 70
    32
  0
VERTEX
  8
T77SSILL
 62
8
 10
1949.609
 20
-6126.757
 30
-2404.972
 70
    32
  0
VERTEX
  8
T77SSILL
 62
8
 10
1955.000
 20
-6140.000
 30
-2404.918
 70
    32
  0
VERTEX
  8
T77SSILL
 62
8
 10
1955.000
 20
-6145.000
 30
-2404.897
 70
    32
  0
VERTEX
  8
T77SSILL
 62
8
 10
1950.000
 20
-6145.000
 30
-2404.894
 70
    32
  0
VERTEX
  8
T77SSILL
 62
8
 10
1935.000
 20
-6150.000
 30
-2404.865
 70
    32
  0
VERTEX
  8
T77SSILL
 62
8
 10
1950.000
 20
-6190.000
 30
-2404.702
 70
    32
  0
VERTEX
  8
T77SSILL
 62
8
 10
1960.000
 20
-6190.000
 30
-2404.707
 70
    32
  0
VERTEX
  8
T77SSILL
 62
8
 10
1965.000
 20
-6185.000
 30
-2404.731
 70
    32
  0
VERTEX
  8
T77SSILL
 62
8
 10
1970.000
 20
-6185.000
 30
-2404.708
 70
    32
  0
VERTEX
  8
T77SSILL
 62
8
 10
1970.000
 20
-6190.000
 30
-2404.712
 70
    32
  0
VERTEX
  8
T77SSILL
 62
8
 10
1980.000
 20
-6210.000
 30
-2404.443
 70
    32
  0
VERTEX
  8
T77SSILL
 62
8
 10
1975.000
 20
-6220.000
 30
-2404.587
 70
    32
  0
VERTEX
  8
T77SSILL
 62
8
 10
1980.000
 20
-6225.000
 30
-2404.557
 70
    32
  0
VERTEX
  8
T77SSILL
 62
8
 10
1970.000
 20
-6230.000
 30
-2404.542
 70
    32
  0
VERTEX
  8
T77SSILL
 62
8
 10
1975.000
 20
-6250.000
 30
-2404.459
 70
    32
  0
VERTEX
  8
T77SSILL
 62
8
 10
1985.000
 20
-6250.000
 30
-2404.464
 70
    32
  0
VERTEX
  8
T77SSILL
 62
8
 10
1990.000
 20
-6275.000
 30
-2404.360
 70
    32
  0
VERTEX
  8
T77SSILL
 62
8
 10
1995.000
 20
-6310.000
 30
-2404.213
 70
    32
  0
VERTEX
  8
T77SSILL
 62
8
 10
1995.000
 20
-6345.000
 30
-2404.063
 70
    32
  0
VERTEX
  8
T77SSILL
 62
8
 10
1990.000
 20
-6350.000
 30
-2404.040
 70
    32
  0
VERTEX
  8
T77SSILL
 62
8
 10
1990.000
 20
-6365.000
 30
-2403.975
 70
    32
  0
VERTEX
  8
T77SSILL
 62
8
 10
1995.000
 20
-6365.000
 30
-2403.978
 70
    32
  0
VERTEX
  8
T77SSILL
 62
8
 10
1995.000
 20
-6370.000
 30
-2403.957
 70
    32
  0
VERTEX
  8
T77SSILL
 62
8
 10
2000.000
 20
-6380.000
 30
-2403.917
 70
    32
  0
VERTEX
  8
T77SSILL
 62
8
 10
2005.000
 20
-6385.000
 30
-2403.898
 70
    32
  0
VERTEX
  8
T77SSILL
 62
8
 10
2005.000
 20
-6395.000
 30
-2403.855
 70
    32
  0
VERTEX
  8
T77SSILL
 62
8
 10
2015.000
 20
-6395.000
 30
-2403.860
 70
    32
  0
VERTEX
  8
T77SSILL
 62
8
 10
2015.000
 20
-6385.000
 30
-2403.903
 70
    32
  0
VERTEX
  8
T77SSILL
 62
8
 10
2025.000
 20
-6375.000
 30
-2403.720
 70
    32
  0
VERTEX
  8
T77SSILL
 62
8
 10
2020.000
 20
-6370.000
 30
-2403.842
 70
    32
  0
VERTEX
  8
T77SSILL
 62
8
 10
2020.000
 20
-6365.000
 30
-2403.804
 70
    32
  0
VERTEX
  8
T77SSILL
 62
8
 10
2015.000
 20
-6350.000
 30
-2403.917
 70
    32
  0
VERTEX
  8
T77SSILL
 62
8
 10
2010.000
 20
-6350.000
 30
-2404.050
 70
    32
  0
VERTEX
  8
T77SSILL
 62
8
 10
2010.000
 20
-6295.000
 30
-2403.871
 70
    32
  0
VERTEX
  8
T77SSILL
 62
8
 10
2015.000
 20
-6295.000
 30
-2403.839
 70
    32
  0
VERTEX
  8
T77SSILL
 62
8
 10
2050.000
 20
-6390.000
 30
-2403.446
 70
    32
  0
VERTEX
  8
T77SSILL
 62
8
 10
2050.000
 20
-6405.000
 30
-2403.445
 70
    32
  0
VERTEX
  8
T77SSILL
 62
8
 10
2055.000
 20
-6410.000
 30
-2403.359
 70
    32
  0
VERTEX
  8
T77SSILL
 62
8
 10
2055.000
 20
-6420.000
 30
-2403.358
 70
    32
  0
VERTEX
  8
T77SSILL
 62
8
 10
2060.000
 20
-6430.000
 30
-2403.272
 70
    32
  0
VERTEX
  8
T77SSILL
 62
8
 10
2058.043
 20
-6443.829
 30
-2403.304
 70
    32
  0
VERTEX
  8
T77SSILL
 62
8
 10
2048.487
 20
-6452.694
 30
-2403.466
 70
    32
  0
VERTEX
  8
T77SSILL
 62
8
 10
2044.308
 20
-6454.958
 30
-2403.537
 70
    32
  0
VERTEX
  8
T77SSILL
 62
8
 10
2039.519
 20
-6466.840
 30
-2403.566
 70
    32
  0
VERTEX
  8
T77SSILL
 62
8
 10
2038.958
 20
-6469.029
 30
-2403.557
 70
    32
  0
VERTEX
  8
T77SSILL
 62
8
 10
2041.339
 20
-6476.748
 30
-2403.526
 70
    32
  0
VERTEX
  8
T77SSILL
 62
8
 10
2019.456
 20
-6497.088
 30
-2403.442
 70
    32
  0
VERTEX
  8
T77SSILL
 62
8
 10
2003.623
 20
-6493.193
 30
-2403.456
 70
    32
  0
VERTEX
  8
T77SSILL
 62
8
 10
1990.572
 20
-6475.759
 30
-2403.525
 70
    32
  0
VERTEX
  8
T77SSILL
 62
8
 10
1978.879
 20
-6485.283
 30
-2403.486
 70
    32
  0
VERTEX
  8
T77SSILL
 62
8
 10
1991.352
 20
-6504.192
 30
-2403.410
 70
    32
  0
VERTEX
  8
T77SSILL
 62
8
 10
1990.987
 20
-6514.843
 30
-2403.367
 70
    32
  0
VERTEX
  8
T77SSILL
 62
8
 10
1989.962
 20
-6518.475
 30
-2403.352
 70
    32
  0
VERTEX
  8
T77SSILL
 62
8
 10
1968.390
 20
-6533.712
 30
-2403.289
 70
    32
  0
VERTEX
  8
T77SSILL
 62
8
 10
1939.772
 20
-6540.653
 30
-2403.258
 70
    32
  0
VERTEX
  8
T77SSILL
 62
8
 10
1929.432
 20
-6545.923
 30
-2403.236
 70
    32
  0
VERTEX
  8
T77SSILL
 62
8
 10
1915.826
 20
-6544.397
 30
-2403.241
 70
    32
  0
VERTEX
  8
T77SSILL
 62
8
 10
1903.356
 20
-6534.327
 30
-2403.281
 70
    32
  0
VERTEX
  8
T77SSILL
 62
8
 10
1896.337
 20
-6531.810
 30
-2403.290
 70
    32
  0
VERTEX
  8
T77SSILL
 62
8
 10
1878.857
 20
-6531.219
 30
-2403.291
 70
    32
  0
VERTEX
  8
T77SSILL
 62
8
 10
1876.769
 20
-6529.717
 30
-2403.297
 70
    32
  0
VERTEX
  8
T77SSILL
 62
8
 10
1867.978
 20
-6536.005
 30
-2403.271
 70
    32
  0
VERTEX
  8
T77SSILL
 62
8
 10
1866.388
 20
-6542.023
 30
-2403.246
 70
    32
  0
VERTEX
  8
T77SSILL
 62
8
 10
1862.471
 20
-6546.612
 30
-2403.227
 70
    32
  0
VERTEX
  8
T77SSILL
 62
8
 10
1846.299
 20
-6554.266
 30
-2403.195
 70
    32
  0
VERTEX
  8
T77SSILL
 62
8
 10
1844.203
 20
-6556.538
 30
-2403.186
 70
    32
  0
VERTEX
  8
T77SSILL
 62
8
 10
1846.851
 20
-6573.344
 30
-2403.118
 70
    32
  0
VERTEX
  8
T77SSILL
 62
8
 10
1841.381
 20
-6592.719
 30
-2403.039
 70
    32
  0
VERTEX
  8
T77SSILL
 62
8
 10
1840.620
 20
-6602.057
 30
-2403.001
 70
    32
  0
VERTEX
  8
T77SSILL
 62
8
 10
1843.372
 20
-6610.768
 30
-2402.966
 70
    32
  0
VERTEX
  8
T77SSILL
 62
8
 10
1842.073
 20
-6623.003
 30
-2402.917
 70
    32
  0
VERTEX
  8
T77SSILL
 62
8
 10
1839.933
 20
-6624.502
 30
-2402.911
 70
    32
  0
VERTEX
  8
T77SSILL
 62
8
 10
1846.981
 20
-6636.047
 30
-2402.864
 70
    32
  0
VERTEX
  8
T77SSILL
 62
8
 10
1850.990
 20
-6637.597
 30
-2402.859
 70
    32
  0
VERTEX
  8
T77SSILL
 62
8
 10
1854.056
 20
-6653.806
 30
-2402.793
 70
    32
  0
VERTEX
  8
T77SSILL
 62
8
 10
1855.078
 20
-6692.152
 30
-2402.638
 70
    32
  0
VERTEX
  8
T77SSILL
 62
8
 10
1865.445
 20
-6692.535
 30
-2402.638
 70
    32
  0
VERTEX
  8
T77SSILL
 62
8
 10
1864.102
 20
-6656.215
 30
-2402.784
 70
    32
  0
VERTEX
  8
T77SSILL
 62
8
 10
1868.178
 20
-6649.395
 30
-2402.812
 70
    32
  0
VERTEX
  8
T77SSILL
 62
8
 10
1867.273
 20
-6641.821
 30
-2402.843
 70
    32
  0
VERTEX
  8
T77SSILL
 62
8
 10
1870.189
 20
-6616.749
 30
-2402.945
 70
    32
  0
VERTEX
  8
T77SSILL
 62
8
 10
1897.275
 20
-6597.016
 30
-2403.027
 70
    32
  0
VERTEX
  8
T77SSILL
 62
8
 10
1899.230
 20
-6597.386
 30
-2403.025
 70
    32
  0
VERTEX
  8
T77SSILL
 62
8
 10
1900.480
 20
-6600.471
 30
-2403.013
 70
    32
  0
VERTEX
  8
T77SSILL
 62
8
 10
1893.658
 20
-6646.821
 30
-2402.825
 70
    32
  0
VERTEX
  8
T77SSILL
 62
8
 10
1897.563
 20
-6651.927
 30
-2402.805
 70
    32
  0
VERTEX
  8
T77SSILL
 62
8
 10
1898.066
 20
-6814.882
 30
-2402.146
 70
    32
  0
VERTEX
  8
T77SSILL
 62
8
 10
1890.318
 20
-6822.714
 30
-2402.113
 70
    32
  0
VERTEX
  8
T77SSILL
 62
8
 10
1889.699
 20
-6826.647
 30
-2402.098
 70
    32
  0
VERTEX
  8
T77SSILL
 62
8
 10
1879.972
 20
-6826.891
 30
-2402.096
 70
    32
  0
VERTEX
  8
T77SSILL
 62
8
 10
1879.206
 20
-6837.945
 30
-2402.051
 70
    32
  0
VERTEX
  8
T77SSILL
 62
8
 10
1890.996
 20
-6839.167
 30
-2402.047
 70
    32
  0
VERTEX
  8
T77SSILL
 62
8
 10
1897.822
 20
-6846.218
 30
-2402.019
 70
    32
  0
VERTEX
  8
T77SSILL
 62
8
 10
1897.721
 20
-6920.542
 30
-2401.719
 70
    32
  0
VERTEX
  8
T77SSILL
 62
8
 10
1908.032
 20
-6920.219
 30
-2401.721
 70
    32
  0
VERTEX
  8
T77SSILL
 62
8
 10
1907.734
 20
-6774.001
 30
-2402.312
 70
    32
  0
VERTEX
  8
T77SSILL
 62
8
 10
1918.403
 20
-6766.841
 30
-2402.342
 70
    32
  0
VERTEX
  8
T77SSILL
 62
8
 10
1918.537
 20
-6740.209
 30
-2402.450
 70
    32
  0
VERTEX
  8
T77SSILL
 62
8
 10
1907.656
 20
-6735.626
 30
-2402.467
 70
    32
  0
VERTEX
  8
T77SSILL
 62
8
 10
1907.528
 20
-6672.796
 30
-2402.721
 70
    32
  0
VERTEX
  8
T77SSILL
 62
8
 10
1932.556
 20
-6647.232
 30
-2402.827
 70
    32
  0
VERTEX
  8
T77SSILL
 62
8
 10
1941.131
 20
-6634.368
 30
-2402.880
 70
    32
  0
VERTEX
  8
T77SSILL
 62
8
 10
1945.898
 20
-6633.247
 30
-2402.885
 70
    32
  0
VERTEX
  8
T77SSILL
 62
8
 10
1950.394
 20
-6617.205
 30
-2402.950
 70
    32
  0
VERTEX
  8
T77SSILL
 62
8
 10
1958.874
 20
-6568.448
 30
-2403.148
 70
    32
  0
VERTEX
  8
T77SSILL
 62
8
 10
1965.988
 20
-6548.252
 30
-2403.230
 70
    32
  0
VERTEX
  8
T77SSILL
 62
8
 10
2002.440
 20
-6521.194
 30
-2403.343
 70
    32
  0
VERTEX
  8
T77SSILL
 62
8
 10
2006.211
 20
-6523.088
 30
-2403.335
 70
    32
  0
VERTEX
  8
T77SSILL
 62
8
 10
2009.608
 20
-6527.567
 30
-2403.317
 70
    32
  0
VERTEX
  8
T77SSILL
 62
8
 10
2018.308
 20
-6542.702
 30
-2403.257
 70
    32
  0
VERTEX
  8
T77SSILL
 62
8
 10
2023.370
 20
-6557.007
 30
-2403.200
 70
    32
  0
VERTEX
  8
T77SSILL
 62
8
 10
2025.202
 20
-6569.903
 30
-2403.148
 70
    32
  0
VERTEX
  8
T77SSILL
 62
8
 10
2021.132
 20
-6570.833
 30
-2403.144
 70
    32
  0
VERTEX
  8
T77SSILL
 62
8
 10
2018.540
 20
-6568.966
 30
-2403.151
 70
    32
  0
VERTEX
  8
T77SSILL
 62
8
 10
2006.531
 20
-6550.691
 30
-2403.224
 70
    32
  0
VERTEX
  8
T77SSILL
 62
8
 10
2002.197
 20
-6547.605
 30
-2403.236
 70
    32
  0
VERTEX
  8
T77SSILL
 62
8
 10
1999.342
 20
-6546.991
 30
-2403.238
 70
    32
  0
VERTEX
  8
T77SSILL
 62
8
 10
1996.016
 20
-6548.016
 30
-2403.234
 70
    32
  0
VERTEX
  8
T77SSILL
 62
8
 10
1988.995
 20
-6556.034
 30
-2403.201
 70
    32
  0
VERTEX
  8
T77SSILL
 62
8
 10
2009.013
 20
-6580.033
 30
-2403.105
 70
    32
  0
VERTEX
  8
T77SSILL
 62
8
 10
2011.776
 20
-6586.464
 30
-2403.079
 70
    32
  0
VERTEX
  8
T77SSILL
 62
8
 10
2011.090
 20
-6590.773
 30
-2403.062
 70
    32
  0
VERTEX
  8
T77SSILL
 62
8
 10
2009.510
 20
-6592.820
 30
-2403.054
 70
    32
  0
VERTEX
  8
T77SSILL
 62
8
 10
2007.062
 20
-6593.316
 30
-2403.051
 70
    32
  0
VERTEX
  8
T77SSILL
 62
8
 10
1997.499
 20
-6585.080
 30
-2403.084
 70
    32
  0
VERTEX
  8
T77SSILL
 62
8
 10
1995.932
 20
-6584.848
 30
-2403.085
 70
    32
  0
VERTEX
  8
T77SSILL
 62
8
 10
1980.886
 20
-6589.619
 30
-2403.064
 70
    32
  0
VERTEX
  8
T77SSILL
 62
8
 10
1974.163
 20
-6600.081
 30
-2403.021
 70
    32
  0
VERTEX
  8
T77SSILL
 62
8
 10
1984.619
 20
-6610.577
 30
-2402.980
 70
    32
  0
VERTEX
  8
T77SSILL
 62
8
 10
1984.578
 20
-6617.613
 30
-2402.951
 70
    32
  0
VERTEX
  8
T77SSILL
 62
8
 10
1987.245
 20
-6623.098
 30
-2402.929
 70
    32
  0
VERTEX
  8
T77SSILL
 62
8
 10
2003.719
 20
-6636.875
 30
-2402.875
 70
    32
  0
VERTEX
  8
T77SSILL
 62
8
 10
2005.993
 20
-6640.661
 30
-2402.860
 70
    32
  0
VERTEX
  8
T77SSILL
 62
8
 10
2008.633
 20
-6654.282
 30
-2402.805
 70
    32
  0
VERTEX
  8
T77SSILL
 62
8
 10
2021.184
 20
-6655.548
 30
-2402.788
 70
    32
  0
VERTEX
  8
T77SSILL
 62
8
 10
2023.905
 20
-6660.367
 30
-2402.749
 70
    32
  0
VERTEX
  8
T77SSILL
 62
8
 10
2035.350
 20
-6682.403
 30
-2402.575
 70
    32
  0
VERTEX
  8
T77SSILL
 62
8
 10
2034.715
 20
-6708.793
 30
-2402.449
 70
    32
  0
VERTEX
  8
T77SSILL
 62
8
 10
2027.453
 20
-6723.741
 30
-2402.417
 70
    32
  0
VERTEX
  8
T77SSILL
 62
8
 10
2009.468
 20
-6739.187
 30
-2402.445
 70
    32
  0
VERTEX
  8
T77SSILL
 62
8
 10
1997.474
 20
-6746.721
 30
-2402.430
 70
    32
  0
VERTEX
  8
T77SSILL
 62
8
 10
1978.206
 20
-6722.191
 30
-2402.528
 70
    32
  0
VERTEX
  8
T77SSILL
 62
8
 10
1979.725
 20
-6708.496
 30
-2402.583
 70
    32
  0
VERTEX
  8
T77SSILL
 62
8
 10
1971.137
 20
-6698.390
 30
-2402.623
 70
    32
  0
VERTEX
  8
T77SSILL
 62
8
 10
1966.677
 20
-6696.216
 30
-2402.632
 70
    32
  0
VERTEX
  8
T77SSILL
 62
8
 10
1962.680
 20
-6669.897
 30
-2402.738
 70
    32
  0
VERTEX
  8
T77SSILL
 62
8
 10
1962.651
 20
-6645.343
 30
-2402.837
 70
    32
  0
VERTEX
  8
T77SSILL
 62
8
 10
1949.718
 20
-6646.815
 30
-2402.830
 70
    32
  0
VERTEX
  8
T77SSILL
 62
8
 10
1954.160
 20
-6697.830
 30
-2402.624
 70
    32
  0
VERTEX
  8
T77SSILL
 62
8
 10
1953.118
 20
-6703.327
 30
-2402.602
 70
    32
  0
VERTEX
  8
T77SSILL
 62
8
 10
1946.731
 20
-6708.318
 30
-2402.581
 70
    32
  0
VERTEX
  8
T77SSILL
 62
8
 10
1948.995
 20
-6724.754
 30
-2402.515
 70
    32
  0
VERTEX
  8
T77SSILL
 62
8
 10
1953.678
 20
-6741.776
 30
-2402.446
 70
    32
  0
VERTEX
  8
T77SSILL
 62
8
 10
1965.678
 20
-6758.918
 30
-2402.378
 70
    32
  0
VERTEX
  8
T77SSILL
 62
8
 10
1969.795
 20
-6770.581
 30
-2402.331
 70
    32
  0
VERTEX
  8
T77SSILL
 62
8
 10
1964.250
 20
-6776.807
 30
-2402.306
 70
    32
  0
VERTEX
  8
T77SSILL
 62
8
 10
1986.465
 20
-6803.478
 30
-2402.200
 70
    32
  0
VERTEX
  8
T77SSILL
 62
8
 10
1990.124
 20
-6803.538
 30
-2402.200
 70
    32
  0
VERTEX
  8
T77SSILL
 62
8
 10
2005.024
 20
-6825.406
 30
-2402.047
 70
    32
  0
VERTEX
  8
T77SSILL
 62
8
 10
2020.492
 20
-6859.973
 30
-2401.788
 70
    32
  0
VERTEX
  8
T77SSILL
 62
8
 10
2025.148
 20
-6859.780
 30
-2401.763
 70
    32
  0
VERTEX
  8
T77SSILL
 62
8
 10
2029.564
 20
-6876.877
 30
-2401.653
 70
    32
  0
VERTEX
  8
T77SSILL
 62
8
 10
2034.245
 20
-6876.879
 30
-2401.626
 70
    32
  0
VERTEX
  8
T77SSILL
 62
8
 10
2045.183
 20
-6892.618
 30
-2401.486
 70
    32
  0
VERTEX
  8
T77SSILL
 62
8
 10
2052.084
 20
-6899.936
 30
-2401.411
 70
    32
  0
VERTEX
  8
T77SSILL
 62
8
 10
2061.203
 20
-6902.234
 30
-2401.347
 70
    32
  0
VERTEX
  8
T77SSILL
 62
8
 10
2078.813
 20
-6926.830
 30
-2401.145
 70
    32
  0
VERTEX
  8
T77SSILL
 62
8
 10
2096.211
 20
-6923.167
 30
-2401.097
 70
    32
  0
VERTEX
  8
T77SSILL
 62
8
 10
2100.635
 20
-6924.195
 30
-2401.076
 70
    32
  0
VERTEX
  8
T77SSILL
 62
8
 10
2104.671
 20
-6918.253
 30
-2401.088
 70
    32
  0
VERTEX
  8
T77SSILL
 62
8
 10
2114.393
 20
-6912.693
 30
-2401.076
 70
    32
  0
VERTEX
  8
T77SSILL
 62
8
 10
2118.033
 20
-6896.489
 30
-2401.134
 70
    32
  0
VERTEX
  8
T77SSILL
 62
8
 10
2113.154
 20
-6884.176
 30
-2401.206
 70
    32
  0
VERTEX
  8
T77SSILL
 62
8
 10
2098.088
 20
-6862.845
 30
-2401.354
 70
    32
  0
VERTEX
  8
T77SSILL
 62
8
 10
2083.099
 20
-6870.825
 30
-2401.375
 70
    32
  0
VERTEX
  8
T77SSILL
 62
8
 10
2075.892
 20
-6879.139
 30
-2401.376
 70
    32
  0
VERTEX
  8
T77SSILL
 62
8
 10
2077.667
 20
-6885.803
 30
-2401.333
 70
    32
  0
VERTEX
  8
T77SSILL
 62
8
 10
2066.211
 20
-6891.161
 30
-2401.372
 70
    32
  0
VERTEX
  8
T77SSILL
 62
8
 10
2047.110
 20
-6873.432
 30
-2401.569
 70
    32
  0
VERTEX
  8
T77SSILL
 62
8
 10
2041.650
 20
-6856.833
 30
-2401.682
 70
    32
  0
VERTEX
  8
T77SSILL
 62
8
 10
2046.208
 20
-6851.812
 30
-2401.681
 70
    32
  0
VERTEX
  8
T77SSILL
 62
8
 10
2045.441
 20
-6845.846
 30
-2401.714
 70
    32
  0
VERTEX
  8
T77SSILL
 62
8
 10
2062.130
 20
-6837.240
 30
-2401.661
 70
    32
  0
VERTEX
  8
T77SSILL
 62
8
 10
2056.192
 20
-6821.499
 30
-2401.772
 70
    32
  0
VERTEX
  8
T77SSILL
 62
8
 10
2063.013
 20
-6811.213
 30
-2401.783
 70
    32
  0
VERTEX
  8
T77SSILL
 62
8
 10
2123.399
 20
-6805.067
 30
-2401.515
 70
    32
  0
VERTEX
  8
T77SSILL
 62
8
 10
2128.262
 20
-6808.456
 30
-2401.482
 70
    32
  0
VERTEX
  8
T77SSILL
 62
8
 10
2138.074
 20
-6819.110
 30
-2401.399
 70
    32
  0
VERTEX
  8
T77SSILL
 62
8
 10
2160.905
 20
-6810.149
 30
-2401.355
 70
    32
  0
VERTEX
  8
T77SSILL
 62
8
 10
2163.329
 20
-6796.689
 30
-2401.405
 70
    32
  0
VERTEX
  8
T77SSILL
 62
8
 10
2161.236
 20
-6785.030
 30
-2401.464
 70
    32
  0
VERTEX
  8
T77SSILL
 62
8
 10
2152.645
 20
-6774.607
 30
-2401.541
 70
    32
  0
VERTEX
  8
T77SSILL
 62
8
 10
2139.269
 20
-6766.062
 30
-2401.627
 70
    32
  0
VERTEX
  8
T77SSILL
 62
8
 10
2115.694
 20
-6780.956
 30
-2401.648
 70
    32
  0
VERTEX
  8
T77SSILL
 62
8
 10
2117.269
 20
-6789.669
 30
-2401.605
 70
    32
  0
VERTEX
  8
T77SSILL
 62
8
 10
2088.281
 20
-6797.400
 30
-2401.706
 70
    32
  0
VERTEX
  8
T77SSILL
 62
8
 10
2060.850
 20
-6799.921
 30
-2401.851
 70
    32
  0
VERTEX
  8
T77SSILL
 62
8
 10
2054.297
 20
-6798.109
 30
-2401.898
 70
    32
  0
VERTEX
  8
T77SSILL
 62
8
 10
2048.472
 20
-6788.780
 30
-2401.977
 70
    32
  0
VERTEX
  8
T77SSILL
 62
8
 10
2049.563
 20
-6783.356
 30
-2401.997
 70
    32
  0
VERTEX
  8
T77SSILL
 62
8
 10
2034.194
 20
-6748.935
 30
-2402.255
 70
    32
  0
VERTEX
  8
T77SSILL
 62
8
 10
2041.228
 20
-6733.184
 30
-2402.292
 70
    32
  0
VERTEX
  8
T77SSILL
 62
8
 10
2051.645
 20
-6733.640
 30
-2402.229
 70
    32
  0
VERTEX
  8
T77SSILL
 62
8
 10
2054.654
 20
-6729.781
 30
-2402.231
 70
    32
  0
VERTEX
  8
T77SSILL
 62
8
 10
2066.393
 20
-6725.931
 30
-2402.182
 70
    32
  0
VERTEX
  8
T77SSILL
 62
8
 10
2062.869
 20
-6707.801
 30
-2402.292
 70
    32
  0
VERTEX
  8
T77SSILL
 62
8
 10
2055.334
 20
-6695.807
 30
-2402.394
 70
    32
  0
VERTEX
  8
T77SSILL
 62
8
 10
2041.474
 20
-6661.102
 30
-2402.644
 70
    32
  0
VERTEX
  8
T77SSILL
 62
8
 10
2030.070
 20
-6641.558
 30
-2402.805
 70
    32
  0
VERTEX
  8
T77SSILL
 62
8
 10
2025.219
 20
-6623.091
 30
-2402.924
 70
    32
  0
VERTEX
  8
T77SSILL
 62
8
 10
2024.623
 20
-6619.893
 30
-2402.943
 70
    32
  0
VERTEX
  8
T77SSILL
 62
8
 10
2034.642
 20
-6592.287
 30
-2403.021
 70
    32
  0
VERTEX
  8
T77SSILL
 62
8
 10
2037.023
 20
-6581.933
 30
-2403.058
 70
    32
  0
VERTEX
  8
T77SSILL
 62
8
 10
2041.045
 20
-6578.457
 30
-2403.052
 70
    32
  0
VERTEX
  8
T77SSILL
 62
8
 10
2045.088
 20
-6583.606
 30
-2403.004
 70
    32
  0
VERTEX
  8
T77SSILL
 62
8
 10
2059.761
 20
-6580.425
 30
-2402.935
 70
    32
  0
VERTEX
  8
T77SSILL
 62
8
 10
2065.559
 20
-6577.450
 30
-2402.916
 70
    32
  0
VERTEX
  8
T77SSILL
 62
8
 10
2068.588
 20
-6577.883
 30
-2402.897
 70
    32
  0
VERTEX
  8
T77SSILL
 62
8
 10
2097.443
 20
-6590.567
 30
-2402.668
 70
    32
  0
VERTEX
  8
T77SSILL
 62
8
 10
2120.148
 20
-6602.510
 30
-2402.479
 70
    32
  0
VERTEX
  8
T77SSILL
 62
8
 10
2133.203
 20
-6616.191
 30
-2402.323
 70
    32
  0
VERTEX
  8
T77SSILL
 62
8
 10
2155.017
 20
-6677.283
 30
-2401.958
 70
    32
  0
VERTEX
  8
T77SSILL
 62
8
 10
2150.415
 20
-6682.604
 30
-2401.952
 70
    32
  0
VERTEX
  8
T77SSILL
 62
8
 10
2155.518
 20
-6688.183
 30
-2401.909
 70
    32
  0
VERTEX
  8
T77SSILL
 62
8
 10
2159.822
 20
-6689.066
 30
-2401.889
 70
    32
  0
VERTEX
  8
T77SSILL
 62
8
 10
2198.738
 20
-6790.783
 30
-2401.301
 70
    32
  0
VERTEX
  8
T77SSILL
 62
8
 10
2194.716
 20
-6793.685
 30
-2401.303
 70
    32
  0
VERTEX
  8
T77SSILL
 62
8
 10
2198.858
 20
-6799.304
 30
-2401.263
 70
    32
  0
VERTEX
  8
T77SSILL
 62
8
 10
2201.339
 20
-6798.010
 30
-2401.260
 70
    32
  0
VERTEX
  8
T77SSILL
 62
8
 10
2229.465
 20
-6874.972
 30
-2400.859
 70
    32
  0
VERTEX
  8
T77SSILL
 62
8
 10
2231.842
 20
-6899.997
 30
-2400.751
 70
    32
  0
VERTEX
  8
T77SSILL
 62
8
 10
2230.421
 20
-7016.335
 30
-2400.234
 70
    32
  0
VERTEX
  8
T77SSILL
 62
8
 10
2222.768
 20
-7018.557
 30
-2400.254
 70
    32
  0
VERTEX
  8
T77SSILL
 62
8
 10
2213.117
 20
-7017.758
 30
-2400.296
 70
    32
  0
VERTEX
  8
T77SSILL
 62
8
 10
2204.048
 20
-7028.979
 30
-2400.280
 70
    32
  0
VERTEX
  8
T77SSILL
 62
8
 10
2203.134
 20
-7029.860
 30
-2400.278
 70
    32
  0
VERTEX
  8
T77SSILL
 62
8
 10
2202.677
 20
-7030.858
 30
-2400.274
 70
    32
  0
VERTEX
  8
T77SSILL
 62
8
 10
2202.508
 20
-7031.992
 30
-2400.269
 70
    32
  0
VERTEX
  8
T77SSILL
 62
8
 10
2202.694
 20
-7033.075
 30
-2400.263
 70
    32
  0
VERTEX
  8
T77SSILL
 62
8
 10
2203.049
 20
-7034.006
 30
-2400.258
 70
    32
  0
VERTEX
  8
T77SSILL
 62
8
 10
2203.862
 20
-7034.852
 30
-2400.252
 70
    32
  0
VERTEX
  8
T77SSILL
 62
8
 10
2204.792
 20
-7035.377
 30
-2400.247
 70
    32
  0
VERTEX
  8
T77SSILL
 62
8
 10
2205.892
 20
-7035.665
 30
-2400.243
 70
    32
  0
VERTEX
  8
T77SSILL
 62
8
 10
2207.347
 20
-7035.462
 30
-2400.240
 70
    32
  0
VERTEX
  8
T77SSILL
 62
8
 10
2214.450
 20
-7037.462
 30
-2400.201
 70
    32
  0
VERTEX
  8
T77SSILL
 62
8
 10
2217.590
 20
-7041.745
 30
-2400.169
 70
    32
  0
VERTEX
  8
T77SSILL
 62
8
 10
2215.711
 20
-7046.169
 30
-2400.156
 70
    32
  0
VERTEX
  8
T77SSILL
 62
8
 10
2195.646
 20
-7056.177
 30
-2400.190
 70
    32
  0
VERTEX
  8
T77SSILL
 62
8
 10
2197.957
 20
-7076.196
 30
-2400.089
 70
    32
  0
VERTEX
  8
T77SSILL
 62
8
 10
2192.219
 20
-7083.005
 30
-2400.081
 70
    32
  0
VERTEX
  8
T77SSILL
 62
8
 10
2201.088
 20
-7089.273
 30
-2400.017
 70
    32
  0
VERTEX
  8
T77SSILL
 62
8
 10
2214.950
 20
-7073.443
 30
-2400.034
 70
    32
  0
VERTEX
  8
T77SSILL
 62
8
 10
2225.481
 20
-7056.154
 30
-2400.072
 70
    32
  0
VERTEX
  8
T77SSILL
 62
8
 10
2227.110
 20
-7055.992
 30
-2400.066
 70
    32
  0
VERTEX
  8
T77SSILL
 62
8
 10
2230.505
 20
-7058.205
 30
-2400.042
 70
    32
  0
VERTEX
  8
T77SSILL
 62
8
 10
2229.276
 20
-7130.995
 30
-2399.714
 70
    32
  0
VERTEX
  8
T77SSILL
 62
8
 10
2225.330
 20
-7139.397
 30
-2399.692
 70
    32
  0
VERTEX
  8
T77SSILL
 62
8
 10
2229.702
 20
-7143.415
 30
-2399.656
 70
    32
  0
VERTEX
  8
T77SSILL
 62
8
 10
2229.115
 20
-7167.403
 30
-2399.549
 70
    32
  0
VERTEX
  8
T77SSILL
 62
8
 10
2226.758
 20
-7178.995
 30
-2399.505
 70
    32
  0
VERTEX
  8
T77SSILL
 62
8
 10
2221.470
 20
-7192.432
 30
-2399.464
 70
    32
  0
VERTEX
  8
T77SSILL
 62
8
 10
2215.536
 20
-7201.601
 30
-2399.446
 70
    32
  0
VERTEX
  8
T77SSILL
 62
8
 10
2196.501
 20
-7218.053
 30
-2399.446
 70
    32
  0
VERTEX
  8
T77SSILL
 62
8
 10
2136.304
 20
-7258.267
 30
-2399.488
 70
    32
  0
VERTEX
  8
T77SSILL
 62
8
 10
2108.102
 20
-7280.906
 30
-2399.509
 70
    32
  0
VERTEX
  8
T77SSILL
 62
8
 10
2089.193
 20
-7264.815
 30
-2399.657
 70
    32
  0
VERTEX
  8
T77SSILL
 62
8
 10
2080.397
 20
-7272.599
 30
-2399.656
 70
    32
  0
VERTEX
  8
T77SSILL
 62
8
 10
2085.888
 20
-7279.221
 30
-2399.604
 70
    32
  0
VERTEX
  8
T77SSILL
 62
8
 10
2086.213
 20
-7285.241
 30
-2399.576
 70
    32
  0
VERTEX
  8
T77SSILL
 62
8
 10
2090.490
 20
-7288.384
 30
-2399.544
 70
    32
  0
VERTEX
  8
T77SSILL
 62
8
 10
2092.310
 20
-7292.221
 30
-2399.519
 70
    32
  0
VERTEX
  8
T77SSILL
 62
8
 10
1951.864
 20
-7392.595
 30
-2399.570
 70
    32
  0
VERTEX
  8
T77SSILL
 62
8
 10
1957.540
 20
-7402.189
 30
-2399.507
 70
    32
  0
VERTEX
  8
T77SSILL
 62
8
 10
1962.512
 20
-7405.539
 30
-2399.474
 70
    32
  0
VERTEX
  8
T77SSILL
 62
8
 10
1966.000
 20
-7405.864
 30
-2399.460
 70
    32
  0
VERTEX
  8
T77SSILL
 62
8
 10
1978.735
 20
-7400.410
 30
-2399.437
 70
    32
  0
VERTEX
  8
T77SSILL
 62
8
 10
1980.803
 20
-7397.951
 30
-2399.440
 70
    32
  0
VERTEX
  8
T77SSILL
 62
8
 10
1981.516
 20
-7382.065
 30
-2399.507
 70
    32
  0
VERTEX
  8
T77SSILL
 62
8
 10
2140.412
 20
-7265.454
 30
-2397.998
 70
    32
  0
VERTEX
  8
T77SSILL
 62
8
 10
2142.051
 20
-7266.025
 30
-2397.638
 70
    32
  0
VERTEX
  8
T77SSILL
 62
8
 10
2147.034
 20
-7272.716
 30
-2395.445
 70
    32
  0
VERTEX
  8
T77SSILL
 62
8
 10
2148.031
 20
-7274.053
 30
-2395.312
 70
    32
  0
VERTEX
  8
T77SSILL
 62
8
 10
2151.810
 20
-7279.127
 30
-2394.739
 70
    32
  0
VERTEX
  8
T77SSILL
 62
8
 10
2154.045
 20
-7282.741
 30
-2395.859
 70
    32
  0
VERTEX
  8
T77SSILL
 62
8
 10
2154.832
 20
-7284.139
 30
-2396.238
 70
    32
  0
VERTEX
  8
T77SSILL
 62
8
 10
2157.255
 20
-7288.448
 30
-2396.212
 70
    32
  0
VERTEX
  8
T77SSILL
 62
8
 10
2160.900
 20
-7294.928
 30
-2396.258
 70
    32
  0
VERTEX
  8
T77SSILL
 62
8
 10
2169.135
 20
-7290.662
 30
-2396.256
 70
    32
  0
VERTEX
  8
T77SSILL
 62
8
 10
2172.025
 20
-7289.165
 30
-2396.284
 70
    32
  0
VERTEX
  8
T77SSILL
 62
8
 10
2165.381
 20
-7278.273
 30
-2396.347
 70
    32
  0
VERTEX
  8
T77SSILL
 62
8
 10
2165.348
 20
-7278.218
 30
-2396.347
 70
    32
  0
VERTEX
  8
T77SSILL
 62
8
 10
2162.869
 20
-7274.051
 30
-2395.202
 70
    32
  0
VERTEX
  8
T77SSILL
 62
8
 10
2162.088
 20
-7272.737
 30
-2394.799
 70
    32
  0
VERTEX
  8
T77SSILL
 62
8
 10
2160.972
 20
-7270.862
 30
-2394.998
 70
    32
  0
VERTEX
  8
T77SSILL
 62
8
 10
2158.442
 20
-7265.875
 30
-2395.445
 70
    32
  0
VERTEX
  8
T77SSILL
 62
8
 10
2156.279
 20
-7260.159
 30
-2397.005
 70
    32
  0
VERTEX
  8
T77SSILL
 62
8
 10
2157.756
 20
-7254.726
 30
-2398.016
 70
    32
  0
VERTEX
  8
T77SSILL
 62
8
 10
2229.081
 20
-7202.557
 30
-2399.388
 70
    32
  0
VERTEX
  8
T77SSILL
 62
8
 10
2228.197
 20
-7265.428
 30
-2399.104
 70
    32
  0
VERTEX
  8
T77SSILL
 62
8
 10
2225.399
 20
-7269.295
 30
-2399.097
 70
    32
  0
VERTEX
  8
T77SSILL
 62
8
 10
2224.379
 20
-7277.588
 30
-2399.063
 70
    32
  0
VERTEX
  8
T77SSILL
 62
8
 10
2227.687
 20
-7282.714
 30
-2399.027
 70
    32
  0
VERTEX
  8
T77SSILL
 62
8
 10
2226.321
 20
-7355.219
 30
-2398.710
 70
    32
  0
VERTEX
  8
T77SSILL
 62
8
 10
2091.942
 20
-7672.167
 30
-2398.226
 70
    32
  0
VERTEX
  8
T77SSILL
 62
8
 10
2086.801
 20
-7694.689
 30
-2398.220
 70
    32
  0
VERTEX
  8
T77SSILL
 62
8
 10
2088.278
 20
-7717.649
 30
-2398.214
 70
    32
  0
VERTEX
  8
T77SSILL
 62
8
 10
2089.894
 20
-7725.253
 30
-2398.211
 70
    32
  0
VERTEX
  8
T77SSILL
 62
8
 10
2088.060
 20
-7733.706
 30
-2398.196
 70
    32
  0
VERTEX
  8
T77SSILL
 62
8
 10
2092.609
 20
-7736.710
 30
-2398.180
 70
    32
  0
VERTEX
  8
T77SSILL
 62
8
 10
2193.212
 20
-8025.092
 30
-2397.084
 70
    32
  0
VERTEX
  8
T77SSILL
 62
8
 10
2189.199
 20
-8030.426
 30
-2397.061
 70
    32
  0
VERTEX
  8
T77SSILL
 62
8
 10
2188.989
 20
-8033.537
 30
-2397.048
 70
    32
  0
VERTEX
  8
T77SSILL
 62
8
 10
2190.242
 20
-8035.543
 30
-2397.039
 70
    32
  0
VERTEX
  8
T77SSILL
 62
8
 10
2195.229
 20
-8036.908
 30
-2397.031
 70
    32
  0
VERTEX
  8
T77SSILL
 62
8
 10
2213.606
 20
-8100.861
 30
-2396.746
 70
    32
  0
VERTEX
  8
T77SSILL
 62
8
 10
2220.190
 20
-8126.360
 30
-2396.652
 70
    32
  0
VERTEX
  8
T77SSILL
 62
8
 10
2216.769
 20
-8134.304
 30
-2396.658
 70
    32
  0
VERTEX
  8
T77SSILL
 62
8
 10
2223.656
 20
-8139.020
 30
-2396.630
 70
    32
  0
VERTEX
  8
T77SSILL
 62
8
 10
2247.137
 20
-8224.994
 30
-2396.304
 70
    32
  0
VERTEX
  8
T77SSILL
 62
8
 10
2243.474
 20
-8231.781
 30
-2396.327
 70
    32
  0
VERTEX
  8
T77SSILL
 62
8
 10
2245.070
 20
-8237.630
 30
-2396.248
 70
    32
  0
VERTEX
  8
T77SSILL
 62
8
 10
2251.036
 20
-8241.671
 30
-2396.091
 70
    32
  0
VERTEX
  8
T77SSILL
 62
8
 10
2332.556
 20
-8535.456
 30
-2394.950
 70
    32
  0
VERTEX
  8
T77SSILL
 62
8
 10
2329.996
 20
-8540.439
 30
-2394.941
 70
    32
  0
VERTEX
  8
T77SSILL
 62
8
 10
2331.281
 20
-8546.713
 30
-2394.910
 70
    32
  0
VERTEX
  8
T77SSILL
 62
8
 10
2335.461
 20
-8554.235
 30
-2394.861
 70
    32
  0
VERTEX
  8
T77SSILL
 62
8
 10
2344.273
 20
-8550.672
 30
-2394.837
 70
    32
  0
VERTEX
  8
T77SSILL
 62
8
 10
2342.532
 20
-8541.453
 30
-2394.883
 70
    32
  0
VERTEX
  8
T77SSILL
 62
8
 10
2345.047
 20
-8534.152
 30
-2394.902
 70
    32
  0
VERTEX
  8
T77SSILL
 62
8
 10
2342.001
 20
-8527.460
 30
-2394.943
 70
    32
  0
VERTEX
  8
T77SSILL
 62
8
 10
2338.406
 20
-8524.937
 30
-2394.969
 70
    32
  0
VERTEX
  8
T77SSILL
 62
8
 10
2325.479
 20
-8479.557
 30
-2395.166
 70
    32
  0
VERTEX
  8
T77SSILL
 62
8
 10
2327.337
 20
-8477.761
 30
-2395.150
 70
    32
  0
VERTEX
  8
T77SSILL
 62
8
 10
2331.175
 20
-8476.979
 30
-2395.131
 70
    32
  0
VERTEX
  8
T77SSILL
 62
8
 10
2341.186
 20
-8484.416
 30
-2395.124
 70
    32
  0
VERTEX
  8
T77SSILL
 62
8
 10
2354.514
 20
-8490.146
 30
-2395.043
 70
    32
  0
VERTEX
  8
T77SSILL
 62
8
 10
2372.458
 20
-8494.031
 30
-2394.950
 70
    32
  0
VERTEX
  8
T77SSILL
 62
8
 10
2393.742
 20
-8493.503
 30
-2394.861
 70
    32
  0
VERTEX
  8
T77SSILL
 62
8
 10
2404.688
 20
-8490.741
 30
-2394.825
 70
    32
  0
VERTEX
  8
T77SSILL
 62
8
 10
2414.392
 20
-8486.852
 30
-2394.799
 70
    32
  0
VERTEX
  8
T77SSILL
 62
8
 10
2491.553
 20
-8431.997
 30
-2394.394
 70
    32
  0
VERTEX
  8
T77SSILL
 62
8
 10
2496.775
 20
-8426.350
 30
-2394.355
 70
    32
  0
VERTEX
  8
T77SSILL
 62
8
 10
2495.493
 20
-8423.344
 30
-2394.350
 70
    32
  0
VERTEX
  8
T77SSILL
 62
8
 10
2492.342
 20
-8421.255
 30
-2394.355
 70
    32
  0
VERTEX
  8
T77SSILL
 62
8
 10
2484.483
 20
-8423.665
 30
-2394.392
 70
    32
  0
VERTEX
  8
T77SSILL
 62
8
 10
2478.236
 20
-8422.683
 30
-2394.412
 70
    32
  0
VERTEX
  8
T77SSILL
 62
8
 10
2458.631
 20
-8425.528
 30
-2394.494
 70
    32
  0
VERTEX
  8
T77SSILL
 62
8
 10
2457.059
 20
-8426.337
 30
-2394.502
 70
    32
  0
VERTEX
  8
T77SSILL
 62
8
 10
2456.802
 20
-8434.420
 30
-2394.530
 70
    32
  0
VERTEX
  8
T77SSILL
 62
8
 10
2461.067
 20
-8437.216
 30
-2394.523
 70
    32
  0
VERTEX
  8
T77SSILL
 62
8
 10
2459.745
 20
-8442.887
 30
-2394.548
 70
    32
  0
VERTEX
  8
T77SSILL
 62
8
 10
2458.099
 20
-8444.838
 30
-2394.562
 70
    32
  0
VERTEX
  8
T77SSILL
 62
8
 10
2416.974
 20
-8474.702
 30
-2394.825
 70
    32
  0
VERTEX
  8
T77SSILL
 62
8
 10
2407.973
 20
-8478.671
 30
-2394.861
 70
    32
  0
VERTEX
  8
T77SSILL
 62
8
 10
2383.956
 20
-8484.272
 30
-2394.941
 70
    32
  0
VERTEX
  8
T77SSILL
 62
8
 10
2371.793
 20
-8483.640
 30
-2394.996
 70
    32
  0
VERTEX
  8
T77SSILL
 62
8
 10
2364.819
 20
-8482.017
 30
-2395.032
 70
    32
  0
VERTEX
  8
T77SSILL
 62
8
 10
2350.329
 20
-8476.090
 30
-2395.060
 70
    32
  0
VERTEX
  8
T77SSILL
 62
8
 10
2341.486
 20
-8470.923
 30
-2395.072
 70
    32
  0
VERTEX
  8
T77SSILL
 62
8
 10
2329.820
 20
-8460.097
 30
-2395.119
 70
    32
  0
VERTEX
  8
T77SSILL
 62
8
 10
2322.031
 20
-8450.368
 30
-2395.171
 70
    32
  0
VERTEX
  8
T77SSILL
 62
8
 10
2316.135
 20
-8440.284
 30
-2395.209
 70
    32
  0
VERTEX
  8
T77SSILL
 62
8
 10
2312.747
 20
-8431.382
 30
-2395.228
 70
    32
  0
VERTEX
  8
T77SSILL
 62
8
 10
2290.379
 20
-8348.943
 30
-2395.338
 70
    32
  0
VERTEX
  8
T77SSILL
 62
8
 10
2292.516
 20
-8334.726
 30
-2395.237
 70
    32
  0
VERTEX
  8
T77SSILL
 62
8
 10
2291.012
 20
-8326.224
 30
-2395.183
 70
    32
  0
VERTEX
  8
T77SSILL
 62
8
 10
2281.330
 20
-8316.851
 30
-2395.143
 70
    32
  0
VERTEX
  8
T77SSILL
 62
8
 10
2259.352
 20
-8237.745
 30
-2395.919
 70
    32
  0
VERTEX
  8
T77SSILL
 62
8
 10
2261.326
 20
-8232.224
 30
-2395.899
 70
    32
  0
VERTEX
  8
T77SSILL
 62
8
 10
2260.560
 20
-8225.242
 30
-2395.962
 70
    32
  0
VERTEX
  8
T77SSILL
 62
8
 10
2255.761
 20
-8223.471
 30
-2396.105
 70
    32
  0
VERTEX
  8
T77SSILL
 62
8
 10
2229.750
 20
-8131.290
 30
-2396.565
 70
    32
  0
VERTEX
  8
T77SSILL
 62
8
 10
2233.912
 20
-8123.671
 30
-2396.472
 70
    32
  0
VERTEX
  8
T77SSILL
 62
8
 10
2233.655
 20
-8121.198
 30
-2396.470
 70
    32
  0
VERTEX
  8
T77SSILL
 62
8
 10
2226.380
 20
-8116.416
 30
-2396.499
 70
    32
  0
VERTEX
  8
T77SSILL
 62
8
 10
2203.285
 20
-8033.336
 30
-2396.823
 70
    32
  0
VERTEX
  8
T77SSILL
 62
8
 10
2215.295
 20
-8037.727
 30
-2396.263
 70
    32
  0
VERTEX
  8
T77SSILL
 62
8
 10
2230.328
 20
-8041.041
 30
-2395.540
 70
    32
  0
VERTEX
  8
T77SSILL
 62
8
 10
2234.954
 20
-8043.478
 30
-2395.336
 70
    32
  0
VERTEX
  8
T77SSILL
 62
8
 10
2249.442
 20
-8046.031
 30
-2395.210
 70
    32
  0
VERTEX
  8
T77SSILL
 62
8
 10
2412.778
 20
-8051.994
 30
-2393.586
 70
    32
  0
VERTEX
  8
T77SSILL
 62
8
 10
2416.873
 20
-8059.704
 30
-2393.592
 70
    32
  0
VERTEX
  8
T77SSILL
 62
8
 10
2416.640
 20
-8064.188
 30
-2393.608
 70
    32
  0
VERTEX
  8
T77SSILL
 62
8
 10
2425.744
 20
-8064.850
 30
-2393.567
 70
    32
  0
VERTEX
  8
T77SSILL
 62
8
 10
2425.734
 20
-8060.828
 30
-2393.554
 70
    32
  0
VERTEX
  8
T77SSILL
 62
8
 10
2434.218
 20
-8053.012
 30
-2393.487
 70
    32
  0
VERTEX
  8
T77SSILL
 62
8
 10
2480.384
 20
-8054.418
 30
-2393.271
 70
    32
  0
VERTEX
  8
T77SSILL
 62
8
 10
2512.253
 20
-8064.357
 30
-2393.152
 70
    32
  0
VERTEX
  8
T77SSILL
 62
8
 10
2518.466
 20
-8071.411
 30
-2393.146
 70
    32
  0
VERTEX
  8
T77SSILL
 62
8
 10
2551.095
 20
-8132.509
 30
-2392.000
 70
    32
  0
VERTEX
  8
T77SSILL
 62
8
 10
2543.547
 20
-8139.192
 30
-2392.000
 70
    32
  0
VERTEX
  8
T77SSILL
 62
8
 10
2539.787
 20
-8141.378
 30
-2392.000
 70
    32
  0
VERTEX
  8
T77SSILL
 62
8
 10
2543.847
 20
-8150.462
 30
-2392.000
 70
    32
  0
VERTEX
  8
T77SSILL
 62
8
 10
2547.831
 20
-8148.731
 30
-2392.000
 70
    32
  0
VERTEX
  8
T77SSILL
 62
8
 10
2556.228
 20
-8146.294
 30
-2392.000
 70
    32
  0
VERTEX
  8
T77SSILL
 62
8
 10
2560.063
 20
-8151.248
 30
-2392.000
 70
    32
  0
VERTEX
  8
T77SSILL
 62
8
 10
2560.703
 20
-8152.625
 30
-2392.000
 70
    32
  0
VERTEX
  8
T77SSILL
 62
8
 10
2564.179
 20
-8161.002
 30
-2392.000
 70
    32
  0
VERTEX
  8
T77SSILL
 62
8
 10
2571.531
 20
-8184.559
 30
-2392.000
 70
    32
  0
VERTEX
  8
T77SSILL
 62
8
 10
2603.967
 20
-8300.402
 30
-2392.000
 70
    32
  0
VERTEX
  8
T77SSILL
 62
8
 10
2613.804
 20
-8297.265
 30
-2392.000
 70
    32
  0
VERTEX
  8
T77SSILL
 62
8
 10
2581.077
 20
-8181.580
 30
-2392.000
 70
    32
  0
VERTEX
  8
T77SSILL
 62
8
 10
2573.454
 20
-8157.154
 30
-2392.000
 70
    32
  0
VERTEX
  8
T77SSILL
 62
8
 10
2571.955
 20
-8153.005
 30
-2392.000
 70
    32
  0
VERTEX
  8
T77SSILL
 62
8
 10
2571.796
 20
-8143.427
 30
-2392.000
 70
    32
  0
VERTEX
  8
T77SSILL
 62
8
 10
2563.910
 20
-8126.014
 30
-2392.000
 70
    32
  0
VERTEX
  8
T77SSILL
 62
8
 10
2560.142
 20
-8121.335
 30
-2392.000
 70
    32
  0
VERTEX
  8
T77SSILL
 62
8
 10
2556.303
 20
-8119.270
 30
-2392.000
 70
    32
  0
VERTEX
  8
T77SSILL
 62
8
 10
2552.994
 20
-8116.506
 30
-2392.000
 70
    32
  0
VERTEX
  8
T77SSILL
 62
8
 10
2551.979
 20
-8114.342
 30
-2392.000
 70
    32
  0
VERTEX
  8
T77SSILL
 62
8
 10
2543.653
 20
-8092.478
 30
-2393.095
 70
    32
  0
VERTEX
  8
T77SSILL
 62
8
 10
2535.053
 20
-8076.488
 30
-2393.083
 70
    32
  0
VERTEX
  8
T77SSILL
 62
8
 10
2526.736
 20
-8064.900
 30
-2393.085
 70
    32
  0
VERTEX
  8
T77SSILL
 62
8
 10
2525.138
 20
-8056.261
 30
-2393.064
 70
    32
  0
VERTEX
  8
T77SSILL
 62
8
 10
2823.633
 20
-8067.397
 30
-2391.862
 70
    32
  0
VERTEX
  8
T77SSILL
 62
8
 10
2841.607
 20
-8073.205
 30
-2391.826
 70
    32
  0
VERTEX
  8
T77SSILL
 62
8
 10
2877.406
 20
-8089.823
 30
-2391.773
 70
    32
  0
VERTEX
  8
T77SSILL
 62
8
 10
2901.994
 20
-8110.456
 30
-2391.773
 70
    32
  0
VERTEX
  8
T77SSILL
 62
8
 10
2915.792
 20
-8119.262
 30
-2391.762
 70
    32
  0
VERTEX
  8
T77SSILL
 62
8
 10
2948.917
 20
-8131.753
 30
-2391.702
 70
    32
  0
VERTEX
  8
T77SSILL
 62
8
 10
2956.155
 20
-8125.407
 30
-2391.652
 70
    32
  0
VERTEX
  8
T77SSILL
 62
8
 10
3180.181
 20
-8225.016
 30
-2391.000
 70
    32
  0
VERTEX
  8
T77SSILL
 62
8
 10
3181.808
 20
-8229.835
 30
-2390.000
 70
    32
  0
VERTEX
  8
T77SSILL
 62
8
 10
3171.635
 20
-8241.908
 30
-2390.000
 70
    32
  0
VERTEX
  8
T77SSILL
 62
8
 10
3180.821
 20
-8246.948
 30
-2390.000
 70
    32
  0
VERTEX
  8
T77SSILL
 62
8
 10
3187.591
 20
-8248.734
 30
-2390.000
 70
    32
  0
VERTEX
  8
T77SSILL
 62
8
 10
3205.129
 20
-8236.109
 30
-2391.000
 70
    32
  0
VERTEX
  8
T77SSILL
 62
8
 10
3205.292
 20
-8236.181
 30
-2390.000
 70
    32
  0
VERTEX
  8
T77SSILL
 62
8
 10
3452.999
 20
-8346.320
 30
-2390.753
 70
    32
  0
VERTEX
  8
T77SSILL
 62
8
 10
3466.199
 20
-8357.610
 30
-2390.751
 70
    32
  0
VERTEX
  8
T77SSILL
 62
8
 10
3476.436
 20
-8364.157
 30
-2390.743
 70
    32
  0
VERTEX
  8
T77SSILL
 62
8
 10
3483.366
 20
-8367.371
 30
-2388.000
 70
    32
  0
VERTEX
  8
T77SSILL
 62
8
 10
3486.820
 20
-8373.143
 30
-2382.000
 70
    32
  0
VERTEX
  8
T77SSILL
 62
8
 10
3484.977
 20
-8377.268
 30
-2382.000
 70
    32
  0
VERTEX
  8
T77SSILL
 62
8
 10
3493.194
 20
-8380.941
 30
-2382.000
 70
    32
  0
VERTEX
  8
T77SSILL
 62
8
 10
3502.249
 20
-8376.129
 30
-2388.000
 70
    32
  0
VERTEX
  8
T77SSILL
 62
8
 10
3504.376
 20
-8377.115
 30
-2390.547
 70
    32
  0
VERTEX
  8
T77SSILL
 62
8
 10
3552.195
 20
-8402.076
 30
-2390.066
 70
    32
  0
VERTEX
  8
T77SSILL
 62
8
 10
3563.037
 20
-8397.560
 30
-2389.808
 70
    32
  0
VERTEX
  8
T77SSILL
 62
8
 10
3604.289
 20
-8413.485
 30
-2389.280
 70
    32
  0
VERTEX
  8
T77SSILL
 62
8
 10
3726.774
 20
-8467.867
 30
-2388.110
 70
    32
  0
VERTEX
  8
T77SSILL
 62
8
 10
3733.546
 20
-8472.634
 30
-2388.065
 70
    32
  0
VERTEX
  8
T77SSILL
 62
8
 10
3865.752
 20
-8529.913
 30
-2386.150
 70
    32
  0
VERTEX
  8
T77SSILL
 62
8
 10
3893.788
 20
-8553.240
 30
-2387.149
 70
    32
  0
VERTEX
  8
T77SSILL
 62
8
 10
3908.668
 20
-8570.653
 30
-2387.018
 70
    32
  0
VERTEX
  8
T77SSILL
 62
8
 10
3993.524
 20
-8689.605
 30
-2386.186
 70
    32
  0
VERTEX
  8
T77SSILL
 62
8
 10
3989.694
 20
-8698.929
 30
-2386.233
 70
    32
  0
VERTEX
  8
T77SSILL
 62
8
 10
3977.121
 20
-8708.959
 30
-2386.366
 70
    32
  0
VERTEX
  8
T77SSILL
 62
8
 10
3984.178
 20
-8718.735
 30
-2386.308
 70
    32
  0
VERTEX
  8
T77SSILL
 62
8
 10
4001.258
 20
-8708.963
 30
-2386.135
 70
    32
  0
VERTEX
  8
T77SSILL
 62
8
 10
4010.310
 20
-8713.845
 30
-2386.054
 70
    32
  0
VERTEX
  8
T77SSILL
 62
8
 10
4031.846
 20
-8741.811
 30
-2385.876
 70
    32
  0
VERTEX
  8
T77SSILL
 62
8
 10
4169.548
 20
-8934.265
 30
-2384.430
 70
    32
  0
VERTEX
  8
T77SSILL
 62
8
 10
4173.778
 20
-8944.482
 30
-2384.347
 70
    32
  0
VERTEX
  8
T77SSILL
 62
8
 10
4177.431
 20
-8945.266
 30
-2384.325
 70
    32
  0
VERTEX
  8
T77SSILL
 62
8
 10
4227.844
 20
-9015.482
 30
-2384.100
 70
    32
  0
VERTEX
  8
T77SSILL
 62
8
 10
4232.085
 20
-9025.724
 30
-2384.100
 70
    32
  0
VERTEX
  8
T77SSILL
 62
8
 10
4235.761
 20
-9026.513
 30
-2384.100
 70
    32
  0
VERTEX
  8
T77SSILL
 62
8
 10
4284.970
 20
-9095.079
 30
-2384.100
 70
    32
  0
VERTEX
  8
T77SSILL
 62
8
 10
4285.495
 20
-9109.473
 30
-2384.100
 70
    32
  0
VERTEX
  8
T77SSILL
 62
8
 10
4288.357
 20
-9116.035
 30
-2384.100
 70
    32
  0
VERTEX
  8
T77SSILL
 62
8
 10
4298.964
 20
-9114.577
 30
-2384.100
 70
    32
  0
VERTEX
  8
T77SSILL
 62
8
 10
4344.458
 20
-9177.966
 30
-2384.100
 70
    32
  0
VERTEX
  8
T77SSILL
 62
8
 10
4348.699
 20
-9188.209
 30
-2384.100
 70
    32
  0
VERTEX
  8
T77SSILL
 62
8
 10
4352.375
 20
-9188.998
 30
-2384.100
 70
    32
  0
VERTEX
  8
T77SSILL
 62
8
 10
4402.764
 20
-9259.209
 30
-2384.100
 70
    32
  0
VERTEX
  8
T77SSILL
 62
8
 10
4407.005
 20
-9269.451
 30
-2384.100
 70
    32
  0
VERTEX
  8
T77SSILL
 62
8
 10
4410.682
 20
-9270.240
 30
-2384.100
 70
    32
  0
VERTEX
  8
T77SSILL
 62
8
 10
4451.994
 20
-9327.803
 30
-2384.100
 70
    32
  0
VERTEX
  8
T77SSILL
 62
8
 10
4460.136
 20
-9321.997
 30
-2384.100
 70
    32
  0
VERTEX
  8
T77SSILL
 62
8
 10
4418.806
 20
-9264.409
 30
-2384.100
 70
    32
  0
VERTEX
  8
T77SSILL
 62
8
 10
4419.235
 20
-9260.674
 30
-2384.100
 70
    32
  0
VERTEX
  8
T77SSILL
 62
8
 10
4410.889
 20
-9253.378
 30
-2384.100
 70
    32
  0
VERTEX
  8
T77SSILL
 62
8
 10
4392.284
 20
-9227.455
 30
-2384.100
 70
    32
  0
VERTEX
  8
T77SSILL
 62
8
 10
4408.508
 20
-9214.770
 30
-2384.100
 70
    32
  0
VERTEX
  8
T77SSILL
 62
8
 10
4401.460
 20
-9205.395
 30
-2384.100
 70
    32
  0
VERTEX
  8
T77SSILL
 62
8
 10
4393.120
 20
-9211.469
 30
-2384.100
 70
    32
  0
VERTEX
  8
T77SSILL
 62
8
 10
4383.705
 20
-9212.071
 30
-2384.100
 70
    32
  0
VERTEX
  8
T77SSILL
 62
8
 10
4380.331
 20
-9210.800
 30
-2384.100
 70
    32
  0
VERTEX
  8
T77SSILL
 62
8
 10
4360.499
 20
-9183.167
 30
-2384.100
 70
    32
  0
VERTEX
  8
T77SSILL
 62
8
 10
4360.928
 20
-9179.432
 30
-2384.100
 70
    32
  0
VERTEX
  8
T77SSILL
 62
8
 10
4352.582
 20
-9172.136
 30
-2384.100
 70
    32
  0
VERTEX
  8
T77SSILL
 62
8
 10
4243.885
 20
-9020.682
 30
-2384.100
 70
    32
  0
VERTEX
  8
T77SSILL
 62
8
 10
4244.315
 20
-9016.947
 30
-2384.100
 70
    32
  0
VERTEX
  8
T77SSILL
 62
8
 10
4235.968
 20
-9009.651
 30
-2384.100
 70
    32
  0
VERTEX
  8
T77SSILL
 62
8
 10
4185.549
 20
-8939.695
 30
-2384.331
 70
    32
  0
VERTEX
  8
T77SSILL
 62
8
 10
4186.008
 20
-8935.705
 30
-2384.358
 70
    32
  0
VERTEX
  8
T77SSILL
 62
8
 10
4177.662
 20
-8928.409
 30
-2384.437
 70
    32
  0
VERTEX
  8
T77SSILL
 62
8
 10
4170.500
 20
-8919.545
 30
-2384.524
 70
    32
  0
VERTEX
  8
T77SSILL
 62
8
 10
4135.229
 20
-8868.048
 30
-2385.007
 70
    32
  0
VERTEX
  8
T77SSILL
 62
8
 10
4135.751
 20
-8864.990
 30
-2385.027
 70
    32
  0
VERTEX
  8
T77SSILL
 62
8
 10
4169.399
 20
-8869.100
 30
-2384.894
 70
    32
  0
VERTEX
  8
T77SSILL
 62
8
 10
4188.787
 20
-8868.774
 30
-2384.836
 70
    32
  0
VERTEX
  8
T77SSILL
 62
8
 10
4198.810
 20
-8867.231
 30
-2384.817
 70
    32
  0
VERTEX
  8
T77SSILL
 62
8
 10
4218.283
 20
-8860.813
 30
-2384.801
 70
    32
  0
VERTEX
  8
T77SSILL
 62
8
 10
4231.983
 20
-8852.641
 30
-2384.816
 70
    32
  0
VERTEX
  8
T77SSILL
 62
8
 10
4251.919
 20
-8837.502
 30
-2384.857
 70
    32
  0
VERTEX
  8
T77SSILL
 62
8
 10
4263.306
 20
-8841.053
 30
-2384.797
 70
    32
  0
VERTEX
  8
T77SSILL
 62
8
 10
4277.191
 20
-8832.071
 30
-2384.817
 70
    32
  0
VERTEX
  8
T77SSILL
 62
8
 10
4274.479
 20
-8820.624
 30
-2384.890
 70
    32
  0
VERTEX
  8
T77SSILL
 62
8
 10
4319.364
 20
-8787.113
 30
-2384.956
 70
    32
  0
VERTEX
  8
T77SSILL
 62
8
 10
4331.954
 20
-8787.946
 30
-2384.924
 70
    32
  0
VERTEX
  8
T77SSILL
 62
8
 10
4337.373
 20
-8795.204
 30
-2384.876
 70
    32
  0
VERTEX
  8
T77SSILL
 62
8
 10
4347.614
 20
-8785.751
 30
-2384.900
 70
    32
  0
VERTEX
  8
T77SSILL
 62
8
 10
4340.419
 20
-8775.141
 30
-2384.968
 70
    32
  0
VERTEX
  8
T77SSILL
 62
8
 10
4340.420
 20
-8771.393
 30
-2384.987
 70
    32
  0
VERTEX
  8
T77SSILL
 62
8
 10
4404.359
 20
-8723.561
 30
-2384.083
 70
    32
  0
VERTEX
  8
T77SSILL
 62
8
 10
4404.871
 20
-8723.288
 30
-2388.000
 70
    32
  0
VERTEX
  8
T77SSILL
 62
8
 10
4418.288
 20
-8716.298
 30
-2388.000
 70
    32
  0
VERTEX
  8
T77SSILL
 62
8
 10
4411.314
 20
-8706.881
 30
-2388.000
 70
    32
  0
VERTEX
  8
T77SSILL
 62
8
 10
4400.793
 20
-8714.463
 30
-2388.000
 70
    32
  0
VERTEX
  8
T77SSILL
 62
8
 10
4398.665
 20
-8715.292
 30
-2388.000
 70
    32
  0
VERTEX
  8
T77SSILL
 62
8
 10
4398.341
 20
-8715.428
 30
-2383.866
 70
    32
  0
VERTEX
  8
T77SSILL
 62
8
 10
4226.194
 20
-8843.906
 30
-2384.883
 70
    32
  0
VERTEX
  8
T77SSILL
 62
8
 10
4205.001
 20
-8854.866
 30
-2384.876
 70
    32
  0
VERTEX
  8
T77SSILL
 62
8
 10
4194.446
 20
-8858.147
 30
-2384.895
 70
    32
  0
VERTEX
  8
T77SSILL
 62
8
 10
4170.081
 20
-8860.625
 30
-2384.953
 70
    32
  0
VERTEX
  8
T77SSILL
 62
8
 10
4148.816
 20
-8857.123
 30
-2385.037
 70
    32
  0
VERTEX
  8
T77SSILL
 62
8
 10
4132.272
 20
-8850.498
 30
-2385.113
 70
    32
  0
VERTEX
  8
T77SSILL
 62
8
 10
4119.555
 20
-8842.671
 30
-2385.182
 70
    32
  0
VERTEX
  8
T77SSILL
 62
8
 10
4109.682
 20
-8833.679
 30
-2385.246
 70
    32
  0
VERTEX
  8
T77SSILL
 62
8
 10
4072.350
 20
-8781.639
 30
-2385.559
 70
    32
  0
VERTEX
  8
T77SSILL
 62
8
 10
4078.829
 20
-8772.313
 30
-2385.575
 70
    32
  0
VERTEX
  8
T77SSILL
 62
8
 10
4089.114
 20
-8764.976
 30
-2385.578
 70
    32
  0
VERTEX
  8
T77SSILL
 62
8
 10
4083.306
 20
-8756.835
 30
-2385.631
 70
    32
  0
VERTEX
  8
T77SSILL
 62
8
 10
4070.264
 20
-8766.139
 30
-2385.625
 70
    32
  0
VERTEX
  8
T77SSILL
 62
8
 10
4062.567
 20
-8768.003
 30
-2385.641
 70
    32
  0
VERTEX
  8
T77SSILL
 62
8
 10
4022.022
 20
-8712.191
 30
-2385.700
 70
    32
  0
VERTEX
  8
T77SSILL
 62
8
 10
4017.334
 20
-8700.811
 30
-2385.627
 70
    32
  0
VERTEX
  8
T77SSILL
 62
8
 10
4021.382
 20
-8693.452
 30
-2385.159
 70
    32
  0
VERTEX
  8
T77SSILL
 62
8
 10
4033.341
 20
-8683.940
 30
-2384.879
 70
    32
  0
VERTEX
  8
T77SSILL
 62
8
 10
4025.760
 20
-8673.860
 30
-2384.606
 70
    32
  0
VERTEX
  8
T77SSILL
 62
8
 10
4013.570
 20
-8682.644
 30
-2385.274
 70
    32
  0
VERTEX
  8
T77SSILL
 62
8
 10
4007.575
 20
-8685.515
 30
-2385.746
 70
    32
  0
VERTEX
  8
T77SSILL
 62
8
 10
4002.453
 20
-8684.393
 30
-2386.033
 70
    32
  0
VERTEX
  8
T77SSILL
 62
8
 10
3957.619
 20
-8621.662
 30
-2386.572
 70
    32
  0
VERTEX
  8
T77SSILL
 62
8
 10
3957.886
 20
-8616.732
 30
-2386.567
 70
    32
  0
VERTEX
  8
T77SSILL
 62
8
 10
3978.588
 20
-8602.718
 30
-2384.886
 70
    32
  0
VERTEX
  8
T77SSILL
 62
8
 10
3971.230
 20
-8588.820
 30
-2384.899
 70
    32
  0
VERTEX
  8
T77SSILL
 62
8
 10
3949.312
 20
-8604.397
 30
-2386.650
 70
    32
  0
VERTEX
  8
T77SSILL
 62
8
 10
3945.597
 20
-8604.480
 30
-2386.689
 70
    32
  0
VERTEX
  8
T77SSILL
 62
8
 10
3920.927
 20
-8568.530
 30
-2386.929
 70
    32
  0
VERTEX
  8
T77SSILL
 62
8
 10
3899.357
 20
-8541.257
 30
-2386.038
 70
    32
  0
VERTEX
  8
T77SSILL
 62
8
 10
3900.986
 20
-8534.665
 30
-2386.587
 70
    32
  0
VERTEX
  8
T77SSILL
 62
8
 10
3907.055
 20
-8524.829
 30
-2386.872
 70
    32
  0
VERTEX
  8
T77SSILL
 62
8
 10
3911.242
 20
-8521.500
 30
-2386.500
 70
    32
  0
VERTEX
  8
T77SSILL
 62
8
 10
3903.291
 20
-8511.680
 30
-2386.339
 70
    32
  0
VERTEX
  8
T77SSILL
 62
8
 10
3887.623
 20
-8524.539
 30
-2383.296
 70
    32
  0
VERTEX
  8
T77SSILL
 62
8
 10
3881.164
 20
-8526.775
 30
-2384.247
 70
    32
  0
VERTEX
  8
T77SSILL
 62
8
 10
3765.698
 20
-8474.635
 30
-2385.929
 70
    32
  0
VERTEX
  8
T77SSILL
 62
8
 10
3797.953
 20
-8464.852
 30
-2381.411
 70
    32
  0
VERTEX
  8
T77SSILL
 62
8
 10
3809.720
 20
-8458.674
 30
-2379.329
 70
    32
  0
VERTEX
  8
T77SSILL
 62
8
 10
3830.449
 20
-8443.836
 30
-2375.004
 70
    32
  0
VERTEX
  8
T77SSILL
 62
8
 10
3837.331
 20
-8441.474
 30
-2373.995
 70
    32
  0
VERTEX
  8
T77SSILL
 62
8
 10
3845.709
 20
-8446.295
 30
-2374.045
 70
    32
  0
VERTEX
  8
T77SSILL
 62
8
 10
3852.732
 20
-8440.645
 30
-2373.961
 70
    32
  0
VERTEX
  8
T77SSILL
 62
8
 10
3854.934
 20
-8436.851
 30
-2373.920
 70
    32
  0
VERTEX
  8
T77SSILL
 62
8
 10
3854.336
 20
-8427.436
 30
-2373.052
 70
    32
  0
VERTEX
  8
T77SSILL
 62
8
 10
3855.865
 20
-8425.394
 30
-2373.074
 70
    32
  0
VERTEX
  8
T77SSILL
 62
8
 10
3880.802
 20
-8405.999
 30
-2374.597
 70
    32
  0
VERTEX
  8
T77SSILL
 62
8
 10
3897.638
 20
-8395.158
 30
-2375.815
 70
    32
  0
VERTEX
  8
T77SSILL
 62
8
 10
3986.502
 20
-8331.443
 30
-2375.568
 70
    32
  0
VERTEX
  8
T77SSILL
 62
8
 10
3980.675
 20
-8323.316
 30
-2375.672
 70
    32
  0
VERTEX
  8
T77SSILL
 62
8
 10
3891.811
 20
-8387.031
 30
-2374.393
 70
    32
  0
VERTEX
  8
T77SSILL
 62
8
 10
3874.975
 20
-8397.872
 30
-2373.175
 70
    32
  0
VERTEX
  8
T77SSILL
 62
8
 10
3846.099
 20
-8420.374
 30
-2372.098
 70
    32
  0
VERTEX
  8
T77SSILL
 62
8
 10
3804.115
 20
-8450.644
 30
-2378.497
 70
    32
  0
VERTEX
  8
T77SSILL
 62
8
 10
3796.946
 20
-8453.160
 30
-2379.557
 70
    32
  0
VERTEX
  8
T77SSILL
 62
8
 10
3791.863
 20
-8456.843
 30
-2380.625
 70
    32
  0
VERTEX
  8
T77SSILL
 62
8
 10
3782.254
 20
-8459.738
 30
-2381.968
 70
    32
  0
VERTEX
  8
T77SSILL
 62
8
 10
3748.013
 20
-8465.094
 30
-2385.928
 70
    32
  0
VERTEX
  8
T77SSILL
 62
8
 10
3738.811
 20
-8461.802
 30
-2386.205
 70
    32
  0
VERTEX
  8
T77SSILL
 62
8
 10
3654.514
 20
-8425.778
 30
-2388.411
 70
    32
  0
VERTEX
  8
T77SSILL
 62
8
 10
3558.508
 20
-8381.821
 30
-2389.443
 70
    32
  0
VERTEX
  8
T77SSILL
 62
8
 10
3522.420
 20
-8366.576
 30
-2389.877
 70
    32
  0
VERTEX
  8
T77SSILL
 62
8
 10
3508.489
 20
-8359.063
 30
-2389.986
 70
    32
  0
VERTEX
  8
T77SSILL
 62
8
 10
3481.888
 20
-8348.354
 30
-2390.675
 70
    32
  0
VERTEX
  8
T77SSILL
 62
8
 10
3411.420
 20
-8316.106
 30
-2390.825
 70
    32
  0
VERTEX
  8
T77SSILL
 62
8
 10
3401.584
 20
-8313.282
 30
-2390.839
 70
    32
  0
VERTEX
  8
T77SSILL
 62
8
 10
3232.359
 20
-8237.737
 30
-2391.093
 70
    32
  0
VERTEX
  8
T77SSILL
 62
8
 10
3216.467
 20
-8228.419
 30
-2391.119
 70
    32
  0
VERTEX
  8
T77SSILL
 62
8
 10
2883.719
 20
-8082.989
 30
-2391.745
 70
    32
  0
VERTEX
  8
T77SSILL
 62
8
 10
2845.763
 20
-8062.164
 30
-2391.806
 70
    32
  0
VERTEX
  8
T77SSILL
 62
8
 10
2834.181
 20
-8059.251
 30
-2391.837
 70
    32
  0
VERTEX
  8
T77SSILL
 62
8
 10
2819.532
 20
-8057.676
 30
-2391.890
 70
    32
  0
VERTEX
  8
T77SSILL
 62
8
 10
2608.683
 20
-8051.061
 30
-2392.686
 70
    32
  0
VERTEX
  8
T77SSILL
 62
8
 10
2257.476
 20
-8037.427
 30
-2395.070
 70
    32
  0
VERTEX
  8
T77SSILL
 62
8
 10
2241.840
 20
-8034.851
 30
-2395.246
 70
    32
  0
VERTEX
  8
T77SSILL
 62
8
 10
2199.798
 20
-8018.920
 30
-2396.861
 70
    32
  0
VERTEX
  8
T77SSILL
 62
8
 10
2171.078
 20
-7923.451
 30
-2396.482
 70
    32
  0
VERTEX
  8
T77SSILL
 62
8
 10
2170.758
 20
-7918.537
 30
-2396.511
 70
    32
  0
VERTEX
  8
T77SSILL
 62
8
 10
2172.079
 20
-7917.327
 30
-2396.517
 70
    32
  0
VERTEX
  8
T77SSILL
 62
8
 10
2175.086
 20
-7917.679
 30
-2396.495
 70
    32
  0
VERTEX
  8
T77SSILL
 62
8
 10
2188.504
 20
-7928.045
 30
-2396.291
 70
    32
  0
VERTEX
  8
T77SSILL
 62
8
 10
2208.862
 20
-7934.132
 30
-2396.095
 70
    32
  0
VERTEX
  8
T77SSILL
 62
8
 10
2244.413
 20
-7927.117
 30
-2395.948
 70
    32
  0
VERTEX
  8
T77SSILL
 62
8
 10
2255.914
 20
-7934.822
 30
-2395.769
 70
    32
  0
VERTEX
  8
T77SSILL
 62
8
 10
2264.605
 20
-7930.155
 30
-2395.666
 70
    32
  0
VERTEX
  8
T77SSILL
 62
8
 10
2267.115
 20
-7921.419
 30
-2395.659
 70
    32
  0
VERTEX
  8
T77SSILL
 62
8
 10
2291.996
 20
-7916.546
 30
-2395.338
 70
    32
  0
VERTEX
  8
T77SSILL
 62
8
 10
2296.161
 20
-7917.017
 30
-2395.281
 70
    32
  0
VERTEX
  8
T77SSILL
 62
8
 10
2309.982
 20
-7926.746
 30
-2395.064
 70
    32
  0
VERTEX
  8
T77SSILL
 62
8
 10
2316.921
 20
-7925.397
 30
-2394.975
 70
    32
  0
VERTEX
  8
T77SSILL
 62
8
 10
2317.051
 20
-7919.324
 30
-2394.992
 70
    32
  0
VERTEX
  8
T77SSILL
 62
8
 10
2312.986
 20
-7914.553
 30
-2395.061
 70
    32
  0
VERTEX
  8
T77SSILL
 62
8
 10
2315.853
 20
-7911.873
 30
-2395.031
 70
    32
  0
VERTEX
  8
T77SSILL
 62
8
 10
2327.505
 20
-7909.472
 30
-2394.932
 70
    32
  0
VERTEX
  8
T77SSILL
 62
8
 10
2332.803
 20
-7910.192
 30
-2394.903
 70
    32
  0
VERTEX
  8
T77SSILL
 62
8
 10
2342.491
 20
-7918.111
 30
-2394.804
 70
    32
  0
VERTEX
  8
T77SSILL
 62
8
 10
2362.555
 20
-7930.407
 30
-2394.628
 70
    32
  0
VERTEX
  8
T77SSILL
 62
8
 10
2367.748
 20
-7922.767
 30
-2394.660
 70
    32
  0
VERTEX
  8
T77SSILL
 62
8
 10
2350.510
 20
-7907.753
 30
-2394.843
 70
    32
  0
VERTEX
  8
T77SSILL
 62
8
 10
2348.735
 20
-7900.972
 30
-2394.899
 70
    32
  0
VERTEX
  8
T77SSILL
 62
8
 10
2367.272
 20
-7878.117
 30
-2394.981
 70
    32
  0
VERTEX
  8
T77SSILL
 62
8
 10
2368.737
 20
-7870.142
 30
-2395.031
 70
    32
  0
VERTEX
  8
T77SSILL
 62
8
 10
2357.500
 20
-7746.711
 30
-2395.939
 70
    32
  0
VERTEX
  8
T77SSILL
 62
8
 10
2359.371
 20
-7744.999
 30
-2395.934
 70
    32
  0
VERTEX
  8
T77SSILL
 62
8
 10
2357.402
 20
-7720.005
 30
-2396.066
 70
    32
  0
VERTEX
  8
T77SSILL
 62
8
 10
2354.874
 20
-7715.683
 30
-2396.104
 70
    32
  0
VERTEX
  8
T77SSILL
 62
8
 10
2353.280
 20
-7696.845
 30
-2396.204
 70
    32
  0
VERTEX
  8
T77SSILL
 62
8
 10
2344.061
 20
-7696.807
 30
-2396.269
 70
    32
  0
VERTEX
  8
T77SSILL
 62
8
 10
2356.537
 20
-7854.321
 30
-2395.198
 70
    32
  0
VERTEX
  8
T77SSILL
 62
8
 10
2358.530
 20
-7868.294
 30
-2395.089
 70
    32
  0
VERTEX
  8
T77SSILL
 62
8
 10
2352.735
 20
-7879.415
 30
-2395.035
 70
    32
  0
VERTEX
  8
T77SSILL
 62
8
 10
2331.334
 20
-7896.045
 30
-2395.011
 70
    32
  0
VERTEX
  8
T77SSILL
 62
8
 10
2321.858
 20
-7900.710
 30
-2395.019
 70
    32
  0
VERTEX
  8
T77SSILL
 62
8
 10
2244.253
 20
-7916.248
 30
-2395.984
 70
    32
  0
VERTEX
  8
T77SSILL
 62
8
 10
2237.318
 20
-7913.408
 30
-2396.086
 70
    32
  0
VERTEX
  8
T77SSILL
 62
8
 10
2235.272
 20
-7913.768
 30
-2396.112
 70
    32
  0
VERTEX
  8
T77SSILL
 62
8
 10
2232.823
 20
-7918.563
 30
-2396.131
 70
    32
  0
VERTEX
  8
T77SSILL
 62
8
 10
2214.616
 20
-7921.366
 30
-2396.210
 70
    32
  0
VERTEX
  8
T77SSILL
 62
8
 10
2203.465
 20
-7921.583
 30
-2396.276
 70
    32
  0
VERTEX
  8
T77SSILL
 62
8
 10
2193.151
 20
-7918.277
 30
-2396.377
 70
    32
  0
VERTEX
  8
T77SSILL
 62
8
 10
2177.832
 20
-7909.022
 30
-2396.580
 70
    32
  0
VERTEX
  8
T77SSILL
 62
8
 10
2161.204
 20
-7892.932
 30
-2396.871
 70
    32
  0
VERTEX
  8
T77SSILL
 62
8
 10
2158.499
 20
-7888.449
 30
-2396.940
 70
    32
  0
VERTEX
  8
T77SSILL
 62
8
 10
2137.618
 20
-7832.675
 30
-2397.680
 70
    32
  0
VERTEX
  8
T77SSILL
 62
8
 10
2141.686
 20
-7819.980
 30
-2397.664
 70
    32
  0
VERTEX
  8
T77SSILL
 62
8
 10
2137.244
 20
-7809.545
 30
-2397.756
 70
    32
  0
VERTEX
  8
T77SSILL
 62
8
 10
2126.294
 20
-7802.945
 30
-2397.848
 70
    32
  0
VERTEX
  8
T77SSILL
 62
8
 10
2100.792
 20
-7731.925
 30
-2398.161
 70
    32
  0
VERTEX
  8
T77SSILL
 62
8
 10
2101.748
 20
-7723.482
 30
-2398.170
 70
    32
  0
VERTEX
  8
T77SSILL
 62
8
 10
2098.341
 20
-7720.553
 30
-2398.199
 70
    32
  0
VERTEX
  8
T77SSILL
 62
8
 10
2097.876
 20
-7717.803
 30
-2398.208
 70
    32
  0
VERTEX
  8
T77SSILL
 62
8
 10
2097.381
 20
-7696.856
 30
-2398.219
 70
    32
  0
VERTEX
  8
T77SSILL
 62
8
 10
2101.045
 20
-7679.596
 30
-2398.224
 70
    32
  0
VERTEX
  8
T77SSILL
 62
8
 10
2107.619
 20
-7661.909
 30
-2398.228
 70
    32
  0
VERTEX
  8
T77SSILL
 62
8
 10
2112.224
 20
-7662.076
 30
-2398.208
 70
    32
  0
VERTEX
  8
T77SSILL
 62
8
 10
2115.171
 20
-7655.537
 30
-2398.199
 70
    32
  0
VERTEX
  8
T77SSILL
 62
8
 10
2111.226
 20
-7652.181
 30
-2398.231
 70
    32
  0
VERTEX
  8
T77SSILL
 62
8
 10
2145.651
 20
-7570.214
 30
-2398.299
 70
    32
  0
VERTEX
  8
T77SSILL
 62
8
 10
2151.894
 20
-7568.802
 30
-2398.292
 70
    32
  0
VERTEX
  8
T77SSILL
 62
8
 10
2153.952
 20
-7563.097
 30
-2398.289
 70
    32
  0
VERTEX
  8
T77SSILL
 62
8
 10
2149.391
 20
-7561.311
 30
-2398.313
 70
    32
  0
VERTEX
  8
T77SSILL
 62
8
 10
2189.817
 20
-7465.058
 30
-2398.448
 70
    32
  0
VERTEX
  8
T77SSILL
 62
8
 10
2196.480
 20
-7463.808
 30
-2398.407
 70
    32
  0
VERTEX
  8
T77SSILL
 62
8
 10
2198.407
 20
-7458.522
 30
-2398.418
 70
    32
  0
VERTEX
  8
T77SSILL
 62
8
 10
2193.783
 20
-7455.615
 30
-2398.464
 70
    32
  0
VERTEX
  8
T77SSILL
 62
8
 10
2230.466
 20
-7368.611
 30
-2398.618
 70
    32
  0
VERTEX
  8
T77SSILL
 62
8
 10
2235.005
 20
-7368.024
 30
-2398.589
 70
    32
  0
VERTEX
  8
T77SSILL
 62
8
 10
2238.888
 20
-7373.387
 30
-2398.536
 70
    32
  0
VERTEX
  8
T77SSILL
 62
8
 10
2246.037
 20
-7367.697
 30
-2398.513
 70
    32
  0
VERTEX
  8
T77SSILL
 62
8
 10
2242.963
 20
-7363.732
 30
-2398.553
 70
    32
  0
VERTEX
  8
T77SSILL
 62
8
 10
2236.975
 20
-7350.170
 30
-2398.659
 70
    32
  0
VERTEX
  8
T77SSILL
 62
8
 10
2236.653
 20
-7270.839
 30
-2399.054
 70
    32
  0
VERTEX
  8
T77SSILL
 62
8
 10
2240.654
 20
-7263.900
 30
-2399.077
 70
    32
  0
VERTEX
  8
T77SSILL
 62
8
 10
2236.868
 20
-7257.162
 30
-2399.116
 70
    32
  0
VERTEX
  8
T77SSILL
 62
8
 10
2237.634
 20
-7142.278
 30
-2399.637
 70
    32
  0
VERTEX
  8
T77SSILL
 62
8
 10
2242.507
 20
-7134.730
 30
-2399.661
 70
    32
  0
VERTEX
  8
T77SSILL
 62
8
 10
2240.139
 20
-7130.262
 30
-2399.686
 70
    32
  0
VERTEX
  8
T77SSILL
 62
8
 10
2238.248
 20
-7122.395
 30
-2399.726
 70
    32
  0
VERTEX
  8
T77SSILL
 62
8
 10
2240.808
 20
-6900.768
 30
-2400.728
 70
    32
  0
VERTEX
  8
T77SSILL
 62
8
 10
2251.662
 20
-6892.614
 30
-2400.741
 70
    32
  0
VERTEX
  8
T77SSILL
 62
8
 10
2240.327
 20
-6876.488
 30
-2400.831
 70
    32
  0
VERTEX
  8
T77SSILL
 62
8
 10
2208.770
 20
-6792.808
 30
-2401.270
 70
    32
  0
VERTEX
  8
T77SSILL
 62
8
 10
2216.796
 20
-6786.089
 30
-2401.300
 70
    32
  0
VERTEX
  8
T77SSILL
 62
8
 10
2212.627
 20
-6780.862
 30
-2401.332
 70
    32
  0
VERTEX
  8
T77SSILL
 62
8
 10
2205.979
 20
-6785.140
 30
-2401.314
 70
    32
  0
VERTEX
  8
T77SSILL
 62
8
 10
2167.238
 20
-6684.438
 30
-2401.895
 70
    32
  0
VERTEX
  8
T77SSILL
 62
8
 10
2170.103
 20
-6677.702
 30
-2401.930
 70
    32
  0
VERTEX
  8
T77SSILL
 62
8
 10
2168.106
 20
-6670.385
 30
-2401.972
 70
    32
  0
VERTEX
  8
T77SSILL
 62
8
 10
2162.298
 20
-6668.209
 30
-2401.988
 70
    32
  0
VERTEX
  8
T77SSILL
 62
8
 10
2139.972
 20
-6608.650
 30
-2402.241
 70
    32
  0
VERTEX
  8
T77SSILL
 62
8
 10
2151.293
 20
-6617.800
 30
-2402.197
 70
    32
  0
VERTEX
  8
T77SSILL
 62
8
 10
2165.975
 20
-6626.910
 30
-2402.145
 70
    32
  0
VERTEX
  8
T77SSILL
 62
8
 10
2176.861
 20
-6645.903
 30
-2402.086
 70
    32
  0
VERTEX
  8
T77SSILL
 62
8
 10
2203.184
 20
-6703.823
 30
-2401.761
 70
    32
  0
VERTEX
  8
T77SSILL
 62
8
 10
2213.013
 20
-6701.730
 30
-2401.765
 70
    32
  0
VERTEX
  8
T77SSILL
 62
8
 10
2189.519
 20
-6642.603
 30
-2402.059
 70
    32
  0
VERTEX
  8
T77SSILL
 62
8
 10
2196.377
 20
-6636.486
 30
-2402.052
 70
    32
  0
VERTEX
  8
T77SSILL
 62
8
 10
2222.392
 20
-6637.967
 30
-2401.983
 70
    32
  0
VERTEX
  8
T77SSILL
 62
8
 10
2237.413
 20
-6635.910
 30
-2401.948
 70
    32
  0
VERTEX
  8
T77SSILL
 62
8
 10
2264.126
 20
-6625.839
 30
-2401.980
 70
    32
  0
VERTEX
  8
T77SSILL
 62
8
 10
2260.778
 20
-6616.804
 30
-2402.039
 70
    32
  0
VERTEX
  8
T77SSILL
 62
8
 10
2245.470
 20
-6623.497
 30
-2401.974
 70
    32
  0
VERTEX
  8
T77SSILL
 62
8
 10
2225.951
 20
-6627.801
 30
-2401.991
 70
    32
  0
VERTEX
  8
T77SSILL
 62
8
 10
2203.467
 20
-6628.819
 30
-2402.046
 70
    32
  0
VERTEX
  8
T77SSILL
 62
8
 10
2188.975
 20
-6626.179
 30
-2402.088
 70
    32
  0
VERTEX
  8
T77SSILL
 62
8
 10
2175.724
 20
-6621.614
 30
-2402.129
 70
    32
  0
VERTEX
  8
T77SSILL
 62
8
 10
2163.152
 20
-6614.691
 30
-2402.172
 70
    32
  0
VERTEX
  8
T77SSILL
 62
8
 10
2153.553
 20
-6607.582
 30
-2402.208
 70
    32
  0
VERTEX
  8
T77SSILL
 62
8
 10
2148.736
 20
-6602.586
 30
-2402.229
 70
    32
  0
VERTEX
  8
T77SSILL
 62
8
 10
2149.268
 20
-6600.651
 30
-2402.231
 70
    32
  0
VERTEX
  8
T77SSILL
 62
8
 10
2141.771
 20
-6596.728
 30
-2402.256
 70
    32
  0
VERTEX
  8
T77SSILL
 62
8
 10
2137.833
 20
-6586.992
 30
-2402.282
 70
    32
  0
VERTEX
  8
T77SSILL
 62
8
 10
2130.646
 20
-6584.982
 30
-2402.304
 70
    32
  0
VERTEX
  8
T77SSILL
 62
8
 10
2101.683
 20
-6506.257
 30
-2402.620
 70
    32
  0
VERTEX
  8
T77SSILL
 62
8
 10
2104.676
 20
-6500.782
 30
-2402.661
 70
    32
  0
VERTEX
  8
T77SSILL
 62
8
 10
2101.798
 20
-6494.191
 30
-2402.704
 70
    32
  0
VERTEX
  8
T77SSILL
 62
8
 10
2096.364
 20
-6491.120
 30
-2402.718
 70
    32
  0
VERTEX
  8
T77SSILL
 62
8
 10
2063.214
 20
-6402.827
 30
-2403.293
 70
    32
  0
VERTEX
  8
T77SSILL
 62
8
 10
2067.401
 20
-6398.480
 30
-2403.328
 70
    32
  0
VERTEX
  8
T77SSILL
 62
8
 10
2067.523
 20
-6396.556
 30
-2403.342
 70
    32
  0
VERTEX
  8
T77SSILL
 62
8
 10
2066.292
 20
-6393.619
 30
-2403.361
 70
    32
  0
VERTEX
  8
T77SSILL
 62
8
 10
2059.393
 20
-6392.756
 30
-2403.358
 70
    32
  0
VERTEX
  8
T77SSILL
 62
8
 10
1960.726
 20
-6129.781
 30
-2404.917
 70
    32
  0
VERTEX
  8
T77SSILL
 62
8
 10
2012.360
 20
-6169.757
 30
-2404.711
 70
    32
  0
VERTEX
  8
T77SSILL
 62
8
 10
2010.660
 20
-6176.352
 30
-2404.669
 70
    32
  0
VERTEX
  8
T77SSILL
 62
8
 10
2020.008
 20
-6183.678
 30
-2404.628
 70
    32
  0
VERTEX
  8
T77SSILL
 62
8
 10
2025.703
 20
-6180.426
 30
-2404.651
 70
    32
  0
VERTEX
  8
T77SSILL
 62
8
 10
2086.707
 20
-6227.679
 30
-2404.389
 70
    32
  0
VERTEX
  8
T77SSILL
 62
8
 10
2092.400
 20
-6221.046
 30
-2404.434
 70
    32
  0
VERTEX
  8
T77SSILL
 62
8
 10
1959.572
 20
-6118.237
 30
-2405.004
 70
    32
  0
VERTEX
  8
T77SSILL
 62
8
 10
1957.787
 20
-6106.757
 30
-2405.075
 70
    32
  0
VERTEX
  8
T77SSILL
 62
8
 10
1952.575
 20
-6100.822
 30
-2405.090
 70
    32
  0
VERTEX
  8
T77SSILL
 62
8
 10
1948.879
 20
-6093.898
 30
-2405.091
 70
    32
  0
VERTEX
  8
T77SSILL
 62
8
 10
1952.932
 20
-6081.528
 30
-2405.167
 70
    32
  0
VERTEX
  8
T77SSILL
 62
8
 10
1953.377
 20
-6070.531
 30
-2405.212
 70
    32
  0
VERTEX
  8
T77SSILL
 62
8
 10
1958.848
 20
-6066.763
 30
-2405.265
 70
    32
  0
VERTEX
  8
T77SSILL
 62
8
 10
1957.220
 20
-6058.747
 30
-2405.284
 70
    32
  0
VERTEX
  8
T77SSILL
 62
8
 10
1953.416
 20
-6060.115
 30
-2405.252
 70
    32
  0
VERTEX
  8
T77SSILL
 62
8
 10
1949.737
 20
-6059.364
 30
-2405.229
 70
    32
  0
VERTEX
  8
T77SSILL
 62
8
 10
1943.889
 20
-6051.999
 30
-2405.217
 70
    32
  0
VERTEX
  8
T77SSILL
 62
8
 10
1940.920
 20
-6045.956
 30
-2405.219
 70
    32
  0
VERTEX
  8
T77SSILL
 62
8
 10
1936.933
 20
-6034.506
 30
-2405.235
 70
    32
  0
VERTEX
  8
T77SSILL
 62
8
 10
1934.994
 20
-6024.634
 30
-2405.260
 70
    32
  0
VERTEX
  8
T77SSILL
 62
8
 10
1935.628
 20
-6022.683
 30
-2405.272
 70
    32
  0
VERTEX
  8
T77SSILL
 62
8
 10
1941.606
 20
-6019.083
 30
-2405.327
 70
    32
  0
VERTEX
  8
T77SSILL
 62
8
 10
1939.001
 20
-6010.848
 30
-2405.341
 70
    32
  0
VERTEX
  8
T77SSILL
 62
8
 10
1932.953
 20
-6012.323
 30
-2405.293
 70
    32
  0
VERTEX
  8
T77SSILL
 62
8
 10
1926.090
 20
-6004.621
 30
-2405.274
 70
    32
  0
VERTEX
  8
T77SSILL
 62
8
 10
1921.732
 20
-5997.446
 30
-2405.271
 70
    32
  0
VERTEX
  8
T77SSILL
 62
8
 10
1907.883
 20
-5989.232
 30
-2405.206
 70
    32
  0
VERTEX
  8
T77SSILL
 62
8
 10
1880.734
 20
-5917.231
 30
-2405.717
 70
    32
  0
VERTEX
  8
T77SSILL
 62
8
 10
1888.429
 20
-5912.452
 30
-2405.734
 70
    32
  0
VERTEX
  8
T77SSILL
 62
8
 10
1884.217
 20
-5905.752
 30
-2405.802
 70
    32
  0
VERTEX
  8
T77SSILL
 62
8
 10
1878.239
 20
-5909.352
 30
-2405.790
 70
    32
  0
VERTEX
  8
T77SSILL
 62
8
 10
1845.908
 20
-5821.986
 30
-2406.613
 70
    32
  0
VERTEX
  8
T77SSILL
 62
8
 10
1854.023
 20
-5817.133
 30
-2406.631
 70
    32
  0
VERTEX
  8
T77SSILL
 62
8
 10
1850.706
 20
-5810.808
 30
-2406.693
 70
    32
  0
VERTEX
  8
T77SSILL
 62
8
 10
1843.417
 20
-5814.902
 30
-2406.679
 70
    32
  0
VERTEX
  8
T77SSILL
 62
8
 10
1811.357
 20
-5728.979
 30
-2407.485
 70
    32
  0
VERTEX
  8
T77SSILL
 62
8
 10
1813.676
 20
-5720.265
 30
-2407.550
 70
    32
  0
VERTEX
  8
T77SSILL
 62
8
 10
1808.626
 20
-5717.596
 30
-2407.587
 70
    32
  0
VERTEX
  8
T77SSILL
 62
8
 10
1805.531
 20
-5713.673
 30
-2407.628
 70
    32
  0
VERTEX
  8
T77SSILL
 62
8
 10
1776.760
 20
-5635.149
 30
-2408.257
 70
    32
  0
VERTEX
  8
T77SSILL
 62
8
 10
1777.329
 20
-5622.941
 30
-2408.357
 70
    32
  0
VERTEX
  8
T77SSILL
 62
8
 10
1774.787
 20
-5620.709
 30
-2408.372
 70
    32
  0
VERTEX
  8
T77SSILL
 62
8
 10
1770.540
 20
-5620.684
 30
-2408.366
 70
    32
  0
VERTEX
  8
T77SSILL
 62
8
 10
1739.434
 20
-5537.370
 30
-2408.211
 70
    32
  0
VERTEX
  8
T77SSILL
 62
8
 10
1742.775
 20
-5526.861
 30
-2408.258
 70
    32
  0
VERTEX
  8
T77SSILL
 62
8
 10
1737.105
 20
-5522.964
 30
-2408.122
 70
    32
  0
VERTEX
  8
T77SSILL
 62
8
 10
1733.963
 20
-5522.480
 30
-2408.051
 70
    32
  0
VERTEX
  8
T77SSILL
 62
8
 10
1702.256
 20
-5436.397
 30
-2407.830
 70
    32
  0
VERTEX
  8
T77SSILL
 62
8
 10
1706.108
 20
-5430.536
 30
-2407.925
 70
    32
  0
VERTEX
  8
T77SSILL
 62
8
 10
1697.609
 20
-5425.235
 30
-2407.811
 70
    32
  0
VERTEX
  8
T77SSILL
 62
8
 10
1666.534
 20
-5340.662
 30
-2408.208
 70
    32
  0
VERTEX
  8
T77SSILL
 62
8
 10
1666.431
 20
-5338.298
 30
-2408.315
 70
    32
  0
VERTEX
  8
T77SSILL
 62
8
 10
1670.036
 20
-5296.894
 30
-2409.012
 70
    32
  0
VERTEX
  8
T77SSILL
 62
8
 10
1684.209
 20
-5258.224
 30
-2409.798
 70
    32
  0
VERTEX
  8
T77SSILL
 62
8
 10
1685.707
 20
-5254.602
 30
-2409.874
 70
    32
  0
VERTEX
  8
T77SSILL
 62
8
 10
1686.948
 20
-5251.600
 30
-2409.941
 70
    32
  0
VERTEX
  8
T77SSILL
 62
8
 10
1685.687
 20
-5248.827
 30
-2409.989
 70
    32
  0
SEQEND
  8
T77SSILL
  0
POLYLINE
  8
T77SSILL
 62
8
 66
     1
 70
     8
  0
VERTEX
  8
T77SSILL
 62
8
 10
1681.633
 20
-5228.182
 30
-2410.500
 70
    32
  0
VERTEX
  8
T77SSILL
 62
8
 10
1677.892
 20
-5238.627
 30
-2410.100
 70
    32
  0
VERTEX
  8
T77SSILL
 62
8
 10
1677.129
 20
-5240.776
 30
-2410.100
 70
    32
  0
VERTEX
  8
T77SSILL
 62
8
 10
1674.737
 20
-5254.152
 30
-2409.819
 70
    32
  0
VERTEX
  8
T77SSILL
 62
8
 10
1668.576
 20
-5278.167
 30
-2409.303
 70
    32
  0
VERTEX
  8
T77SSILL
 62
8
 10
1662.942
 20
-5290.366
 30
-2409.026
 70
    32
  0
VERTEX
  8
T77SSILL
 62
8
 10
1659.604
 20
-5297.594
 30
-2408.871
 70
    32
  0
VERTEX
  8
T77SSILL
 62
8
 10
1657.157
 20
-5299.454
 30
-2408.811
 70
    32
  0
VERTEX
  8
T77SSILL
 62
8
 10
1655.522
 20
-5300.697
 30
-2408.777
 70
    32
  0
VERTEX
  8
T77SSILL
 62
8
 10
1654.342
 20
-5304.790
 30
-2408.553
 70
    32
  0
VERTEX
  8
T77SSILL
 62
8
 10
1609.723
 20
-5185.830
 30
-2409.651
 70
    32
  0
VERTEX
  8
T77SSILL
 62
8
 10
1607.857
 20
-5175.518
 30
-2409.750
 70
    32
  0
VERTEX
  8
T77SSILL
 62
8
 10
1608.088
 20
-5163.265
 30
-2409.874
 70
    32
  0
VERTEX
  8
T77SSILL
 62
8
 10
1610.846
 20
-5152.164
 30
-2409.992
 70
    32
  0
VERTEX
  8
T77SSILL
 62
8
 10
1616.196
 20
-5141.956
 30
-2410.107
 70
    32
  0
VERTEX
  8
T77SSILL
 62
8
 10
1623.002
 20
-5134.723
 30
-2410.196
 70
    32
  0
VERTEX
  8
T77SSILL
 62
8
 10
1674.954
 20
-5097.799
 30
-2410.686
 70
    32
  0
VERTEX
  8
T77SSILL
 62
8
 10
1683.134
 20
-5098.408
 30
-2410.699
 70
    32
  0
VERTEX
  8
T77SSILL
 62
8
 10
1711.120
 20
-5077.985
 30
-2410.969
 70
    32
  0
VERTEX
  8
T77SSILL
 62
8
 10
1716.413
 20
-5071.022
 30
-2411.051
 70
    32
  0
VERTEX
  8
T77SSILL
 62
8
 10
1729.641
 20
-5061.170
 30
-2411.207
 70
    32
  0
VERTEX
  8
T77SSILL
 62
8
 10
1739.639
 20
-5056.842
 30
-2411.000
 70
    32
  0
VERTEX
  8
T77SSILL
 62
8
 10
1740.310
 20
-5056.202
 30
-2413.661
 70
    32
  0
VERTEX
  8
T77SSILL
 62
8
 10
1743.419
 20
-5059.517
 30
-2413.590
 70
    32
  0
VERTEX
  8
T77SSILL
 62
8
 10
1740.192
 20
-5068.291
 30
-2413.251
 70
    32
  0
VERTEX
  8
T77SSILL
 62
8
 10
1723.587
 20
-5098.725
 30
-2412.923
 70
    32
  0
VERTEX
  8
T77SSILL
 62
8
 10
1720.747
 20
-5106.646
 30
-2412.923
 70
    32
  0
VERTEX
  8
T77SSILL
 62
8
 10
1721.750
 20
-5111.807
 30
-2412.873
 70
    32
  0
VERTEX
  8
T77SSILL
 62
8
 10
1719.813
 20
-5117.679
 30
-2412.775
 70
    32
  0
VERTEX
  8
T77SSILL
 62
8
 10
1720.056
 20
-5122.080
 30
-2412.711
 70
    32
  0
VERTEX
  8
T77SSILL
 62
8
 10
1711.382
 20
-5146.841
 30
-2412.295
 70
    32
  0
VERTEX
  8
T77SSILL
 62
8
 10
1704.729
 20
-5166.091
 30
-2411.973
 70
    32
  0
SEQEND
  8
T77SSILL
  0
POLYLINE
  8
T77SSILL
 62
8
 66
     1
 70
     8
  0
VERTEX
  8
T77SSILL
 62
8
 10
1706.435
 20
-5189.790
 30
-2412.030
 70
    32
  0
VERTEX
  8
T77SSILL
 62
8
 10
1713.684
 20
-5169.113
 30
-2411.976
 70
    32
  0
VERTEX
  8
T77SSILL
 62
8
 10
1720.213
 20
-5149.782
 30
-2412.300
 70
    32
  0
VERTEX
  8
T77SSILL
 62
8
 10
1727.000
 20
-5130.583
 30
-2412.622
 70
    32
  0
VERTEX
  8
T77SSILL
 62
8
 10
1735.945
 20
-5110.661
 30
-2412.923
 70
    32
  0
VERTEX
  8
T77SSILL
 62
8
 10
1737.732
 20
-5099.542
 30
-2412.923
 70
    32
  0
VERTEX
  8
T77SSILL
 62
8
 10
1743.595
 20
-5085.750
 30
-2412.923
 70
    32
  0
VERTEX
  8
T77SSILL
 62
8
 10
1758.134
 20
-5056.736
 30
-2413.878
 70
    32
  0
VERTEX
  8
T77SSILL
 62
8
 10
1768.321
 20
-5040.119
 30
-2414.401
 70
    32
  0
VERTEX
  8
T77SSILL
 62
8
 10
1764.653
 20
-5033.213
 30
-2411.000
 70
    32
  0
VERTEX
  8
T77SSILL
 62
8
 10
1767.644
 20
-5025.815
 30
-2411.000
 70
    32
  0
VERTEX
  8
T77SSILL
 62
8
 10
1773.487
 20
-5017.942
 30
-2411.000
 70
    32
  0
VERTEX
  8
T77SSILL
 62
8
 10
1790.513
 20
-5000.688
 30
-2411.000
 70
    32
  0
VERTEX
  8
T77SSILL
 62
8
 10
1812.734
 20
-4984.672
 30
-2412.716
 70
    32
  0
VERTEX
  8
T77SSILL
 62
8
 10
1830.648
 20
-5004.271
 30
-2412.767
 70
    32
  0
VERTEX
  8
T77SSILL
 62
8
 10
1840.380
 20
-4997.290
 30
-2412.929
 70
    32
  0
VERTEX
  8
T77SSILL
 62
8
 10
1826.831
 20
-4974.214
 30
-2412.953
 70
    32
  0
VERTEX
  8
T77SSILL
 62
8
 10
1832.976
 20
-4969.855
 30
-2413.055
 70
    32
  0
VERTEX
  8
T77SSILL
 62
8
 10
1834.485
 20
-4968.294
 30
-2413.000
 70
    32
  0
VERTEX
  8
T77SSILL
 62
8
 10
1851.441
 20
-4955.179
 30
-2413.000
 70
    32
  0
VERTEX
  8
T77SSILL
 62
8
 10
1855.975
 20
-4960.551
 30
-2413.000
 70
    32
  0
VERTEX
  8
T77SSILL
 62
8
 10
1860.417
 20
-4960.519
 30
-2413.000
 70
    32
  0
VERTEX
  8
T77SSILL
 62
8
 10
1864.555
 20
-4965.603
 30
-2413.000
 70
    32
  0
VERTEX
  8
T77SSILL
 62
8
 10
1869.419
 20
-4967.127
 30
-2413.000
 70
    32
  0
VERTEX
  8
T77SSILL
 62
8
 10
1873.222
 20
-4965.228
 30
-2413.000
 70
    32
  0
VERTEX
  8
T77SSILL
 62
8
 10
1874.899
 20
-4962.504
 30
-2413.000
 70
    32
  0
VERTEX
  8
T77SSILL
 62
8
 10
1870.010
 20
-4953.961
 30
-2413.000
 70
    32
  0
VERTEX
  8
T77SSILL
 62
8
 10
1873.151
 20
-4948.441
 30
-2413.000
 70
    32
  0
VERTEX
  8
T77SSILL
 62
8
 10
1888.170
 20
-4939.481
 30
-2413.000
 70
    32
  0
VERTEX
  8
T77SSILL
 62
8
 10
1884.954
 20
-4934.160
 30
-2413.000
 70
    32
  0
VERTEX
  8
T77SSILL
 62
8
 10
1886.347
 20
-4930.166
 30
-2413.000
 70
    32
  0
VERTEX
  8
T77SSILL
 62
8
 10
1912.719
 20
-4911.691
 30
-2413.000
 70
    32
  0
VERTEX
  8
T77SSILL
 62
8
 10
1912.719
 20
-4911.691
 30
-2414.388
 70
    32
  0
VERTEX
  8
T77SSILL
 62
8
 10
1919.501
 20
-4918.117
 30
-2414.414
 70
    32
  0
VERTEX
  8
T77SSILL
 62
8
 10
1998.689
 20
-4860.499
 30
-2415.616
 70
    32
  0
VERTEX
  8
T77SSILL
 62
8
 10
2015.789
 20
-4868.048
 30
-2415.411
 70
    32
  0
VERTEX
  8
T77SSILL
 62
8
 10
2035.606
 20
-4852.993
 30
-2415.516
 70
    32
  0
VERTEX
  8
T77SSILL
 62
8
 10
2042.353
 20
-4839.230
 30
-2415.676
 70
    32
  0
VERTEX
  8
T77SSILL
 62
8
 10
2041.846
 20
-4830.420
 30
-2415.705
 70
    32
  0
VERTEX
  8
T77SSILL
 62
8
 10
2050.601
 20
-4821.484
 30
-2415.681
 70
    32
  0
VERTEX
  8
T77SSILL
 62
8
 10
2059.542
 20
-4816.665
 30
-2415.661
 70
    32
  0
VERTEX
  8
T77SSILL
 62
8
 10
2076.207
 20
-4804.562
 30
-2415.620
 70
    32
  0
VERTEX
  8
T77SSILL
 62
8
 10
2083.183
 20
-4801.894
 30
-2415.606
 70
    32
  0
VERTEX
  8
T77SSILL
 62
8
 10
2103.277
 20
-4798.489
 30
-2415.569
 70
    32
  0
VERTEX
  8
T77SSILL
 62
8
 10
2115.365
 20
-4799.404
 30
-2415.550
 70
    32
  0
VERTEX
  8
T77SSILL
 62
8
 10
2126.551
 20
-4804.445
 30
-2415.537
 70
    32
  0
VERTEX
  8
T77SSILL
 62
8
 10
2154.617
 20
-4811.553
 30
-2415.441
 70
    32
  0
VERTEX
  8
T77SSILL
 62
8
 10
2158.309
 20
-4804.477
 30
-2415.483
 70
    32
  0
VERTEX
  8
T77SSILL
 62
8
 10
2160.821
 20
-4794.402
 30
-2415.501
 70
    32
  0
VERTEX
  8
T77SSILL
 62
8
 10
2160.656
 20
-4785.674
 30
-2415.506
 70
    32
  0
VERTEX
  8
T77SSILL
 62
8
 10
2154.196
 20
-4781.678
 30
-2415.512
 70
    32
  0
VERTEX
  8
T77SSILL
 62
8
 10
2147.967
 20
-4781.991
 30
-2415.516
 70
    32
  0
VERTEX
  8
T77SSILL
 62
8
 10
2142.722
 20
-4784.984
 30
-2415.518
 70
    32
  0
VERTEX
  8
T77SSILL
 62
8
 10
2139.935
 20
-4790.558
 30
-2415.517
 70
    32
  0
VERTEX
  8
T77SSILL
 62
8
 10
2123.923
 20
-4782.999
 30
-2415.532
 70
    32
  0
VERTEX
  8
T77SSILL
 62
8
 10
2121.687
 20
-4778.751
 30
-2415.536
 70
    32
  0
VERTEX
  8
T77SSILL
 62
8
 10
2125.693
 20
-4773.379
 30
-2415.536
 70
    32
  0
VERTEX
  8
T77SSILL
 62
8
 10
2119.799
 20
-4763.637
 30
-2415.545
 70
    32
  0
VERTEX
  8
T77SSILL
 62
8
 10
2141.719
 20
-4747.367
 30
-2415.538
 70
    32
  0
VERTEX
  8
T77SSILL
 62
8
 10
2148.332
 20
-4744.703
 30
-2415.535
 70
    32
  0
VERTEX
  8
T77SSILL
 62
8
 10
2167.789
 20
-4743.950
 30
-2415.522
 70
    32
  0
VERTEX
  8
T77SSILL
 62
8
 10
2183.371
 20
-4746.519
 30
-2415.510
 70
    32
  0
VERTEX
  8
T77SSILL
 62
8
 10
2182.656
 20
-4754.763
 30
-2415.507
 70
    32
  0
VERTEX
  8
T77SSILL
 62
8
 10
2206.249
 20
-4758.262
 30
-2415.413
 70
    32
  0
VERTEX
  8
T77SSILL
 62
8
 10
2208.312
 20
-4750.432
 30
-2415.433
 70
    32
  0
VERTEX
  8
T77SSILL
 62
8
 10
2256.700
 20
-4758.081
 30
-2415.150
 70
    32
  0
VERTEX
  8
T77SSILL
 62
8
 10
2257.480
 20
-4749.943
 30
-2415.178
 70
    32
  0
VERTEX
  8
T77SSILL
 62
8
 10
2165.475
 20
-4735.335
 30
-2415.528
 70
    32
  0
VERTEX
  8
T77SSILL
 62
8
 10
2163.755
 20
-4732.217
 30
-2415.531
 70
    32
  0
VERTEX
  8
T77SSILL
 62
8
 10
2176.934
 20
-4722.311
 30
-2415.527
 70
    32
  0
VERTEX
  8
T77SSILL
 62
8
 10
2203.968
 20
-4711.167
 30
-2415.514
 70
    32
  0
VERTEX
  8
T77SSILL
 62
8
 10
2215.457
 20
-4707.865
 30
-2415.508
 70
    32
  0
VERTEX
  8
T77SSILL
 62
8
 10
2234.719
 20
-4704.390
 30
-2415.476
 70
    32
  0
VERTEX
  8
T77SSILL
 62
8
 10
2255.724
 20
-4704.506
 30
-2415.366
 70
    32
  0
VERTEX
  8
T77SSILL
 62
8
 10
2260.723
 20
-4707.515
 30
-2415.328
 70
    32
  0
VERTEX
  8
T77SSILL
 62
8
 10
2270.610
 20
-4708.738
 30
-2415.271
 70
    32
  0
VERTEX
  8
T77SSILL
 62
8
 10
2290.994
 20
-4708.758
 30
-2415.164
 70
    32
  0
VERTEX
  8
T77SSILL
 62
8
 10
2300.946
 20
-4708.360
 30
-2415.114
 70
    32
  0
VERTEX
  8
T77SSILL
 62
8
 10
2305.358
 20
-4703.932
 30
-2415.108
 70
    32
  0
VERTEX
  8
T77SSILL
 62
8
 10
2443.014
 20
-4703.039
 30
-2414.351
 70
    32
  0
VERTEX
  8
T77SSILL
 62
8
 10
2443.141
 20
-4694.038
 30
-2414.426
 70
    32
  0
VERTEX
  8
T77SSILL
 62
8
 10
2305.729
 20
-4694.929
 30
-2415.142
 70
    32
  0
VERTEX
  8
T77SSILL
 62
8
 10
2299.155
 20
-4685.229
 30
-2415.214
 70
    32
  0
VERTEX
  8
T77SSILL
 62
8
 10
2292.141
 20
-4679.863
 30
-2415.272
 70
    32
  0
VERTEX
  8
T77SSILL
 62
8
 10
2289.656
 20
-4676.255
 30
-2415.299
 70
    32
  0
VERTEX
  8
T77SSILL
 62
8
 10
2281.160
 20
-4677.185
 30
-2415.340
 70
    32
  0
VERTEX
  8
T77SSILL
 62
8
 10
2280.460
 20
-4669.952
 30
-2415.372
 70
    32
  0
VERTEX
  8
T77SSILL
 62
8
 10
2270.356
 20
-4668.888
 30
-2415.429
 70
    32
  0
VERTEX
  8
T77SSILL
 62
8
 10
2270.136
 20
-4681.242
 30
-2415.382
 70
    32
  0
VERTEX
  8
T77SSILL
 62
8
 10
2264.531
 20
-4682.737
 30
-2415.405
 70
    32
  0
VERTEX
  8
T77SSILL
 62
8
 10
2255.271
 20
-4691.367
 30
-2415.420
 70
    32
  0
VERTEX
  8
T77SSILL
 62
8
 10
2243.236
 20
-4695.334
 30
-2415.467
 70
    32
  0
VERTEX
  8
T77SSILL
 62
8
 10
2211.402
 20
-4697.960
 30
-2415.516
 70
    32
  0
VERTEX
  8
T77SSILL
 62
8
 10
2196.196
 20
-4701.674
 30
-2415.525
 70
    32
  0
VERTEX
  8
T77SSILL
 62
8
 10
2180.651
 20
-4708.278
 30
-2415.532
 70
    32
  0
VERTEX
  8
T77SSILL
 62
8
 10
2169.838
 20
-4714.882
 30
-2415.536
 70
    32
  0
VERTEX
  8
T77SSILL
 62
8
 10
2132.329
 20
-4742.123
 30
-2415.547
 70
    32
  0
VERTEX
  8
T77SSILL
 62
8
 10
2120.891
 20
-4752.512
 30
-2415.550
 70
    32
  0
VERTEX
  8
T77SSILL
 62
8
 10
1918.653
 20
-4898.076
 30
-2413.445
 70
    32
  0
VERTEX
  8
T77SSILL
 62
8
 10
1916.251
 20
-4899.507
 30
-2413.000
 70
    32
  0
VERTEX
  8
T77SSILL
 62
8
 10
1879.637
 20
-4925.417
 30
-2413.000
 70
    32
  0
VERTEX
  8
T77SSILL
 62
8
 10
1874.865
 20
-4921.348
 30
-2413.000
 70
    32
  0
VERTEX
  8
T77SSILL
 62
8
 10
1854.533
 20
-4935.532
 30
-2413.000
 70
    32
  0
VERTEX
  8
T77SSILL
 62
8
 10
1844.446
 20
-4944.694
 30
-2413.000
 70
    32
  0
VERTEX
  8
T77SSILL
 62
8
 10
1846.643
 20
-4950.268
 30
-2413.000
 70
    32
  0
VERTEX
  8
T77SSILL
 62
8
 10
1830.387
 20
-4962.250
 30
-2413.000
 70
    32
  0
VERTEX
  8
T77SSILL
 62
8
 10
1828.133
 20
-4963.229
 30
-2412.502
 70
    32
  0
VERTEX
  8
T77SSILL
 62
8
 10
1740.019
 20
-5026.651
 30
-2411.585
 70
    32
  0
SEQEND
  8
T77SSILL
  0
POLYLINE
  8
T77SSILL
 62
8
 66
     1
 70
     8
  0
VERTEX
  8
T77SSILL
 62
8
 10
1706.435
 20
-5189.790
 30
-2412.030
 70
    32
  0
VERTEX
  8
T77SSILL
 62
8
 10
1710.327
 20
-5194.578
 30
-2412.000
 70
    32
  0
VERTEX
  8
T77SSILL
 62
8
 10
1701.421
 20
-5213.656
 30
-2411.000
 70
    32
  0
VERTEX
  8
T77SSILL
 62
8
 10
1692.204
 20
-5232.942
 30
-2410.500
 70
    32
  0
VERTEX
  8
T77SSILL
 62
8
 10
1685.687
 20
-5248.827
 30
-2409.989
 70
    32
  0
SEQEND
  8
T77SSILL
  0
POLYLINE
  8
T77SSILL
 62
8
 66
     1
 70
     8
  0
VERTEX
  8
T77SSILL
 62
8
 10
1681.633
 20
-5228.182
 30
-2410.500
 70
    32
  0
VERTEX
  8
T77SSILL
 62
8
 10
1690.122
 20
-5206.339
 30
-2411.000
 70
    32
  0
VERTEX
  8
T77SSILL
 62
8
 10
1704.729
 20
-5166.091
 30
-2411.973
 70
    32
  0
SEQEND
  8
T77SSILL
  0
LINE
  8
T77SSILL
 62
8
 10
1740.019
 20
-5026.651
 30
-2411.585
 11
1736.059
 21
-5029.952
 31
-2411.516
  0
ENDSEC
  0
EOF
