999
********************************
999
*   DXF File - Entities Only   *
999
*        3D Data Format        *
999
*     Output from ENVISAGE     *
999
*     24-Dec-2007 12:30:28     *
999
********************************
  0
SECTION 
  2
HEADER
  9
$ACADVER
  1
AC1009
  9
$EXTMIN
 10
-290000.000
 20
-250000.000
 30
-4000.000
  9
$EXTMAX
 10
5000000.000
 20
600000.000
 30
6000.000
  0
ENDSEC
  0
SECTION
  2
ENTITIES
  0
POLYLINE
  8
T78SSILL
 62
2
 66
     1
 70
     9
  0
VERTEX
  8
T78SSILL
 62
2
 10
1974.905
 20
-7075.300
 30
-2556.200
 70
    32
  0
VERTEX
  8
T78SSILL
 62
2
 10
1940.316
 20
-7040.936
 30
-2550.835
 70
    32
  0
VERTEX
  8
T78SSILL
 62
2
 10
1947.302
 20
-7029.572
 30
-2550.333
 70
    32
  0
VERTEX
  8
T78SSILL
 62
2
 10
1979.304
 20
-7061.946
 30
-2555.400
 70
    32
  0
SEQEND
  8
T78SSILL
  0
POLYLINE
  8
T78SSILL
 62
2
 66
     1
 70
     9
  0
VERTEX
  8
T78SSILL
 62
2
 10
2012.963
 20
-7113.544
 30
-2559.178
 70
    32
  0
VERTEX
  8
T78SSILL
 62
2
 10
2037.010
 20
-7122.913
 30
-2559.200
 70
    32
  0
VERTEX
  8
T78SSILL
 62
2
 10
2053.644
 20
-7125.574
 30
-2558.462
 70
    32
  0
VERTEX
  8
T78SSILL
 62
2
 10
2058.834
 20
-7136.731
 30
-2558.871
 70
    32
  0
VERTEX
  8
T78SSILL
 62
2
 10
2043.734
 20
-7137.519
 30
-2559.200
 70
    32
  0
VERTEX
  8
T78SSILL
 62
2
 10
2018.799
 20
-7130.578
 30
-2559.204
 70
    32
  0
SEQEND
  8
T78SSILL
  0
POLYLINE
  8
T78SSILL
 62
3
 66
     1
 70
     8
  0
VERTEX
  8
T78SSILL
 62
3
 10
1979.976
 20
-6853.387
 30
-2558.000
 70
    32
  0
VERTEX
  8
T78SSILL
 62
3
 10
1984.224
 20
-6862.050
 30
-2555.301
 70
    32
  0
VERTEX
  8
T78SSILL
 62
3
 10
1989.015
 20
-6871.822
 30
-2553.216
 70
    32
  0
VERTEX
  8
T78SSILL
 62
3
 10
1996.787
 20
-6861.651
 30
-2554.115
 70
    32
  0
VERTEX
  8
T78SSILL
 62
3
 10
1994.721
 20
-6858.002
 30
-2554.911
 70
    32
  0
VERTEX
  8
T78SSILL
 62
3
 10
1992.952
 20
-6850.951
 30
-2556.228
 70
    32
  0
VERTEX
  8
T78SSILL
 62
3
 10
1994.717
 20
-6849.726
 30
-2556.250
 70
    32
  0
VERTEX
  8
T78SSILL
 62
3
 10
1979.976
 20
-6853.387
 30
-2557.226
 70
    32
  0
SEQEND
  8
T78SSILL
  0
POLYLINE
  8
T78SSILL
 62
2
 66
     1
 70
     8
  0
VERTEX
  8
T78SSILL
 62
2
 10
2021.711
 20
-6804.413
 30
-2553.000
 70
    32
  0
VERTEX
  8
T78SSILL
 62
2
 10
2024.559
 20
-6800.870
 30
-2553.000
 70
    32
  0
VERTEX
  8
T78SSILL
 62
2
 10
2023.125
 20
-6791.615
 30
-2553.000
 70
    32
  0
VERTEX
  8
T78SSILL
 62
2
 10
2029.740
 20
-6787.030
 30
-2553.000
 70
    32
  0
VERTEX
  8
T78SSILL
 62
2
 10
2036.029
 20
-6784.281
 30
-2553.000
 70
    32
  0
VERTEX
  8
T78SSILL
 62
2
 10
2038.781
 20
-6781.684
 30
-2553.000
 70
    32
  0
VERTEX
  8
T78SSILL
 62
2
 10
2032.488
 20
-6764.992
 30
-2553.000
 70
    32
  0
SEQEND
  8
T78SSILL
  0
POLYLINE
  8
T78SSILL
 62
2
 66
     1
 70
     8
  0
VERTEX
  8
T78SSILL
 62
2
 10
2025.089
 20
-6749.941
 30
-2553.000
 70
    32
  0
VERTEX
  8
T78SSILL
 62
2
 10
2024.007
 20
-6748.458
 30
-2553.000
 70
    32
  0
VERTEX
  8
T78SSILL
 62
2
 10
2023.622
 20
-6743.060
 30
-2553.000
 70
    32
  0
VERTEX
  8
T78SSILL
 62
2
 10
2018.309
 20
-6729.590
 30
-2553.000
 70
    32
  0
VERTEX
  8
T78SSILL
 62
2
 10
2016.901
 20
-6721.517
 30
-2553.000
 70
    32
  0
SEQEND
  8
T78SSILL
  0
POLYLINE
  8
T78SSILL
 62
2
 66
     1
 70
     8
  0
VERTEX
  8
T78SSILL
 62
2
 10
2016.255
 20
-6709.671
 30
-2553.000
 70
    32
  0
VERTEX
  8
T78SSILL
 62
2
 10
2016.426
 20
-6705.776
 30
-2553.000
 70
    32
  0
VERTEX
  8
T78SSILL
 62
2
 10
2012.536
 20
-6691.450
 30
-2553.000
 70
    32
  0
VERTEX
  8
T78SSILL
 62
2
 10
2029.072
 20
-6683.950
 30
-2553.000
 70
    32
  0
VERTEX
  8
T78SSILL
 62
2
 10
2041.470
 20
-6684.494
 30
-2553.000
 70
    32
  0
VERTEX
  8
T78SSILL
 62
2
 10
2051.270
 20
-6718.024
 30
-2553.000
 70
    32
  0
VERTEX
  8
T78SSILL
 62
2
 10
2065.199
 20
-6728.640
 30
-2553.000
 70
    32
  0
VERTEX
  8
T78SSILL
 62
2
 10
2065.079
 20
-6733.429
 30
-2553.000
 70
    32
  0
VERTEX
  8
T78SSILL
 62
2
 10
2070.457
 20
-6743.258
 30
-2553.000
 70
    32
  0
VERTEX
  8
T78SSILL
 62
2
 10
2085.865
 20
-6758.818
 30
-2553.000
 70
    32
  0
VERTEX
  8
T78SSILL
 62
2
 10
2081.782
 20
-6770.709
 30
-2553.000
 70
    32
  0
VERTEX
  8
T78SSILL
 62
2
 10
2078.322
 20
-6780.985
 30
-2553.000
 70
    32
  0
VERTEX
  8
T78SSILL
 62
2
 10
2077.495
 20
-6801.409
 30
-2553.000
 70
    32
  0
VERTEX
  8
T78SSILL
 62
2
 10
2058.565
 20
-6814.672
 30
-2553.000
 70
    32
  0
VERTEX
  8
T78SSILL
 62
2
 10
2044.328
 20
-6818.095
 30
-2553.000
 70
    32
  0
VERTEX
  8
T78SSILL
 62
2
 10
2028.997
 20
-6822.333
 30
-2553.000
 70
    32
  0
VERTEX
  8
T78SSILL
 62
2
 10
2020.313
 20
-6825.668
 30
-2553.000
 70
    32
  0
VERTEX
  8
T78SSILL
 62
2
 10
2012.680
 20
-6821.677
 30
-2553.000
 70
    32
  0
SEQEND
  8
T78SSILL
  0
LINE
  8
T78SSILL
 62
2
 10
2016.255
 20
-6709.671
 30
-2553.000
 11
2016.901
 21
-6721.517
 31
-2553.000
  0
LINE
  8
T78SSILL
 62
2
 10
2021.711
 20
-6804.413
 30
-2553.000
 11
2012.680
 21
-6821.677
 31
-2553.000
  0
LINE
  8
T78SSILL
 62
2
 10
2011.121
 20
-6858.694
 30
-2565.977
 11
2016.823
 21
-6850.962
 31
-2565.974
  0
TEXT
  8
T78SSILL
 62
2
 10
1947.908
 20
-7070.313
 30
-2553.143
 40
8.202
  1
U
 41
 1.0 
  0
TEXT
  8
T78SSILL
 62
2
 10
2038.954
 20
-7104.427
 30
-2559.200
 40
8.202
  1
D
 41
 1.0 
  0
TEXT
  8
T78SSILL
 62
2
 10
2483.921
 20
-6353.609
 30
-2559.385
 40
4.101
  1
7850
 50
-71.085
 41
 1.0 
  0
TEXT
  8
T78SSILL
 62
2
 10
1910.977
 20
-6668.428
 30
-2553.143
 40
8.202
  1
U
 41
 1.0 
  0
TEXT
  8
T78SSILL
 62
3
 10
1974.954
 20
-6882.072
 30
-2553.143
 40
8.202
  1
U
 41
 1.0 
  0
TEXT
  8
T78SSILL
 62
3
 10
2006.196
 20
-6859.891
 30
-2553.143
 40
8.202
  1
D
 41
 1.0 
  0
POLYLINE
  8
T78SSILL
 62
3
 66
     1
 70
     9
  0
VERTEX
  8
T78SSILL
 62
3
 10
1994.717
 20
-6849.726
 30
-2556.250
 70
    32
  0
VERTEX
  8
T78SSILL
 62
3
 10
1998.181
 20
-6841.108
 30
-2557.459
 70
    32
  0
VERTEX
  8
T78SSILL
 62
3
 10
2016.823
 20
-6850.962
 30
-2565.974
 70
    32
  0
VERTEX
  8
T78SSILL
 62
3
 10
2011.121
 20
-6858.694
 30
-2565.977
 70
    32
  0
SEQEND
  8
T78SSILL
  0
POLYLINE
  8
T78SSILL
 62
2
 66
     1
 70
     9
  0
VERTEX
  8
T78SSILL
 62
2
 10
2009.079
 20
-6853.415
 30
-2554.599
 70
    32
  0
VERTEX
  8
T78SSILL
 62
2
 10
2015.062
 20
-6855.520
 30
-2553.914
 70
    32
  0
VERTEX
  8
T78SSILL
 62
2
 10
2019.889
 20
-6853.195
 30
-2553.338
 70
    32
  0
VERTEX
  8
T78SSILL
 62
2
 10
2028.108
 20
-6852.630
 30
-2553.352
 70
    32
  0
VERTEX
  8
T78SSILL
 62
2
 10
2046.142
 20
-6849.667
 30
-2553.234
 70
    32
  0
VERTEX
  8
T78SSILL
 62
2
 10
2067.858
 20
-6848.200
 30
-2553.132
 70
    32
  0
VERTEX
  8
T78SSILL
 62
2
 10
2073.519
 20
-6846.704
 30
-2553.105
 70
    32
  0
VERTEX
  8
T78SSILL
 62
2
 10
2090.671
 20
-6849.154
 30
-2553.024
 70
    32
  0
VERTEX
  8
T78SSILL
 62
2
 10
2092.788
 20
-6847.635
 30
-2553.014
 70
    32
  0
VERTEX
  8
T78SSILL
 62
2
 10
2093.378
 20
-6841.756
 30
-2553.011
 70
    32
  0
VERTEX
  8
T78SSILL
 62
2
 10
2092.302
 20
-6835.789
 30
-2553.016
 70
    32
  0
VERTEX
  8
T78SSILL
 62
2
 10
2090.147
 20
-6834.127
 30
-2553.027
 70
    32
  0
VERTEX
  8
T78SSILL
 62
2
 10
2086.038
 20
-6834.370
 30
-2553.046
 70
    32
  0
VERTEX
  8
T78SSILL
 62
2
 10
2072.610
 20
-6835.162
 30
-2553.109
 70
    32
  0
VERTEX
  8
T78SSILL
 62
2
 10
2066.797
 20
-6836.446
 30
-2553.137
 70
    32
  0
VERTEX
  8
T78SSILL
 62
2
 10
2044.712
 20
-6835.611
 30
-2553.241
 70
    32
  0
VERTEX
  8
T78SSILL
 62
2
 10
2025.957
 20
-6836.299
 30
-2553.329
 70
    32
  0
VERTEX
  8
T78SSILL
 62
2
 10
2022.188
 20
-6837.471
 30
-2553.482
 70
    32
  0
VERTEX
  8
T78SSILL
 62
2
 10
2016.952
 20
-6839.697
 30
-2553.597
 70
    32
  0
VERTEX
  8
T78SSILL
 62
2
 10
2008.600
 20
-6840.035
 30
-2554.572
 70
    32
  0
VERTEX
  8
T78SSILL
 62
2
 10
2009.079
 20
-6853.415
 30
-2554.599
 70
    32
  0
SEQEND
  8
T78SSILL
  0
POLYLINE
  8
T78SSILL
 62
2
 66
     1
 70
     8
  0
VERTEX
  8
T78SSILL
 62
2
 10
1974.905
 20
-7075.300
 30
-2556.200
 70
    32
  0
VERTEX
  8
T78SSILL
 62
2
 10
1995.645
 20
-7090.770
 30
-2559.021
 70
    32
  0
VERTEX
  8
T78SSILL
 62
2
 10
2063.082
 20
-7287.570
 30
-2559.370
 70
    32
  0
VERTEX
  8
T78SSILL
 62
2
 10
2066.860
 20
-7302.831
 30
-2558.000
 70
    32
  0
VERTEX
  8
T78SSILL
 62
2
 10
2067.529
 20
-7310.866
 30
-2557.000
 70
    32
  0
VERTEX
  8
T78SSILL
 62
2
 10
2069.080
 20
-7322.753
 30
-2555.000
 70
    32
  0
VERTEX
  8
T78SSILL
 62
2
 10
2072.545
 20
-7332.345
 30
-2555.000
 70
    32
  0
VERTEX
  8
T78SSILL
 62
2
 10
2074.513
 20
-7336.408
 30
-2555.000
 70
    32
  0
VERTEX
  8
T78SSILL
 62
2
 10
2081.416
 20
-7350.542
 30
-2555.000
 70
    32
  0
VERTEX
  8
T78SSILL
 62
2
 10
2083.615
 20
-7353.098
 30
-2555.000
 70
    32
  0
VERTEX
  8
T78SSILL
 62
2
 10
2088.103
 20
-7359.915
 30
-2555.000
 70
    32
  0
VERTEX
  8
T78SSILL
 62
2
 10
2095.623
 20
-7378.783
 30
-2555.000
 70
    32
  0
VERTEX
  8
T78SSILL
 62
2
 10
2100.495
 20
-7397.467
 30
-2555.000
 70
    32
  0
VERTEX
  8
T78SSILL
 62
2
 10
2104.241
 20
-7408.078
 30
-2555.000
 70
    32
  0
VERTEX
  8
T78SSILL
 62
2
 10
2112.791
 20
-7422.855
 30
-2555.000
 70
    32
  0
VERTEX
  8
T78SSILL
 62
2
 10
2104.241
 20
-7408.078
 30
-2554.850
 70
    32
  0
VERTEX
  8
T78SSILL
 62
2
 10
2112.791
 20
-7422.855
 30
-2554.727
 70
    32
  0
VERTEX
  8
T78SSILL
 62
2
 10
2115.681
 20
-7434.832
 30
-2554.638
 70
    32
  0
VERTEX
  8
T78SSILL
 62
2
 10
2118.574
 20
-7446.824
 30
-2554.549
 70
    32
  0
VERTEX
  8
T78SSILL
 62
2
 10
2122.279
 20
-7460.332
 30
-2554.447
 70
    32
  0
VERTEX
  8
T78SSILL
 62
2
 10
2122.563
 20
-7470.844
 30
-2554.375
 70
    32
  0
VERTEX
  8
T78SSILL
 62
2
 10
2122.697
 20
-7470.796
 30
-2554.375
 70
    32
  0
VERTEX
  8
T78SSILL
 62
2
 10
2122.563
 20
-7470.844
 30
-2554.375
 70
    32
  0
VERTEX
  8
T78SSILL
 62
2
 10
2127.917
 20
-7474.456
 30
-2554.337
 70
    32
  0
VERTEX
  8
T78SSILL
 62
2
 10
2131.488
 20
-7479.431
 30
-2554.294
 70
    32
  0
VERTEX
  8
T78SSILL
 62
2
 10
2142.467
 20
-7509.902
 30
-2554.058
 70
    32
  0
VERTEX
  8
T78SSILL
 62
2
 10
2151.870
 20
-7506.499
 30
-2554.058
 70
    32
  0
VERTEX
  8
T78SSILL
 62
2
 10
2144.671
 20
-7486.376
 30
-2554.213
 70
    32
  0
VERTEX
  8
T78SSILL
 62
2
 10
2142.620
 20
-7479.534
 30
-2554.265
 70
    32
  0
VERTEX
  8
T78SSILL
 62
2
 10
2141.335
 20
-7475.246
 30
-2554.298
 70
    32
  0
VERTEX
  8
T78SSILL
 62
2
 10
2141.794
 20
-7466.934
 30
-2554.354
 70
    32
  0
VERTEX
  8
T78SSILL
 62
2
 10
2139.985
 20
-7464.515
 30
-2554.375
 70
    32
  0
VERTEX
  8
T78SSILL
 62
2
 10
2134.613
 20
-7456.019
 30
-2554.446
 70
    32
  0
VERTEX
  8
T78SSILL
 62
2
 10
2130.616
 20
-7442.358
 30
-2554.550
 70
    32
  0
VERTEX
  8
T78SSILL
 62
2
 10
2122.940
 20
-7418.597
 30
-2554.731
 70
    32
  0
VERTEX
  8
T78SSILL
 62
2
 10
2115.137
 20
-7399.501
 30
-2554.882
 70
    32
  0
VERTEX
  8
T78SSILL
 62
2
 10
2122.940
 20
-7418.597
 30
-2555.000
 70
    32
  0
VERTEX
  8
T78SSILL
 62
2
 10
2112.184
 20
-7392.275
 30
-2555.000
 70
    32
  0
VERTEX
  8
T78SSILL
 62
2
 10
2103.477
 20
-7365.786
 30
-2555.000
 70
    32
  0
VERTEX
  8
T78SSILL
 62
2
 10
2094.977
 20
-7345.728
 30
-2555.000
 70
    32
  0
VERTEX
  8
T78SSILL
 62
2
 10
2103.015
 20
-7332.412
 30
-2555.000
 70
    32
  0
VERTEX
  8
T78SSILL
 62
2
 10
2103.067
 20
-7323.729
 30
-2555.000
 70
    32
  0
VERTEX
  8
T78SSILL
 62
2
 10
2100.598
 20
-7315.911
 30
-2555.000
 70
    32
  0
VERTEX
  8
T78SSILL
 62
2
 10
2082.026
 20
-7312.295
 30
-2556.000
 70
    32
  0
VERTEX
  8
T78SSILL
 62
2
 10
2079.834
 20
-7309.206
 30
-2557.000
 70
    32
  0
VERTEX
  8
T78SSILL
 62
2
 10
2078.362
 20
-7304.397
 30
-2558.000
 70
    32
  0
VERTEX
  8
T78SSILL
 62
2
 10
2072.647
 20
-7285.352
 30
-2559.468
 70
    32
  0
VERTEX
  8
T78SSILL
 62
2
 10
2095.421
 20
-7294.024
 30
-2559.716
 70
    32
  0
VERTEX
  8
T78SSILL
 62
2
 10
2098.258
 20
-7290.482
 30
-2559.800
 70
    32
  0
VERTEX
  8
T78SSILL
 62
2
 10
2098.343
 20
-7282.145
 30
-2559.760
 70
    32
  0
VERTEX
  8
T78SSILL
 62
2
 10
2090.618
 20
-7277.532
 30
-2559.721
 70
    32
  0
VERTEX
  8
T78SSILL
 62
2
 10
2074.744
 20
-7272.380
 30
-2559.509
 70
    32
  0
VERTEX
  8
T78SSILL
 62
2
 10
2062.151
 20
-7257.088
 30
-2559.403
 70
    32
  0
VERTEX
  8
T78SSILL
 62
2
 10
1996.274
 20
-7064.841
 30
-2559.101
 70
    32
  0
VERTEX
  8
T78SSILL
 62
2
 10
1964.769
 20
-6972.902
 30
-2559.146
 70
    32
  0
VERTEX
  8
T78SSILL
 62
2
 10
1965.981
 20
-6968.190
 30
-2558.476
 70
    32
  0
VERTEX
  8
T78SSILL
 62
2
 10
1966.233
 20
-6967.209
 30
-2558.412
 70
    32
  0
VERTEX
  8
T78SSILL
 62
2
 10
1966.896
 20
-6966.604
 30
-2558.303
 70
    32
  0
VERTEX
  8
T78SSILL
 62
2
 10
1971.225
 20
-6962.658
 30
-2557.413
 70
    32
  0
VERTEX
  8
T78SSILL
 62
2
 10
1971.719
 20
-6962.208
 30
-2557.341
 70
    32
  0
VERTEX
  8
T78SSILL
 62
2
 10
1973.439
 20
-6962.053
 30
-2557.113
 70
    32
  0
VERTEX
  8
T78SSILL
 62
2
 10
1981.349
 20
-6961.342
 30
-2557.424
 70
    32
  0
VERTEX
  8
T78SSILL
 62
2
 10
1984.441
 20
-6961.064
 30
-2557.558
 70
    32
  0
VERTEX
  8
T78SSILL
 62
2
 10
1988.331
 20
-6960.715
 30
-2557.751
 70
    32
  0
VERTEX
  8
T78SSILL
 62
2
 10
1991.531
 20
-6961.134
 30
-2557.907
 70
    32
  0
VERTEX
  8
T78SSILL
 62
2
 10
1994.754
 20
-6961.557
 30
-2558.016
 70
    32
  0
VERTEX
  8
T78SSILL
 62
2
 10
1998.445
 20
-6962.041
 30
-2558.143
 70
    32
  0
VERTEX
  8
T78SSILL
 62
2
 10
2006.201
 20
-6963.059
 30
-2558.561
 70
    32
  0
VERTEX
  8
T78SSILL
 62
2
 10
2007.960
 20
-6963.289
 30
-2558.619
 70
    32
  0
VERTEX
  8
T78SSILL
 62
2
 10
2010.772
 20
-6964.571
 30
-2558.720
 70
    32
  0
VERTEX
  8
T78SSILL
 62
2
 10
2017.532
 20
-6967.652
 30
-2559.052
 70
    32
  0
VERTEX
  8
T78SSILL
 62
2
 10
2020.333
 20
-6968.929
 30
-2559.047
 70
    32
  0
VERTEX
  8
T78SSILL
 62
2
 10
2024.841
 20
-6970.984
 30
-2559.039
 70
    32
  0
VERTEX
  8
T78SSILL
 62
2
 10
2025.405
 20
-6971.369
 30
-2559.038
 70
    32
  0
VERTEX
  8
T78SSILL
 62
2
 10
2030.230
 20
-6974.660
 30
-2559.027
 70
    32
  0
VERTEX
  8
T78SSILL
 62
2
 10
2033.148
 20
-6976.650
 30
-2559.022
 70
    32
  0
VERTEX
  8
T78SSILL
 62
2
 10
2036.834
 20
-6979.164
 30
-2559.015
 70
    32
  0
VERTEX
  8
T78SSILL
 62
2
 10
2039.257
 20
-6980.817
 30
-2559.009
 70
    32
  0
VERTEX
  8
T78SSILL
 62
2
 10
2044.096
 20
-6975.077
 30
-2559.008
 70
    32
  0
VERTEX
  8
T78SSILL
 62
2
 10
2044.482
 20
-6974.619
 30
-2559.008
 70
    32
  0
VERTEX
  8
T78SSILL
 62
2
 10
2043.199
 20
-6969.132
 30
-2559.014
 70
    32
  0
VERTEX
  8
T78SSILL
 62
2
 10
2039.092
 20
-6967.048
 30
-2559.022
 70
    32
  0
VERTEX
  8
T78SSILL
 62
2
 10
2032.020
 20
-6963.460
 30
-2559.034
 70
    32
  0
VERTEX
  8
T78SSILL
 62
2
 10
2031.311
 20
-6963.100
 30
-2559.035
 70
    32
  0
VERTEX
  8
T78SSILL
 62
2
 10
2030.179
 20
-6962.540
 30
-2559.038
 70
    32
  0
VERTEX
  8
T78SSILL
 62
2
 10
2028.312
 20
-6961.618
 30
-2559.041
 70
    32
  0
VERTEX
  8
T78SSILL
 62
2
 10
2022.342
 20
-6958.666
 30
-2559.052
 70
    32
  0
VERTEX
  8
T78SSILL
 62
2
 10
2021.680
 20
-6958.339
 30
-2559.019
 70
    32
  0
VERTEX
  8
T78SSILL
 62
2
 10
2020.371
 20
-6957.024
 30
-2558.940
 70
    32
  0
VERTEX
  8
T78SSILL
 62
2
 10
2019.063
 20
-6955.711
 30
-2558.885
 70
    32
  0
VERTEX
  8
T78SSILL
 62
2
 10
2016.262
 20
-6947.276
 30
-2558.707
 70
    32
  0
VERTEX
  8
T78SSILL
 62
2
 10
2011.443
 20
-6947.618
 30
-2558.560
 70
    32
  0
VERTEX
  8
T78SSILL
 62
2
 10
2009.652
 20
-6947.745
 30
-2558.470
 70
    32
  0
VERTEX
  8
T78SSILL
 62
2
 10
2001.669
 20
-6948.312
 30
-2558.201
 70
    32
  0
VERTEX
  8
T78SSILL
 62
2
 10
1996.816
 20
-6943.336
 30
-2558.017
 70
    32
  0
VERTEX
  8
T78SSILL
 62
2
 10
1994.620
 20
-6941.084
 30
-2557.936
 70
    32
  0
VERTEX
  8
T78SSILL
 62
2
 10
1984.517
 20
-6943.193
 30
-2557.608
 70
    32
  0
VERTEX
  8
T78SSILL
 62
2
 10
1983.556
 20
-6943.393
 30
-2557.560
 70
    32
  0
VERTEX
  8
T78SSILL
 62
2
 10
1978.336
 20
-6944.483
 30
-2557.333
 70
    32
  0
VERTEX
  8
T78SSILL
 62
2
 10
1974.779
 20
-6949.447
 30
-2557.168
 70
    32
  0
VERTEX
  8
T78SSILL
 62
2
 10
1974.195
 20
-6950.262
 30
-2557.145
 70
    32
  0
VERTEX
  8
T78SSILL
 62
2
 10
1972.111
 20
-6949.908
 30
-2557.063
 70
    32
  0
VERTEX
  8
T78SSILL
 62
2
 10
1963.841
 20
-6948.501
 30
-2558.118
 70
    32
  0
VERTEX
  8
T78SSILL
 62
2
 10
1962.713
 20
-6948.309
 30
-2558.303
 70
    32
  0
VERTEX
  8
T78SSILL
 62
2
 10
1959.083
 20
-6947.692
 30
-2558.774
 70
    32
  0
VERTEX
  8
T78SSILL
 62
2
 10
1954.889
 20
-6944.069
 30
-2559.227
 70
    32
  0
VERTEX
  8
T78SSILL
 62
2
 10
1940.837
 20
-6903.063
 30
-2561.402
 70
    32
  0
VERTEX
  8
T78SSILL
 62
2
 10
1913.736
 20
-6823.975
 30
-2560.604
 70
    32
  0
VERTEX
  8
T78SSILL
 62
2
 10
1914.684
 20
-6818.824
 30
-2560.528
 70
    32
  0
VERTEX
  8
T78SSILL
 62
2
 10
1917.989
 20
-6815.819
 30
-2560.441
 70
    32
  0
VERTEX
  8
T78SSILL
 62
2
 10
1922.198
 20
-6816.951
 30
-2560.416
 70
    32
  0
VERTEX
  8
T78SSILL
 62
2
 10
1925.300
 20
-6815.849
 30
-2560.361
 70
    32
  0
VERTEX
  8
T78SSILL
 62
2
 10
1932.788
 20
-6818.838
 30
-2560.333
 70
    32
  0
VERTEX
  8
T78SSILL
 62
2
 10
1961.115
 20
-6834.686
 30
-2560.307
 70
    32
  0
VERTEX
  8
T78SSILL
 62
2
 10
1965.078
 20
-6836.528
 30
-2558.000
 70
    32
  0
VERTEX
  8
T78SSILL
 62
2
 10
1971.693
 20
-6842.021
 30
-2558.000
 70
    32
  0
VERTEX
  8
T78SSILL
 62
2
 10
1976.695
 20
-6848.019
 30
-2558.000
 70
    32
  0
VERTEX
  8
T78SSILL
 62
2
 10
1979.976
 20
-6853.387
 30
-2558.000
 70
    32
  0
VERTEX
  8
T78SSILL
 62
2
 10
1994.717
 20
-6849.726
 30
-2556.250
 70
    32
  0
VERTEX
  8
T78SSILL
 62
2
 10
2009.079
 20
-6853.415
 30
-2554.599
 70
    32
  0
VERTEX
  8
T78SSILL
 62
2
 10
2008.600
 20
-6840.035
 30
-2554.572
 70
    32
  0
VERTEX
  8
T78SSILL
 62
2
 10
1992.225
 20
-6835.731
 30
-2557.817
 70
    32
  0
VERTEX
  8
T78SSILL
 62
2
 10
1990.034
 20
-6830.362
 30
-2558.639
 70
    32
  0
VERTEX
  8
T78SSILL
 62
2
 10
2012.680
 20
-6821.677
 30
-2553.000
 70
    32
  0
VERTEX
  8
T78SSILL
 62
2
 10
2021.711
 20
-6804.413
 30
-2553.000
 70
    32
  0
VERTEX
  8
T78SSILL
 62
2
 10
2012.680
 20
-6821.677
 30
-2553.000
 70
    32
  0
VERTEX
  8
T78SSILL
 62
2
 10
2021.711
 20
-6804.413
 30
-2553.000
 70
    32
  0
VERTEX
  8
T78SSILL
 62
2
 10
1971.043
 20
-6826.319
 30
-2560.046
 70
    32
  0
VERTEX
  8
T78SSILL
 62
2
 10
1964.021
 20
-6825.074
 30
-2560.101
 70
    32
  0
VERTEX
  8
T78SSILL
 62
2
 10
1938.114
 20
-6809.420
 30
-2560.196
 70
    32
  0
VERTEX
  8
T78SSILL
 62
2
 10
1918.638
 20
-6803.702
 30
-2560.369
 70
    32
  0
VERTEX
  8
T78SSILL
 62
2
 10
1913.522
 20
-6794.913
 30
-2560.377
 70
    32
  0
VERTEX
  8
T78SSILL
 62
2
 10
1910.083
 20
-6784.429
 30
-2560.360
 70
    32
  0
VERTEX
  8
T78SSILL
 62
2
 10
1903.026
 20
-6781.484
 30
-2560.418
 70
    32
  0
VERTEX
  8
T78SSILL
 62
2
 10
1897.799
 20
-6777.465
 30
-2560.452
 70
    32
  0
VERTEX
  8
T78SSILL
 62
2
 10
1893.418
 20
-6764.681
 30
-2560.433
 70
    32
  0
VERTEX
  8
T78SSILL
 62
2
 10
1932.811
 20
-6788.498
 30
-2560.146
 70
    32
  0
VERTEX
  8
T78SSILL
 62
2
 10
1946.318
 20
-6788.971
 30
-2559.994
 70
    32
  0
VERTEX
  8
T78SSILL
 62
2
 10
1974.274
 20
-6796.258
 30
-2559.759
 70
    32
  0
VERTEX
  8
T78SSILL
 62
2
 10
1976.489
 20
-6787.873
 30
-2559.865
 70
    32
  0
VERTEX
  8
T78SSILL
 62
2
 10
1976.489
 20
-6787.873
 30
-2559.000
 70
    32
  0
VERTEX
  8
T78SSILL
 62
2
 10
2002.516
 20
-6777.704
 30
-2559.000
 70
    32
  0
VERTEX
  8
T78SSILL
 62
2
 10
2027.151
 20
-6765.680
 30
-2559.000
 70
    32
  0
VERTEX
  8
T78SSILL
 62
2
 10
2032.488
 20
-6764.992
 30
-2553.000
 70
    32
  0
VERTEX
  8
T78SSILL
 62
2
 10
2025.089
 20
-6749.941
 30
-2553.000
 70
    32
  0
VERTEX
  8
T78SSILL
 62
2
 10
2020.906
 20
-6755.520
 30
-2559.000
 70
    32
  0
VERTEX
  8
T78SSILL
 62
2
 10
1990.694
 20
-6770.367
 30
-2559.000
 70
    32
  0
VERTEX
  8
T78SSILL
 62
2
 10
1959.798
 20
-6781.840
 30
-2559.000
 70
    32
  0
VERTEX
  8
T78SSILL
 62
2
 10
1959.798
 20
-6781.840
 30
-2559.819
 70
    32
  0
VERTEX
  8
T78SSILL
 62
2
 10
1950.753
 20
-6779.269
 30
-2559.787
 70
    32
  0
VERTEX
  8
T78SSILL
 62
2
 10
1945.813
 20
-6771.020
 30
-2559.844
 70
    32
  0
VERTEX
  8
T78SSILL
 62
2
 10
1950.122
 20
-6766.608
 30
-2559.920
 70
    32
  0
VERTEX
  8
T78SSILL
 62
2
 10
2016.901
 20
-6721.517
 30
-2553.000
 70
    32
  0
SEQEND
  8
T78SSILL
  0
POLYLINE
  8
T78SSILL
 62
2
 66
     1
 70
     8
  0
VERTEX
  8
T78SSILL
 62
2
 10
2016.255
 20
-6709.671
 30
-2553.000
 70
    32
  0
VERTEX
  8
T78SSILL
 62
2
 10
1924.693
 20
-6771.401
 30
-2560.057
 70
    32
  0
VERTEX
  8
T78SSILL
 62
2
 10
1904.844
 20
-6761.142
 30
-2560.244
 70
    32
  0
VERTEX
  8
T78SSILL
 62
2
 10
1887.913
 20
-6748.617
 30
-2560.321
 70
    32
  0
VERTEX
  8
T78SSILL
 62
2
 10
1882.776
 20
-6732.458
 30
-2560.073
 70
    32
  0
VERTEX
  8
T78SSILL
 62
2
 10
1883.548
 20
-6719.055
 30
-2559.995
 70
    32
  0
VERTEX
  8
T78SSILL
 62
2
 10
1898.853
 20
-6727.821
 30
-2560.036
 70
    32
  0
VERTEX
  8
T78SSILL
 62
2
 10
1898.853
 20
-6727.821
 30
-2558.959
 70
    32
  0
VERTEX
  8
T78SSILL
 62
2
 10
1905.733
 20
-6723.764
 30
-2558.078
 70
    32
  0
VERTEX
  8
T78SSILL
 62
2
 10
1908.716
 20
-6717.236
 30
-2557.362
 70
    32
  0
VERTEX
  8
T78SSILL
 62
2
 10
1917.822
 20
-6713.932
 30
-2555.916
 70
    32
  0
VERTEX
  8
T78SSILL
 62
2
 10
1923.340
 20
-6711.838
 30
-2554.918
 70
    32
  0
VERTEX
  8
T78SSILL
 62
2
 10
1917.411
 20
-6702.152
 30
-2555.514
 70
    32
  0
VERTEX
  8
T78SSILL
 62
2
 10
1896.630
 20
-6709.064
 30
-2558.580
 70
    32
  0
VERTEX
  8
T78SSILL
 62
2
 10
1883.125
 20
-6707.629
 30
-2560.158
 70
    32
  0
VERTEX
  8
T78SSILL
 62
2
 10
1872.602
 20
-6699.964
 30
-2560.232
 70
    32
  0
VERTEX
  8
T78SSILL
 62
2
 10
1870.073
 20
-6696.553
 30
-2560.296
 70
    32
  0
VERTEX
  8
T78SSILL
 62
2
 10
1840.526
 20
-6610.327
 30
-2561.751
 70
    32
  0
VERTEX
  8
T78SSILL
 62
2
 10
1813.637
 20
-6333.072
 30
-2563.368
 70
    32
  0
VERTEX
  8
T78SSILL
 62
2
 10
1818.958
 20
-6329.341
 30
-2563.424
 70
    32
  0
VERTEX
  8
T78SSILL
 62
2
 10
1817.378
 20
-6310.721
 30
-2563.494
 70
    32
  0
VERTEX
  8
T78SSILL
 62
2
 10
1811.016
 20
-6306.049
 30
-2563.467
 70
    32
  0
VERTEX
  8
T78SSILL
 62
2
 10
1805.682
 20
-6251.047
 30
-2563.619
 70
    32
  0
VERTEX
  8
T78SSILL
 62
2
 10
1808.980
 20
-6231.501
 30
-2563.688
 70
    32
  0
VERTEX
  8
T78SSILL
 62
2
 10
1812.139
 20
-6222.093
 30
-2563.720
 70
    32
  0
VERTEX
  8
T78SSILL
 62
2
 10
1821.305
 20
-6204.518
 30
-2563.765
 70
    32
  0
VERTEX
  8
T78SSILL
 62
2
 10
1833.919
 20
-6189.227
 30
-2563.771
 70
    32
  0
VERTEX
  8
T78SSILL
 62
2
 10
1841.352
 20
-6182.651
 30
-2563.762
 70
    32
  0
VERTEX
  8
T78SSILL
 62
2
 10
1858.067
 20
-6171.996
 30
-2563.724
 70
    32
  0
VERTEX
  8
T78SSILL
 62
2
 10
1872.211
 20
-6166.303
 30
-2563.675
 70
    32
  0
VERTEX
  8
T78SSILL
 62
2
 10
1883.319
 20
-6163.561
 30
-2563.629
 70
    32
  0
VERTEX
  8
T78SSILL
 62
2
 10
1908.482
 20
-6162.218
 30
-2563.500
 70
    32
  0
VERTEX
  8
T78SSILL
 62
2
 10
1918.501
 20
-6163.304
 30
-2563.441
 70
    32
  0
VERTEX
  8
T78SSILL
 62
2
 10
1932.137
 20
-6173.243
 30
-2563.320
 70
    32
  0
VERTEX
  8
T78SSILL
 62
2
 10
1937.412
 20
-6174.218
 30
-2563.287
 70
    32
  0
VERTEX
  8
T78SSILL
 62
2
 10
1942.072
 20
-6178.698
 30
-2563.240
 70
    32
  0
VERTEX
  8
T78SSILL
 62
2
 10
1952.533
 20
-6179.582
 30
-2563.180
 70
    32
  0
VERTEX
  8
T78SSILL
 62
2
 10
1969.714
 20
-6192.273
 30
-2563.027
 70
    32
  0
VERTEX
  8
T78SSILL
 62
2
 10
1982.931
 20
-6211.345
 30
-2563.109
 70
    32
  0
VERTEX
  8
T78SSILL
 62
2
 10
1986.006
 20
-6221.812
 30
-2563.236
 70
    32
  0
VERTEX
  8
T78SSILL
 62
2
 10
1982.723
 20
-6223.816
 30
-2563.254
 70
    32
  0
VERTEX
  8
T78SSILL
 62
2
 10
1982.915
 20
-6233.893
 30
-2563.372
 70
    32
  0
VERTEX
  8
T78SSILL
 62
2
 10
1986.048
 20
-6246.812
 30
-2563.528
 70
    32
  0
VERTEX
  8
T78SSILL
 62
2
 10
1984.751
 20
-6254.383
 30
-2563.614
 70
    32
  0
VERTEX
  8
T78SSILL
 62
2
 10
1985.910
 20
-6259.988
 30
-2563.674
 70
    32
  0
VERTEX
  8
T78SSILL
 62
2
 10
1981.224
 20
-6287.604
 30
-2563.929
 70
    32
  0
VERTEX
  8
T78SSILL
 62
2
 10
1983.808
 20
-6292.072
 30
-2563.975
 70
    32
  0
VERTEX
  8
T78SSILL
 62
2
 10
1975.212
 20
-6326.358
 30
-2564.287
 70
    32
  0
VERTEX
  8
T78SSILL
 62
2
 10
1984.943
 20
-6346.194
 30
-2564.489
 70
    32
  0
VERTEX
  8
T78SSILL
 62
2
 10
1982.806
 20
-6348.112
 30
-2564.504
 70
    32
  0
VERTEX
  8
T78SSILL
 62
2
 10
1986.276
 20
-6354.441
 30
-2564.559
 70
    32
  0
VERTEX
  8
T78SSILL
 62
2
 10
1999.326
 20
-6371.260
 30
-2564.583
 70
    32
  0
VERTEX
  8
T78SSILL
 62
2
 10
2003.269
 20
-6374.037
 30
-2564.600
 70
    32
  0
VERTEX
  8
T78SSILL
 62
2
 10
2017.105
 20
-6367.058
 30
-2564.524
 70
    32
  0
VERTEX
  8
T78SSILL
 62
2
 10
2018.211
 20
-6357.709
 30
-2564.596
 70
    32
  0
VERTEX
  8
T78SSILL
 62
2
 10
2001.656
 20
-6335.898
 30
-2564.415
 70
    32
  0
VERTEX
  8
T78SSILL
 62
2
 10
1995.823
 20
-6331.769
 30
-2564.368
 70
    32
  0
VERTEX
  8
T78SSILL
 62
2
 10
1995.033
 20
-6325.704
 30
-2564.309
 70
    32
  0
VERTEX
  8
T78SSILL
 62
2
 10
1997.776
 20
-6308.796
 30
-2564.153
 70
    32
  0
VERTEX
  8
T78SSILL
 62
2
 10
2011.034
 20
-6260.908
 30
-2563.718
 70
    32
  0
VERTEX
  8
T78SSILL
 62
2
 10
2017.052
 20
-6258.960
 30
-2563.705
 70
    32
  0
VERTEX
  8
T78SSILL
 62
2
 10
2016.620
 20
-6246.520
 30
-2563.580
 70
    32
  0
VERTEX
  8
T78SSILL
 62
2
 10
2020.536
 20
-6246.002
 30
-2563.586
 70
    32
  0
VERTEX
  8
T78SSILL
 62
2
 10
2023.585
 20
-6239.575
 30
-2563.518
 70
    32
  0
VERTEX
  8
T78SSILL
 62
2
 10
2024.139
 20
-6237.317
 30
-2563.493
 70
    32
  0
VERTEX
  8
T78SSILL
 62
2
 10
2023.093
 20
-6235.387
 30
-2563.467
 70
    32
  0
VERTEX
  8
T78SSILL
 62
2
 10
2018.623
 20
-6232.077
 30
-2563.413
 70
    32
  0
VERTEX
  8
T78SSILL
 62
2
 10
2032.891
 20
-6181.036
 30
-2562.846
 70
    32
  0
VERTEX
  8
T78SSILL
 62
2
 10
2035.798
 20
-6177.443
 30
-2562.812
 70
    32
  0
VERTEX
  8
T78SSILL
 62
2
 10
2038.226
 20
-6170.055
 30
-2562.821
 70
    32
  0
VERTEX
  8
T78SSILL
 62
2
 10
2041.275
 20
-6167.203
 30
-2562.834
 70
    32
  0
VERTEX
  8
T78SSILL
 62
2
 10
2039.569
 20
-6159.558
 30
-2562.884
 70
    32
  0
VERTEX
  8
T78SSILL
 62
2
 10
2034.212
 20
-6157.967
 30
-2562.903
 70
    32
  0
VERTEX
  8
T78SSILL
 62
2
 10
2025.103
 20
-6164.122
 30
-2562.879
 70
    32
  0
VERTEX
  8
T78SSILL
 62
2
 10
2021.773
 20
-6168.004
 30
-2562.866
 70
    32
  0
VERTEX
  8
T78SSILL
 62
2
 10
2017.148
 20
-6181.438
 30
-2562.824
 70
    32
  0
VERTEX
  8
T78SSILL
 62
2
 10
2011.099
 20
-6191.029
 30
-2562.917
 70
    32
  0
VERTEX
  8
T78SSILL
 62
2
 10
2009.281
 20
-6200.244
 30
-2563.022
 70
    32
  0
VERTEX
  8
T78SSILL
 62
2
 10
2010.092
 20
-6201.003
 30
-2563.032
 70
    32
  0
VERTEX
  8
T78SSILL
 62
2
 10
2006.128
 20
-6216.077
 30
-2563.201
 70
    32
  0
VERTEX
  8
T78SSILL
 62
2
 10
1999.579
 20
-6217.413
 30
-2563.206
 70
    32
  0
VERTEX
  8
T78SSILL
 62
2
 10
1995.055
 20
-6207.701
 30
-2563.086
 70
    32
  0
VERTEX
  8
T78SSILL
 62
2
 10
1978.610
 20
-6186.435
 30
-2563.007
 70
    32
  0
VERTEX
  8
T78SSILL
 62
2
 10
1970.083
 20
-6178.786
 30
-2563.089
 70
    32
  0
VERTEX
  8
T78SSILL
 62
2
 10
1945.944
 20
-6152.265
 30
-2563.347
 70
    32
  0
VERTEX
  8
T78SSILL
 62
2
 10
1939.179
 20
-6151.677
 30
-2563.386
 70
    32
  0
VERTEX
  8
T78SSILL
 62
2
 10
1924.248
 20
-6123.538
 30
-2563.601
 70
    32
  0
VERTEX
  8
T78SSILL
 62
2
 10
1920.073
 20
-6101.950
 30
-2563.727
 70
    32
  0
VERTEX
  8
T78SSILL
 62
2
 10
1922.338
 20
-6099.239
 30
-2563.728
 70
    32
  0
VERTEX
  8
T78SSILL
 62
2
 10
1889.515
 20
-5935.960
 30
-2564.701
 70
    32
  0
VERTEX
  8
T78SSILL
 62
2
 10
1885.336
 20
-5928.564
 30
-2564.766
 70
    32
  0
VERTEX
  8
T78SSILL
 62
2
 10
1878.622
 20
-5920.469
 30
-2564.851
 70
    32
  0
VERTEX
  8
T78SSILL
 62
2
 10
1879.836
 20
-5916.920
 30
-2564.870
 70
    32
  0
VERTEX
  8
T78SSILL
 62
2
 10
1874.552
 20
-5914.509
 30
-2564.909
 70
    32
  0
VERTEX
  8
T78SSILL
 62
2
 10
1827.164
 20
-5841.173
 30
-2565.616
 70
    32
  0
VERTEX
  8
T78SSILL
 62
2
 10
1827.266
 20
-5837.937
 30
-2565.638
 70
    32
  0
VERTEX
  8
T78SSILL
 62
2
 10
1823.805
 20
-5835.975
 30
-2565.666
 70
    32
  0
VERTEX
  8
T78SSILL
 62
2
 10
1774.092
 20
-5759.040
 30
-2566.288
 70
    32
  0
VERTEX
  8
T78SSILL
 62
2
 10
1774.333
 20
-5752.884
 30
-2566.265
 70
    32
  0
VERTEX
  8
T78SSILL
 62
2
 10
1769.446
 20
-5751.850
 30
-2566.312
 70
    32
  0
VERTEX
  8
T78SSILL
 62
2
 10
1755.390
 20
-5730.099
 30
-2566.271
 70
    32
  0
VERTEX
  8
T78SSILL
 62
2
 10
1751.846
 20
-5721.339
 30
-2566.263
 70
    32
  0
VERTEX
  8
T78SSILL
 62
2
 10
1728.882
 20
-5690.918
 30
-2566.113
 70
    32
  0
VERTEX
  8
T78SSILL
 62
2
 10
1720.575
 20
-5696.488
 30
-2565.995
 70
    32
  0
VERTEX
  8
T78SSILL
 62
2
 10
1759.322
 20
-5758.294
 30
-2566.208
 70
    32
  0
VERTEX
  8
T78SSILL
 62
2
 10
1760.638
 20
-5765.426
 30
-2566.196
 70
    32
  0
VERTEX
  8
T78SSILL
 62
2
 10
1763.969
 20
-5765.486
 30
-2566.235
 70
    32
  0
VERTEX
  8
T78SSILL
 62
2
 10
1813.305
 20
-5841.836
 30
-2565.678
 70
    32
  0
VERTEX
  8
T78SSILL
 62
2
 10
1814.323
 20
-5846.156
 30
-2565.646
 70
    32
  0
VERTEX
  8
T78SSILL
 62
2
 10
1816.691
 20
-5847.077
 30
-2565.628
 70
    32
  0
VERTEX
  8
T78SSILL
 62
2
 10
1879.348
 20
-5944.042
 30
-2564.695
 70
    32
  0
VERTEX
  8
T78SSILL
 62
2
 10
1913.907
 20
-6122.735
 30
-2563.661
 70
    32
  0
VERTEX
  8
T78SSILL
 62
2
 10
1912.531
 20
-6123.676
 30
-2563.663
 70
    32
  0
VERTEX
  8
T78SSILL
 62
2
 10
1926.735
 20
-6152.649
 30
-2563.448
 70
    32
  0
VERTEX
  8
T78SSILL
 62
2
 10
1925.670
 20
-6154.073
 30
-2563.447
 70
    32
  0
VERTEX
  8
T78SSILL
 62
2
 10
1898.576
 20
-6152.013
 30
-2563.602
 70
    32
  0
VERTEX
  8
T78SSILL
 62
2
 10
1876.569
 20
-6154.758
 30
-2563.707
 70
    32
  0
VERTEX
  8
T78SSILL
 62
2
 10
1855.630
 20
-6162.063
 30
-2563.785
 70
    32
  0
VERTEX
  8
T78SSILL
 62
2
 10
1833.934
 20
-6175.788
 30
-2563.835
 70
    32
  0
VERTEX
  8
T78SSILL
 62
2
 10
1816.218
 20
-6194.367
 30
-2563.818
 70
    32
  0
VERTEX
  8
T78SSILL
 62
2
 10
1803.539
 20
-6216.690
 30
-2563.742
 70
    32
  0
VERTEX
  8
T78SSILL
 62
2
 10
1796.657
 20
-6241.422
 30
-2563.655
 70
    32
  0
VERTEX
  8
T78SSILL
 62
2
 10
1795.523
 20
-6270.617
 30
-2563.552
 70
    32
  0
VERTEX
  8
T78SSILL
 62
2
 10
1827.466
 20
-6599.978
 30
-2561.955
 70
    32
  0
VERTEX
  8
T78SSILL
 62
2
 10
1864.028
 20
-6706.675
 30
-2560.158
 70
    32
  0
VERTEX
  8
T78SSILL
 62
2
 10
1862.173
 20
-6718.720
 30
-2560.075
 70
    32
  0
VERTEX
  8
T78SSILL
 62
2
 10
1870.319
 20
-6725.036
 30
-2560.019
 70
    32
  0
VERTEX
  8
T78SSILL
 62
2
 10
1930.733
 20
-6901.341
 30
-2561.416
 70
    32
  0
VERTEX
  8
T78SSILL
 62
2
 10
1984.420
 20
-7058.013
 30
-2559.209
 70
    32
  0
VERTEX
  8
T78SSILL
 62
2
 10
1979.304
 20
-7061.946
 30
-2555.400
 70
    32
  0
VERTEX
  8
T78SSILL
 62
2
 10
1974.905
 20
-7075.300
 30
-2556.200
 70
    32
  0
VERTEX
  8
T78SSILL
 62
2
 10
1974.905
 20
-7075.300
 30
-2556.200
 70
    32
  0
SEQEND
  8
T78SSILL
  0
ENDSEC
  0
EOF
